  0
SECTION
  2
HEADER
  9
$ACADVER
  1
AC1009
  9
$INSBASE
 10
0.0
 20
0.0
 30
0.0
  9
$EXTMIN
 10
-1381.879627408649
 20
-903.11874373015962
 30
-0.0015258207003583
  9
$EXTMAX
 10
1280.8302420024479
 20
714.89025030936318
 30
0.0000000349246037
  9
$LIMMIN
 10
-4267.1522210604826
 20
-2696.083210198412
  9
$LIMMAX
 10
7190.7174225864646
 20
5141.155363923066
  9
$ORTHOMODE
 70
     1
  9
$REGENMODE
 70
     1
  9
$FILLMODE
 70
     1
  9
$QTEXTMODE
 70
     0
  9
$MIRRTEXT
 70
     0
  9
$DRAGMODE
 70
     2
  9
$LTSCALE
 40
20.0
  9
$OSMODE
 70
   959
  9
$ATTMODE
 70
     1
  9
$TEXTSIZE
 40
64.0
  9
$TRACEWID
 40
0.05
  9
$TEXTSTYLE
  7
NOTE
  9
$CLAYER
  8
SYMBOLLINE
  9
$CELTYPE
  6
CONTINUOUS
  9
$CECOLOR
 62
     7
  9
$DIMSCALE
 40
1.0
  9
$DIMASZ
 40
25.0
  9
$DIMEXO
 40
20.0
  9
$DIMDLI
 40
80.0
  9
$DIMRND
 40
0.0
  9
$DIMDLE
 40
0.0
  9
$DIMEXE
 40
20.0
  9
$DIMTP
 40
0.0
  9
$DIMTM
 40
0.0
  9
$DIMTXT
 40
50.0
  9
$DIMCEN
 40
0.09
  9
$DIMTSZ
 40
0.0
  9
$DIMTOL
 70
     0
  9
$DIMLIM
 70
     0
  9
$DIMTIH
 70
     0
  9
$DIMTOH
 70
     0
  9
$DIMSE1
 70
     0
  9
$DIMSE2
 70
     0
  9
$DIMTAD
 70
     1
  9
$DIMZIN
 70
     8
  9
$DIMBLK
  1
SMALL
  9
$DIMASO
 70
     1
  9
$DIMSHO
 70
     0
  9
$DIMPOST
  1

  9
$DIMAPOST
  1

  9
$DIMALT
 70
     0
  9
$DIMALTD
 70
     2
  9
$DIMALTF
 40
25.399999999999999
  9
$DIMLFAC
 40
1.0
  9
$DIMTOFL
 70
     1
  9
$DIMTVP
 40
0.0
  9
$DIMTIX
 70
     0
  9
$DIMSOXD
 70
     0
  9
$DIMSAH
 70
     0
  9
$DIMBLK1
  1

  9
$DIMBLK2
  1

  9
$DIMSTYLE
  2
STANDARD
  9
$DIMCLRD
 70
     0
  9
$DIMCLRE
 70
     0
  9
$DIMCLRT
 70
     0
  9
$DIMTFAC
 40
1.0
  9
$DIMGAP
 40
0.09
  9
$LUNITS
 70
     2
  9
$LUPREC
 70
     4
  9
$SKETCHINC
 40
0.1
  9
$FILLETRAD
 40
30.0
  9
$AUNITS
 70
     1
  9
$AUPREC
 70
     3
  9
$MENU
  1
ACAD
  9
$ELEVATION
 40
0.0
  9
$PELEVATION
 40
0.0
  9
$THICKNESS
 40
0.0
  9
$LIMCHECK
 70
     0
  9
$BLIPMODE
 70
     0
  9
$CHAMFERA
 40
0.0
  9
$CHAMFERB
 40
0.0
  9
$SKPOLY
 70
     0
  9
$TDCREATE
 40
2450330.4399309959
  9
$TDUPDATE
 40
2455596.6144760069
  9
$TDINDWG
 40
3.9710627198999999
  9
$TDUSRTIMER
 40
3.9710619907
  9
$USRTIMER
 70
     1
  9
$ANGBASE
 50
0.0
  9
$ANGDIR
 70
     0
  9
$PDMODE
 70
     3
  9
$PDSIZE
 40
-2.0
  9
$PLINEWID
 40
0.0
  9
$COORDS
 70
     0
  9
$SPLFRAME
 70
     0
  9
$SPLINETYPE
 70
     6
  9
$SPLINESEGS
 70
     8
  9
$ATTDIA
 70
     0
  9
$ATTREQ
 70
     1
  9
$HANDLING
 70
     1
  9
$HANDSEED
  5
47A
  9
$SURFTAB1
 70
     6
  9
$SURFTAB2
 70
     6
  9
$SURFTYPE
 70
     6
  9
$SURFU
 70
     6
  9
$SURFV
 70
     6
  9
$UCSNAME
  2

  9
$UCSORG
 10
0.0
 20
0.0
 30
0.0
  9
$UCSXDIR
 10
1.0
 20
0.0
 30
0.0
  9
$UCSYDIR
 10
0.0
 20
1.0
 30
0.0
  9
$PUCSNAME
  2

  9
$PUCSORG
 10
0.0
 20
0.0
 30
0.0
  9
$PUCSXDIR
 10
1.0
 20
0.0
 30
0.0
  9
$PUCSYDIR
 10
0.0
 20
1.0
 30
0.0
  9
$USERI1
 70
     0
  9
$USERI2
 70
     0
  9
$USERI3
 70
     0
  9
$USERI4
 70
     0
  9
$USERI5
 70
     0
  9
$USERR1
 40
20.0
  9
$USERR2
 40
0.0
  9
$USERR3
 40
0.0
  9
$USERR4
 40
0.0
  9
$USERR5
 40
0.0
  9
$WORLDVIEW
 70
     1
  9
$SHADEDGE
 70
     3
  9
$SHADEDIF
 70
    70
  9
$TILEMODE
 70
     1
  9
$MAXACTVP
 70
    64
  9
$PLIMCHECK
 70
     0
  9
$PEXTMIN
 10
1.0000000000000000E+020
 20
1.0000000000000000E+020
 30
1.0000000000000000E+020
  9
$PEXTMAX
 10
-1.0000000000000000E+020
 20
-1.0000000000000000E+020
 30
-1.0000000000000000E+020
  9
$PLIMMIN
 10
0.0
 20
0.0
  9
$PLIMMAX
 10
12.0
 20
9.0
  9
$UNITMODE
 70
     0
  9
$VISRETAIN
 70
     1
  9
$PLINEGEN
 70
     0
  9
$PSLTSCALE
 70
     1
  0
ENDSEC
  0
SECTION
  2
TABLES
  0
TABLE
  2
VPORT
 70
     1
  0
VPORT
  2
*ACTIVE
 70
     0
 10
0.0
 20
0.0
 11
1.0
 21
1.0
 12
1461.782600762991
 22
1222.536076862327
 13
0.0
 23
0.0
 14
50.0
 24
50.0
 15
100.0
 25
100.0
 16
0.0
 26
0.0
 36
1.0
 17
0.0
 27
0.0
 37
0.0
 40
7897.2940421224084
 41
1.5639386189258311
 42
50.0
 43
0.0
 44
0.0
 50
0.0
 51
0.0
 71
     0
 72
  1000
 73
     1
 74
     0
 75
     0
 76
     0
 77
     0
 78
     0
  0
ENDTAB
  0
TABLE
  2
LTYPE
 70
     3
  0
LTYPE
  2
CONTINUOUS
 70
     0
  3
実線
 72
    65
 73
     0
 40
0.0
  0
LTYPE
  2
DASHDOT
 70
     0
  3
____ _ ____ _ ____ _ ____ _ ____ _ ____ _ ____
 72
    65
 73
     4
 40
5.5
 49
4.0
 49
-0.6
 49
0.3
 49
-0.6
  0
ENDTAB
  0
TABLE
  2
LAYER
 70
    12
  0
LAYER
  2
0
 70
     0
 62
     7
  6
CONTINUOUS
  0
LAYER
  2
SIZE
 70
     0
 62
    30
  6
CONTINUOUS
  0
LAYER
  2
OUTLINE
 70
     0
 62
     3
  6
CONTINUOUS
  0
LAYER
  2
DETAIL
 70
     0
 62
     5
  6
CONTINUOUS
  0
LAYER
  2
BASIS
 70
     0
 62
     6
  6
DASHDOT
  0
LAYER
  2
NOTE
 70
     0
 62
     4
  6
CONTINUOUS
  0
LAYER
  2
ARRANGE
 70
     0
 62
     1
  6
CONTINUOUS
  0
LAYER
  2
FIX
 70
     0
 62
    11
  6
CONTINUOUS
  0
LAYER
  2
SERVICESPACE
 70
     0
 62
     2
  6
DASHDOT
  0
LAYER
  2
ETC
 70
     0
 62
    61
  6
CONTINUOUS
  0
LAYER
  2
SYMBOLLINE
 70
     0
 62
    15
  6
CONTINUOUS
  0
LAYER
  2
DEFPOINTS
 70
     0
 62
     7
  6
CONTINUOUS
  0
ENDTAB
  0
TABLE
  2
STYLE
 70
     4
  0
STYLE
  2
STANDARD
 70
     0
 40
0.0
 41
0.9
 50
0.0
 71
     0
 42
64.0
  3
SIMPLEX
  4
BIGFONT
  0
STYLE
  2
ANNOTATIVE
 70
     0
 40
0.0
 41
1.0
 50
0.0
 71
     0
 42
0.2
  3
txt
  4

  0
STYLE
  2
NOTE
 70
     0
 40
0.0
 41
0.7
 50
0.0
 71
     0
 42
64.0
  3
SIMPLEX.shx
  4
BIGFONT.shx
  0
STYLE
  2
STANDARD1
 70
     0
 40
0.0
 41
1.0
 50
0.0
 71
     0
 42
64.0
  3
MONOTXT
  4
BIGFONT
  0
ENDTAB
  0
TABLE
  2
VIEW
 70
     7
  0
VIEW
  2
ALL
 70
     0
 40
9000.0
 10
241.50664699999999
 20
0.0
 41
12483.01
 11
0.0
 21
0.0
 31
1.0
 12
0.0
 22
0.0
 32
0.0
 42
50.0
 43
0.0
 44
0.0
 50
0.0
 71
     0
  0
ENDTAB
  0
TABLE
  2
UCS
 70
     0
  0
ENDTAB
  0
TABLE
  2
APPID
 70
     4
  0
APPID
  2
ACAD
 70
     0
  0
APPID
  2
ACADANNOTATIVE
 70
     0
  0
APPID
  2
ACAD_MLEADERVER
 70
     0
  0
APPID
  2
ACAD_EXEMPT_FROM_CAD_STANDARDS
 70
     0
  0
ENDTAB
  0
TABLE
  2
DIMSTYLE
 70
     3
  0
DIMSTYLE
  2
STANDARD
 70
     0
  3

  4

  5

  6

  7

 40
1.0
 41
0.18
 42
0.0625
 43
0.38
 44
0.18
 45
0.0
 46
0.0
 47
0.0
 48
0.0
140
0.18
141
0.09
142
0.0
143
25.399999999999999
144
1.0
145
0.0
146
1.0
147
0.09
 71
     0
 72
     0
 73
     1
 74
     1
 75
     0
 76
     0
 77
     0
 78
     0
170
     0
171
     2
172
     0
173
     0
174
     0
175
     0
176
     0
177
     0
178
     0
  0
DIMSTYLE
  2
ANNOTATIVE
 70
     0
  3

  4

  5

  6

  7

 40
1.0
 41
0.18
 42
0.0625
 43
0.38
 44
0.18
 45
0.0
 46
0.0
 47
0.0
 48
0.0
140
0.18
141
0.09
142
0.0
143
25.399999999999999
144
1.0
145
0.0
146
1.0
147
0.09
 71
     0
 72
     0
 73
     1
 74
     1
 75
     0
 76
     0
 77
     0
 78
     0
170
     0
171
     2
172
     0
173
     0
174
     0
175
     0
176
     0
177
     0
178
     0
  0
ENDTAB
  0
ENDSEC
  0
SECTION
  2
BLOCKS
  0
BLOCK
  8
0
  2
$MODEL_SPACE
 70
     0
 10
0.0
 20
0.0
 30
0.0
  3
$MODEL_SPACE
  1

  0
ENDBLK
  5
3ED
  8
0
  0
BLOCK
 67
     1
  8
0
  2
$PAPER_SPACE
 70
     0
 10
0.0
 20
0.0
 30
0.0
  3
$PAPER_SPACE
  1

  0
ENDBLK
  5
3E9
 67
     1
  8
0
  0
BLOCK
  8
0
  2
_SMALL
 70
     0
 10
0.0
 20
0.0
 30
0.0
  3
_SMALL
  1

  0
CIRCLE
  5
8D
  8
0
  6
CONTINUOUS
 62
     7
 10
0.0
 20
0.0
 30
0.0
 40
0.25
  0
ENDBLK
  5
8E
  8
0
  0
ENDSEC
  0
SECTION
  2
ENTITIES
  0
LINE
  5
8F
  8
DETAIL
  6
CONTINUOUS
 62
     5
 10
-225.000002630822
 20
-382.19999798898903
 30
0.0
 11
-591.00000070506007
 21
-382.19999798898903
 31
0.0
  0
LINE
  5
90
  8
DETAIL
  6
CONTINUOUS
 62
     5
 10
269.99999476465882
 20
-454.99999760594721
 30
0.0
 11
-700.00000013153613
 21
-454.99999760594721
 31
0.0
  0
CIRCLE
  5
91
  8
DETAIL
  6
CONTINUOUS
 62
     5
 10
-521.00000107337621
 20
-264.99999860566129
 30
0.0
 40
22.999999878981821
  0
CIRCLE
  5
92
  8
DETAIL
  6
CONTINUOUS
 62
     5
 10
-530.00000102601689
 20
-409.9999978427216
 30
0.0
 40
16.49999991318278
  0
CIRCLE
  5
93
  8
DETAIL
  6
CONTINUOUS
 62
     5
 10
-530.00000102601689
 20
-409.9999978427216
 30
0.0
 40
13.999999926336921
  0
LINE
  5
94
  8
DETAIL
  6
CONTINUOUS
 62
     5
 10
270.79999465415898
 20
-14.999999921074499
 30
0.0
 11
-700.00000013153613
 21
-14.999999921074499
 31
0.0
  0
ARC
  5
95
  8
DETAIL
  6
CONTINUOUS
 62
     5
 10
-530.00000102601689
 20
-409.9999978427216
 30
0.0
 40
23.999999873720391
 50
0.0
 51
180.0
  0
CIRCLE
  5
96
  8
DETAIL
  6
CONTINUOUS
 62
     5
 10
-521.00000107337621
 20
-264.99999860566129
 30
0.0
 40
18.499999902659361
  0
LINE
  5
97
  8
DETAIL
  6
CONTINUOUS
 62
     5
 10
-225.000002630822
 20
-44.999999763224871
 30
0.0
 11
-594.0000006892792
 21
-44.999999763224871
 31
0.0
  0
LINE
  5
98
  8
NOTE
  6
CONTINUOUS
 62
     4
 10
-501.000001178611
 20
-409.9999978427216
 30
0.0
 11
-559.00000087343722
 21
-409.9999978427216
 31
0.0
  0
LINE
  5
99
  8
DETAIL
  6
CONTINUOUS
 62
     5
 10
-591.00000070506007
 20
-454.99999760594721
 30
0.0
 11
-591.00000070506007
 21
-44.999999763224871
 31
0.0
  0
LINE
  5
9A
  8
DETAIL
  6
CONTINUOUS
 62
     5
 10
-724.99999999999693
 20
-54.999999710608328
 30
0.0
 11
-724.99999999999693
 21
-354.99999813211252
 31
0.0
  0
LINE
  5
9C
  8
DETAIL
  6
CONTINUOUS
 62
     5
 10
-700.00000013153613
 20
-354.99999813211252
 30
0.0
 11
-724.99999999999693
 21
-354.99999813211252
 31
0.0
  0
CIRCLE
  5
9D
  8
DETAIL
  6
CONTINUOUS
 62
     5
 10
-715.00000005261336
 20
-304.99999839519518
 30
0.0
 40
1.6999999910550601
  0
LINE
  5
9F
  8
NOTE
  6
CONTINUOUS
 62
     4
 10
-708.3000000878659
 20
-304.99999839519518
 30
0.0
 11
-721.70000001735934
 21
-304.99999839519518
 31
0.0
  0
LINE
  5
A0
  8
NOTE
  6
CONTINUOUS
 62
     4
 10
-715.00000005261336
 20
-298.29999843044737
 30
0.0
 11
-715.00000005261336
 21
-311.69999835994292
 31
0.0
  0
LINE
  5
A1
  8
DETAIL
  6
CONTINUOUS
 62
     5
 10
-554.0000008997431
 20
-454.99999760594721
 30
0.0
 11
-554.0000008997431
 21
-409.9999978427216
 31
0.0
  0
ARC
  5
A4
  8
DETAIL
  6
CONTINUOUS
 62
     5
 10
-584.00000074189506
 20
-332.19999825207151
 30
0.0
 40
5.9999999684300231
 50
270.0
 51
90.0
  0
LINE
  5
A5
  8
DETAIL
  6
CONTINUOUS
 62
     5
 10
-591.00000070506007
 20
-326.19999828364672
 30
0.0
 11
-584.00000074189506
 21
-326.19999828364672
 31
0.0
  0
LINE
  5
A6
  8
DETAIL
  6
CONTINUOUS
 62
     5
 10
-591.00000070506007
 20
-338.19999822050551
 30
0.0
 11
-584.00000074189506
 21
-338.19999822050551
 31
0.0
  0
CIRCLE
  5
A8
  8
DETAIL
  6
CONTINUOUS
 62
     5
 10
-715.00000005261336
 20
-204.99999892136049
 30
0.0
 40
1.6999999910550601
  0
LINE
  5
A9
  8
NOTE
  6
CONTINUOUS
 62
     4
 10
-708.3000000878659
 20
-204.99999892136049
 30
0.0
 11
-721.70000001735934
 21
-204.99999892136049
 31
0.0
  0
LINE
  5
AA
  8
NOTE
  6
CONTINUOUS
 62
     4
 10
-715.00000005261336
 20
-198.2999989566128
 30
0.0
 11
-715.00000005261336
 21
-211.69999888610789
 31
0.0
  0
CIRCLE
  5
AB
  8
DETAIL
  6
CONTINUOUS
 62
     5
 10
-715.00000005261336
 20
-104.9999994475256
 30
0.0
 40
1.6999999910550601
  0
LINE
  5
AC
  8
NOTE
  6
CONTINUOUS
 62
     4
 10
-708.3000000878659
 20
-104.9999994475256
 30
0.0
 11
-721.70000001735934
 21
-104.9999994475256
 31
0.0
  0
LINE
  5
AD
  8
NOTE
  6
CONTINUOUS
 62
     4
 10
-715.00000005261336
 20
-98.299999482778304
 30
0.0
 11
-715.00000005261336
 21
-111.6999994122734
 31
0.0
  0
LINE
  5
AF
  8
DETAIL
  6
CONTINUOUS
 62
     5
 10
-724.99999999999693
 20
-54.999999710608328
 30
0.0
 11
-700.00000013153613
 21
-54.999999710608328
 31
0.0
  0
LINE
  5
B0
  8
DETAIL
  6
CONTINUOUS
 62
     5
 10
-594.0000006892792
 20
-19.999999894765999
 30
0.0
 11
-699.00000013680415
 21
-19.999999894765999
 31
0.0
  0
LINE
  5
B1
  8
DETAIL
  6
CONTINUOUS
 62
     5
 10
-660.00000034200536
 20
-31.999999831624791
 30
0.0
 11
-597.00000067348628
 21
-31.999999831624791
 31
0.0
  0
LINE
  5
B2
  8
DETAIL
  6
CONTINUOUS
 62
     5
 10
-594.0000006892792
 20
-59.999999684300299
 30
0.0
 11
-699.00000013680415
 21
-59.999999684300299
 31
0.0
  0
ARC
  5
B3
  8
DETAIL
  6
CONTINUOUS
 62
     5
 10
-660.00000034200536
 20
-28.9999998474077
 30
0.0
 40
2.999999984215151
 50
180.0
 51
270.0
  0
ARC
  5
B4
  8
DETAIL
  6
CONTINUOUS
 62
     5
 10
-678.00000024729741
 20
-28.9999998474077
 30
0.0
 40
2.9999999842150791
 50
270.0
 51
0.0
  0
ARC
  5
B5
  8
DETAIL
  6
CONTINUOUS
 62
     5
 10
-693.50000016574131
 20
-28.9999998474077
 30
0.0
 40
2.999999984215151
 50
180.0
 51
270.0
  0
LINE
  5
B6
  8
DETAIL
  6
CONTINUOUS
 62
     5
 10
-663.00000032621892
 20
-28.9999998474077
 30
0.0
 11
-663.00000032621892
 21
-19.999999894765999
 31
0.0
  0
LINE
  5
B7
  8
DETAIL
  6
CONTINUOUS
 62
     5
 10
-675.00000026307885
 20
-28.9999998474077
 30
0.0
 11
-675.00000026307885
 21
-19.999999894765999
 31
0.0
  0
LINE
  5
B8
  8
DETAIL
  6
CONTINUOUS
 62
     5
 10
-696.50000014996021
 20
-28.9999998474077
 30
0.0
 11
-696.50000014996021
 21
-19.999999894765999
 31
0.0
  0
LINE
  5
B9
  8
DETAIL
  6
CONTINUOUS
 62
     5
 10
-699.00000013680415
 20
-59.999999684300299
 30
0.0
 11
-699.00000013680415
 21
-19.999999894765999
 31
0.0
  0
LINE
  5
BA
  8
DETAIL
  6
CONTINUOUS
 62
     5
 10
-700.00000013153613
 20
-469.99999752702229
 30
0.0
 11
-700.00000013153613
 21
0.0000000000009024
 31
0.0
  0
LINE
  5
BB
  8
DETAIL
  6
CONTINUOUS
 62
     5
 10
-693.50000016574131
 20
-31.999999831624791
 30
0.0
 11
-678.00000024729741
 21
-31.999999831624791
 31
0.0
  0
ARC
  5
BC
  8
DETAIL
  6
CONTINUOUS
 62
     5
 10
-584.00000074189506
 20
-94.999999500142152
 30
0.0
 40
5.9999999684300924
 50
270.0
 51
90.0
  0
LINE
  5
BD
  8
DETAIL
  6
CONTINUOUS
 62
     5
 10
-591.00000070506007
 20
-88.999999531708454
 30
0.0
 11
-584.00000074189506
 21
-88.999999531708454
 31
0.0
  0
LINE
  5
BE
  8
DETAIL
  6
CONTINUOUS
 62
     5
 10
-591.00000070506007
 20
-100.9999994685667
 30
0.0
 11
-584.00000074189506
 21
-100.9999994685667
 31
0.0
  0
ARC
  5
C0
  8
DETAIL
  6
CONTINUOUS
 62
     5
 10
-597.00000067348628
 20
-28.9999998474077
 30
0.0
 40
2.9999999842150791
 50
270.0
 51
0.0
  0
LINE
  5
C2
  8
DETAIL
  6
CONTINUOUS
 62
     5
 10
-594.0000006892792
 20
-59.999999684300299
 30
0.0
 11
-594.0000006892792
 21
-14.999999921074499
 31
0.0
  0
LINE
  5
C5
  8
DETAIL
  6
CONTINUOUS
 62
     5
 10
269.99999476465882
 20
-469.99999752702229
 30
0.0
 11
269.99999476465882
 21
-439.99999768487191
 31
0.0
  0
LINE
  5
C6
  8
DETAIL
  6
CONTINUOUS
 62
     5
 10
249.99999486989191
 20
-469.99999752702229
 30
0.0
 11
249.99999486989191
 21
-454.99999760594721
 31
0.0
  0
LINE
  5
C7
  8
DETAIL
  6
CONTINUOUS
 62
     5
 10
-146.0000030464966
 20
-34.99999981584142
 30
0.0
 11
214.99999505404861
 21
-34.99999981584142
 31
0.0
  0
LINE
  5
C8
  8
DETAIL
  6
CONTINUOUS
 62
     5
 10
214.99999505404861
 20
-244.9999987108944
 30
0.0
 11
-146.0000030464966
 21
-244.9999987108944
 31
0.0
  0
LINE
  5
C9
  8
NOTE
  6
CONTINUOUS
 62
     4
 10
-194.500002791301
 20
-189.99999900028519
 30
0.0
 11
-229.50000260714339
 21
-189.99999900028519
 31
0.0
  0
LINE
  5
CA
  8
NOTE
  6
CONTINUOUS
 62
     4
 10
-194.500002791301
 20
-189.99999900028519
 30
0.0
 11
-229.50000260714339
 21
-189.99999900028519
 31
0.0
  0
LINE
  5
CB
  8
DETAIL
  6
CONTINUOUS
 62
     5
 10
-206.7345682719415
 20
-180.8799990482234
 30
0.0
 11
-217.265437126558
 21
-180.8799990482234
 31
0.0
  0
LINE
  5
CC
  8
DETAIL
  6
CONTINUOUS
 62
     5
 10
-217.265437126558
 20
-199.11999895229241
 30
0.0
 11
-206.73456827193101
 21
-199.11999895229241
 31
0.0
  0
CIRCLE
  5
CD
  8
DETAIL
  6
CONTINUOUS
 62
     5
 10
-212.00000269922251
 20
-189.99999900028519
 30
0.0
 40
7.8052599589258431
  0
CIRCLE
  5
CE
  8
DETAIL
  6
CONTINUOUS
 62
     5
 10
-212.00000269922251
 20
-189.99999900028519
 30
0.0
 40
6.983499963247767
  0
CIRCLE
  5
CF
  8
DETAIL
  6
CONTINUOUS
 62
     5
 10
-212.00000269922251
 20
-189.99999900028519
 30
0.0
 40
4.4999999763225906
  0
CIRCLE
  5
D0
  8
DETAIL
  6
CONTINUOUS
 62
     5
 10
-212.00000269922251
 20
-189.99999900028519
 30
0.0
 40
12.499999934229329
  0
LINE
  5
D1
  8
DETAIL
  6
CONTINUOUS
 62
     5
 10
-200.80000275815291
 20
-152.99999919496801
 30
0.0
 11
-225.000002630822
 21
-152.99999919496801
 31
0.0
  0
LINE
  5
D2
  8
DETAIL
  6
CONTINUOUS
 62
     5
 10
-225.000002630822
 20
-226.9999988056019
 30
0.0
 11
-200.80000275815291
 21
-226.9999988056019
 31
0.0
  0
LINE
  5
D3
  8
DETAIL
  6
CONTINUOUS
 62
     5
 10
-225.000002630822
 20
-454.99999760594721
 30
0.0
 11
-225.000002630822
 21
-14.999999921074499
 31
0.0
  0
ARC
  5
D4
  8
DETAIL
  6
CONTINUOUS
 62
     5
 10
-350.00000197311601
 20
-434.99999771117979
 30
0.0
 40
23.999999873720238
 50
0.0
 51
180.0
  0
LINE
  5
D5
  8
NOTE
  6
CONTINUOUS
 62
     4
 10
-321.00000212570723
 20
-434.99999771117979
 30
0.0
 11
-379.00000182053412
 21
-434.99999771117979
 31
0.0
  0
LINE
  5
D6
  8
DETAIL
  6
CONTINUOUS
 62
     5
 10
-506.00000115230279
 20
-454.99999760594721
 30
0.0
 11
-506.00000115230279
 21
-409.9999978427216
 31
0.0
  0
LINE
  5
D7
  8
NOTE
  6
CONTINUOUS
 62
     4
 10
-530.00000102601689
 20
-380.99999799530411
 30
0.0
 11
-530.00000102601689
 21
-438.99999769012982
 31
0.0
  0
LINE
  5
D8
  8
DETAIL
  6
CONTINUOUS
 62
     5
 10
-374.00000184684228
 20
-454.99999760594721
 30
0.0
 11
-374.00000184684228
 21
-434.99999771117979
 31
0.0
  0
LINE
  5
D9
  8
NOTE
  6
CONTINUOUS
 62
     4
 10
-350.00000197311601
 20
-405.99999786376247
 30
0.0
 11
-350.00000197311601
 21
-463.99999755858869
 31
0.0
  0
CIRCLE
  5
DA
  8
DETAIL
  6
CONTINUOUS
 62
     5
 10
-350.00000197311601
 20
-434.99999771117979
 30
0.0
 40
16.499999913182648
  0
CIRCLE
  5
DB
  8
DETAIL
  6
CONTINUOUS
 62
     5
 10
-350.00000197311601
 20
-434.99999771117979
 30
0.0
 40
13.99999992633678
  0
LINE
  5
DC
  8
DETAIL
  6
CONTINUOUS
 62
     5
 10
-326.0000020993993
 20
-454.99999760594721
 30
0.0
 11
-326.0000020993993
 21
-434.99999771117979
 31
0.0
  0
ARC
  5
DF
  8
DETAIL
  6
CONTINUOUS
 62
     5
 10
-232.00000259399019
 20
-332.19999825207151
 30
0.0
 40
5.9999999684300231
 50
90.0
 51
270.0
  0
LINE
  5
E0
  8
DETAIL
  6
CONTINUOUS
 62
     5
 10
-225.000002630822
 20
-326.19999828364672
 30
0.0
 11
-232.00000259399019
 21
-326.19999828364672
 31
0.0
  0
LINE
  5
E1
  8
DETAIL
  6
CONTINUOUS
 62
     5
 10
-225.000002630822
 20
-338.19999822050551
 30
0.0
 11
-232.00000259399019
 21
-338.19999822050551
 31
0.0
  0
LINE
  5
E2
  8
NOTE
  6
CONTINUOUS
 62
     4
 10
-212.00000269922251
 20
-172.49999909236419
 30
0.0
 11
-212.00000269922251
 21
-207.49999890820609
 31
0.0
  0
LINE
  5
E3
  8
NOTE
  6
CONTINUOUS
 62
     4
 10
-212.00000269922251
 20
-172.49999909236419
 30
0.0
 11
-212.00000269922251
 21
-207.49999890820609
 31
0.0
  0
LINE
  5
E4
  8
DETAIL
  6
CONTINUOUS
 62
     5
 10
-222.53087155385799
 20
-189.9999990002579
 30
0.0
 11
-217.265437126558
 21
-180.8799990482234
 31
0.0
  0
LINE
  5
E5
  8
DETAIL
  6
CONTINUOUS
 62
     5
 10
-222.53087155385799
 20
-189.9999990002579
 30
0.0
 11
-217.265437126558
 21
-199.11999895229241
 31
0.0
  0
ARC
  5
E6
  8
DETAIL
  6
CONTINUOUS
 62
     5
 10
-232.00000259399019
 20
-94.999999500142152
 30
0.0
 40
5.9999999684300924
 50
90.0
 51
270.0
  0
LINE
  5
E7
  8
DETAIL
  6
CONTINUOUS
 62
     5
 10
-225.000002630822
 20
-88.999999531708454
 30
0.0
 11
-232.00000259399019
 21
-88.999999531708454
 31
0.0
  0
LINE
  5
E8
  8
DETAIL
  6
CONTINUOUS
 62
     5
 10
-225.000002630822
 20
-100.9999994685667
 30
0.0
 11
-232.00000259399019
 21
-100.9999994685667
 31
0.0
  0
LINE
  5
EB
  8
DETAIL
  6
CONTINUOUS
 62
     5
 10
-146.0000030464966
 20
-299.99999842150322
 30
0.0
 11
-146.0000030464966
 21
-14.99999992107449
 31
0.0
  0
LINE
  5
EC
  8
DETAIL
  6
CONTINUOUS
 62
     5
 10
-90.000003341147462
 20
-244.9999987108944
 30
0.0
 11
-90.000003341147462
 21
-237.9999987477276
 31
0.0
  0
LINE
  5
ED
  8
DETAIL
  6
CONTINUOUS
 62
     5
 10
-102.00000327800529
 20
-244.9999987108944
 30
0.0
 11
-102.00000327800529
 21
-237.9999987477276
 31
0.0
  0
LINE
  5
EE
  8
DETAIL
  6
CONTINUOUS
 62
     5
 10
-59.06192594773028
 20
-259.99999863196928
 30
0.0
 11
-9.8404078374201127
 21
-259.99999863196928
 31
0.0
  0
LINE
  5
EF
  8
DETAIL
  6
CONTINUOUS
 62
     5
 10
-163.20427134897221
 20
-454.99999760594721
 30
0.0
 11
-163.20427134897221
 21
-299.99999842150322
 31
0.0
  0
ARC
  5
F0
  8
DETAIL
  6
CONTINUOUS
 62
     5
 10
-156.2042713858045
 20
-349.19999816263078
 30
0.0
 40
5.9999999684300231
 50
270.0
 51
90.0
  0
LINE
  5
F1
  8
DETAIL
  6
CONTINUOUS
 62
     5
 10
-163.20427134897221
 20
-355.19999813105551
 30
0.0
 11
-156.2042713858045
 21
-355.19999813105551
 31
0.0
  0
LINE
  5
F2
  8
DETAIL
  6
CONTINUOUS
 62
     5
 10
-163.20427134897221
 20
-299.99999842150322
 30
0.0
 11
-115.2654308568089
 21
-299.99999842150322
 31
0.0
  0
LINE
  5
F3
  8
DETAIL
  6
CONTINUOUS
 62
     5
 10
-163.20427134897221
 20
-343.19999819419712
 30
0.0
 11
-156.2042713858045
 21
-343.19999819419712
 31
0.0
  0
LINE
  5
F4
  8
NOTE
  6
CONTINUOUS
 62
     4
 10
-96.000003309579824
 20
-283.99999850568611
 30
0.0
 11
-96.000003309579824
 21
-345.99999817946201
 31
0.0
  0
CIRCLE
  5
F5
  8
DETAIL
  6
CONTINUOUS
 62
     5
 10
-96.000003309579824
 20
-314.99999834257869
 30
0.0
 40
24.499999871089539
  0
CIRCLE
  5
F6
  8
DETAIL
  6
CONTINUOUS
 62
     5
 10
-96.000003309579824
 20
-314.99999834257869
 30
0.0
 40
21.49999988687453
  0
LINE
  5
F7
  8
DETAIL
  6
CONTINUOUS
 62
     5
 10
-59.06192594773028
 20
-299.99999842150322
 30
0.0
 11
-59.06192594773028
 21
-259.99999863196928
 31
0.0
  0
LINE
  5
F8
  8
NOTE
  6
CONTINUOUS
 62
     4
 10
-65.000003472687212
 20
-314.99999834257869
 30
0.0
 11
-127.0000031464628
 21
-314.99999834257869
 31
0.0
  0
CIRCLE
  5
F9
  8
DETAIL
  6
CONTINUOUS
 62
     5
 10
-96.000003309579824
 20
-314.99999834257869
 30
0.0
 40
11.499999939491049
  0
CIRCLE
  5
FA
  8
DETAIL
  6
CONTINUOUS
 62
     5
 10
-96.000003309579824
 20
-314.99999834257869
 30
0.0
 40
14.09999992581079
  0
CIRCLE
  5
FB
  8
DETAIL
  6
CONTINUOUS
 62
     5
 10
-96.000003309579824
 20
-314.99999834257869
 30
0.0
 40
7.9400000000000004
  0
LINE
  5
FC
  8
DETAIL
  6
CONTINUOUS
 62
     5
 10
-76.734575762441182
 20
-299.99999842150322
 30
0.0
 11
-59.06192594773028
 21
-299.99999842150322
 31
0.0
  0
ARC
  5
FD
  8
DETAIL
  6
CONTINUOUS
 62
     5
 10
62.257343479026083
 20
-349.19999816263078
 30
0.0
 40
5.9999999684301724
 50
90.0
 51
270.0
  0
LINE
  5
FE
  8
DETAIL
  6
CONTINUOUS
 62
     5
 10
69.257343442193829
 20
-244.9999987108944
 30
0.0
 11
69.257343442193829
 21
-454.99999760594721
 31
0.0
  0
LINE
  5
FF
  8
DETAIL
  6
CONTINUOUS
 62
     5
 10
69.257343442193829
 20
-355.19999813105551
 30
0.0
 11
62.257343479026083
 21
-355.19999813105551
 31
0.0
  0
LINE
  5
100
  8
DETAIL
  6
CONTINUOUS
 62
     5
 10
9.8404002080314967
 20
-259.99999863196928
 30
0.0
 11
69.257343442193829
 21
-259.99999863196928
 31
0.0
  0
LINE
  5
101
  8
NOTE
  6
CONTINUOUS
 62
     4
 10
-0.0000038146954466
 20
-251.99999867406081
 30
0.0
 11
-0.0000038146954466
 21
-297.99999843202841
 31
0.0
  0
LINE
  5
102
  8
NOTE
  6
CONTINUOUS
 62
     4
 10
22.999996064289011
 20
-274.9999985530448
 30
0.0
 11
-23.000003693678529
 21
-274.9999985530448
 31
0.0
  0
CIRCLE
  5
103
  8
DETAIL
  6
CONTINUOUS
 62
     5
 10
-0.0000038146954466
 20
-274.9999985530448
 30
0.0
 40
4.759999999999998
  0
CIRCLE
  5
104
  8
DETAIL
  6
CONTINUOUS
 62
     5
 10
-0.0000038146954466
 20
-274.9999985530448
 30
0.0
 40
17.99999990529022
  0
CIRCLE
  5
105
  8
DETAIL
  6
CONTINUOUS
 62
     5
 10
-0.0000038146954466
 20
-274.9999985530448
 30
0.0
 40
14.99999992107521
  0
CIRCLE
  5
106
  8
DETAIL
  6
CONTINUOUS
 62
     5
 10
-0.0000038146954466
 20
-274.9999985530448
 30
0.0
 40
7.7599999591695319
  0
LINE
  5
107
  8
DETAIL
  6
CONTINUOUS
 62
     5
 10
69.257343442193829
 20
-343.19999819419712
 30
0.0
 11
62.257343479026083
 21
-343.19999819419712
 31
0.0
  0
LINE
  5
108
  8
DETAIL
  6
CONTINUOUS
 62
     5
 10
-201.46913384460501
 20
-189.99999900028519
 30
0.0
 11
-206.7345682719415
 21
-180.8799990482234
 31
0.0
  0
LINE
  5
109
  8
DETAIL
  6
CONTINUOUS
 62
     5
 10
-200.80000275815291
 20
-184.4952471725432
 30
0.0
 11
-200.80000275815291
 21
-152.99999919496801
 31
0.0
  0
LINE
  5
10A
  8
DETAIL
  6
CONTINUOUS
 62
     5
 10
-206.73456827193101
 20
-199.1199989523013
 30
0.0
 11
-201.46913384460501
 21
-189.99999900028519
 31
0.0
  0
LINE
  5
10B
  8
DETAIL
  6
CONTINUOUS
 62
     5
 10
-200.80000275815291
 20
-226.9999988056019
 30
0.0
 11
-200.80000275815291
 21
-195.50475082811809
 31
0.0
  0
LINE
  5
10C
  8
DETAIL
  6
CONTINUOUS
 62
     5
 10
-200.80000275815291
 20
-200.9999989424017
 30
0.0
 11
-206.12897822021699
 21
-200.9999989424017
 31
0.0
  0
LINE
  5
10D
  8
DETAIL
  6
CONTINUOUS
 62
     5
 10
-206.12897822021699
 20
-178.99999905815949
 30
0.0
 11
-200.80000275815291
 21
-178.99999905815949
 31
0.0
  0
ARC
  5
10E
  8
DETAIL
  6
CONTINUOUS
 62
     5
 10
-96.000003309579824
 20
-237.9999987477276
 30
0.0
 40
5.9999999684301724
 50
0.0
 51
180.0
  0
LINE
  5
10F
  8
NOTE
  6
CONTINUOUS
 62
     4
 10
-176.00000288864791
 20
-53.749999717185347
 30
0.0
 11
-176.00000288864791
 21
-96.249999493565156
 31
0.0
  0
LINE
  5
111
  8
DETAIL
  6
CONTINUOUS
 62
     5
 10
-203.5000027439514
 20
-54.999999710608328
 30
0.0
 11
-203.5000027439514
 21
-94.999999500142152
 31
0.0
  0
CIRCLE
  5
112
  8
DETAIL
  6
CONTINUOUS
 62
     5
 10
-176.00000288864791
 20
-74.999999605375251
 30
0.0
 40
12.289971364234519
  0
CIRCLE
  5
113
  8
DETAIL
  6
CONTINUOUS
 62
     5
 10
-176.00000288864791
 20
-74.999999605375251
 30
0.0
 40
16.24999991449814
  0
LINE
  5
114
  8
NOTE
  6
CONTINUOUS
 62
     4
 10
-154.75000300045841
 20
-74.999999605375251
 30
0.0
 11
-197.2500027768383
 21
-74.999999605375251
 31
0.0
  0
LINE
  5
115
  8
DETAIL
  6
CONTINUOUS
 62
     5
 10
-203.5000027439514
 20
-94.999999500142152
 30
0.0
 11
-146.0000030464966
 21
-94.999999500142152
 31
0.0
  0
CIRCLE
  5
116
  8
DETAIL
  6
CONTINUOUS
 62
     5
 10
-176.00000288864791
 20
-74.999999605375251
 30
0.0
 40
5.0748815320978551
  0
LINE
  5
117
  8
DETAIL
  6
CONTINUOUS
 62
     5
 10
-146.0000030464966
 20
-54.999999710608328
 30
0.0
 11
-203.5000027439514
 21
-54.999999710608328
 31
0.0
  0
ARC
  5
119
  8
DETAIL
  6
CONTINUOUS
 62
     5
 10
-96.000003309579824
 20
-41.99999977900778
 30
0.0
 40
5.9999999684300231
 50
180.0
 51
0.0
  0
LINE
  5
11A
  8
DETAIL
  6
CONTINUOUS
 62
     5
 10
-90.000003341147462
 20
-34.99999981584142
 30
0.0
 11
-90.000003341147462
 21
-41.99999977900778
 31
0.0
  0
LINE
  5
11B
  8
DETAIL
  6
CONTINUOUS
 62
     5
 10
-102.00000327800529
 20
-34.99999981584142
 30
0.0
 11
-102.00000327800529
 21
-41.99999977900778
 31
0.0
  0
LINE
  5
11C
  8
DETAIL
  6
CONTINUOUS
 62
     5
 10
700.00000013153965
 20
0.0000000000009024
 30
0.0
 11
700.00000013153965
 21
-469.99999752702229
 31
0.0
  0
LINE
  5
11D
  8
DETAIL
  6
CONTINUOUS
 62
     5
 10
290.9999946541588
 20
-11.99999993685743
 30
0.0
 11
290.9999946541588
 21
0.0000000000009024
 31
0.0
  0
LINE
  5
11E
  8
DETAIL
  6
CONTINUOUS
 62
     5
 10
247.99999488041749
 20
-57.599999696921252
 30
0.0
 11
635.79999283994562
 21
-57.599999696921252
 31
0.0
  0
LINE
  5
11F
  8
DETAIL
  6
CONTINUOUS
 62
     5
 10
635.79999283994562
 20
-439.99999768487191
 30
0.0
 11
247.99999488041749
 21
-439.99999768487191
 31
0.0
  0
LINE
  5
120
  8
DETAIL
  6
CONTINUOUS
 62
     5
 10
269.99999476465882
 20
-459.99999757963877
 30
0.0
 11
700.00000013153965
 21
-459.99999757963877
 31
0.0
  0
LINE
  5
121
  8
DETAIL
  6
CONTINUOUS
 62
     5
 10
293.99999463837588
 20
-14.999999921074499
 30
0.0
 11
700.00000013153965
 21
-14.999999921074499
 31
0.0
  0
LINE
  5
122
  8
DETAIL
  6
CONTINUOUS
 62
     5
 10
270.99999475939143
 20
-29.999999842149471
 30
0.0
 11
564.99999321247185
 21
-29.999999842149471
 31
0.0
  0
LINE
  5
123
  8
DETAIL
  6
CONTINUOUS
 62
     5
 10
247.99999488041749
 20
-439.99999768487191
 30
0.0
 11
247.99999488041749
 21
-57.599999696921252
 31
0.0
  0
LINE
  5
124
  8
DETAIL
  6
CONTINUOUS
 62
     5
 10
214.99999505404861
 20
-14.999999921074499
 30
0.0
 11
214.99999505404861
 21
-454.99999760594721
 31
0.0
  0
LINE
  5
125
  8
DETAIL
  6
CONTINUOUS
 62
     5
 10
170.99999528555779
 20
-244.9999987108944
 30
0.0
 11
170.99999528555779
 21
-237.9999987477276
 31
0.0
  0
LINE
  5
126
  8
DETAIL
  6
CONTINUOUS
 62
     5
 10
158.99999534869841
 20
-244.9999987108944
 30
0.0
 11
158.99999534869841
 21
-237.9999987477276
 31
0.0
  0
LINE
  5
127
  8
DETAIL
  6
CONTINUOUS
 62
     5
 10
228.79999498143971
 20
-100.9999994685667
 30
0.0
 11
228.79999498143971
 21
-134.99999928967591
 31
0.0
  0
ARC
  5
128
  8
DETAIL
  6
CONTINUOUS
 62
     5
 10
164.9999953171336
 20
-237.9999987477276
 30
0.0
 40
5.9999999684300231
 50
0.0
 51
180.0
  0
LINE
  5
129
  8
DETAIL
  6
CONTINUOUS
 62
     5
 10
231.79999496565679
 20
-137.999999273893
 30
0.0
 11
247.99999488041749
 21
-137.999999273893
 31
0.0
  0
LINE
  5
12A
  8
DETAIL
  6
CONTINUOUS
 62
     5
 10
231.79999496565679
 20
-137.999999273893
 30
0.0
 11
228.79999498143971
 21
-134.99999928967591
 31
0.0
  0
ARC
  5
12B
  8
DETAIL
  6
CONTINUOUS
 62
     5
 10
164.9999953171336
 20
-41.99999977900778
 30
0.0
 40
5.9999999684300924
 50
180.0
 51
0.0
  0
LINE
  5
12C
  8
DETAIL
  6
CONTINUOUS
 62
     5
 10
158.99999534869841
 20
-34.99999981584142
 30
0.0
 11
158.99999534869841
 21
-41.99999977900778
 31
0.0
  0
LINE
  5
12D
  8
DETAIL
  6
CONTINUOUS
 62
     5
 10
170.99999528555779
 20
-34.99999981584142
 30
0.0
 11
170.99999528555779
 21
-41.99999977900778
 31
0.0
  0
LINE
  5
12E
  8
DETAIL
  6
CONTINUOUS
 62
     5
 10
231.79999496565679
 20
-97.999999484359236
 30
0.0
 11
247.99999488041749
 21
-97.999999484359236
 31
0.0
  0
LINE
  5
12F
  8
DETAIL
  6
CONTINUOUS
 62
     5
 10
228.79999498143971
 20
-100.9999994685667
 30
0.0
 11
231.79999496565679
 21
-97.999999484359236
 31
0.0
  0
LINE
  5
130
  8
DETAIL
  6
CONTINUOUS
 62
     5
 10
267.99999477518389
 20
-57.599999696921252
 30
0.0
 11
267.99999477518389
 21
-32.99999982636654
 31
0.0
  0
ARC
  5
131
  8
DETAIL
  6
CONTINUOUS
 62
     5
 10
270.99999475939143
 20
-32.99999982636654
 30
0.0
 40
2.9999999842150111
 50
90.0
 51
180.0
  0
LINE
  5
132
  8
DETAIL
  6
CONTINUOUS
 62
     5
 10
270.79999465415898
 20
-30.006673939798929
 30
0.0
 11
270.79999465415898
 21
0.0000000000009024
 31
0.0
  0
LINE
  5
133
  8
DETAIL
  6
CONTINUOUS
 62
     5
 10
290.9999946541588
 20
-11.99999993685743
 30
0.0
 11
293.99999463837588
 21
-14.999999921074499
 31
0.0
  0
LINE
  5
134
  8
DETAIL
  6
CONTINUOUS
 62
     5
 10
724.99999237060672
 20
-434.99999771117979
 30
0.0
 11
724.99999237060672
 21
-34.999997711180193
 31
0.0
  0
LINE
  5
135
  8
DETAIL
  6
CONTINUOUS
 62
     5
 10
635.79999283994562
 20
-439.99999768487191
 30
0.0
 11
635.79999283994562
 21
-57.599999696921252
 31
0.0
  0
LINE
  5
136
  8
DETAIL
  6
CONTINUOUS
 62
     5
 10
618.49999250076633
 20
-444.99999765856359
 30
0.0
 11
579.49999356637591
 21
-444.99999765856359
 31
0.0
  0
LINE
  5
137
  8
DETAIL
  6
CONTINUOUS
 62
     5
 10
700.00000013153965
 20
-469.99999752702229
 30
0.0
 11
-700.00000013153613
 21
-469.99999752702229
 31
0.0
  0
LINE
  5
138
  8
DETAIL
  6
CONTINUOUS
 62
     5
 10
548.49999286908235
 20
-444.99999765856359
 30
0.0
 11
509.49999393469079
 21
-444.99999765856359
 31
0.0
  0
LINE
  5
139
  8
DETAIL
  6
CONTINUOUS
 62
     5
 10
507.4999935150168
 20
-442.99999766908849
 30
0.0
 11
507.4999935150168
 21
-439.99999768487191
 31
0.0
  0
ARC
  5
13A
  8
DETAIL
  6
CONTINUOUS
 62
     5
 10
509.49999350449292
 20
-442.99999766908849
 30
0.0
 40
1.999999989476684
 50
180.0
 51
270.0
  0
LINE
  5
13B
  8
DETAIL
  6
CONTINUOUS
 62
     5
 10
550.49999328876675
 20
-442.99999766908849
 30
0.0
 11
550.49999328876675
 21
-439.99999768487191
 31
0.0
  0
ARC
  5
13C
  8
DETAIL
  6
CONTINUOUS
 62
     5
 10
548.49999329928278
 20
-442.99999766908849
 30
0.0
 40
1.999999989476724
 50
270.0
 51
0.0
  0
LINE
  5
13D
  8
DETAIL
  6
CONTINUOUS
 62
     5
 10
577.49999314670049
 20
-442.99999766908849
 30
0.0
 11
577.49999314670049
 21
-439.99999768487191
 31
0.0
  0
ARC
  5
13E
  8
DETAIL
  6
CONTINUOUS
 62
     5
 10
579.49999313617525
 20
-442.99999766908849
 30
0.0
 40
1.999999989476684
 50
180.0
 51
270.0
  0
LINE
  5
140
  8
DETAIL
  6
CONTINUOUS
 62
     5
 10
633.99999284941475
 20
-439.99999768487191
 30
0.0
 11
633.99999284941475
 21
-459.99999757963877
 31
0.0
  0
LINE
  5
141
  8
DETAIL
  6
CONTINUOUS
 62
     5
 10
620.4999929204505
 20
-442.99999766908849
 30
0.0
 11
620.4999929204505
 21
-439.99999768487191
 31
0.0
  0
ARC
  5
142
  8
DETAIL
  6
CONTINUOUS
 62
     5
 10
618.49999293096789
 20
-442.99999766908849
 30
0.0
 40
1.999999989476724
 50
270.0
 51
0.0
  0
LINE
  5
143
  8
DETAIL
  6
CONTINUOUS
 62
     5
 10
700.00000013153965
 20
-434.99999771117979
 30
0.0
 11
724.99999237060672
 21
-434.99999771117979
 31
0.0
  0
CIRCLE
  5
144
  8
DETAIL
  6
CONTINUOUS
 62
     5
 10
714.99999242322383
 20
-384.99999797426278
 30
0.0
 40
1.7
  0
LINE
  5
145
  8
NOTE
  6
CONTINUOUS
 62
     4
 10
721.44999238928165
 20
-384.99999797426278
 30
0.0
 11
708.54999245715669
 21
-384.99999797426278
 31
0.0
  0
LINE
  5
146
  8
NOTE
  6
CONTINUOUS
 62
     4
 10
714.99999242322383
 20
-378.5499980081961
 30
0.0
 11
714.99999242322383
 21
-391.44999794032032
 31
0.0
  0
CIRCLE
  5
147
  8
DETAIL
  6
CONTINUOUS
 62
     5
 10
714.99999242322383
 20
-284.99999850042821
 30
0.0
 40
1.7
  0
LINE
  5
148
  8
NOTE
  6
CONTINUOUS
 62
     4
 10
721.44999238928165
 20
-284.99999850042821
 30
0.0
 11
708.54999245715669
 21
-284.99999850042821
 31
0.0
  0
LINE
  5
149
  8
NOTE
  6
CONTINUOUS
 62
     4
 10
714.99999242322383
 20
-278.54999853436169
 30
0.0
 11
714.99999242322383
 21
-291.44999846648568
 31
0.0
  0
LINE
  5
14A
  8
DETAIL
  6
CONTINUOUS
 62
     5
 10
698.99999250740609
 20
-19.999999894765999
 30
0.0
 11
593.99999305988104
 21
-19.999999894765999
 31
0.0
  0
LINE
  5
14B
  8
DETAIL
  6
CONTINUOUS
 62
     5
 10
596.99999304409675
 20
-31.999999831624791
 30
0.0
 11
659.99999271261345
 21
-31.999999831624791
 31
0.0
  0
LINE
  5
14C
  8
DETAIL
  6
CONTINUOUS
 62
     5
 10
567.99999319668905
 20
-57.599999696921252
 30
0.0
 11
567.99999319668905
 21
-32.99999982636654
 31
0.0
  0
ARC
  5
14D
  8
DETAIL
  6
CONTINUOUS
 62
     5
 10
564.99999321247185
 20
-32.99999982636654
 30
0.0
 40
2.9999999842150111
 50
0.0
 51
90.0
  0
ARC
  5
14E
  8
DETAIL
  6
CONTINUOUS
 62
     5
 10
596.99999304409675
 20
-28.9999998474077
 30
0.0
 40
2.9999999842150511
 50
180.0
 51
270.0
  0
LINE
  5
150
  8
DETAIL
  6
CONTINUOUS
 62
     5
 10
593.99999305988104
 20
-57.599999696921238
 30
0.0
 11
593.99999305988104
 21
-19.999999894765999
 31
0.0
  0
LINE
  5
152
  8
NOTE
  6
CONTINUOUS
 62
     4
 10
714.99999242322383
 20
-178.54999906052669
 30
0.0
 11
714.99999242322383
 21
-191.4499989926511
 31
0.0
  0
CIRCLE
  5
153
  8
DETAIL
  6
CONTINUOUS
 62
     5
 10
714.99999242322383
 20
-184.99999902659371
 30
0.0
 40
1.7
  0
LINE
  5
154
  8
NOTE
  6
CONTINUOUS
 62
     4
 10
721.44999238928165
 20
-184.99999902659371
 30
0.0
 11
708.54999245715669
 21
-184.99999902659371
 31
0.0
  0
LINE
  5
155
  8
DETAIL
  6
CONTINUOUS
 62
     5
 10
677.9999926179056
 20
-31.999999831624791
 30
0.0
 11
693.49999253634155
 21
-31.999999831624791
 31
0.0
  0
LINE
  5
156
  8
DETAIL
  6
CONTINUOUS
 62
     5
 10
635.79999283994562
 20
-59.999999684300299
 30
0.0
 11
698.99999250740609
 21
-59.999999684300299
 31
0.0
  0
ARC
  5
157
  8
DETAIL
  6
CONTINUOUS
 62
     5
 10
659.99999271261345
 20
-28.9999998474077
 30
0.0
 40
2.9999999842150791
 50
270.0
 51
0.0
  0
ARC
  5
158
  8
DETAIL
  6
CONTINUOUS
 62
     5
 10
677.9999926179056
 20
-28.9999998474077
 30
0.0
 40
2.9999999842150311
 50
180.0
 51
270.0
  0
LINE
  5
159
  8
DETAIL
  6
CONTINUOUS
 62
     5
 10
674.99999263368954
 20
-28.9999998474077
 30
0.0
 11
674.99999263368954
 21
-19.999999894765999
 31
0.0
  0
LINE
  5
15A
  8
DETAIL
  6
CONTINUOUS
 62
     5
 10
662.99999269683155
 20
-28.9999998474077
 30
0.0
 11
662.99999269683155
 21
-19.999999894765999
 31
0.0
  0
CIRCLE
  5
15B
  8
DETAIL
  6
CONTINUOUS
 62
     5
 10
714.99999242322383
 20
-84.999999552758723
 30
0.0
 40
1.7
  0
LINE
  5
15C
  8
NOTE
  6
CONTINUOUS
 62
     4
 10
721.44999238928165
 20
-84.999999552758723
 30
0.0
 11
708.54999245715669
 21
-84.999999552758723
 31
0.0
  0
LINE
  5
15D
  8
NOTE
  6
CONTINUOUS
 62
     4
 10
714.99999242322383
 20
-78.549999586692124
 30
0.0
 11
714.99999242322383
 21
-91.449999518816625
 31
0.0
  0
ARC
  5
15E
  8
DETAIL
  6
CONTINUOUS
 62
     5
 10
693.49999253634155
 20
-28.9999998474077
 30
0.0
 40
2.9999999842150791
 50
270.0
 51
0.0
  0
LINE
  5
15F
  8
DETAIL
  6
CONTINUOUS
 62
     5
 10
698.99999250740609
 20
-19.999999894765999
 30
0.0
 11
698.99999250740609
 21
-59.999999684300299
 31
0.0
  0
LINE
  5
160
  8
DETAIL
  6
CONTINUOUS
 62
     5
 10
696.49999252056102
 20
-28.9999998474077
 30
0.0
 11
696.49999252056102
 21
-19.999999894765999
 31
0.0
  0
LINE
  5
161
  8
DETAIL
  6
CONTINUOUS
 62
     5
 10
-700.00000013153613
 20
0.0000000000009024
 30
0.0
 11
700.00000013153965
 21
0.0000000000009024
 31
0.0
  0
LINE
  5
162
  8
SERVICESPACE
  6
DASHDOT
 62
     2
 10
-750.00000013153704
 20
-469.99999752701967
 30
0.0
 11
-750.00000013153704
 21
-489.99999752701967
 31
0.0
  0
LINE
  5
163
  8
SERVICESPACE
  6
DASHDOT
 62
     2
 10
-750.00000013153704
 20
-489.99999752701967
 30
0.0
 11
700.00000013153965
 21
-489.99999752701967
 31
0.0
  0
LINE
  5
164
  8
SERVICESPACE
  6
DASHDOT
 62
     2
 10
700.00000013153965
 20
-489.99999752701967
 30
0.0
 11
700.00000013153965
 21
-469.99999752701967
 31
0.0
  0
LINE
  5
165
  8
SERVICESPACE
  6
DASHDOT
 62
     2
 10
700.00000013153965
 20
-469.99999752701967
 30
0.0
 11
-750.00000013153704
 21
-469.99999752701967
 31
0.0
  0
LINE
  5
166
  8
SERVICESPACE
  6
DASHDOT
 62
     2
 10
-550.00000013153601
 20
-469.99999752702229
 30
0.0
 11
-550.00000013153601
 21
-489.99999752701967
 31
0.0
  0
LINE
  5
167
  8
SERVICESPACE
  6
DASHDOT
 62
     2
 10
549.99999986846251
 20
-469.99999752702229
 30
0.0
 11
549.99999986846251
 21
-489.99999752701967
 31
0.0
  0
LINE
  5
168
  8
SERVICESPACE
  6
DASHDOT
 62
     2
 10
-750.00000013153704
 20
20.000000000000441
 30
0.0
 11
-750.00000013153704
 21
0.0000000000004476
 31
0.0
  0
LINE
  5
169
  8
SERVICESPACE
  6
DASHDOT
 62
     2
 10
-750.00000013153704
 20
0.0000000000004476
 30
0.0
 11
700.00000013153965
 21
0.0000000000004476
 31
0.0
  0
LINE
  5
16A
  8
SERVICESPACE
  6
DASHDOT
 62
     2
 10
700.00000013153965
 20
0.0000000000004476
 30
0.0
 11
700.00000013153965
 21
20.000000000000441
 31
0.0
  0
LINE
  5
16B
  8
SERVICESPACE
  6
DASHDOT
 62
     2
 10
700.00000013153965
 20
20.000000000000441
 30
0.0
 11
-750.00000013153704
 21
20.000000000000441
 31
0.0
  0
LINE
  5
16C
  8
SERVICESPACE
  6
DASHDOT
 62
     2
 10
-550.00000013153601
 20
-469.99999752701967
 30
0.0
 11
549.99999986846251
 21
-489.99999752701967
 31
0.0
  0
LINE
  5
16D
  8
SERVICESPACE
  6
DASHDOT
 62
     2
 10
549.99999986846251
 20
-469.99999752702229
 30
0.0
 11
-550.00000013153601
 21
-489.99999752701967
 31
0.0
  0
LINE
  5
16E
  8
SIZE
  6
CONTINUOUS
 62
    30
 10
741.44999238928165
 20
-384.99999797426278
 30
0.0
 11
966.80986838216461
 21
-384.99999797426278
 31
0.0
  0
LINE
  5
16F
  8
SIZE
  6
CONTINUOUS
 62
    30
 10
744.99999237060672
 20
-434.99999771117979
 30
0.0
 11
966.80986838216461
 21
-434.99999771117979
 31
0.0
  0
LINE
  5
170
  8
SIZE
  6
CONTINUOUS
 62
    30
 10
946.80986838216472
 20
-384.99999797426278
 30
0.0
 11
946.80986838216472
 21
-434.99999771117979
 31
0.0
  0
LINE
  5
171
  8
SIZE
  6
CONTINUOUS
 62
    30
 10
946.80986838216472
 20
-434.99999771117979
 30
0.0
 11
946.80986838216472
 21
-585.37063117464095
 31
0.0
  0
CIRCLE
  5
172
  8
SIZE
  6
CONTINUOUS
 62
    30
 10
946.80986838216472
 20
-384.99999797426278
 30
0.0
 40
6.25
  0
CIRCLE
  5
173
  8
SIZE
  6
CONTINUOUS
 62
    30
 10
946.80986838216472
 20
-434.99999771117979
 30
0.0
 40
6.25
  0
TEXT
  5
174
  8
SIZE
  6
CONTINUOUS
 62
    30
 10
931.80986838216472
 20
-570.37063117464095
 30
0.0
 40
50.0
  1
50
 50
90.0
 41
0.9
 72
     1
 11
931.80986838216472
 21
-533.94205974606962
 31
0.0
  0
POINT
  5
175
  8
DEFPOINTS
  6
CONTINUOUS
 62
     7
 10
721.44999238928165
 20
-384.99999797426278
 30
0.0
  0
POINT
  5
176
  8
DEFPOINTS
  6
CONTINUOUS
 62
     7
 10
724.99999237060672
 20
-434.99999771117979
 30
0.0
  0
POINT
  5
177
  8
DEFPOINTS
  6
CONTINUOUS
 62
     7
 10
946.80986838216472
 20
-434.99999771117979
 30
0.0
  0
LINE
  5
178
  8
SIZE
  6
CONTINUOUS
 62
    30
 10
741.44999238928165
 20
-384.99999797426278
 30
0.0
 11
966.80986838216802
 21
-384.99999797426278
 31
0.0
  0
LINE
  5
179
  8
SIZE
  6
CONTINUOUS
 62
    30
 10
741.44999238928165
 20
-84.999999552758723
 30
0.0
 11
966.80986838216802
 21
-84.99999955275878
 31
0.0
  0
LINE
  5
17A
  8
SIZE
  6
CONTINUOUS
 62
    30
 10
946.80986838216791
 20
-384.99999797426278
 30
0.0
 11
946.80986838216791
 21
-84.99999955275878
 31
0.0
  0
CIRCLE
  5
17B
  8
SIZE
  6
CONTINUOUS
 62
    30
 10
946.80986838216791
 20
-384.99999797426278
 30
0.0
 40
6.25
  0
CIRCLE
  5
17C
  8
SIZE
  6
CONTINUOUS
 62
    30
 10
946.80986838216791
 20
-84.99999955275878
 30
0.0
 40
6.25
  0
TEXT
  5
17D
  8
SIZE
  6
CONTINUOUS
 62
    30
 10
931.80986838216813
 20
-292.85714162065329
 30
0.0
 40
50.0
  1
300
 50
90.0
 41
0.9
 72
     1
 11
931.80986838216813
 21
-234.99999876351049
 31
0.0
  0
POINT
  5
17E
  8
DEFPOINTS
  6
CONTINUOUS
 62
     7
 10
721.44999238928165
 20
-384.99999797426278
 30
0.0
  0
POINT
  5
17F
  8
DEFPOINTS
  6
CONTINUOUS
 62
     7
 10
721.44999238928165
 20
-84.999999552758723
 30
0.0
  0
POINT
  5
180
  8
DEFPOINTS
  6
CONTINUOUS
 62
     7
 10
946.80986838216791
 20
-84.99999955275878
 30
0.0
  0
LINE
  5
181
  8
SIZE
  6
CONTINUOUS
 62
    30
 10
720.00000013153965
 20
-469.99999752701967
 30
0.0
 11
1280.6945893306629
 21
-469.99999752701967
 31
0.0
  0
LINE
  5
182
  8
SIZE
  6
CONTINUOUS
 62
    30
 10
720.00000013153965
 20
0.0000000000004419
 30
0.0
 11
1280.6945893306629
 21
0.0000000000002831
 31
0.0
  0
LINE
  5
183
  8
SIZE
  6
CONTINUOUS
 62
    30
 10
1260.694589330664
 20
-469.99999752701967
 30
0.0
 11
1260.694589330664
 21
0.0000000000002888
 31
0.0
  0
CIRCLE
  5
184
  8
SIZE
  6
CONTINUOUS
 62
    30
 10
1260.694589330664
 20
-469.99999752701967
 30
0.0
 40
6.25
  0
CIRCLE
  5
185
  8
SIZE
  6
CONTINUOUS
 62
    30
 10
1260.694589330664
 20
0.0000000000002888
 30
0.0
 40
6.25
  0
TEXT
  5
186
  8
SIZE
  6
CONTINUOUS
 62
    30
 10
1245.6945893306629
 20
-292.8571416206525
 30
0.0
 40
50.0
  1
470
 50
90.0
 41
0.9
 72
     1
 11
1245.6945893306629
 21
-234.99999876350961
 31
0.0
  0
POINT
  5
187
  8
DEFPOINTS
  6
CONTINUOUS
 62
     7
 10
700.00000013153965
 20
-469.99999752701967
 30
0.0
  0
POINT
  5
188
  8
DEFPOINTS
  6
CONTINUOUS
 62
     7
 10
700.00000013153965
 20
0.0000000000004476
 30
0.0
  0
POINT
  5
189
  8
DEFPOINTS
  6
CONTINUOUS
 62
     7
 10
1260.694589330664
 20
0.0000000000002888
 30
0.0
  0
LINE
  5
18A
  8
DETAIL
  6
CONTINUOUS
 62
     5
 10
700.00000013153965
 20
-34.999997711180193
 30
0.0
 11
724.99999237060672
 21
-34.999997711180193
 31
0.0
  0
LINE
  5
18B
  8
SIZE
  6
CONTINUOUS
 62
    30
 10
744.99999237060672
 20
-434.99999771117979
 30
0.0
 11
1096.81708382594
 21
-434.99999771117979
 31
0.0
  0
LINE
  5
18C
  8
SIZE
  6
CONTINUOUS
 62
    30
 10
720.00000013153965
 20
-469.99999752701967
 30
0.0
 11
1096.81708382594
 21
-469.99999752701967
 31
0.0
  0
LINE
  5
18D
  8
SIZE
  6
CONTINUOUS
 62
    30
 10
1076.81708382594
 20
-434.99999771117979
 30
0.0
 11
1076.81708382594
 21
-469.99999752701967
 31
0.0
  0
LINE
  5
18E
  8
SIZE
  6
CONTINUOUS
 62
    30
 10
1076.81708382594
 20
-469.99999752701967
 30
0.0
 11
1076.81708382594
 21
-597.85714038416245
 31
0.0
  0
CIRCLE
  5
18F
  8
SIZE
  6
CONTINUOUS
 62
    30
 10
1076.81708382594
 20
-434.99999771117979
 30
0.0
 40
6.25
  0
CIRCLE
  5
190
  8
SIZE
  6
CONTINUOUS
 62
    30
 10
1076.81708382594
 20
-469.99999752701967
 30
0.0
 40
6.25
  0
TEXT
  5
191
  8
SIZE
  6
CONTINUOUS
 62
    30
 10
1061.81708382594
 20
-582.85714038416256
 30
0.0
 40
50.0
  1
35
 50
90.0
 41
0.9
 72
     1
 11
1061.81708382594
 21
-546.42856895559112
 31
0.0
  0
POINT
  5
192
  8
DEFPOINTS
  6
CONTINUOUS
 62
     7
 10
724.99999237060672
 20
-434.99999771117979
 30
0.0
  0
POINT
  5
193
  8
DEFPOINTS
  6
CONTINUOUS
 62
     7
 10
700.00000013153965
 20
-469.99999752701967
 30
0.0
  0
POINT
  5
194
  8
DEFPOINTS
  6
CONTINUOUS
 62
     7
 10
1076.81708382594
 20
-469.99999752701967
 30
0.0
  0
LINE
  5
195
  8
SIZE
  6
CONTINUOUS
 62
    30
 10
744.99999237060672
 20
-434.99999771117979
 30
0.0
 11
1096.81708382594
 21
-434.99999771117979
 31
0.0
  0
LINE
  5
196
  8
SIZE
  6
CONTINUOUS
 62
    30
 10
744.99999237060672
 20
-34.999997711180193
 30
0.0
 11
1096.81708382594
 21
-34.999997711180292
 31
0.0
  0
LINE
  5
197
  8
SIZE
  6
CONTINUOUS
 62
    30
 10
1076.81708382594
 20
-434.99999771117979
 30
0.0
 11
1076.81708382594
 21
-34.999997711180292
 31
0.0
  0
CIRCLE
  5
198
  8
SIZE
  6
CONTINUOUS
 62
    30
 10
1076.81708382594
 20
-434.99999771117979
 30
0.0
 40
6.25
  0
CIRCLE
  5
199
  8
SIZE
  6
CONTINUOUS
 62
    30
 10
1076.81708382594
 20
-34.999997711180292
 30
0.0
 40
6.25
  0
TEXT
  5
19A
  8
SIZE
  6
CONTINUOUS
 62
    30
 10
1061.81708382594
 20
-292.8571405683229
 30
0.0
 40
50.0
  1
400
 50
90.0
 41
0.9
 72
     1
 11
1061.81708382594
 21
-234.99999771117999
 31
0.0
  0
POINT
  5
19B
  8
DEFPOINTS
  6
CONTINUOUS
 62
     7
 10
724.99999237060672
 20
-434.99999771117979
 30
0.0
  0
POINT
  5
19C
  8
DEFPOINTS
  6
CONTINUOUS
 62
     7
 10
724.99999237060672
 20
-34.999997711180193
 30
0.0
  0
POINT
  5
19D
  8
DEFPOINTS
  6
CONTINUOUS
 62
     7
 10
1076.81708382594
 20
-34.999997711180292
 30
0.0
  0
TEXT
  5
19E
  8
SIZE
  6
CONTINUOUS
 62
    30
 10
1141.7568376668901
 20
-361.79559349124202
 30
0.0
 40
50.0
  1
(ダクト寸法)
 50
90.000002504416585
 41
0.7031250221965211
  7
STANDARD1
  0
TEXT
  5
19F
  8
SIZE
  6
CONTINUOUS
 62
    30
 10
869.5468999661548
 20
-335.2665978197976
 30
0.0
 40
50.0
  1
100×3=
 50
90.000002504416585
 41
0.7031250221965211
  7
STANDARD1
  0
LINE
  5
1A0
  8
SIZE
  6
CONTINUOUS
 62
    30
 10
-741.70000001735934
 20
-304.99999839519518
 30
0.0
 11
-845.87187151323315
 21
-304.99999839519518
 31
0.0
  0
LINE
  5
1A1
  8
SIZE
  6
CONTINUOUS
 62
    30
 10
-744.99999999999693
 20
-354.99999813211252
 30
0.0
 11
-845.87187151323315
 21
-354.99999813211252
 31
0.0
  0
LINE
  5
1A2
  8
SIZE
  6
CONTINUOUS
 62
    30
 10
-825.87187151323315
 20
-304.99999839519518
 30
0.0
 11
-825.87187151323315
 21
-354.99999813211252
 31
0.0
  0
LINE
  5
1A3
  8
SIZE
  6
CONTINUOUS
 62
    30
 10
-825.87187151323315
 20
-354.99999813211252
 30
0.0
 11
-825.87187151323315
 21
-459.1070141303644
 31
0.0
  0
CIRCLE
  5
1A4
  8
SIZE
  6
CONTINUOUS
 62
    30
 10
-825.87187151323315
 20
-304.99999839519518
 30
0.0
 40
6.25
  0
CIRCLE
  5
1A5
  8
SIZE
  6
CONTINUOUS
 62
    30
 10
-825.87187151323315
 20
-354.99999813211252
 30
0.0
 40
6.25
  0
TEXT
  5
1A6
  8
SIZE
  6
CONTINUOUS
 62
    30
 10
-840.87187151323315
 20
-443.4820775598098
 30
0.0
 40
50.0
  1
50
 50
90.0
 41
0.9
 72
     1
 11
-840.87187151323315
 21
-407.05350613123841
 31
0.0
  0
POINT
  5
1A7
  8
DEFPOINTS
  6
CONTINUOUS
 62
     7
 10
-721.70000001735934
 20
-304.99999839519518
 30
0.0
  0
POINT
  5
1A8
  8
DEFPOINTS
  6
CONTINUOUS
 62
     7
 10
-724.99999999999693
 20
-354.99999813211252
 30
0.0
  0
POINT
  5
1A9
  8
DEFPOINTS
  6
CONTINUOUS
 62
     7
 10
-825.87187151323315
 20
-354.99999813211252
 30
0.0
  0
LINE
  5
1AA
  8
SIZE
  6
CONTINUOUS
 62
    30
 10
-741.70000001735934
 20
-304.99999839519518
 30
0.0
 11
-845.87187151323735
 21
-304.99999839519518
 31
0.0
  0
LINE
  5
1AB
  8
SIZE
  6
CONTINUOUS
 62
    30
 10
-741.70000001735934
 20
-104.9999994475256
 30
0.0
 11
-845.87187151323724
 21
-104.9999994475255
 31
0.0
  0
LINE
  5
1AC
  8
SIZE
  6
CONTINUOUS
 62
    30
 10
-825.87187151323712
 20
-304.99999839519518
 30
0.0
 11
-825.87187151323712
 21
-104.9999994475256
 31
0.0
  0
CIRCLE
  5
1AD
  8
SIZE
  6
CONTINUOUS
 62
    30
 10
-825.87187151323712
 20
-304.99999839519518
 30
0.0
 40
6.25
  0
CIRCLE
  5
1AE
  8
SIZE
  6
CONTINUOUS
 62
    30
 10
-825.87187151323712
 20
-104.9999994475256
 30
0.0
 40
6.25
  0
TEXT
  5
1AF
  8
SIZE
  6
CONTINUOUS
 62
    30
 10
-840.87187151323735
 20
-262.85714177850332
 30
0.0
 40
50.0
  1
200
 50
90.0
 41
0.9
 72
     1
 11
-840.87187151323735
 21
-204.99999892136049
 31
0.0
  0
POINT
  5
1B0
  8
DEFPOINTS
  6
CONTINUOUS
 62
     7
 10
-721.70000001735934
 20
-304.99999839519518
 30
0.0
  0
POINT
  5
1B1
  8
DEFPOINTS
  6
CONTINUOUS
 62
     7
 10
-721.70000001735934
 20
-104.9999994475256
 30
0.0
  0
POINT
  5
1B2
  8
DEFPOINTS
  6
CONTINUOUS
 62
     7
 10
-825.87187151323712
 20
-104.9999994475256
 30
0.0
  0
TEXT
  5
1B3
  8
SIZE
  6
CONTINUOUS
 62
    30
 10
-903.34818256627705
 20
-313.20739746452398
 30
0.0
 40
50.0
  1
100×2=
 50
90.000002504416585
 41
0.7031250221965211
  7
STANDARD1
  0
LINE
  5
1B4
  8
SIZE
  6
CONTINUOUS
 62
    30
 10
-744.99999999999693
 20
-354.99999813211252
 30
0.0
 11
-1222.857639771601
 21
-354.99999813211241
 31
0.0
  0
LINE
  5
1B5
  8
SIZE
  6
CONTINUOUS
 62
    30
 10
-720.00000013153613
 20
-469.99999752702229
 30
0.0
 11
-1222.857639771601
 21
-469.99999752702229
 31
0.0
  0
LINE
  5
1B6
  8
SIZE
  6
CONTINUOUS
 62
    30
 10
-1202.857639771601
 20
-354.99999813211241
 30
0.0
 11
-1202.857639771601
 21
-469.99999752702229
 31
0.0
  0
LINE
  5
1B7
  8
SIZE
  6
CONTINUOUS
 62
    30
 10
-1202.857639771601
 20
-469.99999752702229
 30
0.0
 11
-1202.857639771601
 21
-623.57142609845096
 31
0.0
  0
CIRCLE
  5
1B8
  8
SIZE
  6
CONTINUOUS
 62
    30
 10
-1202.857639771601
 20
-354.99999813211241
 30
0.0
 40
6.25
  0
CIRCLE
  5
1B9
  8
SIZE
  6
CONTINUOUS
 62
    30
 10
-1202.857639771601
 20
-469.99999752702229
 30
0.0
 40
6.25
  0
TEXT
  5
1BA
  8
SIZE
  6
CONTINUOUS
 62
    30
 10
-1217.857639771601
 20
-596.07142609845096
 30
0.0
 40
50.0
  1
115
 50
90.0
 41
0.9
 72
     1
 11
-1217.857639771601
 21
-546.78571181273662
 31
0.0
  0
POINT
  5
1BB
  8
DEFPOINTS
  6
CONTINUOUS
 62
     7
 10
-724.99999999999693
 20
-354.99999813211252
 30
0.0
  0
POINT
  5
1BC
  8
DEFPOINTS
  6
CONTINUOUS
 62
     7
 10
-700.00000013153613
 20
-469.99999752702229
 30
0.0
  0
POINT
  5
1BD
  8
DEFPOINTS
  6
CONTINUOUS
 62
     7
 10
-1202.857639771601
 20
-469.99999752702229
 30
0.0
  0
LINE
  5
1BE
  8
SIZE
  6
CONTINUOUS
 62
    30
 10
-744.99999999999693
 20
-354.99999813211252
 30
0.0
 11
-1222.857639771601
 21
-354.99999813211241
 31
0.0
  0
LINE
  5
1BF
  8
SIZE
  6
CONTINUOUS
 62
    30
 10
-744.99999999999693
 20
-54.999999710608328
 30
0.0
 11
-1222.857639771601
 21
-54.999999710608201
 31
0.0
  0
LINE
  5
1C0
  8
SIZE
  6
CONTINUOUS
 62
    30
 10
-1202.857639771601
 20
-354.99999813211241
 30
0.0
 11
-1202.857639771601
 21
-54.999999710608201
 31
0.0
  0
CIRCLE
  5
1C1
  8
SIZE
  6
CONTINUOUS
 62
    30
 10
-1202.857639771601
 20
-354.99999813211241
 30
0.0
 40
6.25
  0
CIRCLE
  5
1C2
  8
SIZE
  6
CONTINUOUS
 62
    30
 10
-1202.857639771601
 20
-54.999999710608201
 30
0.0
 40
6.25
  0
TEXT
  5
1C3
  8
SIZE
  6
CONTINUOUS
 62
    30
 10
-1217.857639771601
 20
-262.85714177850332
 30
0.0
 40
50.0
  1
300
 50
90.0
 41
0.9
 72
     1
 11
-1217.857639771601
 21
-204.9999989213604
 31
0.0
  0
POINT
  5
1C4
  8
DEFPOINTS
  6
CONTINUOUS
 62
     7
 10
-724.99999999999693
 20
-354.99999813211252
 30
0.0
  0
POINT
  5
1C6
  8
DEFPOINTS
  6
CONTINUOUS
 62
     7
 10
-1202.857639771601
 20
-54.999999710608201
 30
0.0
  0
TEXT
  5
1C7
  8
SIZE
  6
CONTINUOUS
 62
    30
 10
-1140.3709638662681
 20
-338.04286778176117
 30
0.0
 40
50.0
  1
(ダクト寸法)
 50
90.000002504416585
 41
0.7031250221965211
  7
STANDARD1
  0
TEXT
  5
1C8
  8
NOTE
  6
CONTINUOUS
 62
     4
 10
53.210358809222271
 20
30.214736652375439
 30
0.0
 40
50.0
  1
サービススペース
 50
0.0000025044165917
 41
0.7031250221965211
  7
STANDARD1
  0
TEXT
  5
1C9
  8
NOTE
  6
CONTINUOUS
 62
     4
 10
-233.17547547718911
 20
-544.38633712993692
 30
0.0
 40
50.0
  1
点検口
 50
0.0000025044165917
 41
0.7031250221965211
  7
STANDARD1
  0
LINE
  5
1CA
  8
SIZE
  6
CONTINUOUS
 62
    30
 10
-700.00000013153613
 20
-489.99999752702229
 30
0.0
 11
-700.00000013153613
 21
-709.97468519374263
 31
0.0
  0
LINE
  5
1CB
  8
SIZE
  6
CONTINUOUS
 62
    30
 10
-350.00000197311601
 20
-483.99999755858869
 30
0.0
 11
-350.00000197311601
 21
-709.97468519374263
 31
0.0
  0
LINE
  5
1CC
  8
SIZE
  6
CONTINUOUS
 62
    30
 10
-700.00000013153613
 20
-689.97468519374263
 30
0.0
 11
-350.00000197311601
 21
-689.97468519374263
 31
0.0
  0
CIRCLE
  5
1CD
  8
SIZE
  6
CONTINUOUS
 62
    30
 10
-700.00000013153613
 20
-689.97468519374263
 30
0.0
 40
6.25
  0
CIRCLE
  5
1CE
  8
SIZE
  6
CONTINUOUS
 62
    30
 10
-350.00000197311601
 20
-689.97468519374263
 30
0.0
 40
6.25
  0
TEXT
  5
1CF
  8
SIZE
  6
CONTINUOUS
 62
    30
 10
-544.20471685355415
 20
-674.97468519374286
 30
0.0
 40
50.0
  1
350
 41
0.9
 72
     1
 11
-486.34757399641143
 21
-674.97468519374286
 31
0.0
  0
POINT
  5
1D0
  8
DEFPOINTS
  6
CONTINUOUS
 62
     7
 10
-700.00000013153613
 20
-469.99999752702229
 30
0.0
  0
POINT
  5
1D1
  8
DEFPOINTS
  6
CONTINUOUS
 62
     7
 10
-350.00000197311601
 20
-463.99999755858869
 30
0.0
  0
POINT
  5
1D2
  8
DEFPOINTS
  6
CONTINUOUS
 62
     7
 10
-350.00000197311601
 20
-689.97468519374263
 30
0.0
  0
LINE
  5
1D3
  8
SIZE
  6
CONTINUOUS
 62
    30
 10
-700.00000013153613
 20
-489.99999752702229
 30
0.0
 11
-700.00000013153613
 21
-807.0043741815764
 31
0.0
  0
LINE
  5
1D4
  8
SIZE
  6
CONTINUOUS
 62
    30
 10
-96.000003309579824
 20
-365.99999817946201
 30
0.0
 11
-96.000003309579853
 21
-807.0043741815764
 31
0.0
  0
LINE
  5
1D5
  8
SIZE
  6
CONTINUOUS
 62
    30
 10
-700.00000013153613
 20
-787.00437418157651
 30
0.0
 11
-96.000003309579853
 21
-787.00437418157651
 31
0.0
  0
CIRCLE
  5
1D6
  8
SIZE
  6
CONTINUOUS
 62
    30
 10
-700.00000013153613
 20
-787.00437418157651
 30
0.0
 40
6.25
  0
CIRCLE
  5
1D7
  8
SIZE
  6
CONTINUOUS
 62
    30
 10
-96.000003309579853
 20
-787.00437418157651
 30
0.0
 40
6.25
  0
TEXT
  5
1D8
  8
SIZE
  6
CONTINUOUS
 62
    30
 10
-456.92857314912931
 20
-772.00437418157628
 30
0.0
 40
50.0
  1
604
 41
0.9
 72
     1
 11
-398.00000172055792
 21
-772.00437418157628
 31
0.0
  0
POINT
  5
1D9
  8
DEFPOINTS
  6
CONTINUOUS
 62
     7
 10
-700.00000013153613
 20
-469.99999752702229
 30
0.0
  0
POINT
  5
1DA
  8
DEFPOINTS
  6
CONTINUOUS
 62
     7
 10
-96.000003309579824
 20
-345.99999817946201
 30
0.0
  0
POINT
  5
1DB
  8
DEFPOINTS
  6
CONTINUOUS
 62
     7
 10
-96.000003309579853
 20
-787.00437418157651
 30
0.0
  0
LINE
  5
1DC
  8
SIZE
  6
CONTINUOUS
 62
    30
 10
-96.000003309579824
 20
-365.99999817946201
 30
0.0
 11
-96.000003309579853
 21
-807.0043741815764
 31
0.0
  0
LINE
  5
1DD
  8
SIZE
  6
CONTINUOUS
 62
    30
 10
-0.0000038146954479
 20
-317.99999843202829
 30
0.0
 11
-0.0000038146954778
 21
-807.0043741815764
 31
0.0
  0
LINE
  5
1DE
  8
SIZE
  6
CONTINUOUS
 62
    30
 10
-96.000003309579853
 20
-787.00437418157651
 30
0.0
 11
-0.0000038146954766
 21
-787.00437418157651
 31
0.0
  0
LINE
  5
1DF
  8
SIZE
  6
CONTINUOUS
 62
    30
 10
-0.0000038146954766
 20
-787.00437418157651
 30
0.0
 11
125.7142818995902
 21
-787.00437418157651
 31
0.0
  0
CIRCLE
  5
1E0
  8
SIZE
  6
CONTINUOUS
 62
    30
 10
-96.000003309579853
 20
-787.00437418157651
 30
0.0
 40
6.25
  0
CIRCLE
  5
1E1
  8
SIZE
  6
CONTINUOUS
 62
    30
 10
-0.0000038146954766
 20
-787.00437418157651
 30
0.0
 40
6.25
  0
TEXT
  5
1E2
  8
SIZE
  6
CONTINUOUS
 62
    30
 10
27.499996185304511
 20
-772.00437418157628
 30
0.0
 40
50.0
  1
96
 41
0.9
 72
     1
 11
62.857139042447372
 21
-772.00437418157628
 31
0.0
  0
POINT
  5
1E3
  8
DEFPOINTS
  6
CONTINUOUS
 62
     7
 10
-96.000003309579824
 20
-345.99999817946201
 30
0.0
  0
POINT
  5
1E4
  8
DEFPOINTS
  6
CONTINUOUS
 62
     7
 10
-0.0000038146954466
 20
-297.99999843202841
 30
0.0
  0
POINT
  5
1E5
  8
DEFPOINTS
  6
CONTINUOUS
 62
     7
 10
-0.0000038146954766
 20
-787.00437418157651
 30
0.0
  0
LINE
  5
1E6
  8
SIZE
  6
CONTINUOUS
 62
    30
 10
714.99999242322383
 20
-58.549999586692138
 30
0.0
 11
714.99999242322383
 21
75.89731251495914
 31
0.0
  0
LINE
  5
1E7
  8
SIZE
  6
CONTINUOUS
 62
    30
 10
724.99999237060672
 20
-14.999997711180191
 30
0.0
 11
724.99999237060672
 21
75.89731251495914
 31
0.0
  0
LINE
  5
1E8
  8
SIZE
  6
CONTINUOUS
 62
    30
 10
714.99999242322383
 20
55.897312514959133
 30
0.0
 11
689.99999242322383
 21
55.897312514959133
 31
0.0
  0
LINE
  5
1E9
  8
SIZE
  6
CONTINUOUS
 62
    30
 10
724.99999237060672
 20
55.897312514959133
 30
0.0
 11
840.93266650191435
 21
55.897312514959133
 31
0.0
  0
LINE
  5
1EA
  8
SIZE
  6
CONTINUOUS
 62
    30
 10
714.99999242322383
 20
55.897312514959133
 30
0.0
 11
724.99999237060672
 21
55.897312514959133
 31
0.0
  0
CIRCLE
  5
1EB
  8
SIZE
  6
CONTINUOUS
 62
    30
 10
714.99999242322383
 20
55.897312514959133
 30
0.0
 40
6.25
  0
CIRCLE
  5
1EC
  8
SIZE
  6
CONTINUOUS
 62
    30
 10
724.99999237060672
 20
55.897312514959133
 30
0.0
 40
6.25
  0
TEXT
  5
1ED
  8
SIZE
  6
CONTINUOUS
 62
    30
 10
750.82347229340348
 20
70.89731251495914
 30
0.0
 40
50.0
  1
10
 41
0.9
 72
     1
 11
782.96632943626059
 21
70.89731251495914
 31
0.0
  0
POINT
  5
1EE
  8
DEFPOINTS
  6
CONTINUOUS
 62
     7
 10
714.99999242322383
 20
-78.549999586692124
 30
0.0
  0
POINT
  5
1EF
  8
DEFPOINTS
  6
CONTINUOUS
 62
     7
 10
724.99999237060672
 20
-34.999997711180193
 30
0.0
  0
POINT
  5
1F0
  8
DEFPOINTS
  6
CONTINUOUS
 62
     7
 10
724.99999237060672
 20
55.897312514959133
 30
0.0
  0
LINE
  5
1F1
  8
SIZE
  6
CONTINUOUS
 62
    30
 10
-715.00000005261336
 20
-78.299999482778304
 30
0.0
 11
-715.00000005261336
 21
75.89731251495914
 31
0.0
  0
LINE
  5
1F2
  8
SIZE
  6
CONTINUOUS
 62
    30
 10
-724.99999999999693
 20
-34.999999710608321
 30
0.0
 11
-724.99999999999693
 21
75.89731251495914
 31
0.0
  0
LINE
  5
1F3
  8
SIZE
  6
CONTINUOUS
 62
    30
 10
-715.00000005261336
 20
55.897312514959133
 30
0.0
 11
-690.00000005261336
 21
55.897312514959133
 31
0.0
  0
LINE
  5
1F4
  8
SIZE
  6
CONTINUOUS
 62
    30
 10
-724.99999999999693
 20
55.897312514959133
 30
0.0
 11
-841.56238549526097
 21
55.897312514959133
 31
0.0
  0
LINE
  5
1F5
  8
SIZE
  6
CONTINUOUS
 62
    30
 10
-715.00000005261336
 20
55.897312514959133
 30
0.0
 11
-724.99999999999693
 21
55.897312514959133
 31
0.0
  0
CIRCLE
  5
1F6
  8
SIZE
  6
CONTINUOUS
 62
    30
 10
-715.00000005261336
 20
55.897312514959133
 30
0.0
 40
6.25
  0
CIRCLE
  5
1F7
  8
SIZE
  6
CONTINUOUS
 62
    30
 10
-724.99999999999693
 20
55.897312514959133
 30
0.0
 40
6.25
  0
TEXT
  5
1F8
  8
SIZE
  6
CONTINUOUS
 62
    30
 10
-815.424049890486
 20
70.89731251495914
 30
0.0
 40
50.0
  1
10
 41
0.9
 72
     1
 11
-783.28119274762889
 21
70.89731251495914
 31
0.0
  0
POINT
  5
1F9
  8
DEFPOINTS
  6
CONTINUOUS
 62
     7
 10
-715.00000005261336
 20
-98.299999482778304
 30
0.0
  0
POINT
  5
1FB
  8
DEFPOINTS
  6
CONTINUOUS
 62
     7
 10
-724.99999999999693
 20
55.897312514959133
 30
0.0
  0
LINE
  5
1FC
  8
SIZE
  6
CONTINUOUS
 62
    30
 10
-212.00000269922251
 20
-152.49999909236419
 30
0.0
 11
-212.00000269922239
 21
180.88738306339141
 31
0.0
  0
LINE
  5
1FD
  8
SIZE
  6
CONTINUOUS
 62
    30
 10
-700.00000013153613
 20
20.000000000000899
 30
0.0
 11
-700.00000013153613
 21
180.88738306339141
 31
0.0
  0
LINE
  5
1FE
  8
SIZE
  6
CONTINUOUS
 62
    30
 10
-212.00000269922239
 20
160.88738306339141
 30
0.0
 11
-700.00000013153613
 21
160.88738306339141
 31
0.0
  0
CIRCLE
  5
1FF
  8
SIZE
  6
CONTINUOUS
 62
    30
 10
-212.00000269922239
 20
160.88738306339141
 30
0.0
 40
6.25
  0
CIRCLE
  5
200
  8
SIZE
  6
CONTINUOUS
 62
    30
 10
-700.00000013153613
 20
160.88738306339141
 30
0.0
 40
6.25
  0
TEXT
  5
201
  8
SIZE
  6
CONTINUOUS
 62
    30
 10
-513.85714427252208
 20
175.88738306339141
 30
0.0
 40
50.0
  1
488
 41
0.9
 72
     1
 11
-456.0000014153793
 21
175.88738306339141
 31
0.0
  0
POINT
  5
202
  8
DEFPOINTS
  6
CONTINUOUS
 62
     7
 10
-212.00000269922251
 20
-172.49999909236419
 30
0.0
  0
POINT
  5
203
  8
DEFPOINTS
  6
CONTINUOUS
 62
     7
 10
-700.00000013153613
 20
0.0000000000009024
 30
0.0
  0
POINT
  5
204
  8
DEFPOINTS
  6
CONTINUOUS
 62
     7
 10
-700.00000013153613
 20
160.88738306339141
 30
0.0
  0
LINE
  5
205
  8
SIZE
  6
CONTINUOUS
 62
    30
 10
-700.00000013153613
 20
20.000000000000441
 30
0.0
 11
-700.00000013153613
 21
270.67665752247052
 31
0.0
  0
LINE
  5
206
  8
SIZE
  6
CONTINUOUS
 62
    30
 10
-176.00000288864791
 20
-33.749999717185347
 30
0.0
 11
-176.00000288864791
 21
270.67665752247052
 31
0.0
  0
LINE
  5
207
  8
SIZE
  6
CONTINUOUS
 62
    30
 10
-700.00000013153613
 20
250.67665752247049
 30
0.0
 11
-176.00000288864791
 21
250.67665752247049
 31
0.0
  0
CIRCLE
  5
208
  8
SIZE
  6
CONTINUOUS
 62
    30
 10
-700.00000013153613
 20
250.67665752247049
 30
0.0
 40
6.25
  0
CIRCLE
  5
209
  8
SIZE
  6
CONTINUOUS
 62
    30
 10
-176.00000288864791
 20
250.67665752247049
 30
0.0
 40
6.25
  0
TEXT
  5
20A
  8
SIZE
  6
CONTINUOUS
 62
    30
 10
-496.92857293866342
 20
265.67665752247041
 30
0.0
 40
50.0
  1
524
 41
0.9
 72
     1
 11
-438.00000151009198
 21
265.67665752247041
 31
0.0
  0
POINT
  5
20B
  8
DEFPOINTS
  6
CONTINUOUS
 62
     7
 10
-700.00000013153613
 20
0.0000000000004476
 30
0.0
  0
POINT
  5
20C
  8
DEFPOINTS
  6
CONTINUOUS
 62
     7
 10
-176.00000288864791
 20
-53.749999717185347
 30
0.0
  0
POINT
  5
20D
  8
DEFPOINTS
  6
CONTINUOUS
 62
     7
 10
-176.00000288864791
 20
250.67665752247049
 30
0.0
  0
LINE
  5
20E
  8
NOTE
  6
CONTINUOUS
 62
     4
 10
-649.00000039988925
 20
-19.999999894765999
 30
0.0
 11
-689.00000018942137
 21
-19.999999894765999
 31
0.0
  0
LINE
  5
20F
  8
NOTE
  6
CONTINUOUS
 62
     4
 10
-669.0000002946548
 20
0.0000000000009024
 30
0.0
 11
-669.0000002946548
 21
-39.999999789532922
 31
0.0
  0
LINE
  5
210
  8
NOTE
  6
CONTINUOUS
 62
     4
 10
688.99999256002184
 20
-19.999999894765999
 30
0.0
 11
648.99999277049073
 21
-19.999999894765999
 31
0.0
  0
LINE
  5
211
  8
NOTE
  6
CONTINUOUS
 62
     4
 10
668.99999266525595
 20
0.0000000000009024
 30
0.0
 11
668.99999266525595
 21
-39.999999789532922
 31
0.0
  0
LINE
  5
212
  8
SIZE
  6
CONTINUOUS
 62
    30
 10
-669.0000002946548
 20
20.000000000000899
 30
0.0
 11
-669.0000002946548
 21
356.83774260934149
 31
0.0
  0
LINE
  5
213
  8
SIZE
  6
CONTINUOUS
 62
    30
 10
-699.00000013680415
 20
-17.03138654635768
 30
0.0
 11
-699.00000013680415
 21
356.83774260934149
 31
0.0
  0
LINE
  5
214
  8
SIZE
  6
CONTINUOUS
 62
    30
 10
-669.0000002946548
 20
336.83774260934138
 30
0.0
 11
-644.0000002946548
 21
336.83774260934138
 31
0.0
  0
LINE
  5
215
  8
SIZE
  6
CONTINUOUS
 62
    30
 10
-699.00000013680415
 20
336.83774260934138
 30
0.0
 11
-830.4165875400904
 21
336.83774260934138
 31
0.0
  0
LINE
  5
216
  8
SIZE
  6
CONTINUOUS
 62
    30
 10
-669.0000002946548
 20
336.83774260934138
 30
0.0
 11
-699.00000013680415
 21
336.83774260934138
 31
0.0
  0
CIRCLE
  5
217
  8
SIZE
  6
CONTINUOUS
 62
    30
 10
-669.0000002946548
 20
336.83774260934138
 30
0.0
 40
6.25
  0
CIRCLE
  5
218
  8
SIZE
  6
CONTINUOUS
 62
    30
 10
-699.00000013680415
 20
336.83774260934138
 30
0.0
 40
6.25
  0
TEXT
  5
219
  8
SIZE
  6
CONTINUOUS
 62
    30
 10
-812.91366533168912
 20
351.83774260934138
 30
0.0
 40
50.0
  1
30
 41
0.9
 72
     1
 11
-776.48509390311767
 21
351.83774260934138
 31
0.0
  0
POINT
  5
21A
  8
DEFPOINTS
  6
CONTINUOUS
 62
     7
 10
-669.0000002946548
 20
0.0000000000009024
 30
0.0
  0
POINT
  5
21B
  8
DEFPOINTS
  6
CONTINUOUS
 62
     7
 10
-699.00000013680415
 20
-19.999999894765999
 30
0.0
  0
POINT
  5
21C
  8
DEFPOINTS
  6
CONTINUOUS
 62
     7
 10
-699.00000013680415
 20
336.83774260934138
 30
0.0
  0
LINE
  5
21D
  8
SIZE
  6
CONTINUOUS
 62
    30
 10
-669.0000002946548
 20
20.000000000000899
 30
0.0
 11
-669.0000002946548
 21
356.83774260934149
 31
0.0
  0
LINE
  5
21E
  8
SIZE
  6
CONTINUOUS
 62
    30
 10
668.99999266525595
 20
20.000000000000899
 30
0.0
 11
668.99999266525595
 21
356.83774260934149
 31
0.0
  0
LINE
  5
21F
  8
SIZE
  6
CONTINUOUS
 62
    30
 10
-669.0000002946548
 20
336.83774260934138
 30
0.0
 11
668.99999266525595
 21
336.83774260934138
 31
0.0
  0
CIRCLE
  5
220
  8
SIZE
  6
CONTINUOUS
 62
    30
 10
-669.0000002946548
 20
336.83774260934138
 30
0.0
 40
6.25
  0
CIRCLE
  5
221
  8
SIZE
  6
CONTINUOUS
 62
    30
 10
668.99999266525595
 20
336.83774260934138
 30
0.0
 40
6.25
  0
TEXT
  5
222
  8
SIZE
  6
CONTINUOUS
 62
    30
 10
-333.42857524327098
 20
364.93298070457939
 30
0.0
 40
50.0
  1
1338 (吊りボルトピッチ)
 41
0.9
 72
     1
 11
-0.0000038146995394
 21
364.93298070457939
 31
0.0
  0
POINT
  5
223
  8
DEFPOINTS
  6
CONTINUOUS
 62
     7
 10
-669.0000002946548
 20
0.0000000000009024
 30
0.0
  0
POINT
  5
224
  8
DEFPOINTS
  6
CONTINUOUS
 62
     7
 10
668.99999266525595
 20
0.0000000000009024
 30
0.0
  0
POINT
  5
225
  8
DEFPOINTS
  6
CONTINUOUS
 62
     7
 10
668.99999266525595
 20
336.83774260934138
 30
0.0
  0
LINE
  5
226
  8
SIZE
  6
CONTINUOUS
 62
    30
 10
-700.00000013153613
 20
20.000000000000899
 30
0.0
 11
-700.00000013153613
 21
480.25540325383378
 31
0.0
  0
LINE
  5
227
  8
SIZE
  6
CONTINUOUS
 62
    30
 10
-724.99999999999693
 20
-34.999999710608321
 30
0.0
 11
-724.99999999999693
 21
480.25540325383378
 31
0.0
  0
LINE
  5
228
  8
SIZE
  6
CONTINUOUS
 62
    30
 10
-700.00000013153613
 20
460.255403253834
 30
0.0
 11
-675.00000013153613
 21
460.255403253834
 31
0.0
  0
LINE
  5
229
  8
SIZE
  6
CONTINUOUS
 62
    30
 10
-724.99999999999693
 20
460.255403253834
 30
0.0
 11
-841.96228530758162
 21
460.255403253834
 31
0.0
  0
LINE
  5
22A
  8
SIZE
  6
CONTINUOUS
 62
    30
 10
-700.00000013153613
 20
460.255403253834
 30
0.0
 11
-724.99999999999693
 21
460.255403253834
 31
0.0
  0
CIRCLE
  5
22B
  8
SIZE
  6
CONTINUOUS
 62
    30
 10
-700.00000013153613
 20
460.255403253834
 30
0.0
 40
6.25
  0
CIRCLE
  5
22C
  8
SIZE
  6
CONTINUOUS
 62
    30
 10
-724.99999999999693
 20
460.255403253834
 30
0.0
 40
6.25
  0
TEXT
  5
22D
  8
SIZE
  6
CONTINUOUS
 62
    30
 10
-819.90971408236067
 20
475.25540325383378
 30
0.0
 40
50.0
  1
25
 41
0.9
 72
     1
 11
-783.48114265378922
 21
475.25540325383378
 31
0.0
  0
POINT
  5
22E
  8
DEFPOINTS
  6
CONTINUOUS
 62
     7
 10
-700.00000013153613
 20
0.0000000000009024
 30
0.0
  0
POINT
  5
230
  8
DEFPOINTS
  6
CONTINUOUS
 62
     7
 10
-724.99999999999693
 20
460.255403253834
 30
0.0
  0
LINE
  5
231
  8
SIZE
  6
CONTINUOUS
 62
    30
 10
-700.00000013153613
 20
20.000000000000899
 30
0.0
 11
-700.00000013153613
 21
480.25540325383378
 31
0.0
  0
LINE
  5
232
  8
SIZE
  6
CONTINUOUS
 62
    30
 10
700.00000013153965
 20
20.000000000000441
 30
0.0
 11
700.00000013153965
 21
480.25540325383378
 31
0.0
  0
LINE
  5
233
  8
SIZE
  6
CONTINUOUS
 62
    30
 10
-700.00000013153613
 20
460.255403253834
 30
0.0
 11
700.00000013153965
 21
460.255403253834
 31
0.0
  0
CIRCLE
  5
234
  8
SIZE
  6
CONTINUOUS
 62
    30
 10
-700.00000013153613
 20
460.255403253834
 30
0.0
 40
6.25
  0
CIRCLE
  5
235
  8
SIZE
  6
CONTINUOUS
 62
    30
 10
700.00000013153965
 20
460.255403253834
 30
0.0
 40
6.25
  0
TEXT
  5
236
  8
SIZE
  6
CONTINUOUS
 62
    30
 10
-171.4285714285696
 20
488.35064134907202
 30
0.0
 40
50.0
  1
1400 (本体)
 41
0.9
 72
     1
 11
0.000000000001819
 21
488.35064134907202
 31
0.0
  0
POINT
  5
237
  8
DEFPOINTS
  6
CONTINUOUS
 62
     7
 10
-700.00000013153613
 20
0.0000000000009024
 30
0.0
  0
POINT
  5
238
  8
DEFPOINTS
  6
CONTINUOUS
 62
     7
 10
700.00000013153965
 20
0.0000000000004476
 30
0.0
  0
POINT
  5
239
  8
DEFPOINTS
  6
CONTINUOUS
 62
     7
 10
700.00000013153965
 20
460.255403253834
 30
0.0
  0
LINE
  5
23A
  8
SIZE
  6
CONTINUOUS
 62
    30
 10
700.00000013153965
 20
20.000000000000441
 30
0.0
 11
700.00000013153965
 21
480.25540325383378
 31
0.0
  0
LINE
  5
23B
  8
SIZE
  6
CONTINUOUS
 62
    30
 10
724.99999237060672
 20
-14.999997711180191
 30
0.0
 11
724.99999237060672
 21
480.25540325383378
 31
0.0
  0
LINE
  5
23C
  8
SIZE
  6
CONTINUOUS
 62
    30
 10
700.00000013153965
 20
460.255403253834
 30
0.0
 11
675.00000013153965
 21
460.255403253834
 31
0.0
  0
LINE
  5
23D
  8
SIZE
  6
CONTINUOUS
 62
    30
 10
724.99999237060672
 20
460.255403253834
 30
0.0
 11
855.3109112426755
 21
460.255403253834
 31
0.0
  0
LINE
  5
23E
  8
SIZE
  6
CONTINUOUS
 62
    30
 10
700.00000013153965
 20
460.255403253834
 30
0.0
 11
724.99999237060672
 21
460.255403253834
 31
0.0
  0
CIRCLE
  5
23F
  8
SIZE
  6
CONTINUOUS
 62
    30
 10
700.00000013153965
 20
460.255403253834
 30
0.0
 40
6.25
  0
CIRCLE
  5
240
  8
SIZE
  6
CONTINUOUS
 62
    30
 10
724.99999237060672
 20
460.255403253834
 30
0.0
 40
6.25
  0
TEXT
  5
241
  8
SIZE
  6
CONTINUOUS
 62
    30
 10
753.72688037806972
 20
475.25540325383378
 30
0.0
 40
50.0
  1
25
 41
0.9
 72
     1
 11
790.15545180664105
 21
475.25540325383378
 31
0.0
  0
POINT
  5
242
  8
DEFPOINTS
  6
CONTINUOUS
 62
     7
 10
700.00000013153965
 20
0.0000000000004476
 30
0.0
  0
POINT
  5
243
  8
DEFPOINTS
  6
CONTINUOUS
 62
     7
 10
724.99999237060672
 20
-34.999997711180193
 30
0.0
  0
POINT
  5
244
  8
DEFPOINTS
  6
CONTINUOUS
 62
     7
 10
724.99999237060672
 20
460.255403253834
 30
0.0
  0
LINE
  5
245
  8
SIZE
  6
CONTINUOUS
 62
    30
 10
-724.99999999999693
 20
-34.999999710608321
 30
0.0
 11
-724.99999999999693
 21
602.83951905443826
 31
0.0
  0
LINE
  5
246
  8
SIZE
  6
CONTINUOUS
 62
    30
 10
724.99999237060672
 20
-14.999997711180191
 30
0.0
 11
724.99999237060672
 21
602.83951905443826
 31
0.0
  0
LINE
  5
247
  8
SIZE
  6
CONTINUOUS
 62
    30
 10
-724.99999999999693
 20
582.83951905443826
 30
0.0
 11
724.99999237060672
 21
582.83951905443826
 31
0.0
  0
CIRCLE
  5
248
  8
SIZE
  6
CONTINUOUS
 62
    30
 10
-724.99999999999693
 20
582.83951905443826
 30
0.0
 40
6.25
  0
CIRCLE
  5
249
  8
SIZE
  6
CONTINUOUS
 62
    30
 10
724.99999237060672
 20
582.83951905443826
 30
0.0
 40
6.25
  0
TEXT
  5
24A
  8
SIZE
  6
CONTINUOUS
 62
    30
 10
-75.000003814695191
 20
597.83951905443826
 30
0.0
 40
50.0
  1
1450
 41
0.9
 72
     1
 11
-0.0000038146952193
 21
597.83951905443826
 31
0.0
  0
POINT
  5
24C
  8
DEFPOINTS
  6
CONTINUOUS
 62
     7
 10
724.99999237060672
 20
-34.999997711180193
 30
0.0
  0
POINT
  5
24D
  8
DEFPOINTS
  6
CONTINUOUS
 62
     7
 10
724.99999237060672
 20
582.83951905443826
 30
0.0
  0
LINE
  5
24E
  8
SIZE
  6
CONTINUOUS
 62
    30
 10
-399.00000182053412
 20
-434.99999771117967
 30
0.0
 11
-444.18677737046301
 21
-434.99999771117967
 31
0.0
  0
LINE
  5
24F
  8
SIZE
  6
CONTINUOUS
 62
    30
 10
-680.00000013153601
 20
-469.99999752702229
 30
0.0
 11
-404.18677737046301
 21
-469.99999752702229
 31
0.0
  0
LINE
  5
250
  8
SIZE
  6
CONTINUOUS
 62
    30
 10
-424.18677737046301
 20
-434.99999771117967
 30
0.0
 11
-424.18677737046301
 21
-469.99999752702229
 31
0.0
  0
LINE
  5
251
  8
SIZE
  6
CONTINUOUS
 62
    30
 10
-424.18677737046301
 20
-469.99999752702229
 30
0.0
 11
-424.18677737046301
 21
-597.85714038416529
 31
0.0
  0
CIRCLE
  5
252
  8
SIZE
  6
CONTINUOUS
 62
    30
 10
-424.18677737046301
 20
-434.99999771117967
 30
0.0
 40
6.25
  0
CIRCLE
  5
253
  8
SIZE
  6
CONTINUOUS
 62
    30
 10
-424.18677737046301
 20
-469.99999752702229
 30
0.0
 40
6.25
  0
TEXT
  5
254
  8
SIZE
  6
CONTINUOUS
 62
    30
 10
-439.18677737046272
 20
-582.85714038416552
 30
0.0
 40
50.0
  1
35
 50
90.0
 41
0.9
 72
     1
 11
-439.18677737046272
 21
-546.42856895559396
 31
0.0
  0
POINT
  5
255
  8
DEFPOINTS
  6
CONTINUOUS
 62
     7
 10
-379.00000182053412
 20
-434.99999771117979
 30
0.0
  0
POINT
  5
256
  8
DEFPOINTS
  6
CONTINUOUS
 62
     7
 10
-700.00000013153613
 20
-469.99999752702229
 30
0.0
  0
POINT
  5
257
  8
DEFPOINTS
  6
CONTINUOUS
 62
     7
 10
-424.18677737046301
 20
-469.99999752702229
 30
0.0
  0
LINE
  5
258
  8
SIZE
  6
CONTINUOUS
 62
    30
 10
-680.00000013153601
 20
-469.99999752702229
 30
0.0
 11
-254.12773880738141
 21
-469.9999975270224
 31
0.0
  0
LINE
  5
259
  8
SIZE
  6
CONTINUOUS
 62
    30
 10
-249.50000260714339
 20
-189.99999900028519
 30
0.0
 11
-294.12773880738121
 21
-189.99999900028519
 31
0.0
  0
LINE
  5
25A
  8
SIZE
  6
CONTINUOUS
 62
    30
 10
-274.12773880738138
 20
-469.9999975270224
 30
0.0
 11
-274.12773880738132
 21
-189.99999900028519
 31
0.0
  0
CIRCLE
  5
25B
  8
SIZE
  6
CONTINUOUS
 62
    30
 10
-274.12773880738138
 20
-469.9999975270224
 30
0.0
 40
6.25
  0
CIRCLE
  5
25C
  8
SIZE
  6
CONTINUOUS
 62
    30
 10
-274.12773880738132
 20
-189.99999900028519
 30
0.0
 40
6.25
  0
TEXT
  5
25D
  8
SIZE
  6
CONTINUOUS
 62
    30
 10
-289.12773880738132
 20
-362.65251693754101
 30
0.0
 40
50.0
  1
280
 50
90.0
 41
0.9
 72
     1
 11
-289.12773880738132
 21
-304.79537408039818
 31
0.0
  0
POINT
  5
25E
  8
DEFPOINTS
  6
CONTINUOUS
 62
     7
 10
-700.00000013153613
 20
-469.99999752702229
 30
0.0
  0
POINT
  5
25F
  8
DEFPOINTS
  6
CONTINUOUS
 62
     7
 10
-229.50000260714339
 20
-189.99999900028519
 30
0.0
  0
POINT
  5
260
  8
DEFPOINTS
  6
CONTINUOUS
 62
     7
 10
-274.12773880738132
 20
-189.99999900028519
 30
0.0
  0
LINE
  5
261
  8
SIZE
  6
CONTINUOUS
 62
    30
 10
-720.00000013153613
 20
-469.99999752702229
 30
0.0
 11
-1028.7459769134709
 21
-469.99999752702229
 31
0.0
  0
LINE
  5
262
  8
SIZE
  6
CONTINUOUS
 62
    30
 10
-217.2500027768383
 20
-74.999999605375251
 30
0.0
 11
-1028.7459769134709
 21
-74.999999605374981
 31
0.0
  0
LINE
  5
263
  8
SIZE
  6
CONTINUOUS
 62
    30
 10
-1008.7459769134711
 20
-469.99999752702229
 30
0.0
 11
-1008.7459769134711
 21
-74.999999605374981
 31
0.0
  0
CIRCLE
  5
264
  8
SIZE
  6
CONTINUOUS
 62
    30
 10
-1008.7459769134711
 20
-469.99999752702229
 30
0.0
 40
6.25
  0
CIRCLE
  5
265
  8
SIZE
  6
CONTINUOUS
 62
    30
 10
-1008.7459769134711
 20
-74.999999605374981
 30
0.0
 40
6.25
  0
TEXT
  5
266
  8
SIZE
  6
CONTINUOUS
 62
    30
 10
-1023.74597691347
 20
-330.35714142334172
 30
0.0
 40
50.0
  1
395
 50
90.0
 41
0.9
 72
     1
 11
-1023.74597691347
 21
-272.49999856619888
 31
0.0
  0
POINT
  5
267
  8
DEFPOINTS
  6
CONTINUOUS
 62
     7
 10
-700.00000013153613
 20
-469.99999752702229
 30
0.0
  0
POINT
  5
268
  8
DEFPOINTS
  6
CONTINUOUS
 62
     7
 10
-197.2500027768383
 20
-74.999999605375251
 30
0.0
  0
POINT
  5
269
  8
DEFPOINTS
  6
CONTINUOUS
 62
     7
 10
-1008.7459769134711
 20
-74.999999605374981
 30
0.0
  0
LINE
  5
26A
  8
SIZE
  6
CONTINUOUS
 62
    30
 10
-45.000003472687233
 20
-314.99999834257869
 30
0.0
 11
172.0316485752569
 21
-314.99999834257881
 31
0.0
  0
LINE
  5
26B
  8
SIZE
  6
CONTINUOUS
 62
    30
 10
680.00000013153965
 20
-469.99999752701967
 30
0.0
 11
132.03164857525681
 21
-469.9999975270195
 31
0.0
  0
LINE
  5
26C
  8
SIZE
  6
CONTINUOUS
 62
    30
 10
152.0316485752569
 20
-314.99999834257881
 30
0.0
 11
152.0316485752569
 21
-469.9999975270195
 31
0.0
  0
CIRCLE
  5
26D
  8
SIZE
  6
CONTINUOUS
 62
    30
 10
152.0316485752569
 20
-314.99999834257881
 30
0.0
 40
6.25
  0
CIRCLE
  5
26E
  8
SIZE
  6
CONTINUOUS
 62
    30
 10
152.0316485752569
 20
-469.9999975270195
 30
0.0
 40
6.25
  0
TEXT
  5
26F
  8
SIZE
  6
CONTINUOUS
 62
    30
 10
137.0316485752569
 20
-446.07142650622768
 30
0.0
 40
50.0
  1
155
 50
90.0
 41
0.9
 72
     1
 11
137.0316485752569
 21
-392.49999793479913
 31
0.0
  0
POINT
  5
270
  8
DEFPOINTS
  6
CONTINUOUS
 62
     7
 10
-65.000003472687212
 20
-314.99999834257869
 30
0.0
  0
POINT
  5
271
  8
DEFPOINTS
  6
CONTINUOUS
 62
     7
 10
700.00000013153965
 20
-469.99999752701967
 30
0.0
  0
POINT
  5
272
  8
DEFPOINTS
  6
CONTINUOUS
 62
     7
 10
152.0316485752569
 20
-469.9999975270195
 30
0.0
  0
LINE
  5
273
  8
SIZE
  6
CONTINUOUS
 62
    30
 10
-45.000003472687233
 20
-314.99999834257869
 30
0.0
 11
172.0316485752569
 21
-314.99999834257881
 31
0.0
  0
LINE
  5
274
  8
SIZE
  6
CONTINUOUS
 62
    30
 10
42.999996064289
 20
-274.9999985530448
 30
0.0
 11
172.0316485752569
 21
-274.9999985530448
 31
0.0
  0
LINE
  5
275
  8
SIZE
  6
CONTINUOUS
 62
    30
 10
152.0316485752569
 20
-314.99999834257881
 30
0.0
 11
152.0316485752569
 21
-274.9999985530448
 31
0.0
  0
LINE
  5
276
  8
SIZE
  6
CONTINUOUS
 62
    30
 10
152.0316485752569
 20
-274.9999985530448
 30
0.0
 11
152.0316485752569
 21
-147.1428556959018
 31
0.0
  0
CIRCLE
  5
277
  8
SIZE
  6
CONTINUOUS
 62
    30
 10
152.0316485752569
 20
-314.99999834257881
 30
0.0
 40
6.25
  0
CIRCLE
  5
278
  8
SIZE
  6
CONTINUOUS
 62
    30
 10
152.0316485752569
 20
-274.9999985530448
 30
0.0
 40
6.25
  0
TEXT
  5
279
  8
SIZE
  6
CONTINUOUS
 62
    30
 10
137.0316485752569
 20
-234.99999855304469
 30
0.0
 40
50.0
  1
40
 50
90.0
 41
0.9
 72
     1
 11
137.0316485752569
 21
-198.5714271244733
 31
0.0
  0
POINT
  5
27A
  8
DEFPOINTS
  6
CONTINUOUS
 62
     7
 10
-65.000003472687212
 20
-314.99999834257869
 30
0.0
  0
POINT
  5
27B
  8
DEFPOINTS
  6
CONTINUOUS
 62
     7
 10
22.999996064289011
 20
-274.9999985530448
 30
0.0
  0
POINT
  5
27C
  8
DEFPOINTS
  6
CONTINUOUS
 62
     7
 10
152.0316485752569
 20
-274.9999985530448
 30
0.0
  0
LINE
  5
27D
  8
NOTE
  6
CONTINUOUS
 62
     4
 10
774.8258011621997
 20
-255.2060608051037
 30
0.0
 11
734.82580137266359
 21
-226.33854749751339
 31
0.0
  0
LINE
  5
27E
  8
NOTE
  6
CONTINUOUS
 62
     4
 10
774.8258011621997
 20
-197.47103418992299
 30
0.0
 11
734.82580137266359
 21
-226.33854749751339
 31
0.0
  0
LINE
  5
27F
  8
NOTE
  6
CONTINUOUS
 62
     4
 10
774.8258011621997
 20
-211.3385475764384
 30
0.0
 11
774.8258011621997
 21
-197.47103418992299
 31
0.0
  0
LINE
  5
280
  8
NOTE
  6
CONTINUOUS
 62
     4
 10
804.82580100434996
 20
-241.3385474185884
 30
0.0
 11
774.8258011621997
 21
-241.3385474185884
 31
0.0
  0
LINE
  5
281
  8
NOTE
  6
CONTINUOUS
 62
     4
 10
804.82580100434996
 20
-211.3385475764384
 30
0.0
 11
774.8258011621997
 21
-211.3385475764384
 31
0.0
  0
LINE
  5
282
  8
NOTE
  6
CONTINUOUS
 62
     4
 10
774.8258011621997
 20
-255.2060608051037
 30
0.0
 11
774.8258011621997
 21
-241.3385474185884
 31
0.0
  0
LINE
  5
283
  8
NOTE
  6
CONTINUOUS
 62
     4
 10
804.82580100434996
 20
-211.3385475764384
 30
0.0
 11
804.82580100434996
 21
-241.3385474185884
 31
0.0
  0
LINE
  5
284
  8
NOTE
  6
CONTINUOUS
 62
     4
 10
-765.54034937664414
 20
-232.51482617272671
 30
0.0
 11
-805.54034916618036
 21
-203.6473128651364
 31
0.0
  0
LINE
  5
285
  8
NOTE
  6
CONTINUOUS
 62
     4
 10
-765.54034937664414
 20
-174.779799557546
 30
0.0
 11
-805.54034916618036
 21
-203.6473128651364
 31
0.0
  0
LINE
  5
286
  8
NOTE
  6
CONTINUOUS
 62
     4
 10
-765.54034937664414
 20
-188.64731294406141
 30
0.0
 11
-765.54034937664414
 21
-174.779799557546
 31
0.0
  0
LINE
  5
287
  8
NOTE
  6
CONTINUOUS
 62
     4
 10
-735.54034953449525
 20
-218.6473127862113
 30
0.0
 11
-765.54034937664414
 21
-218.6473127862113
 31
0.0
  0
LINE
  5
288
  8
NOTE
  6
CONTINUOUS
 62
     4
 10
-735.54034953449525
 20
-188.64731294406141
 30
0.0
 11
-765.54034937664414
 21
-188.64731294406141
 31
0.0
  0
LINE
  5
289
  8
NOTE
  6
CONTINUOUS
 62
     4
 10
-765.54034937664414
 20
-232.51482617272671
 30
0.0
 11
-765.54034937664414
 21
-218.6473127862113
 31
0.0
  0
LINE
  5
28A
  8
NOTE
  6
CONTINUOUS
 62
     4
 10
-735.54034953449525
 20
-188.64731294406141
 30
0.0
 11
-735.54034953449525
 21
-218.6473127862113
 31
0.0
  0
TEXT
  5
28B
  8
NOTE
  6
CONTINUOUS
 62
     4
 10
107.5839817829528
 20
-662.30333169176947
 30
0.0
 40
50.0
  1
RG %%C15.88
 50
0.0000025044165917
 41
0.7
  7
STANDARD1
  0
LINE
  5
28C
  8
NOTE
  6
CONTINUOUS
 62
     4
 10
401.4122203277484
 20
-675.98066811552906
 30
0.0
 11
97.912221284937914
 21
-675.98066811552906
 31
0.0
  0
TEXT
  5
28D
  8
NOTE
  6
CONTINUOUS
 62
     4
 10
108.28872536496139
 20
-569.37327467183195
 30
0.0
 40
50.0
  1
RL %%C9.52
 50
0.0000025044165917
 41
0.7
  7
STANDARD1
  0
LINE
  5
28E
  8
NOTE
  6
CONTINUOUS
 62
     4
 10
370.51872475638658
 20
-583.05061109559165
 30
0.0
 11
98.616964866946546
 21
-583.05061109559165
 31
0.0
  0
LINE
  5
28F
  8
NOTE
  6
CONTINUOUS
 62
     4
 10
98.616964866946546
 20
-583.05061109559165
 30
0.0
 11
-0.0000038146954466
 21
-274.99999855304441
 31
0.0
  0
LINE
  5
290
  8
NOTE
  6
CONTINUOUS
 62
     4
 10
97.912221284937914
 20
-675.98066811552906
 30
0.0
 11
-96.000003309579824
 21
-314.99999834257869
 31
0.0
  0
TEXT
  5
291
  8
NOTE
  6
CONTINUOUS
 62
     4
 10
-12.857557696775981
 20
127.23760959305071
 30
0.0
 40
50.0
  1
加湿器給水口(1/2B)
 50
0.0000025044165917
 41
0.7
  7
STANDARD1
  0
LINE
  5
292
  8
NOTE
  6
CONTINUOUS
 62
     4
 10
433.2619329607823
 20
113.56027316929099
 30
0.0
 11
-22.529318194791351
 21
113.56027316929099
 31
0.0
  0
TEXT
  5
293
  8
NOTE
  6
CONTINUOUS
 62
     4
 10
-32.125635952682842
 20
232.77488658186701
 30
0.0
 40
50.0
  1
D2
 50
0.0000025044165917
 41
0.7
  7
STANDARD1
  0
LINE
  5
294
  8
NOTE
  6
CONTINUOUS
 62
     4
 10
37.64681558271559
 20
219.09755015810731
 30
0.0
 11
-41.797396450698223
 21
219.09755015810731
 31
0.0
  0
LINE
  5
295
  8
NOTE
  6
CONTINUOUS
 62
     4
 10
-22.529318194791351
 20
113.56027316929099
 30
0.0
 11
-212.00000269922251
 21
-189.99999900028519
 31
0.0
  0
LINE
  5
296
  8
NOTE
  6
CONTINUOUS
 62
     4
 10
-176.00000288864791
 20
-74.999999605375251
 30
0.0
 11
-41.797396450698223
 21
219.09755015810731
 31
0.0
  0
TEXT
  5
297
  8
NOTE
  6
CONTINUOUS
 62
     4
 10
-289.15397080795719
 20
-630.29298996159685
 30
0.0
 40
50.0
  1
D1
 50
0.0000025044165917
 41
0.7
  7
STANDARD1
  0
LINE
  5
298
  8
NOTE
  6
CONTINUOUS
 62
     4
 10
-221.95298873538741
 20
-643.97032638535677
 30
0.0
 11
-299.27814246573962
 21
-643.97032638535677
 31
0.0
  0
LINE
  5
299
  8
NOTE
  6
CONTINUOUS
 62
     4
 10
-350.00000197311601
 20
-434.99999771117979
 30
0.0
 11
-299.27814246573962
 21
-643.97032638535677
 31
0.0
  0
TEXT
  5
29A
  8
NOTE
  6
CONTINUOUS
 62
     4
 10
-1182.2719831763879
 20
-17.25351829231068
 30
0.0
 40
50.0
  1
3-%%C3.4
 50
0.0000025044165917
 41
0.7
  7
STANDARD1
  0
LINE
  5
29B
  8
NOTE
  6
CONTINUOUS
 62
     4
 10
-975.7242720894742
 20
-30.930854716070371
 30
0.0
 11
-1189.795394268762
 21
-30.930854716070371
 31
0.0
  0
TEXT
  5
29C
  8
NOTE
  6
CONTINUOUS
 62
     4
 10
928.75978141440783
 20
48.794961934424002
 30
0.0
 40
50.0
  1
4-%%C3.4
 50
0.0000025044165917
 41
0.7
  7
STANDARD1
  0
LINE
  5
29D
  8
NOTE
  6
CONTINUOUS
 62
     4
 10
1132.382513813315
 20
35.11762551066429
 30
0.0
 11
919.08802091639302
 21
35.11762551066429
 31
0.0
  0
LINE
  5
29E
  8
NOTE
  6
CONTINUOUS
 62
     4
 10
919.08802091639302
 20
35.11762551066429
 30
0.0
 11
714.99999242322383
 21
-84.999999552754616
 31
0.0
  0
LINE
  5
29F
  8
NOTE
  6
CONTINUOUS
 62
     4
 10
-975.7242720894742
 20
-30.930854716070371
 30
0.0
 11
-715.00000005261336
 21
-104.9999994475256
 31
0.0
  0
LINE
  5
2A0
  8
SIZE
  6
CONTINUOUS
 62
    30
 10
-700.00000013153613
 20
-489.99999752702229
 30
0.0
 11
-700.00000013153613
 21
-902.53970020291797
 31
0.0
  0
LINE
  5
2A1
  8
SIZE
  6
CONTINUOUS
 62
    30
 10
-750.00000013153704
 20
-509.99999752701962
 30
0.0
 11
-750.00000013153704
 21
-902.53970020291797
 31
0.0
  0
LINE
  5
2A2
  8
SIZE
  6
CONTINUOUS
 62
    30
 10
-700.00000013153613
 20
-882.53970020291774
 30
0.0
 11
-750.00000013153704
 21
-882.53970020291774
 31
0.0
  0
LINE
  5
2A3
  8
SIZE
  6
CONTINUOUS
 62
    30
 10
-750.00000013153704
 20
-882.53970020291774
 30
0.0
 11
-877.8571429886797
 21
-882.53970020291774
 31
0.0
  0
CIRCLE
  5
2A4
  8
SIZE
  6
CONTINUOUS
 62
    30
 10
-700.00000013153613
 20
-882.53970020291774
 30
0.0
 40
6.25
  0
CIRCLE
  5
2A5
  8
SIZE
  6
CONTINUOUS
 62
    30
 10
-750.00000013153704
 20
-882.53970020291774
 30
0.0
 40
6.25
  0
TEXT
  5
2A6
  8
SIZE
  6
CONTINUOUS
 62
    30
 10
-850.35714298867993
 20
-867.53970020291797
 30
0.0
 40
50.0
  1
50
 41
0.9
 72
     1
 11
-813.92857156010825
 21
-867.53970020291797
 31
0.0
  0
POINT
  5
2A7
  8
DEFPOINTS
  6
CONTINUOUS
 62
     7
 10
-700.00000013153613
 20
-469.99999752702229
 30
0.0
  0
POINT
  5
2A8
  8
DEFPOINTS
  6
CONTINUOUS
 62
     7
 10
-750.00000013153704
 20
-489.99999752701967
 30
0.0
  0
POINT
  5
2A9
  8
DEFPOINTS
  6
CONTINUOUS
 62
     7
 10
-750.00000013153704
 20
-882.53970020291774
 30
0.0
  0
LINE
  5
2AA
  8
SIZE
  6
CONTINUOUS
 62
    30
 10
-700.00000013153613
 20
-489.99999752702229
 30
0.0
 11
-700.00000013153613
 21
-902.53970020291797
 31
0.0
  0
LINE
  5
2AB
  8
SIZE
  6
CONTINUOUS
 62
    30
 10
-550.00000013153601
 20
-509.99999752701962
 30
0.0
 11
-550.00000013153601
 21
-902.53970020291797
 31
0.0
  0
LINE
  5
2AC
  8
SIZE
  6
CONTINUOUS
 62
    30
 10
-700.00000013153613
 20
-882.53970020291774
 30
0.0
 11
-550.00000013153601
 21
-882.53970020291774
 31
0.0
  0
CIRCLE
  5
2AD
  8
SIZE
  6
CONTINUOUS
 62
    30
 10
-700.00000013153613
 20
-882.53970020291774
 30
0.0
 40
6.25
  0
CIRCLE
  5
2AE
  8
SIZE
  6
CONTINUOUS
 62
    30
 10
-550.00000013153601
 20
-882.53970020291774
 30
0.0
 40
6.25
  0
TEXT
  5
2AF
  8
SIZE
  6
CONTINUOUS
 62
    30
 10
-678.57142870296457
 20
-867.53970020291797
 30
0.0
 40
50.0
  1
150
 41
0.9
 72
     1
 11
-625.00000013153613
 21
-867.53970020291797
 31
0.0
  0
POINT
  5
2B0
  8
DEFPOINTS
  6
CONTINUOUS
 62
     7
 10
-700.00000013153613
 20
-469.99999752702229
 30
0.0
  0
POINT
  5
2B1
  8
DEFPOINTS
  6
CONTINUOUS
 62
     7
 10
-550.00000013153601
 20
-489.99999752701967
 30
0.0
  0
POINT
  5
2B2
  8
DEFPOINTS
  6
CONTINUOUS
 62
     7
 10
-550.00000013153601
 20
-882.53970020291774
 30
0.0
  0
LINE
  5
2B3
  8
SIZE
  6
CONTINUOUS
 62
    30
 10
-550.00000013153601
 20
-509.99999752701962
 30
0.0
 11
-550.00000013153601
 21
-902.53970020291797
 31
0.0
  0
LINE
  5
2B4
  8
SIZE
  6
CONTINUOUS
 62
    30
 10
549.99999986846251
 20
-509.99999752701962
 30
0.0
 11
549.99999986846251
 21
-902.53970020291797
 31
0.0
  0
LINE
  5
2B5
  8
SIZE
  6
CONTINUOUS
 62
    30
 10
-550.00000013153601
 20
-882.53970020291774
 30
0.0
 11
549.99999986846251
 21
-882.53970020291774
 31
0.0
  0
CIRCLE
  5
2B6
  8
SIZE
  6
CONTINUOUS
 62
    30
 10
-550.00000013153601
 20
-882.53970020291774
 30
0.0
 40
6.25
  0
CIRCLE
  5
2B7
  8
SIZE
  6
CONTINUOUS
 62
    30
 10
549.99999986846251
 20
-882.53970020291774
 30
0.0
 40
6.25
  0
TEXT
  5
2B8
  8
SIZE
  6
CONTINUOUS
 62
    30
 10
-70.714285845822516
 20
-867.53970020291797
 30
0.0
 40
50.0
  1
1100
 41
0.9
 72
     1
 11
-0.0000001315368081
 21
-867.53970020291797
 31
0.0
  0
POINT
  5
2B9
  8
DEFPOINTS
  6
CONTINUOUS
 62
     7
 10
-550.00000013153601
 20
-489.99999752701967
 30
0.0
  0
POINT
  5
2BA
  8
DEFPOINTS
  6
CONTINUOUS
 62
     7
 10
549.99999986846251
 20
-489.99999752701967
 30
0.0
  0
POINT
  5
2BB
  8
DEFPOINTS
  6
CONTINUOUS
 62
     7
 10
549.99999986846251
 20
-882.53970020291774
 30
0.0
  0
TEXT
  5
2BC
  8
NOTE
  6
CONTINUOUS
 62
     4
 10
-1371.6214291029339
 20
206.3365123926836
 30
0.0
 40
50.0
  1
AH 4-14×30長穴 (M10)
 50
0.0000025044165917
 41
0.7
  7
STANDARD1
  0
LINE
  5
2BD
  8
NOTE
  6
CONTINUOUS
 62
     4
 10
-768.02073664603654
 20
192.6591759689239
 30
0.0
 11
-1381.2931896009491
 21
192.6591759689239
 31
0.0
  0
LINE
  5
2BE
  8
NOTE
  6
CONTINUOUS
 62
     4
 10
-768.02073664603654
 20
192.6591759689239
 30
0.0
 11
-669.0000002946548
 21
-19.999999894765999
 31
0.0
  0
CIRCLE
  5
2BF
  8
FIX
  6
CONTINUOUS
 62
    11
 10
668.99999266525595
 20
-19.999999894765999
 30
0.0
 40
16.155115914013201
  0
CIRCLE
  5
2C0
  8
FIX
  6
CONTINUOUS
 62
    11
 10
-669.0000002946548
 20
-19.999999894765999
 30
0.0
 40
16.155115914013201
  0
LINE
  5
2C1
  8
NOTE
  6
CONTINUOUS
 62
     4
 10
-715.00000005261336
 20
-104.9999994475251
 30
0.0
 11
-743.21463878695499
 21
-85.345894759665043
 31
0.0
  0
LINE
  5
2C2
  8
NOTE
  6
CONTINUOUS
 62
     4
 10
-715.00000005261336
 20
-104.9999994475251
 30
0.0
 11
-749.26164634150791
 21
-102.0863653655564
 31
0.0
  0
LINE
  5
2C3
  8
NOTE
  6
CONTINUOUS
 62
     4
 10
-669.0000002946548
 20
-19.999999894765999
 30
0.0
 11
-674.12279977510923
 21
14.001567649597281
 31
0.0
  0
LINE
  5
2C4
  8
NOTE
  6
CONTINUOUS
 62
     4
 10
-669.0000002946548
 20
-19.999999894765999
 30
0.0
 11
-690.43725894709212
 21
6.8848213145615684
 31
0.0
  0
LINE
  5
2C5
  8
NOTE
  6
CONTINUOUS
 62
     4
 10
-350.00000197312318
 20
-434.99999771118371
 30
0.0
 11
-350.71916889688731
 21
-469.37778805504968
 31
0.0
  0
LINE
  5
2C6
  8
NOTE
  6
CONTINUOUS
 62
     4
 10
-350.00000197312318
 20
-434.99999771118371
 30
0.0
 11
-333.4339231877351
 21
-465.13162069544057
 31
0.0
  0
LINE
  5
2C7
  8
NOTE
  6
CONTINUOUS
 62
     4
 10
-96.000003309686235
 20
-314.99999834230249
 30
0.0
 11
-87.508375855787065
 21
-348.3202914558845
 31
0.0
  0
LINE
  5
2C8
  8
NOTE
  6
CONTINUOUS
 62
     4
 10
-96.000003309686235
 20
-314.99999834230249
 30
0.0
 11
-71.985891299797444
 21
-339.61040456336048
 31
0.0
  0
LINE
  5
2C9
  8
NOTE
  6
CONTINUOUS
 62
     4
 10
-0.0000038146940824
 20
-274.9999985530452
 30
0.0
 11
2.265019145514088
 21
-309.3106286985352
 31
0.0
  0
LINE
  5
2CA
  8
NOTE
  6
CONTINUOUS
 62
     4
 10
-0.0000038146940824
 20
-274.9999985530452
 30
0.0
 11
19.116879098153731
 21
-303.58136412023799
 31
0.0
  0
LINE
  5
2CB
  8
NOTE
  6
CONTINUOUS
 62
     4
 10
-212.00000269922251
 20
-189.99999900028561
 30
0.0
 11
-187.0094098291033
 21
-166.38178700210881
 31
0.0
  0
LINE
  5
2CC
  8
NOTE
  6
CONTINUOUS
 62
     4
 10
-212.00000269922251
 20
-189.99999900028561
 30
0.0
 11
-202.16662089722411
 21
-157.050730839594
 31
0.0
  0
LINE
  5
2CD
  8
NOTE
  6
CONTINUOUS
 62
     4
 10
-176.0000028886443
 20
-74.999999605375251
 30
0.0
 11
-153.72913286052599
 21
-48.801564190613611
 31
0.0
  0
LINE
  5
2CE
  8
NOTE
  6
CONTINUOUS
 62
     4
 10
-176.0000028886443
 20
-74.999999605375251
 30
0.0
 11
-169.8120818801053
 21
-41.176053892595071
 31
0.0
  0
LINE
  5
2CF
  8
NOTE
  6
CONTINUOUS
 62
     4
 10
714.99999242321962
 20
-84.999999552752783
 30
0.0
 11
748.07604884725833
 21
-75.601906053287621
 31
0.0
  0
LINE
  5
2D0
  8
NOTE
  6
CONTINUOUS
 62
     4
 10
714.99999242321962
 20
-84.999999552752783
 30
0.0
 11
738.94565043415605
 21
-60.322983274192218
 31
0.0
  0
LINE
  5
2D1
  8
SIZE
  6
CONTINUOUS
 62
    30
 10
720.00000013153965
 20
-469.99999752702229
 30
0.0
 11
1280.6945893306629
 21
-469.99999752702251
 31
0.0
  0
LINE
  5
2D2
  8
SIZE
  6
CONTINUOUS
 62
    30
 10
720.00000013153965
 20
-489.99999752701967
 30
0.0
 11
1280.6945893306629
 21
-489.9999975270199
 31
0.0
  0
LINE
  5
2D3
  8
SIZE
  6
CONTINUOUS
 62
    30
 10
1260.694589330664
 20
-469.99999752702251
 30
0.0
 11
1260.694589330664
 21
-444.99999752702251
 31
0.0
  0
LINE
  5
2D4
  8
SIZE
  6
CONTINUOUS
 62
    30
 10
1260.694589330664
 20
-489.9999975270199
 30
0.0
 11
1260.694589330662
 21
-722.99331997236732
 31
0.0
  0
LINE
  5
2D5
  8
SIZE
  6
CONTINUOUS
 62
    30
 10
1260.694589330664
 20
-469.99999752702251
 30
0.0
 11
1260.694589330664
 21
-489.9999975270199
 31
0.0
  0
CIRCLE
  5
2D6
  8
SIZE
  6
CONTINUOUS
 62
    30
 10
1260.694589330664
 20
-469.99999752702251
 30
0.0
 40
6.25
  0
CIRCLE
  5
2D7
  8
SIZE
  6
CONTINUOUS
 62
    30
 10
1260.694589330664
 20
-489.9999975270199
 30
0.0
 40
6.25
  0
TEXT
  5
2D8
  8
SIZE
  6
CONTINUOUS
 62
    30
 10
1245.6945893306629
 20
-697.35380160683644
 30
0.0
 40
50.0
  1
20以上
 50
90.0
 41
0.9
 72
     1
 11
1245.6945893306629
 21
-606.49665874969355
 31
0.0
  0
POINT
  5
2D9
  8
DEFPOINTS
  6
CONTINUOUS
 62
     7
 10
700.00000013153965
 20
-469.99999752702229
 30
0.0
  0
POINT
  5
2DA
  8
DEFPOINTS
  6
CONTINUOUS
 62
     7
 10
700.00000013153965
 20
-489.99999752701967
 30
0.0
  0
POINT
  5
2DB
  8
DEFPOINTS
  6
CONTINUOUS
 62
     7
 10
1260.694589330664
 20
-489.9999975270199
 30
0.0
  0
LINE
  5
2DC
  8
SIZE
  6
CONTINUOUS
 62
    30
 10
720.00000013153965
 20
0.0000000000004419
 30
0.0
 11
1280.6945893306629
 21
0.0000000000002831
 31
0.0
  0
LINE
  5
2DD
  8
SIZE
  6
CONTINUOUS
 62
    30
 10
720.00000013153965
 20
20.00000000000043
 30
0.0
 11
1280.6945893306629
 21
20.00000000000027
 31
0.0
  0
LINE
  5
2DE
  8
SIZE
  6
CONTINUOUS
 62
    30
 10
1260.694589330664
 20
0.0000000000002888
 30
0.0
 11
1260.694589330664
 21
-24.999999999999709
 31
0.0
  0
LINE
  5
2DF
  8
SIZE
  6
CONTINUOUS
 62
    30
 10
1260.694589330664
 20
20.000000000000281
 30
0.0
 11
1260.694589330664
 21
259.00966530942242
 31
0.0
  0
LINE
  5
2E0
  8
SIZE
  6
CONTINUOUS
 62
    30
 10
1260.694589330664
 20
0.0000000000002888
 30
0.0
 11
1260.694589330664
 21
20.000000000000281
 31
0.0
  0
CIRCLE
  5
2E1
  8
SIZE
  6
CONTINUOUS
 62
    30
 10
1260.694589330664
 20
0.0000000000002888
 30
0.0
 40
6.25
  0
CIRCLE
  5
2E2
  8
SIZE
  6
CONTINUOUS
 62
    30
 10
1260.694589330664
 20
20.000000000000281
 30
0.0
 40
6.25
  0
TEXT
  5
2E3
  8
SIZE
  6
CONTINUOUS
 62
    30
 10
1245.6945893306629
 20
48.647689797568503
 30
0.0
 40
50.0
  1
20以上
 50
90.0
 41
0.9
 72
     1
 11
1245.6945893306629
 21
139.50483265471129
 31
0.0
  0
POINT
  5
2E4
  8
DEFPOINTS
  6
CONTINUOUS
 62
     7
 10
700.00000013153965
 20
0.0000000000004476
 30
0.0
  0
POINT
  5
2E5
  8
DEFPOINTS
  6
CONTINUOUS
 62
     7
 10
700.00000013153965
 20
20.000000000000441
 30
0.0
  0
POINT
  5
2E6
  8
DEFPOINTS
  6
CONTINUOUS
 62
     7
 10
1260.694589330664
 20
20.000000000000281
 30
0.0
  0
LINE
  5
2E7
  8
BASIS
  6
DASHDOT
 62
     6
 10
0.0
 20
53.422722220283958
 30
0.0
 11
0.0
 21
-533.40208320662475
 31
0.0
  0
CIRCLE
  5
2E8
  8
ARRANGE
  6
CONTINUOUS
 62
     1
 10
0.000000000001819
 20
-0.0000000000000071
 30
0.0
 40
50.0
  0
LINE
  5
2E9
  8
ARRANGE
  6
CONTINUOUS
 62
     1
 10
50.037350031330789
 20
-49.522353150325202
 30
0.0
 11
-50.037350031327598
 21
49.522353150325202
 31
0.0
  0
LINE
  5
2EA
  8
ARRANGE
  6
CONTINUOUS
 62
     1
 10
49.963763310503047
 20
49.596594797985702
 30
0.0
 11
-49.963763310499402
 21
-49.596594797982121
 31
0.0
  0
TEXT
  5
2EB
  8
ETC
  6
CONTINUOUS
 62
    61
 10
512.839195699843
 20
654.39413940998611
 30
0.0
 40
60.0
  1
GE-P1080M-G_4
 50
0.0000029998804485
 41
0.8
  0
LINE
  5
2EC
  8
OUTLINE
  6
CONTINUOUS
 62
     3
 10
-700.00000013153613
 20
0.0000000000009024
 30
0.0
 11
700.00000013153965
 21
0.0000000000009024
 31
0.0
  0
LINE
  5
2ED
  8
OUTLINE
  6
CONTINUOUS
 62
     3
 10
700.00000013153965
 20
0.0000000000009024
 30
0.0
 11
700.00000013153965
 21
-469.99999752702229
 31
0.0
  0
LINE
  5
2EE
  8
OUTLINE
  6
CONTINUOUS
 62
     3
 10
700.00000013153965
 20
-469.99999752702229
 30
0.0
 11
-700.00000013153613
 21
-469.99999752702229
 31
0.0
  0
LINE
  5
2EF
  8
OUTLINE
  6
CONTINUOUS
 62
     3
 10
-700.00000013153613
 20
-469.99999752702229
 30
0.0
 11
-700.00000013153613
 21
0.0000000000009024
 31
0.0
  0
LINE
  5
2F0
  8
SIZE
  6
CONTINUOUS
 62
    30
 10
-709.00000018942103
 20
-19.999999894765999
 30
0.0
 11
-914.09148840142643
 21
-19.999999894765921
 31
0.0
  0
LINE
  5
2F1
  8
SIZE
  6
CONTINUOUS
 62
    30
 10
-720.00000013153613
 20
0.0000000000009081
 30
0.0
 11
-914.09148840142643
 21
0.0000000000009631
 31
0.0
  0
LINE
  5
2F2
  8
SIZE
  6
CONTINUOUS
 62
    30
 10
-894.0914884014262
 20
-19.999999894765921
 30
0.0
 11
-894.0914884014262
 21
-44.999999894765942
 31
0.0
  0
LINE
  5
2F3
  8
SIZE
  6
CONTINUOUS
 62
    30
 10
-894.0914884014262
 20
0.0000000000009574
 30
0.0
 11
-894.0914884014262
 21
120.1782412302054
 31
0.0
  0
LINE
  5
2F4
  8
SIZE
  6
CONTINUOUS
 62
    30
 10
-894.0914884014262
 20
-19.999999894765921
 30
0.0
 11
-894.0914884014262
 21
0.0000000000009574
 31
0.0
  0
CIRCLE
  5
2F5
  8
SIZE
  6
CONTINUOUS
 62
    30
 10
-894.0914884014262
 20
-19.999999894765921
 30
0.0
 40
6.25
  0
CIRCLE
  5
2F6
  8
SIZE
  6
CONTINUOUS
 62
    30
 10
-894.0914884014262
 20
0.0000000000009574
 30
0.0
 40
6.25
  0
TEXT
  5
2F7
  8
SIZE
  6
CONTINUOUS
 62
    30
 10
-909.09148840142643
 20
23.660549186531782
 30
0.0
 40
50.0
  1
20
 50
90.0
 41
0.9
 72
     1
 11
-909.09148840142643
 21
60.089120615103198
 31
0.0
  0
POINT
  5
2F8
  8
DEFPOINTS
  6
CONTINUOUS
 62
     7
 10
-689.00000018942137
 20
-19.999999894765999
 30
0.0
  0
POINT
  5
2F9
  8
DEFPOINTS
  6
CONTINUOUS
 62
     7
 10
-700.00000013153613
 20
0.0000000000009024
 30
0.0
  0
POINT
  5
2FA
  8
DEFPOINTS
  6
CONTINUOUS
 62
     7
 10
-894.0914884014262
 20
0.0000000000009574
 30
0.0
  0
ENDSEC
  0
EOF
