  0
SECTION
  2
HEADER
  9
$ACADVER
  1
AC1006
  9
$INSBASE
 10
0.0
 20
0.0
 30
0.0
  9
$EXTMIN
 10
-1452.687079970281
 20
-1458.5992921184329
  9
$EXTMAX
 10
1978.4147746466881
 20
1745.1302770833131
  9
$LIMMIN
 10
-4267.1522210604817
 20
-2696.0832101984129
  9
$LIMMAX
 10
7190.7174225864646
 20
5141.155363923066
  9
$ORTHOMODE
 70
     0
  9
$REGENMODE
 70
     1
  9
$FILLMODE
 70
     1
  9
$QTEXTMODE
 70
     0
  9
$MIRRTEXT
 70
     0
  9
$LTSCALE
 40
20.0
  9
$ATTMODE
 70
     1
  9
$TEXTSIZE
 40
60.0
  9
$TRACEWID
 40
0.05
  9
$TEXTSTYLE
  7
STANDARD1
  9
$CLAYER
  8
NOTE
  9
$CELTYPE
  6
CONTINUOUS
  9
$CECOLOR
 62
     7
  9
$DIMSCALE
 40
1.0
  9
$DIMASZ
 40
30.0
  9
$DIMEXO
 40
20.0
  9
$DIMDLI
 40
80.0
  9
$DIMRND
 40
0.0
  9
$DIMDLE
 40
0.0
  9
$DIMEXE
 40
20.0
  9
$DIMTP
 40
0.0
  9
$DIMTM
 40
0.0
  9
$DIMTXT
 40
40.0
  9
$DIMCEN
 40
0.09
  9
$DIMTSZ
 40
0.0
  9
$DIMTOL
 70
     0
  9
$DIMLIM
 70
     0
  9
$DIMTIH
 70
     0
  9
$DIMTOH
 70
     0
  9
$DIMSE1
 70
     0
  9
$DIMSE2
 70
     0
  9
$DIMTAD
 70
     1
  9
$DIMZIN
 70
     8
  9
$DIMBLK
  1

  9
$DIMASO
 70
     1
  9
$DIMSHO
 70
     0
  9
$DIMPOST
  1

  9
$DIMAPOST
  1

  9
$DIMALT
 70
     0
  9
$DIMALTD
 70
     2
  9
$DIMALTF
 40
25.399999999999999
  9
$DIMLFAC
 40
1.0
  9
$DIMTOFL
 70
     1
  9
$DIMTVP
 40
0.0
  9
$DIMTIX
 70
     0
  9
$DIMSOXD
 70
     0
  9
$DIMSAH
 70
     0
  9
$DIMBLK1
  1

  9
$DIMBLK2
  1

  9
$LUNITS
 70
     2
  9
$LUPREC
 70
     4
  9
$SKETCHINC
 40
0.1
  9
$FILLETRAD
 40
0.0
  9
$AUNITS
 70
     1
  9
$AUPREC
 70
     3
  9
$MENU
  1
ACAD
  9
$ELEVATION
 40
0.0
  9
$THICKNESS
 40
0.0
  9
$LIMCHECK
 70
     0
  9
$CHAMFERA
 40
0.0
  9
$CHAMFERB
 40
0.0
  9
$SKPOLY
 70
     0
  9
$TDCREATE
 40
2455902.607164352
  9
$TDUPDATE
 40
2457751.361967593
  9
$TDINDWG
 40
1.6968386806
  9
$TDUSRTIMER
 40
1.6968350694
  9
$USRTIMER
 70
     1
  9
$ANGBASE
 50
0.0
  9
$ANGDIR
 70
     0
  9
$PDMODE
 70
     3
  9
$PDSIZE
 40
-2.0
  9
$PLINEWID
 40
0.0
  9
$SPLFRAME
 70
     0
  9
$SPLINETYPE
 70
     6
  9
$SPLINESEGS
 70
     8
  9
$SURFTAB1
 70
     6
  9
$SURFTAB2
 70
     6
  9
$SURFTYPE
 70
     6
  9
$SURFU
 70
     6
  9
$SURFV
 70
     6
  9
$UCSNAME
  2

  9
$UCSORG
 10
0.0
 20
0.0
 30
0.0
  9
$UCSXDIR
 10
1.0
 20
0.0
 30
0.0
  9
$UCSYDIR
 10
0.0
 20
1.0
 30
0.0
  9
$USERI1
 70
     0
  9
$USERI2
 70
     0
  9
$USERI3
 70
     0
  9
$USERI4
 70
     0
  9
$USERI5
 70
     0
  9
$USERR1
 40
20.0
  9
$USERR2
 40
0.0
  9
$USERR3
 40
0.0
  9
$USERR4
 40
0.0
  9
$USERR5
 40
0.0
  9
$WORLDVIEW
 70
     1
  9
$ATTDIA
 70
     0
  9
$ATTREQ
 70
     1
  9
$BLIPMODE
 70
     1
  9
$COORDS
 70
     1
  9
$DRAGMODE
 70
     2
  9
$OSMODE
 70
     0
  9
$HANDLING
 70
     0
  9
$HANDSEED
  5
909BC4A
  0
ENDSEC
  0
SECTION
  2
TABLES
  0
TABLE
  2
LTYPE
 70
     2
  0
LTYPE
  2
CONTINUOUS
 70
     0
  3
実線
 72
    65
 73
     0
 40
0.0
  0
LTYPE
  2
DASHDOT
 70
     0
  3
____ _ ____ _ ____ _ ____ _ ____ _ ____ _ ____
 72
    65
 73
     4
 40
5.5
 49
4.0
 49
-0.6
 49
0.3
 49
-0.6
  0
ENDTAB
  0
TABLE
  2
LAYER
 70
    12
  0
LAYER
  2
0
 70
     0
 62
     7
  6
CONTINUOUS
  0
LAYER
  2
OUTLINE
 70
     0
 62
     3
  6
CONTINUOUS
  0
LAYER
  2
DETAIL
 70
     0
 62
     5
  6
CONTINUOUS
  0
LAYER
  2
BASIS
 70
     0
 62
     6
  6
DASHDOT
  0
LAYER
  2
SIZE
 70
     0
 62
    30
  6
CONTINUOUS
  0
LAYER
  2
NOTE
 70
     0
 62
     4
  6
CONTINUOUS
  0
LAYER
  2
ARRANGE
 70
     0
 62
     1
  6
CONTINUOUS
  0
LAYER
  2
FIX
 70
     0
 62
    11
  6
CONTINUOUS
  0
LAYER
  2
SERVICESPACE
 70
     0
 62
     2
  6
DASHDOT
  0
LAYER
  2
ETC
 70
     0
 62
    61
  6
CONTINUOUS
  0
LAYER
  2
SYMBOLLINE
 70
     0
 62
    15
  6
CONTINUOUS
  0
LAYER
  2
DEFPOINTS
 70
     0
 62
     7
  6
CONTINUOUS
  0
ENDTAB
  0
TABLE
  2
STYLE
 70
     2
  0
STYLE
  2
STANDARD
 70
     0
 40
0.0
 41
0.9
 50
0.0
 71
     0
 42
64.0
  3
SIMPLEX
  4
BIGFONT
  0
STYLE
  2
STANDARD1
 70
     0
 40
60.0
 41
0.7
 50
0.0
 71
     0
 42
60.0
  3
MONOTXT.shx
  4
BIGFONT.shx
  0
ENDTAB
  0
TABLE
  2
VIEW
 70
     1
  0
VIEW
  2
ALL
 70
     0
 40
9000.0
 10
241.50664699999999
 20
0.0
 41
12483.01
 11
0.0
 21
0.0
 31
1.0
 12
0.0
 22
0.0
 32
0.0
 42
50.0
 43
0.0
 44
0.0
 50
0.0
 71
     0
  0
ENDTAB
  0
TABLE
  2
UCS
 70
     0
  0
ENDTAB
  0
TABLE
  2
VPORT
 70
     1
  0
VPORT
  2
*ACTIVE
 70
     0
 10
0.0
 20
0.0
 11
1.0
 21
1.0
 12
262.86384733820341
 22
143.2654924824401
 13
0.0
 23
0.0
 14
50.0
 24
50.0
 15
100.0
 25
100.0
 16
0.0
 26
0.0
 36
1.0
 17
0.0
 27
0.0
 37
0.0
 40
3226.2382078612441
 41
1.72801875732708
 42
50.0
 43
0.0
 44
0.0
 50
0.0
 51
0.0
 71
     0
 72
  1000
 73
     1
 74
     0
 75
     0
 76
     0
 77
     0
 78
     0
  0
ENDTAB
  0
TABLE
  2
DWGMGR
 70
     0
  0
ENDTAB
  0
ENDSEC
  0
SECTION
  2
BLOCKS
  0
ENDSEC
  0
SECTION
  2
ENTITIES
  0
LINE
  8
DETAIL
  6
CONTINUOUS
 62
     5
 10
406.80002354929093
 20
793.49999999999898
 30
0.0
 11
3.800023549290926
 21
793.49999999999898
 31
0.0
  0
LINE
  8
DETAIL
  6
CONTINUOUS
 62
     5
 10
3.800023549290926
 20
793.49999999999898
 30
0.0
 11
-396.19997645070907
 21
793.49999999999898
 31
0.0
  0
LINE
  8
DETAIL
  6
CONTINUOUS
 62
     5
 10
-396.19997645070907
 20
703.49999999999909
 30
0.0
 11
3.800023549290926
 21
703.49999999999909
 31
0.0
  0
LINE
  8
DETAIL
  6
CONTINUOUS
 62
     5
 10
3.800023549290926
 20
703.49999999999909
 30
0.0
 11
406.80002354929093
 21
703.49999999999909
 31
0.0
  0
LINE
  8
DETAIL
  6
CONTINUOUS
 62
     5
 10
406.80002354929093
 20
698.49999999999909
 30
0.0
 11
-396.19997645070907
 21
698.49999999999909
 31
0.0
  0
LINE
  8
DETAIL
  6
CONTINUOUS
 62
     5
 10
-396.19997645070907
 20
608.49999999999909
 30
0.0
 11
3.800023549290926
 21
608.49999999999909
 31
0.0
  0
LINE
  8
DETAIL
  6
CONTINUOUS
 62
     5
 10
3.800023549290926
 20
608.49999999999909
 30
0.0
 11
406.80002354929093
 21
608.49999999999909
 31
0.0
  0
LINE
  8
DETAIL
  6
CONTINUOUS
 62
     5
 10
406.80002354929093
 20
793.49999999999898
 30
0.0
 11
406.80002354929093
 21
703.49999999999909
 31
0.0
  0
LINE
  8
DETAIL
  6
CONTINUOUS
 62
     5
 10
406.80002354929093
 20
698.49999999999909
 30
0.0
 11
406.80002354929093
 21
608.49999999999909
 31
0.0
  0
LINE
  8
DETAIL
  6
CONTINUOUS
 62
     5
 10
-396.19997645070907
 20
608.49999999999909
 30
0.0
 11
-396.19997645070907
 21
698.49999999999909
 31
0.0
  0
LINE
  8
DETAIL
  6
CONTINUOUS
 62
     5
 10
-396.19997645070907
 20
703.49999999999909
 30
0.0
 11
-396.19997645070907
 21
793.49999999999898
 31
0.0
  0
LINE
  8
DETAIL
  6
CONTINUOUS
 62
     5
 10
-359.99997645070931
 20
-859.50000000000091
 30
0.0
 11
-356.9999764507092
 21
-862.5000000000008
 31
0.0
  0
LINE
  8
DETAIL
  6
CONTINUOUS
 62
     5
 10
240.00002354929069
 20
-862.5000000000008
 30
0.0
 11
237.00002354929069
 21
-862.5000000000008
 31
0.0
  0
LINE
  8
DETAIL
  6
CONTINUOUS
 62
     5
 10
237.00002354929069
 20
-862.5000000000008
 30
0.0
 11
-356.9999764507092
 21
-862.5000000000008
 31
0.0
  0
LINE
  8
DETAIL
  6
CONTINUOUS
 62
     5
 10
-356.9999764507092
 20
-862.5000000000008
 30
0.0
 11
-359.99997645070931
 21
-862.5000000000008
 31
0.0
  0
LINE
  8
DETAIL
  6
CONTINUOUS
 62
     5
 10
430.00002354929069
 20
-842.50000000000091
 30
0.0
 11
425.00002354929069
 21
-842.50000000000091
 31
0.0
  0
LINE
  8
DETAIL
  6
CONTINUOUS
 62
     5
 10
424.00002354929069
 20
-842.50000000000091
 30
0.0
 11
-423.9999764507092
 21
-842.50000000000091
 31
0.0
  0
LINE
  8
DETAIL
  6
CONTINUOUS
 62
     5
 10
-424.99997645070931
 20
-842.50000000000091
 30
0.0
 11
-429.9999764507092
 21
-842.50000000000091
 31
0.0
  0
LINE
  8
DETAIL
  6
CONTINUOUS
 62
     5
 10
434.20002354929051
 20
-841.70000000000061
 30
0.0
 11
430.00002354929069
 21
-841.70000000000061
 31
0.0
  0
LINE
  8
DETAIL
  6
CONTINUOUS
 62
     5
 10
425.00002354929069
 20
-841.70000000000061
 30
0.0
 11
424.00002354929069
 21
-841.70000000000061
 31
0.0
  0
LINE
  8
DETAIL
  6
CONTINUOUS
 62
     5
 10
-423.9999764507092
 20
-841.70000000000061
 30
0.0
 11
-424.99997645070931
 21
-841.70000000000061
 31
0.0
  0
LINE
  8
DETAIL
  6
CONTINUOUS
 62
     5
 10
-429.9999764507092
 20
-838.30000000000109
 30
0.0
 11
-430.9999764507092
 21
-838.30000000000109
 31
0.0
  0
LINE
  8
DETAIL
  6
CONTINUOUS
 62
     5
 10
-424.99997645070931
 20
-837.5000000000008
 30
0.0
 11
425.00002354929069
 21
-837.5000000000008
 31
0.0
  0
LINE
  8
DETAIL
  6
CONTINUOUS
 62
     5
 10
434.20002354929051
 20
-836.70000000000073
 30
0.0
 11
430.00002354929069
 21
-836.70000000000073
 31
0.0
  0
LINE
  8
DETAIL
  6
CONTINUOUS
 62
     5
 10
482.70002354929062
 20
-836.50000000000091
 30
0.0
 11
430.00002354929069
 21
-836.50000000000091
 31
0.0
  0
LINE
  8
DETAIL
  6
CONTINUOUS
 62
     5
 10
-429.9999764507092
 20
-836.50000000000091
 30
0.0
 11
-482.69997645070907
 21
-836.50000000000091
 31
0.0
  0
LINE
  8
DETAIL
  6
CONTINUOUS
 62
     5
 10
-484.9999764507092
 20
-834.0000000000008
 30
0.0
 11
-482.69997645070907
 21
-834.0000000000008
 31
0.0
  0
LINE
  8
DETAIL
  6
CONTINUOUS
 62
     5
 10
485.20002354929051
 20
-834.0000000000008
 30
0.0
 11
482.70002354929062
 21
-834.0000000000008
 31
0.0
  0
LINE
  8
DETAIL
  6
CONTINUOUS
 62
     5
 10
-484.9999764507092
 20
-812.5000000000008
 30
0.0
 11
-469.79997645070938
 21
-812.5000000000008
 31
0.0
  0
LINE
  8
DETAIL
  6
CONTINUOUS
 62
     5
 10
485.20002354929051
 20
-812.5000000000008
 30
0.0
 11
469.20002354929051
 21
-812.5000000000008
 31
0.0
  0
LINE
  8
DETAIL
  6
CONTINUOUS
 62
     5
 10
-484.9999764507092
 20
-800.50000000000091
 30
0.0
 11
-469.79997645070938
 21
-800.50000000000091
 31
0.0
  0
LINE
  8
DETAIL
  6
CONTINUOUS
 62
     5
 10
485.20002354929051
 20
-800.50000000000091
 30
0.0
 11
469.20002354929051
 21
-800.50000000000091
 31
0.0
  0
LINE
  8
DETAIL
  6
CONTINUOUS
 62
     5
 10
430.00002354929069
 20
-731.50000000000091
 30
0.0
 11
434.20002354929051
 21
-731.50000000000091
 31
0.0
  0
LINE
  8
DETAIL
  6
CONTINUOUS
 62
     5
 10
485.20002354929051
 20
-731.50000000000091
 30
0.0
 11
434.20002354929051
 21
-731.50000000000091
 31
0.0
  0
LINE
  8
DETAIL
  6
CONTINUOUS
 62
     5
 10
-429.9999764507092
 20
-731.50000000000091
 30
0.0
 11
-484.9999764507092
 21
-731.50000000000091
 31
0.0
  0
LINE
  8
DETAIL
  6
CONTINUOUS
 62
     5
 10
435.00002354929069
 20
-728.50000000000091
 30
0.0
 11
434.20002354929051
 21
-728.50000000000091
 31
0.0
  0
LINE
  8
DETAIL
  6
CONTINUOUS
 62
     5
 10
434.20002354929051
 20
-727.70000000000073
 30
0.0
 11
435.80002354929093
 21
-727.70000000000073
 31
0.0
  0
LINE
  8
DETAIL
  6
CONTINUOUS
 62
     5
 10
237.00002354929069
 20
-862.5000000000008
 30
0.0
 11
240.00002354929069
 21
-859.50000000000091
 31
0.0
  0
LINE
  8
DETAIL
  6
CONTINUOUS
 62
     5
 10
434.20002354929051
 20
-363.30000000000109
 30
0.0
 11
435.80002354929093
 21
-363.30000000000109
 31
0.0
  0
LINE
  8
DETAIL
  6
CONTINUOUS
 62
     5
 10
430.00002354929069
 20
-362.50000000000091
 30
0.0
 11
434.20002354929051
 21
-362.50000000000091
 31
0.0
  0
LINE
  8
DETAIL
  6
CONTINUOUS
 62
     5
 10
434.20002354929051
 20
-362.50000000000091
 30
0.0
 11
435.00002354929069
 21
-362.50000000000091
 31
0.0
  0
LINE
  8
DETAIL
  6
CONTINUOUS
 62
     5
 10
434.20002354929051
 20
-341.00000000000091
 30
0.0
 11
435.00002354929069
 21
-341.00000000000091
 31
0.0
  0
LINE
  8
DETAIL
  6
CONTINUOUS
 62
     5
 10
434.20002354929051
 20
-297.00000000000091
 30
0.0
 11
435.00002354929069
 21
-297.00000000000091
 31
0.0
  0
LINE
  8
DETAIL
  6
CONTINUOUS
 62
     5
 10
434.20002354929051
 20
-286.00000000000091
 30
0.0
 11
435.00002354929069
 21
-286.00000000000091
 31
0.0
  0
LINE
  8
DETAIL
  6
CONTINUOUS
 62
     5
 10
430.00002354929069
 20
-283.50000000000091
 30
0.0
 11
434.20002354929051
 21
-283.50000000000091
 31
0.0
  0
LINE
  8
DETAIL
  6
CONTINUOUS
 62
     5
 10
450.00002354929069
 20
-258.00000000000091
 30
0.0
 11
434.20002354929051
 21
-258.00000000000091
 31
0.0
  0
LINE
  8
DETAIL
  6
CONTINUOUS
 62
     5
 10
450.00002354929069
 20
-244.6000000000013
 30
0.0
 11
505.74894844819022
 21
-244.6000000000013
 31
0.0
  0
LINE
  8
DETAIL
  6
CONTINUOUS
 62
     5
 10
525.00002354929074
 20
-242.74000000000069
 30
0.0
 11
510.07848451829062
 21
-242.74000000000069
 31
0.0
  0
LINE
  8
DETAIL
  6
CONTINUOUS
 62
     5
 10
525.00002354929074
 20
-224.2600000000011
 30
0.0
 11
510.07848451829062
 21
-224.2600000000011
 31
0.0
  0
LINE
  8
DETAIL
  6
CONTINUOUS
 62
     5
 10
450.00002354929069
 20
-222.40000000000049
 30
0.0
 11
505.74894844819022
 21
-222.40000000000049
 31
0.0
  0
LINE
  8
DETAIL
  6
CONTINUOUS
 62
     5
 10
450.00002354929069
 20
-209.00000000000091
 30
0.0
 11
434.20002354929051
 21
-209.00000000000091
 31
0.0
  0
LINE
  8
DETAIL
  6
CONTINUOUS
 62
     5
 10
434.20002354929051
 20
-155.50000000000091
 30
0.0
 11
450.00002354929069
 21
-155.50000000000091
 31
0.0
  0
LINE
  8
DETAIL
  6
CONTINUOUS
 62
     5
 10
525.00002354929074
 20
-143.0100000000011
 30
0.0
 11
514.71007405559055
 21
-143.0100000000011
 31
0.0
  0
LINE
  8
DETAIL
  6
CONTINUOUS
 62
     5
 10
450.00002354929069
 20
-142.2600000000011
 30
0.0
 11
513.96007405559055
 21
-142.2600000000011
 31
0.0
  0
LINE
  8
DETAIL
  6
CONTINUOUS
 62
     5
 10
450.00002354929069
 20
-132.74000000000069
 30
0.0
 11
513.96007405559055
 21
-132.74000000000069
 31
0.0
  0
LINE
  8
DETAIL
  6
CONTINUOUS
 62
     5
 10
525.00002354929074
 20
-131.99000000000069
 30
0.0
 11
514.71007405559055
 21
-131.99000000000069
 31
0.0
  0
LINE
  8
DETAIL
  6
CONTINUOUS
 62
     5
 10
510.07848451829062
 20
-242.74000000000069
 30
0.0
 11
509.5245237342906
 21
-242.42017059220049
 31
0.0
  0
LINE
  8
DETAIL
  6
CONTINUOUS
 62
     5
 10
509.5245237342906
 20
-224.57982940780039
 30
0.0
 11
505.74894844819022
 21
-222.40000000000049
 31
0.0
  0
LINE
  8
DETAIL
  6
CONTINUOUS
 62
     5
 10
514.71007405559055
 20
-143.0100000000011
 30
0.0
 11
513.96007405559055
 21
-142.2600000000011
 31
0.0
  0
LINE
  8
DETAIL
  6
CONTINUOUS
 62
     5
 10
525.00002354929074
 20
-242.73958482600119
 30
0.0
 11
525.00002354929074
 21
-224.2604151740006
 31
0.0
  0
LINE
  8
DETAIL
  6
CONTINUOUS
 62
     5
 10
525.00002354929074
 20
-143.00956169620071
 30
0.0
 11
525.00002354929074
 21
-131.990438303801
 31
0.0
  0
LINE
  8
DETAIL
  6
CONTINUOUS
 62
     5
 10
514.71007405559055
 20
-143.0100000000011
 30
0.0
 11
514.71007405559055
 21
-131.99000000000069
 31
0.0
  0
LINE
  8
DETAIL
  6
CONTINUOUS
 62
     5
 10
513.96007405559055
 20
-142.2600000000011
 30
0.0
 11
513.96007405559055
 21
-132.74000000000069
 31
0.0
  0
LINE
  8
DETAIL
  6
CONTINUOUS
 62
     5
 10
510.07848451829062
 20
-242.74000000000069
 30
0.0
 11
510.07848451829062
 21
-224.2600000000011
 31
0.0
  0
LINE
  8
DETAIL
  6
CONTINUOUS
 62
     5
 10
509.5245237342906
 20
-242.42017059220049
 30
0.0
 11
509.5245237342906
 21
-224.57982940780039
 31
0.0
  0
LINE
  8
DETAIL
  6
CONTINUOUS
 62
     5
 10
505.74894844819022
 20
-244.6000000000013
 30
0.0
 11
505.74894844819022
 21
-222.40000000000049
 31
0.0
  0
LINE
  8
DETAIL
  6
CONTINUOUS
 62
     5
 10
500.80002354929093
 20
466.49999999999909
 30
0.0
 11
500.80002354929093
 21
111.4999999999991
 31
0.0
  0
LINE
  8
DETAIL
  6
CONTINUOUS
 62
     5
 10
500.00002354929069
 20
496.49999999999898
 30
0.0
 11
500.00002354929069
 21
111.4999999999991
 31
0.0
  0
LINE
  8
DETAIL
  6
CONTINUOUS
 62
     5
 10
499.00002354929069
 20
497.49999999999898
 30
0.0
 11
499.00002354929069
 21
496.49999999999898
 31
0.0
  0
LINE
  8
DETAIL
  6
CONTINUOUS
 62
     5
 10
499.00002354929069
 20
109.6999999999998
 30
0.0
 11
499.00002354929069
 21
111.4999999999991
 31
0.0
  0
LINE
  8
DETAIL
  6
CONTINUOUS
 62
     5
 10
514.71007405559055
 20
-131.99000000000069
 30
0.0
 11
513.96007405559055
 21
-132.74000000000069
 31
0.0
  0
LINE
  8
DETAIL
  6
CONTINUOUS
 62
     5
 10
509.5245237342906
 20
-242.42017059220049
 30
0.0
 11
505.74894844819022
 21
-244.6000000000013
 31
0.0
  0
LINE
  8
DETAIL
  6
CONTINUOUS
 62
     5
 10
510.07848451829062
 20
-224.2600000000011
 30
0.0
 11
509.5245237342906
 21
-224.57982940780039
 31
0.0
  0
LINE
  8
DETAIL
  6
CONTINUOUS
 62
     5
 10
434.20002354929051
 20
-119.5000000000009
 30
0.0
 11
450.00002354929069
 21
-119.5000000000009
 31
0.0
  0
LINE
  8
DETAIL
  6
CONTINUOUS
 62
     5
 10
492.00002354929069
 20
498.29999999999922
 30
0.0
 11
492.00002354929069
 21
497.49999999999898
 31
0.0
  0
LINE
  8
DETAIL
  6
CONTINUOUS
 62
     5
 10
485.20002354929051
 20
558.99999999999898
 30
0.0
 11
485.20002354929051
 21
537.49999999999909
 31
0.0
  0
LINE
  8
DETAIL
  6
CONTINUOUS
 62
     5
 10
485.20002354929051
 20
525.49999999999909
 30
0.0
 11
485.20002354929051
 21
497.49999999999898
 31
0.0
  0
LINE
  8
DETAIL
  6
CONTINUOUS
 62
     5
 10
485.20002354929051
 20
-731.50000000000091
 30
0.0
 11
485.20002354929051
 21
-800.50000000000091
 31
0.0
  0
LINE
  8
DETAIL
  6
CONTINUOUS
 62
     5
 10
485.20002354929051
 20
-812.5000000000008
 30
0.0
 11
485.20002354929051
 21
-834.0000000000008
 31
0.0
  0
LINE
  8
DETAIL
  6
CONTINUOUS
 62
     5
 10
482.70002354929062
 20
561.49999999999909
 30
0.0
 11
482.70002354929062
 21
558.99999999999898
 31
0.0
  0
LINE
  8
DETAIL
  6
CONTINUOUS
 62
     5
 10
482.70002354929062
 20
-836.50000000000091
 30
0.0
 11
482.70002354929062
 21
-834.0000000000008
 31
0.0
  0
LINE
  8
DETAIL
  6
CONTINUOUS
 62
     5
 10
469.20002354929051
 20
-814.5000000000008
 30
0.0
 11
469.20002354929051
 21
-812.5000000000008
 31
0.0
  0
LINE
  8
DETAIL
  6
CONTINUOUS
 62
     5
 10
469.20002354929051
 20
-800.50000000000091
 30
0.0
 11
469.20002354929051
 21
-798.50000000000091
 31
0.0
  0
LINE
  8
DETAIL
  6
CONTINUOUS
 62
     5
 10
469.20002354929051
 20
523.49999999999909
 30
0.0
 11
469.20002354929051
 21
525.49999999999909
 31
0.0
  0
LINE
  8
DETAIL
  6
CONTINUOUS
 62
     5
 10
469.20002354929051
 20
537.49999999999909
 30
0.0
 11
469.20002354929051
 21
539.49999999999898
 31
0.0
  0
LINE
  8
DETAIL
  6
CONTINUOUS
 62
     5
 10
455.20002354929051
 20
539.49999999999898
 30
0.0
 11
455.20002354929051
 21
523.49999999999909
 31
0.0
  0
LINE
  8
DETAIL
  6
CONTINUOUS
 62
     5
 10
455.20002354929051
 20
-798.50000000000091
 30
0.0
 11
455.20002354929051
 21
-814.5000000000008
 31
0.0
  0
LINE
  8
DETAIL
  6
CONTINUOUS
 62
     5
 10
450.00002354929069
 20
-119.5000000000009
 30
0.0
 11
450.00002354929069
 21
-155.50000000000091
 31
0.0
  0
LINE
  8
DETAIL
  6
CONTINUOUS
 62
     5
 10
450.00002354929069
 20
-257.9995717741013
 30
0.0
 11
450.00002354929069
 21
-209.00042822600059
 31
0.0
  0
LINE
  8
DETAIL
  6
CONTINUOUS
 62
     5
 10
435.80002354929093
 20
814.69999999999891
 30
0.0
 11
435.80002354929093
 21
588.29999999999916
 31
0.0
  0
LINE
  8
DETAIL
  6
CONTINUOUS
 62
     5
 10
435.80002354929093
 20
-363.30000000000109
 30
0.0
 11
435.80002354929093
 21
-727.70000000000073
 31
0.0
  0
LINE
  8
DETAIL
  6
CONTINUOUS
 62
     5
 10
435.00002354929069
 20
815.49999999999898
 30
0.0
 11
435.00002354929069
 21
814.69999999999891
 31
0.0
  0
LINE
  8
DETAIL
  6
CONTINUOUS
 62
     5
 10
435.00002354929069
 20
588.29999999999916
 30
0.0
 11
435.00002354929069
 21
587.49999999999909
 31
0.0
  0
LINE
  8
DETAIL
  6
CONTINUOUS
 62
     5
 10
435.00002354929069
 20
-366.50000000000091
 30
0.0
 11
435.00002354929069
 21
-724.5000000000008
 31
0.0
  0
LINE
  8
DETAIL
  6
CONTINUOUS
 62
     5
 10
435.00002354929069
 20
-727.70000000000073
 30
0.0
 11
435.00002354929069
 21
-728.50000000000091
 31
0.0
  0
LINE
  8
DETAIL
  6
CONTINUOUS
 62
     5
 10
435.00002354929069
 20
-363.30000000000109
 30
0.0
 11
435.00002354929069
 21
-286.00000000000091
 31
0.0
  0
LINE
  8
DETAIL
  6
CONTINUOUS
 62
     5
 10
435.00002354929069
 20
591.49999999999909
 30
0.0
 11
435.00002354929069
 21
811.49999999999909
 31
0.0
  0
LINE
  8
DETAIL
  6
CONTINUOUS
 62
     5
 10
434.20002354929051
 20
132.49999999999909
 30
0.0
 11
434.20002354929051
 21
-731.50000000000091
 31
0.0
  0
LINE
  8
DETAIL
  6
CONTINUOUS
 62
     5
 10
434.20002354929051
 20
-836.50000000000091
 30
0.0
 11
434.20002354929051
 21
-841.70000000000061
 31
0.0
  0
LINE
  8
DETAIL
  6
CONTINUOUS
 62
     5
 10
434.00002354929069
 20
132.49999999999909
 30
0.0
 11
434.00002354929069
 21
497.49999999999898
 31
0.0
  0
LINE
  8
DETAIL
  6
CONTINUOUS
 62
     5
 10
430.00002354929069
 20
587.49999999999909
 30
0.0
 11
430.00002354929069
 21
563.29999999999916
 31
0.0
  0
LINE
  8
DETAIL
  6
CONTINUOUS
 62
     5
 10
430.00002354929069
 20
132.2999999999993
 30
0.0
 11
430.00002354929069
 21
-842.50000000000091
 31
0.0
  0
LINE
  8
DETAIL
  6
CONTINUOUS
 62
     5
 10
430.00002354929069
 20
815.49999999999898
 30
0.0
 11
430.00002354929069
 21
841.69999999999891
 31
0.0
  0
LINE
  8
DETAIL
  6
CONTINUOUS
 62
     5
 10
429.20002354929051
 20
561.69999999999891
 30
0.0
 11
429.20002354929051
 21
561.49999999999909
 31
0.0
  0
LINE
  8
DETAIL
  6
CONTINUOUS
 62
     5
 10
427.00002354929069
 20
132.49999999999909
 30
0.0
 11
427.00002354929069
 21
370.15938480389917
 31
0.0
  0
LINE
  8
DETAIL
  6
CONTINUOUS
 62
     5
 10
427.00002354929069
 20
371.99999999999909
 30
0.0
 11
427.00002354929069
 21
372.99999999999909
 31
0.0
  0
LINE
  8
DETAIL
  6
CONTINUOUS
 62
     5
 10
427.00002354929069
 20
374.84061519609901
 30
0.0
 11
427.00002354929069
 21
497.5
 31
0.0
  0
LINE
  8
DETAIL
  6
CONTINUOUS
 62
     5
 10
426.70002354929051
 20
561.49999999999909
 30
0.0
 11
426.70002354929051
 21
556.69999999999891
 31
0.0
  0
LINE
  8
DETAIL
  6
CONTINUOUS
 62
     5
 10
426.00002354929069
 20
563.29999999999916
 30
0.0
 11
426.00002354929069
 21
562.49999999999909
 31
0.0
  0
LINE
  8
DETAIL
  6
CONTINUOUS
 62
     5
 10
426.00002354929069
 20
562.49999999999909
 30
0.0
 11
426.00002354929069
 21
561.69999999999891
 31
0.0
  0
LINE
  8
DETAIL
  6
CONTINUOUS
 62
     5
 10
425.80002354929093
 20
814.69999999999891
 30
0.0
 11
425.80002354929093
 21
814.49999999999898
 31
0.0
  0
LINE
  8
DETAIL
  6
CONTINUOUS
 62
     5
 10
425.80002354929093
 20
588.49999999999898
 30
0.0
 11
425.80002354929093
 21
588.29999999999916
 31
0.0
  0
LINE
  8
DETAIL
  6
CONTINUOUS
 62
     5
 10
425.20002354929051
 20
561.69999999999891
 30
0.0
 11
425.20002354929051
 21
562.69999999999891
 31
0.0
  0
LINE
  8
DETAIL
  6
CONTINUOUS
 62
     5
 10
425.16574312389088
 20
367.74999999999909
 30
0.0
 11
425.16574312389088
 21
377.24999999999909
 31
0.0
  0
LINE
  8
DETAIL
  6
CONTINUOUS
 62
     5
 10
425.00002354929069
 20
-842.50000000000091
 30
0.0
 11
425.00002354929069
 21
562.49999999999909
 31
0.0
  0
LINE
  8
DETAIL
  6
CONTINUOUS
 62
     5
 10
425.00002354929069
 20
562.69999999999891
 30
0.0
 11
425.00002354929069
 21
836.69999999999879
 31
0.0
  0
LINE
  8
DETAIL
  6
CONTINUOUS
 62
     5
 10
424.20002354929062
 20
835.89999999999873
 30
0.0
 11
424.20002354929062
 21
835.69999999999879
 31
0.0
  0
LINE
  8
DETAIL
  6
CONTINUOUS
 62
     5
 10
424.20002354929062
 20
562.49999999999909
 30
0.0
 11
424.20002354929062
 21
563.32226130449897
 31
0.0
  0
LINE
  8
DETAIL
  6
CONTINUOUS
 62
     5
 10
424.20002354929062
 20
564.09999999999945
 30
0.0
 11
424.20002354929062
 21
564.29999999999916
 31
0.0
  0
LINE
  8
DETAIL
  6
CONTINUOUS
 62
     5
 10
424.00002354929069
 20
-837.5000000000008
 30
0.0
 11
424.00002354929069
 21
-842.50000000000091
 31
0.0
  0
LINE
  8
DETAIL
  6
CONTINUOUS
 62
     5
 10
424.00002354929069
 20
562.49999999999909
 30
0.0
 11
424.00002354929069
 21
572.49999999999898
 31
0.0
  0
LINE
  8
DETAIL
  6
CONTINUOUS
 62
     5
 10
424.00002354929069
 20
572.49999999999898
 30
0.0
 11
424.00002354929069
 21
582.49999999999909
 31
0.0
  0
LINE
  8
DETAIL
  6
CONTINUOUS
 62
     5
 10
424.00002354929069
 20
582.49999999999909
 30
0.0
 11
424.00002354929069
 21
817.49999999999909
 31
0.0
  0
LINE
  8
DETAIL
  6
CONTINUOUS
 62
     5
 10
424.00002354929069
 20
817.49999999999909
 30
0.0
 11
424.00002354929069
 21
827.49999999999909
 31
0.0
  0
LINE
  8
DETAIL
  6
CONTINUOUS
 62
     5
 10
424.00002354929069
 20
827.49999999999909
 30
0.0
 11
424.00002354929069
 21
842.49999999999909
 31
0.0
  0
LINE
  8
DETAIL
  6
CONTINUOUS
 62
     5
 10
430.00002354929069
 20
77.499999999999091
 30
0.0
 11
434.20002354929051
 21
77.499999999999091
 31
0.0
  0
LINE
  8
DETAIL
  6
CONTINUOUS
 62
     5
 10
499.00002354929069
 20
109.6999999999998
 30
0.0
 11
434.20002354929051
 21
109.6999999999998
 31
0.0
  0
LINE
  8
DETAIL
  6
CONTINUOUS
 62
     5
 10
500.80002354929093
 20
111.4999999999991
 30
0.0
 11
500.00002354929069
 21
111.4999999999991
 31
0.0
  0
LINE
  8
DETAIL
  6
CONTINUOUS
 62
     5
 10
500.00002354929069
 20
111.4999999999991
 30
0.0
 11
499.00002354929069
 21
111.4999999999991
 31
0.0
  0
LINE
  8
DETAIL
  6
CONTINUOUS
 62
     5
 10
-429.9999764507092
 20
111.4999999999991
 30
0.0
 11
-430.9999764507092
 21
111.4999999999991
 31
0.0
  0
LINE
  8
DETAIL
  6
CONTINUOUS
 62
     5
 10
430.00002354929069
 20
132.2999999999993
 30
0.0
 11
425.00002354929069
 21
132.2999999999993
 31
0.0
  0
LINE
  8
DETAIL
  6
CONTINUOUS
 62
     5
 10
-424.99997645070931
 20
132.2999999999993
 30
0.0
 11
-429.9999764507092
 21
132.2999999999993
 31
0.0
  0
LINE
  8
DETAIL
  6
CONTINUOUS
 62
     5
 10
425.00002354929069
 20
132.49999999999909
 30
0.0
 11
434.20002354929051
 21
132.49999999999909
 31
0.0
  0
LINE
  8
DETAIL
  6
CONTINUOUS
 62
     5
 10
-424.99997645070931
 20
132.49999999999909
 30
0.0
 11
-429.19997645070907
 21
132.49999999999909
 31
0.0
  0
LINE
  8
DETAIL
  6
CONTINUOUS
 62
     5
 10
240.00002354929069
 20
-859.50000000000091
 30
0.0
 11
240.00002354929069
 21
-842.50000000000091
 31
0.0
  0
LINE
  8
DETAIL
  6
CONTINUOUS
 62
     5
 10
240.00002354929069
 20
-859.50000000000091
 30
0.0
 11
240.00002354929069
 21
-862.5000000000008
 31
0.0
  0
LINE
  8
DETAIL
  6
CONTINUOUS
 62
     5
 10
425.16574312389088
 20
367.74999999999909
 30
0.0
 11
425.00002354929069
 21
367.74999999999909
 31
0.0
  0
LINE
  8
DETAIL
  6
CONTINUOUS
 62
     5
 10
426.97702034469052
 20
370.04999999999927
 30
0.0
 11
426.95415042708998
 21
370.04999999999927
 31
0.0
  0
LINE
  8
DETAIL
  6
CONTINUOUS
 62
     5
 10
427.45821119319038
 20
371.99999999999909
 30
0.0
 11
426.95415042708998
 21
371.99999999999909
 31
0.0
  0
LINE
  8
DETAIL
  6
CONTINUOUS
 62
     5
 10
426.95415042708998
 20
372.99999999999909
 30
0.0
 11
427.45821119319038
 21
372.99999999999909
 31
0.0
  0
LINE
  8
DETAIL
  6
CONTINUOUS
 62
     5
 10
426.95415042708998
 20
374.94999999999891
 30
0.0
 11
426.97702034469052
 21
374.94999999999891
 31
0.0
  0
LINE
  8
DETAIL
  6
CONTINUOUS
 62
     5
 10
425.16574312389088
 20
377.24999999999909
 30
0.0
 11
425.00002354929069
 21
377.24999999999909
 31
0.0
  0
LINE
  8
DETAIL
  6
CONTINUOUS
 62
     5
 10
427.00002354929069
 20
430.49999999999898
 30
0.0
 11
425.00002354929069
 21
430.49999999999898
 31
0.0
  0
LINE
  8
DETAIL
  6
CONTINUOUS
 62
     5
 10
-484.9999764507092
 20
456.49999999999898
 30
0.0
 11
-429.9999764507092
 21
456.49999999999898
 31
0.0
  0
LINE
  8
DETAIL
  6
CONTINUOUS
 62
     5
 10
500.80002354929093
 20
466.49999999999909
 30
0.0
 11
500.00002354929069
 21
466.49999999999909
 31
0.0
  0
LINE
  8
DETAIL
  6
CONTINUOUS
 62
     5
 10
500.00002354929069
 20
496.49999999999898
 30
0.0
 11
499.00002354929069
 21
496.49999999999898
 31
0.0
  0
LINE
  8
DETAIL
  6
CONTINUOUS
 62
     5
 10
425.00002354929069
 20
497.49999999999949
 30
0.0
 11
499.00002354929069
 21
497.49999999999898
 31
0.0
  0
LINE
  8
DETAIL
  6
CONTINUOUS
 62
     5
 10
485.80002354929093
 20
498.29999999999922
 30
0.0
 11
492.00002354929069
 21
498.29999999999922
 31
0.0
  0
LINE
  8
DETAIL
  6
CONTINUOUS
 62
     5
 10
-484.9999764507092
 20
525.49999999999909
 30
0.0
 11
-469.79997645070938
 21
525.49999999999909
 31
0.0
  0
LINE
  8
DETAIL
  6
CONTINUOUS
 62
     5
 10
485.20002354929051
 20
525.49999999999909
 30
0.0
 11
469.20002354929051
 21
525.49999999999909
 31
0.0
  0
LINE
  8
DETAIL
  6
CONTINUOUS
 62
     5
 10
-484.9999764507092
 20
537.49999999999909
 30
0.0
 11
-469.79997645070938
 21
537.49999999999909
 31
0.0
  0
LINE
  8
DETAIL
  6
CONTINUOUS
 62
     5
 10
485.20002354929051
 20
537.49999999999909
 30
0.0
 11
469.20002354929051
 21
537.49999999999909
 31
0.0
  0
LINE
  8
DETAIL
  6
CONTINUOUS
 62
     5
 10
425.00002354929069
 20
556.69999999999891
 30
0.0
 11
426.70002354929051
 21
556.69999999999891
 31
0.0
  0
LINE
  8
DETAIL
  6
CONTINUOUS
 62
     5
 10
-484.9999764507092
 20
558.99999999999898
 30
0.0
 11
-482.69997645070907
 21
558.99999999999898
 31
0.0
  0
LINE
  8
DETAIL
  6
CONTINUOUS
 62
     5
 10
485.20002354929051
 20
558.99999999999898
 30
0.0
 11
482.70002354929062
 21
558.99999999999898
 31
0.0
  0
LINE
  8
DETAIL
  6
CONTINUOUS
 62
     5
 10
-482.69997645070907
 20
561.49999999999909
 30
0.0
 11
-429.9999764507092
 21
561.49999999999909
 31
0.0
  0
LINE
  8
DETAIL
  6
CONTINUOUS
 62
     5
 10
426.70002354929051
 20
561.49999999999909
 30
0.0
 11
482.70002354929062
 21
561.49999999999909
 31
0.0
  0
LINE
  8
DETAIL
  6
CONTINUOUS
 62
     5
 10
425.00002354929069
 20
561.69999999999891
 30
0.0
 11
429.20002354929051
 21
561.69999999999891
 31
0.0
  0
LINE
  8
DETAIL
  6
CONTINUOUS
 62
     5
 10
425.20002354929051
 20
562.49999999999909
 30
0.0
 11
426.00002354929069
 21
562.49999999999909
 31
0.0
  0
LINE
  8
DETAIL
  6
CONTINUOUS
 62
     5
 10
425.00002354929069
 20
562.49999999999909
 30
0.0
 11
-424.99997645070931
 21
562.49999999999909
 31
0.0
  0
LINE
  8
DETAIL
  6
CONTINUOUS
 62
     5
 10
425.20002354929051
 20
562.69999999999891
 30
0.0
 11
424.20002354929062
 21
562.69999999999891
 31
0.0
  0
LINE
  8
DETAIL
  6
CONTINUOUS
 62
     5
 10
-424.19997645070902
 20
562.69999999999891
 30
0.0
 11
-424.99997645070931
 21
562.69999999999891
 31
0.0
  0
LINE
  8
DETAIL
  6
CONTINUOUS
 62
     5
 10
425.00002354929069
 20
563.29999999999916
 30
0.0
 11
430.00002354929069
 21
563.29999999999916
 31
0.0
  0
LINE
  8
DETAIL
  6
CONTINUOUS
 62
     5
 10
-424.99997645070931
 20
563.49999999999898
 30
0.0
 11
-424.59423611960932
 21
563.49999999999898
 31
0.0
  0
LINE
  8
DETAIL
  6
CONTINUOUS
 62
     5
 10
424.59428321809082
 20
563.49999999999898
 30
0.0
 11
425.00002354929069
 21
563.49999999999898
 31
0.0
  0
LINE
  8
DETAIL
  6
CONTINUOUS
 62
     5
 10
-424.19997645070902
 20
564.09999999999945
 30
0.0
 11
-423.9999764507092
 21
564.09999999999945
 31
0.0
  0
LINE
  8
DETAIL
  6
CONTINUOUS
 62
     5
 10
424.20002354929062
 20
564.09999999999945
 30
0.0
 11
424.00002354929069
 21
564.09999999999945
 31
0.0
  0
LINE
  8
DETAIL
  6
CONTINUOUS
 62
     5
 10
424.00002354929069
 20
564.29999999999916
 30
0.0
 11
425.00002354929069
 21
564.29999999999916
 31
0.0
  0
LINE
  8
DETAIL
  6
CONTINUOUS
 62
     5
 10
-423.9999764507092
 20
564.29999999999916
 30
0.0
 11
-424.99997645070931
 21
564.29999999999916
 31
0.0
  0
LINE
  8
DETAIL
  6
CONTINUOUS
 62
     5
 10
-423.9999764507092
 20
567.49999999999898
 30
0.0
 11
424.00002354929069
 21
567.49999999999898
 31
0.0
  0
LINE
  8
DETAIL
  6
CONTINUOUS
 62
     5
 10
-424.99997645070931
 20
567.49999999999898
 30
0.0
 11
-429.9999764507092
 21
567.49999999999898
 31
0.0
  0
LINE
  8
DETAIL
  6
CONTINUOUS
 62
     5
 10
-423.9999764507092
 20
572.49999999999898
 30
0.0
 11
-417.9999764507092
 21
572.49999999999898
 31
0.0
  0
LINE
  8
DETAIL
  6
CONTINUOUS
 62
     5
 10
424.00002354929069
 20
572.49999999999898
 30
0.0
 11
418.00002354929069
 21
572.49999999999898
 31
0.0
  0
LINE
  8
DETAIL
  6
CONTINUOUS
 62
     5
 10
-423.9999764507092
 20
582.49999999999909
 30
0.0
 11
-417.9999764507092
 21
582.49999999999909
 31
0.0
  0
LINE
  8
DETAIL
  6
CONTINUOUS
 62
     5
 10
424.00002354929069
 20
582.49999999999909
 30
0.0
 11
418.00002354929069
 21
582.49999999999909
 31
0.0
  0
LINE
  8
DETAIL
  6
CONTINUOUS
 62
     5
 10
435.00002354929069
 20
587.49999999999909
 30
0.0
 11
430.00002354929069
 21
587.49999999999909
 31
0.0
  0
LINE
  8
DETAIL
  6
CONTINUOUS
 62
     5
 10
430.00002354929069
 20
587.49999999999909
 30
0.0
 11
424.00002354929069
 21
587.49999999999909
 31
0.0
  0
LINE
  8
DETAIL
  6
CONTINUOUS
 62
     5
 10
435.80002354929093
 20
588.29999999999916
 30
0.0
 11
425.80002354929093
 21
588.29999999999916
 31
0.0
  0
LINE
  8
DETAIL
  6
CONTINUOUS
 62
     5
 10
432.00002354929069
 20
588.49999999999898
 30
0.0
 11
425.00002354929069
 21
588.49999999999898
 31
0.0
  0
LINE
  8
DETAIL
  6
CONTINUOUS
 62
     5
 10
425.00002354929069
 20
606.49999999999898
 30
0.0
 11
424.00002354929069
 21
606.49999999999898
 31
0.0
  0
LINE
  8
DETAIL
  6
CONTINUOUS
 62
     5
 10
-359.99997645070931
 20
-862.5000000000008
 30
0.0
 11
-359.99997645070931
 21
-859.50000000000091
 31
0.0
  0
LINE
  8
DETAIL
  6
CONTINUOUS
 62
     5
 10
-359.99997645070931
 20
-859.50000000000091
 30
0.0
 11
-359.99997645070931
 21
-842.50000000000091
 31
0.0
  0
LINE
  8
DETAIL
  6
CONTINUOUS
 62
     5
 10
424.00002354929069
 20
796.49999999999898
 30
0.0
 11
425.00002354929069
 21
796.49999999999898
 31
0.0
  0
LINE
  8
DETAIL
  6
CONTINUOUS
 62
     5
 10
432.00002354929069
 20
814.49999999999898
 30
0.0
 11
425.00002354929069
 21
814.49999999999898
 31
0.0
  0
LINE
  8
DETAIL
  6
CONTINUOUS
 62
     5
 10
435.80002354929093
 20
814.69999999999891
 30
0.0
 11
425.80002354929093
 21
814.69999999999891
 31
0.0
  0
LINE
  8
DETAIL
  6
CONTINUOUS
 62
     5
 10
424.00002354929069
 20
815.49999999999898
 30
0.0
 11
430.00002354929069
 21
815.49999999999898
 31
0.0
  0
LINE
  8
DETAIL
  6
CONTINUOUS
 62
     5
 10
435.00002354929069
 20
815.49999999999898
 30
0.0
 11
430.00002354929069
 21
815.49999999999898
 31
0.0
  0
LINE
  8
DETAIL
  6
CONTINUOUS
 62
     5
 10
-423.9999764507092
 20
817.49999999999909
 30
0.0
 11
-417.9999764507092
 21
817.49999999999909
 31
0.0
  0
LINE
  8
DETAIL
  6
CONTINUOUS
 62
     5
 10
424.00002354929069
 20
817.49999999999909
 30
0.0
 11
418.00002354929069
 21
817.49999999999909
 31
0.0
  0
LINE
  8
DETAIL
  6
CONTINUOUS
 62
     5
 10
-423.9999764507092
 20
827.49999999999909
 30
0.0
 11
-417.9999764507092
 21
827.49999999999909
 31
0.0
  0
LINE
  8
DETAIL
  6
CONTINUOUS
 62
     5
 10
424.00002354929069
 20
827.49999999999909
 30
0.0
 11
418.00002354929069
 21
827.49999999999909
 31
0.0
  0
LINE
  8
DETAIL
  6
CONTINUOUS
 62
     5
 10
424.00002354929069
 20
835.69999999999879
 30
0.0
 11
425.00002354929069
 21
835.69999999999879
 31
0.0
  0
LINE
  8
DETAIL
  6
CONTINUOUS
 62
     5
 10
-423.9999764507092
 20
835.69999999999879
 30
0.0
 11
-424.99997645070931
 21
835.69999999999879
 31
0.0
  0
LINE
  8
DETAIL
  6
CONTINUOUS
 62
     5
 10
-424.19997645070902
 20
835.89999999999873
 30
0.0
 11
-423.9999764507092
 21
835.89999999999873
 31
0.0
  0
LINE
  8
DETAIL
  6
CONTINUOUS
 62
     5
 10
424.20002354929062
 20
835.89999999999873
 30
0.0
 11
424.00002354929069
 21
835.89999999999873
 31
0.0
  0
LINE
  8
DETAIL
  6
CONTINUOUS
 62
     5
 10
424.00002354929069
 20
836.69999999999879
 30
0.0
 11
430.00002354929069
 21
836.69999999999879
 31
0.0
  0
LINE
  8
DETAIL
  6
CONTINUOUS
 62
     5
 10
-423.9999764507092
 20
836.69999999999879
 30
0.0
 11
-429.9999764507092
 21
836.69999999999879
 31
0.0
  0
LINE
  8
DETAIL
  6
CONTINUOUS
 62
     5
 10
-423.9999764507092
 20
837.49999999999909
 30
0.0
 11
424.00002354929069
 21
837.49999999999909
 31
0.0
  0
LINE
  8
DETAIL
  6
CONTINUOUS
 62
     5
 10
-429.9999764507092
 20
841.69999999999891
 30
0.0
 11
-423.9999764507092
 21
841.69999999999891
 31
0.0
  0
LINE
  8
DETAIL
  6
CONTINUOUS
 62
     5
 10
424.00002354929069
 20
841.69999999999891
 30
0.0
 11
430.00002354929069
 21
841.69999999999891
 31
0.0
  0
LINE
  8
DETAIL
  6
CONTINUOUS
 62
     5
 10
-423.9999764507092
 20
842.49999999999909
 30
0.0
 11
424.00002354929069
 21
842.49999999999909
 31
0.0
  0
LINE
  8
DETAIL
  6
CONTINUOUS
 62
     5
 10
-423.9999764507092
 20
842.49999999999909
 30
0.0
 11
-423.9999764507092
 21
827.49999999999909
 31
0.0
  0
LINE
  8
DETAIL
  6
CONTINUOUS
 62
     5
 10
-423.9999764507092
 20
817.49999999999909
 30
0.0
 11
-423.9999764507092
 21
582.49999999999909
 31
0.0
  0
LINE
  8
DETAIL
  6
CONTINUOUS
 62
     5
 10
-423.9999764507092
 20
572.49999999999898
 30
0.0
 11
-423.9999764507092
 21
562.49999999999909
 31
0.0
  0
LINE
  8
DETAIL
  6
CONTINUOUS
 62
     5
 10
-423.9999764507092
 20
-837.5000000000008
 30
0.0
 11
-423.9999764507092
 21
-842.50000000000091
 31
0.0
  0
LINE
  8
DETAIL
  6
CONTINUOUS
 62
     5
 10
-423.9999764507092
 20
572.49999999999898
 30
0.0
 11
-423.9999764507092
 21
582.49999999999909
 31
0.0
  0
LINE
  8
DETAIL
  6
CONTINUOUS
 62
     5
 10
-423.9999764507092
 20
817.49999999999909
 30
0.0
 11
-423.9999764507092
 21
827.49999999999909
 31
0.0
  0
LINE
  8
DETAIL
  6
CONTINUOUS
 62
     5
 10
-424.19997645070902
 20
835.89999999999873
 30
0.0
 11
-424.19997645070902
 21
835.69999999999879
 31
0.0
  0
LINE
  8
DETAIL
  6
CONTINUOUS
 62
     5
 10
-424.19997645070902
 20
564.29999999999916
 30
0.0
 11
-424.19997645070902
 21
564.09999999999945
 31
0.0
  0
LINE
  8
DETAIL
  6
CONTINUOUS
 62
     5
 10
-424.19997645070902
 20
133.2999999999993
 30
0.0
 11
-424.19997645070902
 21
153.49999999999909
 31
0.0
  0
LINE
  8
DETAIL
  6
CONTINUOUS
 62
     5
 10
-424.19997645070902
 20
562.49999999999909
 30
0.0
 11
-424.19997645070902
 21
563.32226130449897
 31
0.0
  0
LINE
  8
DETAIL
  6
CONTINUOUS
 62
     5
 10
-424.99997645070931
 20
-842.50000000000091
 30
0.0
 11
-424.99997645070931
 21
133.2999999999993
 31
0.0
  0
LINE
  8
DETAIL
  6
CONTINUOUS
 62
     5
 10
-424.99997645070931
 20
153.49999999999909
 30
0.0
 11
-424.99997645070931
 21
836.69999999999879
 31
0.0
  0
LINE
  8
DETAIL
  6
CONTINUOUS
 62
     5
 10
-429.19997645070907
 20
132.2999999999993
 30
0.0
 11
-429.19997645070907
 21
153.49999999999909
 31
0.0
  0
LINE
  8
DETAIL
  6
CONTINUOUS
 62
     5
 10
-429.9999764507092
 20
-842.50000000000091
 30
0.0
 11
-429.9999764507092
 21
132.2999999999993
 31
0.0
  0
LINE
  8
DETAIL
  6
CONTINUOUS
 62
     5
 10
-429.9999764507092
 20
153.49999999999909
 30
0.0
 11
-429.9999764507092
 21
841.69999999999891
 31
0.0
  0
LINE
  8
DETAIL
  6
CONTINUOUS
 62
     5
 10
-430.9999764507092
 20
-838.30000000000109
 30
0.0
 11
-430.9999764507092
 21
-836.50000000000091
 31
0.0
  0
LINE
  8
DETAIL
  6
CONTINUOUS
 62
     5
 10
-430.9999764507092
 20
-731.50000000000091
 30
0.0
 11
-430.9999764507092
 21
111.4999999999991
 31
0.0
  0
LINE
  8
DETAIL
  6
CONTINUOUS
 62
     5
 10
-455.79997645070938
 20
-814.5000000000008
 30
0.0
 11
-455.79997645070938
 21
-798.50000000000091
 31
0.0
  0
LINE
  8
DETAIL
  6
CONTINUOUS
 62
     5
 10
-455.79997645070938
 20
523.49999999999909
 30
0.0
 11
-455.79997645070938
 21
539.49999999999898
 31
0.0
  0
LINE
  8
DETAIL
  6
CONTINUOUS
 62
     5
 10
-469.79997645070938
 20
539.49999999999898
 30
0.0
 11
-469.79997645070938
 21
537.49999999999909
 31
0.0
  0
LINE
  8
DETAIL
  6
CONTINUOUS
 62
     5
 10
-469.79997645070938
 20
525.49999999999909
 30
0.0
 11
-469.79997645070938
 21
523.49999999999909
 31
0.0
  0
LINE
  8
DETAIL
  6
CONTINUOUS
 62
     5
 10
-469.79997645070938
 20
-798.50000000000091
 30
0.0
 11
-469.79997645070938
 21
-800.50000000000091
 31
0.0
  0
LINE
  8
DETAIL
  6
CONTINUOUS
 62
     5
 10
-469.79997645070938
 20
-812.5000000000008
 30
0.0
 11
-469.79997645070938
 21
-814.5000000000008
 31
0.0
  0
LINE
  8
DETAIL
  6
CONTINUOUS
 62
     5
 10
-482.69997645070907
 20
561.49999999999909
 30
0.0
 11
-482.69997645070907
 21
558.99999999999898
 31
0.0
  0
LINE
  8
DETAIL
  6
CONTINUOUS
 62
     5
 10
-482.69997645070907
 20
-836.50000000000091
 30
0.0
 11
-482.69997645070907
 21
-834.0000000000008
 31
0.0
  0
LINE
  8
DETAIL
  6
CONTINUOUS
 62
     5
 10
-484.9999764507092
 20
-834.0000000000008
 30
0.0
 11
-484.9999764507092
 21
-812.5000000000008
 31
0.0
  0
LINE
  8
DETAIL
  6
CONTINUOUS
 62
     5
 10
-484.9999764507092
 20
-800.50000000000091
 30
0.0
 11
-484.9999764507092
 21
-731.50000000000091
 31
0.0
  0
LINE
  8
DETAIL
  6
CONTINUOUS
 62
     5
 10
-484.9999764507092
 20
456.49999999999898
 30
0.0
 11
-484.9999764507092
 21
525.49999999999909
 31
0.0
  0
LINE
  8
DETAIL
  6
CONTINUOUS
 62
     5
 10
-484.9999764507092
 20
537.49999999999909
 30
0.0
 11
-484.9999764507092
 21
558.99999999999898
 31
0.0
  0
ARC
  8
DETAIL
  6
CONTINUOUS
 62
     5
 10
421.50002354929069
 20
372.49999999999909
 30
0.0
 40
5.9791303716003812
 50
335.81032961373012
 51
355.20308428928229
  0
ARC
  8
DETAIL
  6
CONTINUOUS
 62
     5
 10
421.50002354929069
 20
372.49999999999909
 30
0.0
 40
6.0000000000002149
 50
24.159550894024662
 51
52.341537993851567
  0
ARC
  8
DETAIL
  6
CONTINUOUS
 62
     5
 10
421.50002354929069
 20
372.49999999999909
 30
0.0
 40
5.4769973526001294
 50
354.7621242190362
 51
5.2378757809637566
  0
ARC
  8
DETAIL
  6
CONTINUOUS
 62
     5
 10
421.50002354929069
 20
372.49999999999909
 30
0.0
 40
5.9999999999998366
 50
307.6584620061484
 51
335.84044910597538
  0
ARC
  8
DETAIL
  6
CONTINUOUS
 62
     5
 10
421.50002354929069
 20
372.49999999999909
 30
0.0
 40
5.9791303716004167
 50
4.7969157107177018
 51
24.189670386269938
  0
ARC
  8
DETAIL
  6
CONTINUOUS
 62
     5
 10
426.70002354929051
 20
556.69999999999891
 30
0.0
 40
0.2000000000000455
 50
90.0
 51
173.53121626158531
  0
ARC
  8
DETAIL
  6
CONTINUOUS
 62
     5
 10
424.00002354929069
 20
835.69999999999879
 30
0.0
 40
0.1999999999998181
 50
0.0
 51
90.0
  0
ARC
  8
DETAIL
  6
CONTINUOUS
 62
     5
 10
499.00002354929069
 20
111.4999999999991
 30
0.0
 40
0.2000000000000455
 50
270.0
 51
0.0
  0
ARC
  8
DETAIL
  6
CONTINUOUS
 62
     5
 10
499.00002354929069
 20
496.49999999999898
 30
0.0
 40
0.1999999999998181
 50
0.0
 51
90.0
  0
ARC
  8
DETAIL
  6
CONTINUOUS
 62
     5
 10
485.80002354929093
 20
497.49999999999898
 30
0.0
 40
0.7999999999999546
 50
90.0
 51
139.03299095132641
  0
ARC
  8
DETAIL
  6
CONTINUOUS
 62
     5
 10
-417.9999764507092
 20
822.49999999999898
 30
0.0
 40
5.0
 50
270.0
 51
90.0
  0
ARC
  8
DETAIL
  6
CONTINUOUS
 62
     5
 10
-417.9999764507092
 20
577.49999999999898
 30
0.0
 40
5.0
 50
270.0
 51
90.0
  0
ARC
  8
DETAIL
  6
CONTINUOUS
 62
     5
 10
418.00002354929069
 20
577.49999999999898
 30
0.0
 40
5.0
 50
90.0
 51
270.0
  0
ARC
  8
DETAIL
  6
CONTINUOUS
 62
     5
 10
418.00002354929069
 20
822.49999999999898
 30
0.0
 40
5.0
 50
90.0
 51
270.0
  0
ARC
  8
DETAIL
  6
CONTINUOUS
 62
     5
 10
432.00002354929069
 20
591.49999999999909
 30
0.0
 40
3.0
 50
270.0
 51
0.0
  0
ARC
  8
DETAIL
  6
CONTINUOUS
 62
     5
 10
432.00002354929069
 20
811.49999999999909
 30
0.0
 40
3.0
 50
0.0
 51
90.0
  0
ARC
  8
DETAIL
  6
CONTINUOUS
 62
     5
 10
426.00002354929069
 20
588.49999999999898
 30
0.0
 40
1.0
 50
180.0
 51
270.0
  0
ARC
  8
DETAIL
  6
CONTINUOUS
 62
     5
 10
426.00002354929069
 20
814.49999999999898
 30
0.0
 40
1.0
 50
90.0
 51
180.0
  0
ARC
  8
DETAIL
  6
CONTINUOUS
 62
     5
 10
432.00002354929069
 20
-366.50000000000091
 30
0.0
 40
3.0
 50
0.0
 51
42.683548058050413
  0
ARC
  8
DETAIL
  6
CONTINUOUS
 62
     5
 10
432.00002354929069
 20
-724.5000000000008
 30
0.0
 40
2.9999999999997682
 50
317.31677820613493
 51
0.0
  0
ARC
  8
DETAIL
  6
CONTINUOUS
 62
     5
 10
-462.79997645070938
 20
-814.5000000000008
 30
0.0
 40
7.0
 50
180.0
 51
0.0
  0
ARC
  8
DETAIL
  6
CONTINUOUS
 62
     5
 10
-462.79997645070938
 20
-798.50000000000091
 30
0.0
 40
7.0
 50
0.0
 51
180.0
  0
ARC
  8
DETAIL
  6
CONTINUOUS
 62
     5
 10
462.20002354929051
 20
-798.50000000000091
 30
0.0
 40
7.0
 50
0.0
 51
180.0
  0
ARC
  8
DETAIL
  6
CONTINUOUS
 62
     5
 10
462.20002354929051
 20
-814.5000000000008
 30
0.0
 40
7.0
 50
180.0
 51
0.0
  0
ARC
  8
DETAIL
  6
CONTINUOUS
 62
     5
 10
-462.79997645070938
 20
523.49999999999909
 30
0.0
 40
7.0
 50
180.0
 51
0.0
  0
ARC
  8
DETAIL
  6
CONTINUOUS
 62
     5
 10
-462.79997645070938
 20
539.49999999999898
 30
0.0
 40
7.0
 50
0.0
 51
180.0
  0
ARC
  8
DETAIL
  6
CONTINUOUS
 62
     5
 10
462.20002354929051
 20
539.49999999999898
 30
0.0
 40
7.0
 50
0.0
 51
180.0
  0
ARC
  8
DETAIL
  6
CONTINUOUS
 62
     5
 10
462.20002354929051
 20
523.49999999999909
 30
0.0
 40
7.0
 50
180.0
 51
0.0
  0
ARC
  8
DETAIL
  6
CONTINUOUS
 62
     5
 10
426.70002354929051
 20
556.69999999999891
 30
0.0
 40
2.5
 50
90.0
 51
133.152864638484
  0
CIRCLE
  8
DETAIL
  6
CONTINUOUS
 62
     5
 10
-417.9999764507092
 20
822.49999999999898
 30
0.0
 40
1.449999999999988
  0
CIRCLE
  8
DETAIL
  6
CONTINUOUS
 62
     5
 10
-417.9999764507092
 20
577.49999999999898
 30
0.0
 40
1.450000000000002
  0
ARC
  8
DETAIL
  6
CONTINUOUS
 62
     5
 10
-423.9999764507092
 20
835.69999999999879
 30
0.0
 40
0.9999999999999953
 50
91.007374041382405
 51
180.0
  0
ARC
  8
DETAIL
  6
CONTINUOUS
 62
     5
 10
-423.9999764507092
 20
564.29999999999916
 30
0.0
 40
1.0
 50
180.0
 51
270.0
  0
CIRCLE
  8
DETAIL
  6
CONTINUOUS
 62
     5
 10
418.00002354929069
 20
577.49999999999898
 30
0.0
 40
1.450000000000002
  0
CIRCLE
  8
DETAIL
  6
CONTINUOUS
 62
     5
 10
418.00002354929069
 20
822.49999999999898
 30
0.0
 40
1.449999999999988
  0
ARC
  8
DETAIL
  6
CONTINUOUS
 62
     5
 10
424.00002354929069
 20
835.69999999999879
 30
0.0
 40
1.0
 50
0.0
 51
88.992625958513386
  0
ARC
  8
DETAIL
  6
CONTINUOUS
 62
     5
 10
424.00002354929069
 20
564.29999999999916
 30
0.0
 40
1.0
 50
270.0
 51
0.0
  0
ARC
  8
DETAIL
  6
CONTINUOUS
 62
     5
 10
499.00002354929069
 20
111.4999999999991
 30
0.0
 40
0.9999999999999539
 50
271.13200221667148
 51
0.0
  0
ARC
  8
DETAIL
  6
CONTINUOUS
 62
     5
 10
499.00002354929069
 20
496.49999999999898
 30
0.0
 40
1.0
 50
0.0
 51
90.0
  0
CIRCLE
  8
DETAIL
  6
CONTINUOUS
 62
     5
 10
418.00002354929069
 20
822.49999999999898
 30
0.0
 40
2.5
  0
CIRCLE
  8
DETAIL
  6
CONTINUOUS
 62
     5
 10
418.00002354929069
 20
577.49999999999898
 30
0.0
 40
2.5
  0
CIRCLE
  8
DETAIL
  6
CONTINUOUS
 62
     5
 10
-417.9999764507092
 20
822.49999999999898
 30
0.0
 40
2.5
  0
CIRCLE
  8
DETAIL
  6
CONTINUOUS
 62
     5
 10
-417.9999764507092
 20
577.49999999999898
 30
0.0
 40
2.5
  0
CIRCLE
  8
DETAIL
  6
CONTINUOUS
 62
     5
 10
-309.99997645070931
 20
-852.50000000000091
 30
0.0
 40
1.450000000000045
  0
CIRCLE
  8
DETAIL
  6
CONTINUOUS
 62
     5
 10
-209.99997645070931
 20
-852.50000000000091
 30
0.0
 40
1.450000000000045
  0
CIRCLE
  8
DETAIL
  6
CONTINUOUS
 62
     5
 10
-109.9999764507092
 20
-852.50000000000091
 30
0.0
 40
1.450000000000045
  0
CIRCLE
  8
DETAIL
  6
CONTINUOUS
 62
     5
 10
-9.999976450709255
 20
-852.50000000000091
 30
0.0
 40
1.450000000000045
  0
CIRCLE
  8
DETAIL
  6
CONTINUOUS
 62
     5
 10
90.000023549290745
 20
-852.50000000000091
 30
0.0
 40
1.450000000000045
  0
CIRCLE
  8
DETAIL
  6
CONTINUOUS
 62
     5
 10
190.00002354929069
 20
-852.50000000000091
 30
0.0
 40
1.450000000000045
  0
LINE
  8
DETAIL
  6
CONTINUOUS
 62
     5
 10
435.80002354929002
 20
-683.5000000000008
 30
0.0
 11
440.00002354929069
 21
-683.5000000000008
 31
0.0
  0
LINE
  8
DETAIL
  6
CONTINUOUS
 62
     5
 10
450.00002354929069
 20
-683.5000000000008
 30
0.0
 11
445.00002354929069
 21
-684.00000000000091
 31
0.0
  0
LINE
  8
DETAIL
  6
CONTINUOUS
 62
     5
 10
445.00002354929069
 20
-683.5000000000008
 30
0.0
 11
440.00002354929069
 21
-684.00000000000091
 31
0.0
  0
LINE
  8
DETAIL
  6
CONTINUOUS
 62
     5
 10
435.80002354929002
 20
-651.50000000000091
 30
0.0
 11
440.00002354929069
 21
-651.50000000000091
 31
0.0
  0
LINE
  8
DETAIL
  6
CONTINUOUS
 62
     5
 10
445.00002354929069
 20
-651.50000000000091
 30
0.0
 11
440.00002354929069
 21
-651.00000000000091
 31
0.0
  0
LINE
  8
DETAIL
  6
CONTINUOUS
 62
     5
 10
450.00002354929069
 20
-651.50000000000091
 30
0.0
 11
445.00002354929069
 21
-651.00000000000091
 31
0.0
  0
LINE
  8
DETAIL
  6
CONTINUOUS
 62
     5
 10
450.00002354929069
 20
-503.50000000000091
 30
0.0
 11
445.00002354929069
 21
-504.0000000000008
 31
0.0
  0
LINE
  8
DETAIL
  6
CONTINUOUS
 62
     5
 10
445.00002354929069
 20
-503.50000000000091
 30
0.0
 11
440.00002354929069
 21
-504.0000000000008
 31
0.0
  0
LINE
  8
DETAIL
  6
CONTINUOUS
 62
     5
 10
435.80002354929002
 20
-503.50000000000091
 30
0.0
 11
440.00002354929069
 21
-503.50000000000091
 31
0.0
  0
LINE
  8
DETAIL
  6
CONTINUOUS
 62
     5
 10
435.80002354929002
 20
-471.50000000000091
 30
0.0
 11
440.00002354929069
 21
-471.50000000000091
 31
0.0
  0
LINE
  8
DETAIL
  6
CONTINUOUS
 62
     5
 10
445.00002354929069
 20
-471.50000000000091
 30
0.0
 11
440.00002354929069
 21
-471.0000000000008
 31
0.0
  0
LINE
  8
DETAIL
  6
CONTINUOUS
 62
     5
 10
450.00002354929069
 20
-471.50000000000091
 30
0.0
 11
445.00002354929069
 21
-471.0000000000008
 31
0.0
  0
LINE
  8
DETAIL
  6
CONTINUOUS
 62
     5
 10
435.00002354929069
 20
-362.00000000000091
 30
0.0
 11
492.63267155023448
 21
-362.00000000000091
 31
0.0
  0
LINE
  8
DETAIL
  6
CONTINUOUS
 62
     5
 10
434.20002354929051
 20
-330.1654305453003
 30
0.0
 11
458.00002354929069
 21
-329.75000000000091
 31
0.0
  0
LINE
  8
DETAIL
  6
CONTINUOUS
 62
     5
 10
434.20002354929051
 20
-337.00000000000091
 30
0.0
 11
492.63267155023448
 21
-337.00000000000091
 31
0.0
  0
LINE
  8
DETAIL
  6
CONTINUOUS
 62
     5
 10
458.00002354929069
 20
-329.50000000000091
 30
0.0
 11
482.50002354929069
 21
-329.50000000000091
 31
0.0
  0
LINE
  8
DETAIL
  6
CONTINUOUS
 62
     5
 10
458.00002354929069
 20
-297.50000000000091
 30
0.0
 11
482.50002354929069
 21
-297.50000000000091
 31
0.0
  0
LINE
  8
DETAIL
  6
CONTINUOUS
 62
     5
 10
434.20002354929051
 20
-296.83456945470061
 30
0.0
 11
458.00002354929069
 21
-297.25000000000091
 31
0.0
  0
LINE
  8
DETAIL
  6
CONTINUOUS
 62
     5
 10
483.00002354929069
 20
-298.00000000000091
 30
0.0
 11
483.00002354929069
 21
-329.00000000000091
 31
0.0
  0
LINE
  8
DETAIL
  6
CONTINUOUS
 62
     5
 10
458.00002354929069
 20
-297.25000000000091
 30
0.0
 11
458.00002354929069
 21
-329.75000000000091
 31
0.0
  0
LINE
  8
DETAIL
  6
CONTINUOUS
 62
     5
 10
450.00002354929069
 20
-683.5000000000008
 30
0.0
 11
450.00002354929069
 21
-651.50000000000091
 31
0.0
  0
LINE
  8
DETAIL
  6
CONTINUOUS
 62
     5
 10
450.00002354929069
 20
-503.50000000000091
 30
0.0
 11
450.00002354929069
 21
-471.50000000000091
 31
0.0
  0
LINE
  8
DETAIL
  6
CONTINUOUS
 62
     5
 10
445.00002354929069
 20
-684.00000000000091
 30
0.0
 11
445.00002354929069
 21
-651.00000000000091
 31
0.0
  0
LINE
  8
DETAIL
  6
CONTINUOUS
 62
     5
 10
445.00002354929069
 20
-504.0000000000008
 30
0.0
 11
445.00002354929069
 21
-471.0000000000008
 31
0.0
  0
LINE
  8
DETAIL
  6
CONTINUOUS
 62
     5
 10
440.00002354929069
 20
-684.00000000000091
 30
0.0
 11
440.00002354929069
 21
-651.00000000000091
 31
0.0
  0
LINE
  8
DETAIL
  6
CONTINUOUS
 62
     5
 10
440.00002354929069
 20
-504.0000000000008
 30
0.0
 11
440.00002354929069
 21
-471.0000000000008
 31
0.0
  0
LINE
  8
DETAIL
  6
CONTINUOUS
 62
     5
 10
350.00002354929069
 20
842.49999999999909
 30
0.0
 11
350.00002354929069
 21
862.49999999999909
 31
0.0
  0
LINE
  8
DETAIL
  6
CONTINUOUS
 62
     5
 10
349.20002354929062
 20
862.49999999999909
 30
0.0
 11
349.20002354929062
 21
860.29999999999916
 31
0.0
  0
LINE
  8
DETAIL
  6
CONTINUOUS
 62
     5
 10
347.0000235492908
 20
862.49999999999909
 30
0.0
 11
350.00002354929069
 21
859.49999999999909
 31
0.0
  0
LINE
  8
DETAIL
  6
CONTINUOUS
 62
     5
 10
350.00002354929069
 20
862.49999999999909
 30
0.0
 11
-349.99997645070931
 21
862.49999999999909
 31
0.0
  0
LINE
  8
DETAIL
  6
CONTINUOUS
 62
     5
 10
-349.19997645070907
 20
860.29999999999916
 30
0.0
 11
-349.19997645070907
 21
862.49999999999909
 31
0.0
  0
LINE
  8
DETAIL
  6
CONTINUOUS
 62
     5
 10
-349.99997645070931
 20
862.49999999999909
 30
0.0
 11
-349.99997645070931
 21
842.49999999999909
 31
0.0
  0
LINE
  8
DETAIL
  6
CONTINUOUS
 62
     5
 10
-349.99997645070931
 20
859.49999999999909
 30
0.0
 11
-346.99997645070931
 21
862.49999999999909
 31
0.0
  0
ARC
  8
DETAIL
  6
CONTINUOUS
 62
     5
 10
482.50002354929069
 20
-298.00000000000091
 30
0.0
 40
0.5
 50
0.0
 51
90.0
  0
ARC
  8
DETAIL
  6
CONTINUOUS
 62
     5
 10
482.50002354929069
 20
-329.00000000000091
 30
0.0
 40
0.5
 50
270.0
 51
0.0
  0
CIRCLE
  8
DETAIL
  6
CONTINUOUS
 62
     5
 10
-299.99997645070931
 20
852.49999999999909
 30
0.0
 40
1.449999999999988
  0
CIRCLE
  8
DETAIL
  6
CONTINUOUS
 62
     5
 10
-199.9999764507092
 20
852.49999999999909
 30
0.0
 40
1.449999999999988
  0
CIRCLE
  8
DETAIL
  6
CONTINUOUS
 62
     5
 10
-99.999976450709255
 20
852.49999999999909
 30
0.0
 40
1.449999999999988
  0
CIRCLE
  8
DETAIL
  6
CONTINUOUS
 62
     5
 10
0.000023549290745
 20
852.49999999999909
 30
0.0
 40
1.449999999999988
  0
CIRCLE
  8
DETAIL
  6
CONTINUOUS
 62
     5
 10
100.0000235492907
 20
852.49999999999909
 30
0.0
 40
1.449999999999988
  0
CIRCLE
  8
DETAIL
  6
CONTINUOUS
 62
     5
 10
200.00002354929069
 20
852.49999999999909
 30
0.0
 40
1.449999999999988
  0
CIRCLE
  8
DETAIL
  6
CONTINUOUS
 62
     5
 10
300.00002354929069
 20
852.49999999999909
 30
0.0
 40
1.449999999999988
  0
CIRCLE
  8
DETAIL
  6
CONTINUOUS
 62
     5
 10
-309.99997645070931
 20
-852.50000000000091
 30
0.0
 40
1.450000000000045
  0
CIRCLE
  8
DETAIL
  6
CONTINUOUS
 62
     5
 10
-209.99997645070931
 20
-852.50000000000091
 30
0.0
 40
1.450000000000045
  0
CIRCLE
  8
DETAIL
  6
CONTINUOUS
 62
     5
 10
-109.9999764507092
 20
-852.50000000000091
 30
0.0
 40
1.450000000000045
  0
CIRCLE
  8
DETAIL
  6
CONTINUOUS
 62
     5
 10
-9.999976450709255
 20
-852.50000000000091
 30
0.0
 40
1.450000000000045
  0
CIRCLE
  8
DETAIL
  6
CONTINUOUS
 62
     5
 10
90.000023549290745
 20
-852.50000000000091
 30
0.0
 40
1.450000000000045
  0
CIRCLE
  8
DETAIL
  6
CONTINUOUS
 62
     5
 10
190.00002354929069
 20
-852.50000000000091
 30
0.0
 40
1.450000000000045
  0
LINE
  8
DETAIL
  6
CONTINUOUS
 62
     5
 10
508.28002354929322
 20
-358.29881810247298
 30
0.0
 11
508.28002354929129
 21
-340.7011818975397
 31
0.0
  0
LINE
  8
DETAIL
  6
CONTINUOUS
 62
     5
 10
509.28002354929959
 20
-338.96913108995892
 30
0.0
 11
508.28002354929129
 21
-340.7011818975397
 31
0.0
  0
LINE
  8
DETAIL
  6
CONTINUOUS
 62
     5
 10
509.28002354929959
 20
-338.96913108995892
 30
0.0
 11
514.00002354928245
 21
-338.96913108995892
 31
0.0
  0
ARC
  8
DETAIL
  6
CONTINUOUS
 62
     5
 10
512.24562354928912
 20
-341.60184831747569
 30
0.0
 40
3.9655999999962681
 50
161.59712971070189
 51
221.5971297107543
  0
ARC
  8
DETAIL
  6
CONTINUOUS
 62
     5
 10
522.64242354933322
 20
-349.50000000001728
 30
0.0
 40
14.36240000004091
 50
158.4931514740324
 51
201.50684852596751
  0
LINE
  8
DETAIL
  6
CONTINUOUS
 62
     5
 10
509.2800235492914
 20
-360.03086891004108
 30
0.0
 11
508.28002354929322
 21
-358.29881810247298
 31
0.0
  0
LINE
  8
DETAIL
  6
CONTINUOUS
 62
     5
 10
514.00002354929074
 20
-360.03086891004108
 30
0.0
 11
509.2800235492914
 21
-360.03086891004108
 31
0.0
  0
ARC
  8
DETAIL
  6
CONTINUOUS
 62
     5
 10
512.24562354928912
 20
-357.3981516825379
 30
0.0
 40
3.9655999999964582
 50
138.4028702892457
 51
198.40287028929799
  0
LINE
  8
DETAIL
  6
CONTINUOUS
 62
     5
 10
509.28002354931141
 20
-344.2345655449999
 30
0.0
 11
514.00002354927165
 21
-344.2345655449999
 31
0.0
  0
LINE
  8
DETAIL
  6
CONTINUOUS
 62
     5
 10
509.28002354929231
 20
-354.76543445503472
 30
0.0
 11
514.00002354929074
 21
-354.76543445503472
 31
0.0
  0
LINE
  8
DETAIL
  6
CONTINUOUS
 62
     5
 10
515.00002354928893
 20
-358.2988181024748
 30
0.0
 11
515.00002354929074
 21
-340.70118189754157
 31
0.0
  0
LINE
  8
DETAIL
  6
CONTINUOUS
 62
     5
 10
508.28002354929231
 20
-341.3822400000081
 30
0.0
 11
504.44002354929211
 21
-341.50224000000799
 31
0.0
  0
LINE
  8
DETAIL
  6
CONTINUOUS
 62
     5
 10
508.28002354929231
 20
-357.61775999999099
 30
0.0
 11
504.44002354929211
 21
-357.49775999999292
 31
0.0
  0
LINE
  8
DETAIL
  6
CONTINUOUS
 62
     5
 10
502.44002354929222
 20
-359.60756917791792
 30
0.0
 11
492.63267155023448
 21
-359.60756917791792
 31
0.0
  0
LINE
  8
DETAIL
  6
CONTINUOUS
 62
     5
 10
502.44002354929222
 20
-359.60756917791792
 30
0.0
 11
504.44002354929211
 21
-358.45286863953879
 31
0.0
  0
LINE
  8
DETAIL
  6
CONTINUOUS
 62
     5
 10
504.44002354929211
 20
-358.45286863953879
 30
0.0
 11
504.44002354929211
 21
-340.54713136047491
 31
0.0
  0
ARC
  8
DETAIL
  6
CONTINUOUS
 62
     5
 10
501.71255448199821
 20
-356.87859239717551
 30
0.0
 40
2.7274690672934878
 50
300.9454400499929
 51
74.530851746512454
  0
ARC
  8
DETAIL
  6
CONTINUOUS
 62
     5
 10
497.79956943787602
 20
-349.50000000000642
 30
0.0
 40
6.640454111416183
 50
314.33207081520169
 51
45.667929184798332
  0
ARC
  8
DETAIL
  6
CONTINUOUS
 62
     5
 10
501.71255448199821
 20
-342.12140760283819
 30
0.0
 40
2.7274690672933879
 50
285.4691482534875
 51
59.05455995000716
  0
LINE
  8
DETAIL
  6
CONTINUOUS
 62
     5
 10
502.44002354929222
 20
-339.39243082209492
 30
0.0
 11
504.44002354929211
 21
-340.54713136047491
 31
0.0
  0
LINE
  8
DETAIL
  6
CONTINUOUS
 62
     5
 10
502.44002354929222
 20
-339.39243082209492
 30
0.0
 11
492.63267155023448
 21
-339.39243082209492
 31
0.0
  0
LINE
  8
DETAIL
  6
CONTINUOUS
 62
     5
 10
502.44002354929222
 20
-344.75007195363918
 30
0.0
 11
492.63267155023448
 21
-344.75007195363918
 31
0.0
  0
LINE
  8
DETAIL
  6
CONTINUOUS
 62
     5
 10
502.44002354929222
 20
-354.2499280463735
 30
0.0
 11
492.63267155023448
 21
-354.2499280463735
 31
0.0
  0
LINE
  8
DETAIL
  6
CONTINUOUS
 62
     5
 10
492.63267155023448
 20
-337.00000000000642
 30
0.0
 11
492.63267155023448
 21
-362.00000000000642
 31
0.0
  0
LINE
  8
DETAIL
  6
CONTINUOUS
 62
     5
 10
514.00002354928245
 20
-338.96913108995892
 30
0.0
 11
515.00002354929074
 21
-340.70118189754157
 31
0.0
  0
ARC
  8
DETAIL
  6
CONTINUOUS
 62
     5
 10
511.03442354929388
 20
-341.60184831747569
 30
0.0
 40
3.9655999999964582
 50
318.40287028924581
 51
18.402870289298079
  0
ARC
  8
DETAIL
  6
CONTINUOUS
 62
     5
 10
500.63762354924887
 20
-349.50000000001728
 30
0.0
 40
14.36240000004091
 50
338.49315147403252
 51
21.50684852596752
  0
LINE
  8
DETAIL
  6
CONTINUOUS
 62
     5
 10
514.00002354929074
 20
-360.03086891004108
 30
0.0
 11
515.00002354928893
 21
-358.2988181024748
 31
0.0
  0
ARC
  8
DETAIL
  6
CONTINUOUS
 62
     5
 10
511.03442354929388
 20
-357.3981516825379
 30
0.0
 40
3.9655999999962712
 50
341.59712971070189
 51
41.597129710754253
  0
LINE
  8
DETAIL
  6
CONTINUOUS
 62
     5
 10
515.00002354928984
 20
-341.3822400000081
 30
0.0
 11
525.00002354929165
 21
-341.69474000000719
 31
0.0
  0
LINE
  8
DETAIL
  6
CONTINUOUS
 62
     5
 10
515.00002354928984
 20
-357.61775999999099
 30
0.0
 11
525.00002354928893
 21
-357.3052599999956
 31
0.0
  0
LINE
  8
DETAIL
  6
CONTINUOUS
 62
     5
 10
525.00002354928893
 20
-357.3052599999956
 30
0.0
 11
525.00002354929165
 21
-341.69474000000719
 31
0.0
  0
LINE
  8
DETAIL
  6
CONTINUOUS
 62
     5
 10
525.00002354928893
 20
-357.3052599999956
 30
0.0
 11
525.00002354929165
 21
-341.69474000000719
 31
0.0
  0
LINE
  8
SERVICESPACE
  6
DASHDOT
 62
     2
 10
1234.2000075104811
 20
-692.49999620231483
 30
0.0
 11
634.20000751048156
 21
407.50000379768522
 31
0.0
  0
LINE
  8
SERVICESPACE
  6
DASHDOT
 62
     2
 10
634.20000751048156
 20
-692.49999620231483
 30
0.0
 11
1234.2000075104811
 21
407.50000379768522
 31
0.0
  0
LINE
  8
SERVICESPACE
  6
DASHDOT
 62
     2
 10
634.20000751048156
 20
407.50000379768522
 30
0.0
 11
634.20000751048156
 21
-692.49999620231483
 31
0.0
  0
LINE
  8
SERVICESPACE
  6
DASHDOT
 62
     2
 10
634.20000751048156
 20
-692.49999620231483
 30
0.0
 11
1234.2000075104811
 21
-692.49999620231483
 31
0.0
  0
LINE
  8
SERVICESPACE
  6
DASHDOT
 62
     2
 10
634.20000751048156
 20
407.50000379768522
 30
0.0
 11
1234.2000075104811
 21
407.50000379768522
 31
0.0
  0
LINE
  8
SERVICESPACE
  6
DASHDOT
 62
     2
 10
434.20000857707231
 20
-892.5000004686799
 30
0.0
 11
1234.2000085770719
 21
-892.49999620231483
 31
0.0
  0
LINE
  8
SERVICESPACE
  6
DASHDOT
 62
     2
 10
434.20000882738071
 20
862.49999999999909
 30
0.0
 11
434.20000857707231
 21
-892.5000004686799
 31
0.0
  0
LINE
  8
SERVICESPACE
  6
DASHDOT
 62
     2
 10
1234.2000088171251
 20
862.49999999999909
 30
0.0
 11
1234.2000085770719
 21
-892.50000073172032
 31
0.0
  0
LINE
  8
SERVICESPACE
  6
DASHDOT
 62
     2
 10
-465.79997291064677
 20
177.49999109511279
 30
0.0
 11
484.2000135195758
 21
177.49999999999909
 31
0.0
  0
LINE
  8
SERVICESPACE
  6
DASHDOT
 62
     2
 10
-465.79997645070853
 20
-892.50001036332196
 30
0.0
 11
484.20002354929051
 21
-892.50000000000091
 31
0.0
  0
LINE
  8
SERVICESPACE
  6
DASHDOT
 62
     2
 10
484.20002708935323
 20
177.4999937512903
 30
0.0
 11
484.20002354929051
 21
-892.50000000000091
 31
0.0
  0
LINE
  8
SERVICESPACE
  6
DASHDOT
 62
     2
 10
-465.79997291064677
 20
177.49999689433659
 30
0.0
 11
-465.79997645070938
 21
-892.49999685695457
 31
0.0
  0
LINE
  8
SERVICESPACE
  6
DASHDOT
 62
     2
 10
434.20000882738071
 20
862.49999999999909
 30
0.0
 11
1234.2000088171251
 21
862.49999999999909
 31
0.0
  0
TEXT
  8
ETC
  6
CONTINUOUS
 62
    61
 10
-764.50238652888675
 20
1680.6588031717631
 30
0.0
 40
64.0
  1
GE-P1080MG6_6
 41
0.9
  0
LINE
  8
SIZE
  6
CONTINUOUS
 62
    30
 10
485.20002354929147
 20
-854.00000000000091
 30
0.0
 11
485.20002354929142
 21
-1332.725831200999
 31
0.0
  0
LINE
  8
SIZE
  6
CONTINUOUS
 62
    30
 10
462.20002354929051
 20
-846.5000000000008
 30
0.0
 11
462.20002354929051
 21
-1332.725831200999
 31
0.0
  0
LINE
  8
SIZE
  6
CONTINUOUS
 62
    30
 10
462.20002354929051
 20
-1312.725831200999
 30
0.0
 11
432.20002354929051
 21
-1312.725831200999
 31
0.0
  0
LINE
  8
SIZE
  6
CONTINUOUS
 62
    30
 10
485.20002354929142
 20
-1312.725831200999
 30
0.0
 11
643.48573783500603
 21
-1312.725831200999
 31
0.0
  0
LINE
  8
SIZE
  6
CONTINUOUS
 62
    30
 10
462.20002354929051
 20
-1312.725831200999
 30
0.0
 11
485.20002354929142
 21
-1312.725831200999
 31
0.0
  0
CIRCLE
  8
SIZE
  6
CONTINUOUS
 62
    30
 10
462.20002354929051
 20
-1312.725831200999
 30
0.0
 40
7.5
  0
CIRCLE
  8
SIZE
  6
CONTINUOUS
 62
    30
 10
485.20002354929142
 20
-1312.725831200999
 30
0.0
 40
7.5
  0
TEXT
  8
SIZE
  6
CONTINUOUS
 62
    30
 10
560.86288069214868
 20
-1292.725831200999
 30
0.0
 40
40.0
  1
23
 50
0.0
 41
0.9
 51
0.0
  7
STANDARD
 71
     0
 72
     1
 11
594.3428806921487
 21
-1292.725831200999
 31
0.0
210
0.0
220
0.0
230
1.0
  0
POINT
  8
DEFPOINTS
  6
CONTINUOUS
 62
    30
 10
485.20002354929147
 20
-834.0000000000008
 30
0.0
  0
POINT
  8
DEFPOINTS
  6
CONTINUOUS
 62
    30
 10
462.20002354929051
 20
-826.50000000000091
 30
0.0
  0
POINT
  8
DEFPOINTS
  6
CONTINUOUS
 62
    30
 10
462.20002354929051
 20
-1312.725831200999
 30
0.0
  0
LINE
  8
SIZE
  6
CONTINUOUS
 62
    30
 10
425.00002354929069
 20
582.49999999999909
 30
0.0
 11
425.00002354929069
 21
1262.343569826141
 31
0.0
  0
LINE
  8
SIZE
  6
CONTINUOUS
 62
    30
 10
500.00002354929069
 20
516.49999999999909
 30
0.0
 11
500.00002354929069
 21
1262.343569826141
 31
0.0
  0
LINE
  8
SIZE
  6
CONTINUOUS
 62
    30
 10
425.00002354929069
 20
1242.343569826141
 30
0.0
 11
500.00002354929069
 21
1242.343569826141
 31
0.0
  0
LINE
  8
SIZE
  6
CONTINUOUS
 62
    30
 10
500.00002354929069
 20
1242.343569826141
 30
0.0
 11
628.28573783500508
 21
1242.343569826141
 31
0.0
  0
CIRCLE
  8
SIZE
  6
CONTINUOUS
 62
    30
 10
425.00002354929069
 20
1242.343569826141
 30
0.0
 40
7.5
  0
CIRCLE
  8
SIZE
  6
CONTINUOUS
 62
    30
 10
500.00002354929069
 20
1242.343569826141
 30
0.0
 40
7.5
  0
TEXT
  8
SIZE
  6
CONTINUOUS
 62
    30
 10
545.66288069214795
 20
1262.343569826141
 30
0.0
 40
40.0
  1
75
 50
0.0
 41
0.9
 51
0.0
  7
STANDARD
 71
     0
 72
     1
 11
579.14288069214797
 21
1262.343569826141
 31
0.0
210
0.0
220
0.0
230
1.0
  0
POINT
  8
DEFPOINTS
  6
CONTINUOUS
 62
    30
 10
425.00002354929069
 20
562.49999999999909
 30
0.0
  0
POINT
  8
DEFPOINTS
  6
CONTINUOUS
 62
    30
 10
500.00002354929069
 20
496.49999999999898
 30
0.0
  0
POINT
  8
DEFPOINTS
  6
CONTINUOUS
 62
    30
 10
500.00002354929069
 20
1242.343569826141
 30
0.0
  0
LINE
  8
SIZE
  6
CONTINUOUS
 62
    30
 10
425.00002354929069
 20
582.49999999999909
 30
0.0
 11
425.00002354929069
 21
1262.343569826141
 31
0.0
  0
LINE
  8
SIZE
  6
CONTINUOUS
 62
    30
 10
-424.99997645070931
 20
582.49999999999909
 30
0.0
 11
-424.9999764507092
 21
1262.343569826141
 31
0.0
  0
LINE
  8
SIZE
  6
CONTINUOUS
 62
    30
 10
425.00002354929069
 20
1242.343569826141
 30
0.0
 11
-424.9999764507092
 21
1242.343569826141
 31
0.0
  0
CIRCLE
  8
SIZE
  6
CONTINUOUS
 62
    30
 10
425.00002354929069
 20
1242.343569826141
 30
0.0
 40
7.5
  0
CIRCLE
  8
SIZE
  6
CONTINUOUS
 62
    30
 10
-424.9999764507092
 20
1242.343569826141
 30
0.0
 40
7.5
  0
TEXT
  8
SIZE
  6
CONTINUOUS
 62
    30
 10
-50.579976450708799
 20
1262.343569826141
 30
0.0
 40
40.0
  1
850
 50
0.0
 41
0.9
 51
0.0
  7
STANDARD
 71
     0
 72
     1
 11
0.0000235492911997
 21
1262.343569826141
 31
0.0
210
0.0
220
0.0
230
1.0
  0
POINT
  8
DEFPOINTS
  6
CONTINUOUS
 62
    30
 10
425.00002354929069
 20
562.49999999999909
 30
0.0
  0
POINT
  8
DEFPOINTS
  6
CONTINUOUS
 62
    30
 10
-424.99997645070931
 20
562.49999999999909
 30
0.0
  0
POINT
  8
DEFPOINTS
  6
CONTINUOUS
 62
    30
 10
-424.9999764507092
 20
1242.343569826141
 30
0.0
  0
LINE
  8
SIZE
  6
CONTINUOUS
 62
    30
 10
500.00002354929069
 20
516.49999999999909
 30
0.0
 11
500.00002354929069
 21
1436.1675608530591
 31
0.0
  0
LINE
  8
SIZE
  6
CONTINUOUS
 62
    30
 10
-484.9999764507092
 20
578.99999999999909
 30
0.0
 11
-484.99997645070908
 21
1436.1675608530591
 31
0.0
  0
LINE
  8
SIZE
  6
CONTINUOUS
 62
    30
 10
500.00002354929069
 20
1416.1675608530591
 30
0.0
 11
-484.99997645070908
 21
1416.1675608530591
 31
0.0
  0
CIRCLE
  8
SIZE
  6
CONTINUOUS
 62
    30
 10
500.00002354929069
 20
1416.1675608530591
 30
0.0
 40
7.5
  0
CIRCLE
  8
SIZE
  6
CONTINUOUS
 62
    30
 10
-484.99997645070908
 20
1416.1675608530591
 30
0.0
 40
7.5
  0
TEXT
  8
SIZE
  6
CONTINUOUS
 62
    30
 10
-42.719976450712437
 20
1436.1675608530591
 30
0.0
 40
40.0
  1
985
 50
0.0
 41
0.9
 51
0.0
  7
STANDARD
 71
     0
 72
     1
 11
7.5000235492875618
 21
1436.1675608530591
 31
0.0
210
0.0
220
0.0
230
1.0
  0
POINT
  8
DEFPOINTS
  6
CONTINUOUS
 62
    30
 10
500.00002354929069
 20
496.49999999999898
 30
0.0
  0
POINT
  8
DEFPOINTS
  6
CONTINUOUS
 62
    30
 10
-484.9999764507092
 20
558.99999999999898
 30
0.0
  0
POINT
  8
DEFPOINTS
  6
CONTINUOUS
 62
    30
 10
-484.99997645070908
 20
1416.1675608530591
 30
0.0
  0
LINE
  8
SIZE
  6
CONTINUOUS
 62
    30
 10
-462.79997645070938
 20
-846.5000000000008
 30
0.0
 11
-462.79997645070938
 21
-1332.7258312009981
 31
0.0
  0
LINE
  8
SIZE
  6
CONTINUOUS
 62
    30
 10
462.20002354929051
 20
-846.5000000000008
 30
0.0
 11
462.20002354929051
 21
-1332.7258312009981
 31
0.0
  0
LINE
  8
SIZE
  6
CONTINUOUS
 62
    30
 10
-462.79997645070938
 20
-1312.7258312009981
 30
0.0
 11
462.20002354929051
 21
-1312.7258312009981
 31
0.0
  0
CIRCLE
  8
SIZE
  6
CONTINUOUS
 62
    30
 10
-462.79997645070938
 20
-1312.7258312009981
 30
0.0
 40
7.5
  0
CIRCLE
  8
SIZE
  6
CONTINUOUS
 62
    30
 10
462.20002354929051
 20
-1312.7258312009981
 30
0.0
 40
7.5
  0
TEXT
  8
SIZE
  6
CONTINUOUS
 62
    30
 10
-35.6854674080748
 20
-1292.7258312009981
 30
0.0
 40
40.0
  1
925
 50
0.0
 41
0.9
 51
0.0
  7
STANDARD
 71
     0
 72
     1
 11
14.534532591925199
 21
-1292.7258312009981
 31
0.0
210
0.0
220
0.0
230
1.0
  0
POINT
  8
DEFPOINTS
  6
CONTINUOUS
 62
    30
 10
-462.79997645070938
 20
-826.50000000000091
 30
0.0
  0
POINT
  8
DEFPOINTS
  6
CONTINUOUS
 62
    30
 10
462.20002354929051
 20
-826.50000000000091
 30
0.0
  0
POINT
  8
DEFPOINTS
  6
CONTINUOUS
 62
    30
 10
462.20002354929051
 20
-1312.7258312009981
 30
0.0
  0
LINE
  8
SIZE
  6
CONTINUOUS
 62
    30
 10
494.20002354929051
 20
531.49999999999898
 30
0.0
 11
1619.2813080300321
 21
531.49999999999875
 31
0.0
  0
LINE
  8
SIZE
  6
CONTINUOUS
 62
    30
 10
494.20002354929051
 20
-806.5000000000008
 30
0.0
 11
1619.2813080300321
 21
-806.50000000000114
 31
0.0
  0
LINE
  8
SIZE
  6
CONTINUOUS
 62
    30
 10
1599.2813080300321
 20
531.49999999999875
 30
0.0
 11
1599.2813080300321
 21
-806.50000000000114
 31
0.0
  0
CIRCLE
  8
SIZE
  6
CONTINUOUS
 62
    30
 10
1599.2813080300321
 20
531.49999999999875
 30
0.0
 40
7.5
  0
CIRCLE
  8
SIZE
  6
CONTINUOUS
 62
    30
 10
1599.2813080300321
 20
-806.50000000000114
 30
0.0
 40
7.5
  0
TEXT
  8
SIZE
  6
CONTINUOUS
 62
    30
 10
1579.2813080300321
 20
-193.36000000000081
 30
0.0
 40
40.0
  1
1338
 50
90.0
 41
0.9
 51
0.0
  7
STANDARD
 71
     0
 72
     1
 11
1579.2813080300321
 21
-130.00000000000091
 31
0.0
210
0.0
220
0.0
230
1.0
  0
POINT
  8
DEFPOINTS
  6
CONTINUOUS
 62
    30
 10
474.20002354929062
 20
531.49999999999898
 30
0.0
  0
POINT
  8
DEFPOINTS
  6
CONTINUOUS
 62
    30
 10
474.20002354929062
 20
-806.5000000000008
 30
0.0
  0
POINT
  8
DEFPOINTS
  6
CONTINUOUS
 62
    30
 10
1599.2813080300321
 20
-806.50000000000114
 30
0.0
  0
LINE
  8
SIZE
  6
CONTINUOUS
 62
    30
 10
240.00002354929069
 20
-882.50000000000091
 30
0.0
 11
240.00002354929069
 21
-1225.4729650308479
 31
0.0
  0
LINE
  8
SIZE
  6
CONTINUOUS
 62
    30
 10
-359.99997645070931
 20
-882.50000000000091
 30
0.0
 11
-359.99997645070931
 21
-1225.4729650308479
 31
0.0
  0
LINE
  8
SIZE
  6
CONTINUOUS
 62
    30
 10
240.00002354929069
 20
-1205.4729650308479
 30
0.0
 11
-359.99997645070931
 21
-1205.4729650308479
 31
0.0
  0
CIRCLE
  8
SIZE
  6
CONTINUOUS
 62
    30
 10
240.00002354929069
 20
-1205.4729650308479
 30
0.0
 40
7.5
  0
CIRCLE
  8
SIZE
  6
CONTINUOUS
 62
    30
 10
-359.99997645070931
 20
-1205.4729650308479
 30
0.0
 40
7.5
  0
TEXT
  8
SIZE
  6
CONTINUOUS
 62
    30
 10
-110.93997645070925
 20
-1185.4729650308479
 30
0.0
 40
40.0
  1
600
 50
0.0
 41
0.9
 51
0.0
  7
STANDARD
 71
     0
 72
     1
 11
-59.999976450709255
 21
-1185.4729650308479
 31
0.0
210
0.0
220
0.0
230
1.0
  0
POINT
  8
DEFPOINTS
  6
CONTINUOUS
 62
    30
 10
240.00002354929069
 20
-862.5000000000008
 30
0.0
  0
POINT
  8
DEFPOINTS
  6
CONTINUOUS
 62
    30
 10
-359.99997645070931
 20
-862.5000000000008
 30
0.0
  0
POINT
  8
DEFPOINTS
  6
CONTINUOUS
 62
    30
 10
-359.99997645070931
 20
-1205.4729650308479
 30
0.0
  0
LINE
  8
SIZE
  6
CONTINUOUS
 62
    30
 10
551.45002354929056
 20
-233.50000000000091
 30
0.0
 11
1519.2813080300321
 21
-233.50000000000119
 31
0.0
  0
LINE
  8
SIZE
  6
CONTINUOUS
 62
    30
 10
551.45002354929056
 20
-137.50000000000091
 30
0.0
 11
1519.2813080300321
 21
-137.50000000000119
 31
0.0
  0
LINE
  8
SIZE
  6
CONTINUOUS
 62
    30
 10
1499.2813080300321
 20
-233.50000000000119
 30
0.0
 11
1499.2813080300321
 21
-137.50000000000119
 31
0.0
  0
LINE
  8
SIZE
  6
CONTINUOUS
 62
    30
 10
1499.2813080300321
 20
-137.50000000000119
 30
0.0
 11
1499.2813080300321
 21
37.112809248922822
 31
0.0
  0
CIRCLE
  8
SIZE
  6
CONTINUOUS
 62
    30
 10
1499.2813080300321
 20
-233.50000000000119
 30
0.0
 40
7.5
  0
CIRCLE
  8
SIZE
  6
CONTINUOUS
 62
    30
 10
1499.2813080300321
 20
-137.50000000000119
 30
0.0
 40
7.5
  0
TEXT
  8
SIZE
  6
CONTINUOUS
 62
    30
 10
1479.2813080300321
 20
-44.652905036791246
 30
0.0
 40
40.0
  1
96
 50
90.0
 41
0.9
 51
0.0
  7
STANDARD
 71
     0
 72
     1
 11
1479.2813080300321
 21
-11.172905036791231
 31
0.0
210
0.0
220
0.0
230
1.0
  0
POINT
  8
DEFPOINTS
  6
CONTINUOUS
 62
    30
 10
531.45002354929045
 20
-233.50000000000091
 30
0.0
  0
POINT
  8
DEFPOINTS
  6
CONTINUOUS
 62
    30
 10
531.45002354929045
 20
-137.50000000000091
 30
0.0
  0
POINT
  8
DEFPOINTS
  6
CONTINUOUS
 62
    30
 10
1499.2813080300321
 20
-137.50000000000119
 30
0.0
  0
LINE
  8
SIZE
  6
CONTINUOUS
 62
    30
 10
445.00002354929069
 20
-837.5000000000008
 30
0.0
 11
1519.2813080300321
 21
-837.50000000000125
 31
0.0
  0
LINE
  8
SIZE
  6
CONTINUOUS
 62
    30
 10
551.45002354929056
 20
-233.50000000000091
 30
0.0
 11
1519.2813080300321
 21
-233.50000000000119
 31
0.0
  0
LINE
  8
SIZE
  6
CONTINUOUS
 62
    30
 10
1499.2813080300321
 20
-837.50000000000125
 30
0.0
 11
1499.2813080300321
 21
-233.50000000000119
 31
0.0
  0
CIRCLE
  8
SIZE
  6
CONTINUOUS
 62
    30
 10
1499.2813080300321
 20
-837.50000000000125
 30
0.0
 40
7.5
  0
CIRCLE
  8
SIZE
  6
CONTINUOUS
 62
    30
 10
1499.2813080300321
 20
-233.50000000000119
 30
0.0
 40
7.5
  0
TEXT
  8
SIZE
  6
CONTINUOUS
 62
    30
 10
1479.2813080300321
 20
-588.60091408067683
 30
0.0
 40
40.0
  1
604
 50
90.0
 41
0.9
 51
0.0
  7
STANDARD
 71
     0
 72
     1
 11
1479.2813080300321
 21
-537.66091408067678
 31
0.0
210
0.0
220
0.0
230
1.0
  0
POINT
  8
DEFPOINTS
  6
CONTINUOUS
 62
    30
 10
425.00002354929069
 20
-837.5000000000008
 30
0.0
  0
POINT
  8
DEFPOINTS
  6
CONTINUOUS
 62
    30
 10
531.45002354929045
 20
-233.50000000000091
 30
0.0
  0
POINT
  8
DEFPOINTS
  6
CONTINUOUS
 62
    30
 10
1499.2813080300321
 20
-233.50000000000119
 30
0.0
  0
LINE
  8
SIZE
  6
CONTINUOUS
 62
    30
 10
1254.2000086044291
 20
-692.49999620231483
 30
0.0
 11
1419.2813080300321
 21
-692.49999620231495
 31
0.0
  0
LINE
  8
SIZE
  6
CONTINUOUS
 62
    30
 10
1254.2000087548879
 20
407.50000379768522
 30
0.0
 11
1419.2813080300321
 21
407.50000379768511
 31
0.0
  0
LINE
  8
SIZE
  6
CONTINUOUS
 62
    30
 10
1399.2813080300321
 20
-692.49999620231495
 30
0.0
 11
1399.2813080300321
 21
407.50000379768522
 31
0.0
  0
CIRCLE
  8
SIZE
  6
CONTINUOUS
 62
    30
 10
1399.2813080300321
 20
-692.49999620231495
 30
0.0
 40
7.5
  0
CIRCLE
  8
SIZE
  6
CONTINUOUS
 62
    30
 10
1399.2813080300321
 20
407.50000379768522
 30
0.0
 40
7.5
  0
TEXT
  8
SIZE
  6
CONTINUOUS
 62
    30
 10
1379.2813080300321
 20
-76.941093873605027
 30
0.0
 40
40.0
  1
1100
 50
90.0
 41
0.9
 51
0.0
  7
STANDARD
 71
     0
 72
     1
 11
1379.2813080300321
 21
-16.461093873605009
 31
0.0
210
0.0
220
0.0
230
1.0
  0
POINT
  8
DEFPOINTS
  6
CONTINUOUS
 62
    30
 10
1234.2000086044291
 20
-692.49999620231483
 30
0.0
  0
POINT
  8
DEFPOINTS
  6
CONTINUOUS
 62
    30
 10
1234.2000087548879
 20
407.50000379768522
 30
0.0
  0
POINT
  8
DEFPOINTS
  6
CONTINUOUS
 62
    30
 10
1399.2813080300321
 20
407.50000379768522
 30
0.0
  0
LINE
  8
SIZE
  6
CONTINUOUS
 62
    30
 10
634.20000751048156
 20
427.50000379768511
 30
0.0
 11
634.20000751048156
 21
1084.15340227209
 31
0.0
  0
LINE
  8
SIZE
  6
CONTINUOUS
 62
    30
 10
1234.2000088171251
 20
882.49999999999898
 30
0.0
 11
1234.2000088171251
 21
1084.15340227209
 31
0.0
  0
LINE
  8
SIZE
  6
CONTINUOUS
 62
    30
 10
634.20000751048156
 20
1064.1534022720909
 30
0.0
 11
1234.2000088171251
 21
1064.1534022720909
 31
0.0
  0
CIRCLE
  8
SIZE
  6
CONTINUOUS
 62
    30
 10
634.20000751048156
 20
1064.1534022720909
 30
0.0
 40
7.5
  0
CIRCLE
  8
SIZE
  6
CONTINUOUS
 62
    30
 10
1234.2000088171251
 20
1064.1534022720909
 30
0.0
 40
7.5
  0
TEXT
  8
SIZE
  6
CONTINUOUS
 62
    30
 10
883.26000816380338
 20
1084.1534022720909
 30
0.0
 40
40.0
  1
600
 50
0.0
 41
0.9
 51
0.0
  7
STANDARD
 71
     0
 72
     1
 11
934.20000816380343
 21
1084.1534022720909
 31
0.0
210
0.0
220
0.0
230
1.0
  0
POINT
  8
DEFPOINTS
  6
CONTINUOUS
 62
    30
 10
634.20000751048156
 20
407.50000379768522
 30
0.0
  0
POINT
  8
DEFPOINTS
  6
CONTINUOUS
 62
    30
 10
1234.2000088171251
 20
862.49999999999909
 30
0.0
  0
POINT
  8
DEFPOINTS
  6
CONTINUOUS
 62
    30
 10
1234.2000088171251
 20
1064.1534022720909
 30
0.0
  0
LINE
  8
SIZE
  6
CONTINUOUS
 62
    30
 10
-485.79997645070938
 20
-892.49999685695457
 30
0.0
 11
-606.73662946929028
 21
-892.49999685695457
 31
0.0
  0
LINE
  8
SIZE
  6
CONTINUOUS
 62
    30
 10
-485.79997291064677
 20
177.49999109511279
 30
0.0
 11
-606.73662946929005
 21
177.49999109511279
 31
0.0
  0
LINE
  8
SIZE
  6
CONTINUOUS
 62
    30
 10
-586.73662946929039
 20
-892.49999685695457
 30
0.0
 11
-586.73662946929005
 21
177.49999109511279
 31
0.0
  0
CIRCLE
  8
SIZE
  6
CONTINUOUS
 62
    30
 10
-586.73662946929039
 20
-892.49999685695457
 30
0.0
 40
7.5
  0
CIRCLE
  8
SIZE
  6
CONTINUOUS
 62
    30
 10
-586.73662946929005
 20
177.49999109511279
 30
0.0
 40
7.5
  0
TEXT
  8
SIZE
  6
CONTINUOUS
 62
    30
 10
-606.73662946929016
 20
-421.58000288092092
 30
0.0
 40
40.0
  1
1070
 50
90.0
 41
0.9
 51
0.0
  7
STANDARD
 71
     0
 72
     1
 11
-606.73662946929016
 21
-357.50000288092087
 31
0.0
210
0.0
220
0.0
230
1.0
  0
POINT
  8
DEFPOINTS
  6
CONTINUOUS
 62
    30
 10
-465.79997645070938
 20
-892.49999685695457
 30
0.0
  0
POINT
  8
DEFPOINTS
  6
CONTINUOUS
 62
    30
 10
-465.79997291064677
 20
177.49999109511279
 30
0.0
  0
POINT
  8
DEFPOINTS
  6
CONTINUOUS
 62
    30
 10
-586.73662946929005
 20
177.49999109511279
 30
0.0
  0
LINE
  8
SIZE
  6
CONTINUOUS
 62
    30
 10
1234.2000088171251
 20
882.49999999999898
 30
0.0
 11
1234.2000088171251
 21
1180.4745620592901
 31
0.0
  0
LINE
  8
SIZE
  6
CONTINUOUS
 62
    30
 10
434.20000882738071
 20
882.50000326966335
 30
0.0
 11
434.20000882738071
 21
1180.4745620592901
 31
0.0
  0
LINE
  8
SIZE
  6
CONTINUOUS
 62
    30
 10
1234.2000088171251
 20
1160.4745620592901
 30
0.0
 11
434.20000882738071
 21
1160.4745620592901
 31
0.0
  0
CIRCLE
  8
SIZE
  6
CONTINUOUS
 62
    30
 10
1234.2000088171251
 20
1160.4745620592901
 30
0.0
 40
7.5
  0
CIRCLE
  8
SIZE
  6
CONTINUOUS
 62
    30
 10
434.20000882738071
 20
1160.4745620592901
 30
0.0
 40
7.5
  0
TEXT
  8
SIZE
  6
CONTINUOUS
 62
    30
 10
783.26000882225298
 20
1180.4745620592901
 30
0.0
 40
40.0
  1
800
 50
0.0
 41
0.9
 51
0.0
  7
STANDARD
 71
     0
 72
     1
 11
834.20000882225304
 21
1180.4745620592901
 31
0.0
210
0.0
220
0.0
230
1.0
  0
POINT
  8
DEFPOINTS
  6
CONTINUOUS
 62
    30
 10
1234.2000088171251
 20
862.49999999999909
 30
0.0
  0
POINT
  8
DEFPOINTS
  6
CONTINUOUS
 62
    30
 10
434.20000882738071
 20
862.50000326966335
 30
0.0
  0
POINT
  8
DEFPOINTS
  6
CONTINUOUS
 62
    30
 10
434.20000882738071
 20
1160.4745620592901
 30
0.0
  0
LINE
  8
SIZE
  6
CONTINUOUS
 62
    30
 10
1254.200008583912
 20
-842.50000000000091
 30
0.0
 11
1419.2813080300321
 21
-842.50000000000091
 31
0.0
  0
LINE
  8
SIZE
  6
CONTINUOUS
 62
    30
 10
1254.2000075104811
 20
-692.49999620231483
 30
0.0
 11
1419.2813080300321
 21
-692.49999620231495
 31
0.0
  0
LINE
  8
SIZE
  6
CONTINUOUS
 62
    30
 10
1399.2813080300321
 20
-842.50000000000091
 30
0.0
 11
1399.2813080300321
 21
-692.49999620231495
 31
0.0
  0
CIRCLE
  8
SIZE
  6
CONTINUOUS
 62
    30
 10
1399.2813080300321
 20
-842.50000000000091
 30
0.0
 40
7.5
  0
CIRCLE
  8
SIZE
  6
CONTINUOUS
 62
    30
 10
1399.2813080300321
 20
-692.49999620231495
 30
0.0
 40
7.5
  0
TEXT
  8
SIZE
  6
CONTINUOUS
 62
    30
 10
1379.2813080300321
 20
-808.47999810115778
 30
0.0
 40
40.0
  1
150
 50
90.0
 41
0.9
 51
0.0
  7
STANDARD
 71
     0
 72
     1
 11
1379.2813080300321
 21
-761.49999810115776
 31
0.0
210
0.0
220
0.0
230
1.0
  0
POINT
  8
DEFPOINTS
  6
CONTINUOUS
 62
    30
 10
1234.2000085839111
 20
-842.50000000000091
 30
0.0
  0
POINT
  8
DEFPOINTS
  6
CONTINUOUS
 62
    30
 10
1234.2000075104811
 20
-692.49999620231483
 30
0.0
  0
POINT
  8
DEFPOINTS
  6
CONTINUOUS
 62
    30
 10
1399.2813080300321
 20
-692.49999620231495
 30
0.0
  0
LINE
  8
SIZE
  6
CONTINUOUS
 62
    30
 10
-424.99997645070931
 20
558.95795911588255
 30
0.0
 11
-424.9999764507092
 21
1339.1517990160021
 31
0.0
  0
LINE
  8
SIZE
  6
CONTINUOUS
 62
    30
 10
500.00002354929069
 20
492.9579591158826
 30
0.0
 11
500.00002354929069
 21
1339.1517990160021
 31
0.0
  0
LINE
  8
SIZE
  6
CONTINUOUS
 62
    30
 10
-424.9999764507092
 20
1319.1517990160021
 30
0.0
 11
500.00002354929069
 21
1319.1517990160021
 31
0.0
  0
CIRCLE
  8
SIZE
  6
CONTINUOUS
 62
    30
 10
-424.9999764507092
 20
1319.1517990160021
 30
0.0
 40
7.5
  0
CIRCLE
  8
SIZE
  6
CONTINUOUS
 62
    30
 10
500.00002354929069
 20
1319.1517990160021
 30
0.0
 40
7.5
  0
TEXT
  8
SIZE
  6
CONTINUOUS
 62
    30
 10
-12.719976450708799
 20
1339.1517990160021
 30
0.0
 40
40.0
  1
925
 50
0.0
 41
0.9
 51
0.0
  7
STANDARD
 71
     0
 72
     1
 11
37.5000235492912
 21
1339.1517990160021
 31
0.0
210
0.0
220
0.0
230
1.0
  0
POINT
  8
DEFPOINTS
  6
CONTINUOUS
 62
    30
 10
-424.99997645070931
 20
538.95795911588266
 30
0.0
  0
POINT
  8
DEFPOINTS
  6
CONTINUOUS
 62
    30
 10
500.00002354929069
 20
472.9579591158826
 30
0.0
  0
POINT
  8
DEFPOINTS
  6
CONTINUOUS
 62
    30
 10
500.00002354929069
 20
1319.1517990160021
 30
0.0
  0
LINE
  8
SIZE
  6
CONTINUOUS
 62
    30
 10
502.70002354929051
 20
-836.50000000000091
 30
0.0
 11
1619.2813080300321
 21
-836.50000000000125
 31
0.0
  0
LINE
  8
SIZE
  6
CONTINUOUS
 62
    30
 10
494.20002354929051
 20
-806.5000000000008
 30
0.0
 11
1619.2813080300321
 21
-806.50000000000114
 31
0.0
  0
LINE
  8
SIZE
  6
CONTINUOUS
 62
    30
 10
1599.2813080300321
 20
-806.50000000000114
 30
0.0
 11
1599.2813080300321
 21
-776.50000000000125
 31
0.0
  0
LINE
  8
SIZE
  6
CONTINUOUS
 62
    30
 10
1599.2813080300321
 20
-836.50000000000125
 30
0.0
 11
1599.2813080300321
 21
-1005.357395718303
 31
0.0
  0
LINE
  8
SIZE
  6
CONTINUOUS
 62
    30
 10
1599.2813080300321
 20
-806.50000000000114
 30
0.0
 11
1599.2813080300321
 21
-836.50000000000125
 31
0.0
  0
CIRCLE
  8
SIZE
  6
CONTINUOUS
 62
    30
 10
1599.2813080300321
 20
-806.50000000000114
 30
0.0
 40
7.5
  0
CIRCLE
  8
SIZE
  6
CONTINUOUS
 62
    30
 10
1599.2813080300321
 20
-836.50000000000125
 30
0.0
 40
7.5
  0
TEXT
  8
SIZE
  6
CONTINUOUS
 62
    30
 10
1579.2813080300321
 20
-990.05453857544546
 30
0.0
 40
40.0
  1
30
 50
90.0
 41
0.9
 51
0.0
  7
STANDARD
 71
     0
 72
     1
 11
1579.2813080300321
 21
-956.21453857544554
 31
0.0
210
0.0
220
0.0
230
1.0
  0
POINT
  8
DEFPOINTS
  6
CONTINUOUS
 62
    30
 10
482.70002354929062
 20
-836.50000000000091
 30
0.0
  0
POINT
  8
DEFPOINTS
  6
CONTINUOUS
 62
    30
 10
474.20002354929062
 20
-806.5000000000008
 30
0.0
  0
POINT
  8
DEFPOINTS
  6
CONTINUOUS
 62
    30
 10
1599.2813080300321
 20
-806.50000000000114
 30
0.0
  0
LINE
  8
SIZE
  6
CONTINUOUS
 62
    30
 10
484.20002354929142
 20
-912.5
 30
0.0
 11
484.20002354929142
 21
-1065.581296332635
 31
0.0
  0
LINE
  8
SIZE
  6
CONTINUOUS
 62
    30
 10
434.20000857707231
 20
-912.50000046867888
 30
0.0
 11
434.20000857707231
 21
-1065.581296332635
 31
0.0
  0
LINE
  8
SIZE
  6
CONTINUOUS
 62
    30
 10
434.20000857707231
 20
-1045.581296332635
 30
0.0
 11
484.20002354929142
 21
-1045.581296332635
 31
0.0
  0
LINE
  8
SIZE
  6
CONTINUOUS
 62
    30
 10
484.20002354929142
 20
-1045.581296332635
 30
0.0
 11
613.32277817286297
 21
-1045.581296332635
 31
0.0
  0
CIRCLE
  8
SIZE
  6
CONTINUOUS
 62
    30
 10
434.20000857707231
 20
-1045.581296332635
 30
0.0
 40
7.5
  0
CIRCLE
  8
SIZE
  6
CONTINUOUS
 62
    30
 10
484.20002354929142
 20
-1045.581296332635
 30
0.0
 40
7.5
  0
TEXT
  8
SIZE
  6
CONTINUOUS
 62
    30
 10
530.33992103000583
 20
-1025.581296332635
 30
0.0
 40
40.0
  1
50
 50
0.0
 41
0.9
 51
0.0
  7
STANDARD
 71
     0
 72
     1
 11
564.17992103000586
 21
-1025.581296332635
 31
0.0
210
0.0
220
0.0
230
1.0
  0
POINT
  8
DEFPOINTS
  6
CONTINUOUS
 62
    30
 10
484.20002354929142
 20
-892.5
 30
0.0
  0
POINT
  8
DEFPOINTS
  6
CONTINUOUS
 62
    30
 10
434.20000857707231
 20
-892.50000046867899
 30
0.0
  0
POINT
  8
DEFPOINTS
  6
CONTINUOUS
 62
    30
 10
434.20000857707231
 20
-1045.581296332635
 30
0.0
  0
LINE
  8
SIZE
  6
CONTINUOUS
 62
    30
 10
240.00002354929069
 20
-882.50000000000091
 30
0.0
 11
240.00002354929069
 21
-1225.4729650308479
 31
0.0
  0
LINE
  8
SIZE
  6
CONTINUOUS
 62
    30
 10
425.00002354929069
 20
-861.70000000000073
 30
0.0
 11
425.00002354929069
 21
-1225.4729650308479
 31
0.0
  0
LINE
  8
SIZE
  6
CONTINUOUS
 62
    30
 10
240.00002354929069
 20
-1205.4729650308479
 30
0.0
 11
425.00002354929069
 21
-1205.4729650308479
 31
0.0
  0
TEXT
  8
SIZE
  6
CONTINUOUS
 62
    30
 10
285.8800235492908
 20
-1185.47296503085
 30
0.0
 40
40.0
  1
185
 50
0.0
 41
0.9
 51
0.0
  7
STANDARD
 71
     0
 72
     1
 11
332.5000235492908
 21
-1185.47296503085
 31
0.0
210
0.0
220
0.0
230
1.0
  0
CIRCLE
  8
SIZE
  6
CONTINUOUS
 62
    30
 10
240.00002354929069
 20
-1205.4729650308479
 30
0.0
 40
7.5
  0
CIRCLE
  8
SIZE
  6
CONTINUOUS
 62
    30
 10
425.00002354929069
 20
-1205.4729650308479
 30
0.0
 40
7.5
  0
POINT
  8
DEFPOINTS
  6
CONTINUOUS
 62
    30
 10
240.00002354929069
 20
-862.5000000000008
 30
0.0
  0
POINT
  8
DEFPOINTS
  6
CONTINUOUS
 62
    30
 10
425.00002354929069
 20
-841.70000000000061
 30
0.0
  0
POINT
  8
DEFPOINTS
  6
CONTINUOUS
 62
    30
 10
425.00002354929069
 20
-1205.4729650308479
 30
0.0
  0
LINE
  8
SIZE
  6
CONTINUOUS
 62
    30
 10
523.89109662449016
 20
-892.50000009701955
 30
0.0
 11
1419.2813080300321
 21
-892.50000009701967
 31
0.0
  0
LINE
  8
SIZE
  6
CONTINUOUS
 62
    30
 10
450.00002354929069
 20
-842.50000000000091
 30
0.0
 11
1419.2813080300321
 21
-842.50000000000125
 31
0.0
  0
LINE
  8
SIZE
  6
CONTINUOUS
 62
    30
 10
1399.2813080300321
 20
-842.50000000000125
 30
0.0
 11
1399.2813080300321
 21
-892.50000009701967
 31
0.0
  0
LINE
  8
SIZE
  6
CONTINUOUS
 62
    30
 10
1399.2813080300321
 20
-892.50000009701967
 30
0.0
 11
1399.2813080300321
 21
-1020.785714382735
 31
0.0
  0
CIRCLE
  8
SIZE
  6
CONTINUOUS
 62
    30
 10
1399.2813080300321
 20
-842.50000000000125
 30
0.0
 40
7.5
  0
CIRCLE
  8
SIZE
  6
CONTINUOUS
 62
    30
 10
1399.2813080300321
 20
-892.50000009701967
 30
0.0
 40
7.5
  0
TEXT
  8
SIZE
  6
CONTINUOUS
 62
    30
 10
1379.2813080300321
 20
-1005.4828572398771
 30
0.0
 40
40.0
  1
50
 50
90.0
 41
0.9
 51
0.0
  7
STANDARD
 71
     0
 72
     1
 11
1379.2813080300321
 21
-971.64285723987723
 31
0.0
210
0.0
220
0.0
230
1.0
  0
POINT
  8
DEFPOINTS
  6
CONTINUOUS
 62
    30
 10
503.89109662449027
 20
-892.50000009701955
 30
0.0
  0
POINT
  8
DEFPOINTS
  6
CONTINUOUS
 62
    30
 10
430.00002354929069
 20
-842.50000000000091
 30
0.0
  0
POINT
  8
DEFPOINTS
  6
CONTINUOUS
 62
    30
 10
1399.2813080300321
 20
-842.50000000000125
 30
0.0
  0
LINE
  8
SIZE
  6
CONTINUOUS
 62
    30
 10
260.0000235492908
 20
-862.50000000000102
 30
0.0
 11
1719.2813080300321
 21
-862.50000000000136
 31
0.0
  0
LINE
  8
SIZE
  6
CONTINUOUS
 62
    30
 10
370.0000235492908
 20
862.49999999999909
 30
0.0
 11
1719.2813080300321
 21
862.49999999999875
 31
0.0
  0
LINE
  8
SIZE
  6
CONTINUOUS
 62
    30
 10
1699.2813080300321
 20
-862.50000000000136
 30
0.0
 11
1699.2813080300321
 21
862.49999999999875
 31
0.0
  0
CIRCLE
  8
SIZE
  6
CONTINUOUS
 62
    30
 10
1699.2813080300321
 20
-862.50000000000136
 30
0.0
 40
7.5
  0
CIRCLE
  8
SIZE
  6
CONTINUOUS
 62
    30
 10
1699.2813080300321
 20
862.49999999999875
 30
0.0
 40
7.5
  0
TEXT
  8
SIZE
  6
CONTINUOUS
 62
    30
 10
1679.2813080300321
 20
-63.360000000000802
 30
0.0
 40
40.0
  1
1725
 50
90.0
 41
0.9
 51
0.0
  7
STANDARD
 71
     0
 72
     1
 11
1679.2813080300321
 21
-0.0000000000009058
 31
0.0
210
0.0
220
0.0
230
1.0
  0
POINT
  8
DEFPOINTS
  6
CONTINUOUS
 62
    30
 10
240.00002354929069
 20
-862.5000000000008
 30
0.0
  0
POINT
  8
DEFPOINTS
  6
CONTINUOUS
 62
    30
 10
350.00002354929069
 20
862.49999999999909
 30
0.0
  0
POINT
  8
DEFPOINTS
  6
CONTINUOUS
 62
    30
 10
1699.2813080300321
 20
862.49999999999875
 30
0.0
  0
LINE
  8
SIZE
  6
CONTINUOUS
 62
    30
 10
-465.79997645070938
 20
-912.49999685695445
 30
0.0
 11
-465.79997645070949
 21
-1458.5755440745299
 31
0.0
  0
LINE
  8
SIZE
  6
CONTINUOUS
 62
    30
 10
484.20002354929051
 20
-912.5000000000008
 30
0.0
 11
484.20002354929039
 21
-1458.5755440745299
 31
0.0
  0
LINE
  8
SIZE
  6
CONTINUOUS
 62
    30
 10
-465.79997645070949
 20
-1438.5755440745299
 30
0.0
 11
484.20002354929039
 21
-1438.5755440745299
 31
0.0
  0
CIRCLE
  8
SIZE
  6
CONTINUOUS
 62
    30
 10
-465.79997645070949
 20
-1438.5755440745299
 30
0.0
 40
7.5
  0
CIRCLE
  8
SIZE
  6
CONTINUOUS
 62
    30
 10
484.20002354929039
 20
-1438.5755440745299
 30
0.0
 40
7.5
  0
TEXT
  8
SIZE
  6
CONTINUOUS
 62
    30
 10
-41.379976450709492
 20
-1418.5755440745299
 30
0.0
 40
40.0
  1
950
 50
0.0
 41
0.9
 51
0.0
  7
STANDARD
 71
     0
 72
     1
 11
9.2000235492905063
 21
-1418.5755440745299
 31
0.0
210
0.0
220
0.0
230
1.0
  0
POINT
  8
DEFPOINTS
  6
CONTINUOUS
 62
    30
 10
-465.79997645070938
 20
-892.49999685695457
 30
0.0
  0
POINT
  8
DEFPOINTS
  6
CONTINUOUS
 62
    30
 10
484.20002354929051
 20
-892.50000000000091
 30
0.0
  0
POINT
  8
DEFPOINTS
  6
CONTINUOUS
 62
    30
 10
484.20002354929039
 20
-1438.5755440745299
 30
0.0
  0
LINE
  8
SIZE
  6
CONTINUOUS
 62
    30
 10
525.00002354929074
 20
-262.74000000000069
 30
0.0
 11
525.00002354929074
 21
-310.14482057952142
 31
0.0
  0
LINE
  8
SIZE
  6
CONTINUOUS
 62
    30
 10
425.00002354929069
 20
-278.00000000000091
 30
0.0
 11
425.00002354929069
 21
-310.14482057952142
 31
0.0
  0
LINE
  8
SIZE
  6
CONTINUOUS
 62
    30
 10
525.00002354929074
 20
-290.14482057952142
 30
0.0
 11
425.00002354929069
 21
-290.14482057952142
 31
0.0
  0
LINE
  8
SIZE
  6
CONTINUOUS
 62
    30
 10
425.00002354929069
 20
-290.14482057952142
 30
0.0
 11
269.28573783500377
 21
-290.14482057952142
 31
0.0
  0
CIRCLE
  8
SIZE
  6
CONTINUOUS
 62
    30
 10
525.00002354929074
 20
-290.14482057952142
 30
0.0
 40
7.5
  0
CIRCLE
  8
SIZE
  6
CONTINUOUS
 62
    30
 10
425.00002354929069
 20
-290.14482057952142
 30
0.0
 40
7.5
  0
TEXT
  8
SIZE
  6
CONTINUOUS
 62
    30
 10
284.80288069214674
 20
-270.14482057952137
 30
0.0
 40
40.0
  1
100
 50
0.0
 41
0.9
 51
0.0
  7
STANDARD
 71
     0
 72
     1
 11
332.14288069214672
 21
-270.14482057952137
 31
0.0
210
0.0
220
0.0
230
1.0
  0
POINT
  8
DEFPOINTS
  6
CONTINUOUS
 62
    30
 10
525.00002354929074
 20
-242.74000000000069
 30
0.0
  0
POINT
  8
DEFPOINTS
  6
CONTINUOUS
 62
    30
 10
425.00002354929069
 20
-258.00000000000091
 30
0.0
  0
POINT
  8
DEFPOINTS
  6
CONTINUOUS
 62
    30
 10
425.00002354929069
 20
-290.14482057952142
 30
0.0
  0
LINE
  8
SIZE
  6
CONTINUOUS
 62
    30
 10
525.00002354928984
 20
-111.05000000000111
 30
0.0
 11
525.00002354928984
 21
-55.492770098100657
 31
0.0
  0
LINE
  8
SIZE
  6
CONTINUOUS
 62
    30
 10
425.00002354929069
 20
-238.00000000000091
 30
0.0
 11
425.00002354929069
 21
-55.492770098100657
 31
0.0
  0
LINE
  8
SIZE
  6
CONTINUOUS
 62
    30
 10
525.00002354928984
 20
-75.492770098100664
 30
0.0
 11
425.00002354929069
 21
-75.492770098100664
 31
0.0
  0
LINE
  8
SIZE
  6
CONTINUOUS
 62
    30
 10
425.00002354929069
 20
-75.492770098100664
 30
0.0
 11
257.59356104534731
 21
-75.492770098100664
 31
0.0
  0
CIRCLE
  8
SIZE
  6
CONTINUOUS
 62
    30
 10
525.00002354928984
 20
-75.492770098100664
 30
0.0
 40
7.5
  0
CIRCLE
  8
SIZE
  6
CONTINUOUS
 62
    30
 10
425.00002354929069
 20
-75.492770098100664
 30
0.0
 40
7.5
  0
TEXT
  8
SIZE
  6
CONTINUOUS
 62
    30
 10
273.11070390249023
 20
-55.492770098100657
 30
0.0
 40
40.0
  1
100
 50
0.0
 41
0.9
 51
0.0
  7
STANDARD
 71
     0
 72
     1
 11
320.4507039024902
 21
-55.492770098100657
 31
0.0
210
0.0
220
0.0
230
1.0
  0
POINT
  8
DEFPOINTS
  6
CONTINUOUS
 62
    30
 10
525.00002354928984
 20
-131.05000000000109
 30
0.0
  0
POINT
  8
DEFPOINTS
  6
CONTINUOUS
 62
    30
 10
425.00002354929069
 20
-258.00000000000091
 30
0.0
  0
POINT
  8
DEFPOINTS
  6
CONTINUOUS
 62
    30
 10
425.00002354929069
 20
-75.492770098100664
 30
0.0
  0
LINE
  8
SIZE
  6
CONTINUOUS
 62
    30
 10
525.00002354929074
 20
-377.30525999999549
 30
0.0
 11
525.00002354929074
 21
-439.9599994434156
 31
0.0
  0
LINE
  8
SIZE
  6
CONTINUOUS
 62
    30
 10
425.00002354929069
 20
-278.00000000000091
 30
0.0
 11
425.00002354929069
 21
-439.9599994434156
 31
0.0
  0
LINE
  8
SIZE
  6
CONTINUOUS
 62
    30
 10
525.00002354929074
 20
-419.9599994434156
 30
0.0
 11
425.00002354929069
 21
-419.9599994434156
 31
0.0
  0
LINE
  8
SIZE
  6
CONTINUOUS
 62
    30
 10
425.00002354929069
 20
-419.9599994434156
 30
0.0
 11
269.28573783500377
 21
-419.9599994434156
 31
0.0
  0
CIRCLE
  8
SIZE
  6
CONTINUOUS
 62
    30
 10
525.00002354929074
 20
-419.9599994434156
 30
0.0
 40
7.5
  0
CIRCLE
  8
SIZE
  6
CONTINUOUS
 62
    30
 10
425.00002354929069
 20
-419.9599994434156
 30
0.0
 40
7.5
  0
TEXT
  8
SIZE
  6
CONTINUOUS
 62
    30
 10
284.80288069214674
 20
-399.9599994434156
 30
0.0
 40
40.0
  1
100
 50
0.0
 41
0.9
 51
0.0
  7
STANDARD
 71
     0
 72
     1
 11
332.14288069214672
 21
-399.9599994434156
 31
0.0
210
0.0
220
0.0
230
1.0
  0
POINT
  8
DEFPOINTS
  6
CONTINUOUS
 62
    30
 10
525.00002354929074
 20
-357.3052599999956
 30
0.0
  0
POINT
  8
DEFPOINTS
  6
CONTINUOUS
 62
    30
 10
425.00002354929069
 20
-258.00000000000091
 30
0.0
  0
POINT
  8
DEFPOINTS
  6
CONTINUOUS
 62
    30
 10
425.00002354929069
 20
-419.9599994434156
 30
0.0
  0
LINE
  8
NOTE
  6
CONTINUOUS
 62
     4
 10
450.20002354929051
 20
531.49999999999898
 30
0.0
 11
474.20002354929062
 21
531.49999999999898
 31
0.0
  0
LINE
  8
NOTE
  6
CONTINUOUS
 62
     4
 10
450.20002354929051
 20
-806.5000000000008
 30
0.0
 11
474.20002354929062
 21
-806.5000000000008
 31
0.0
  0
LINE
  8
NOTE
  6
CONTINUOUS
 62
     4
 10
-474.79997645070938
 20
-806.5000000000008
 30
0.0
 11
-450.79997645070938
 21
-806.5000000000008
 31
0.0
  0
LINE
  8
NOTE
  6
CONTINUOUS
 62
     4
 10
-474.79997645070938
 20
531.49999999999898
 30
0.0
 11
-450.79997645070938
 21
531.49999999999898
 31
0.0
  0
LINE
  8
NOTE
  6
CONTINUOUS
 62
     4
 10
462.20002354929051
 20
551.49999999999898
 30
0.0
 11
462.20002354929051
 21
511.49999999999909
 31
0.0
  0
LINE
  8
NOTE
  6
CONTINUOUS
 62
     4
 10
462.20002354929051
 20
-786.50000000000091
 30
0.0
 11
462.20002354929051
 21
-826.50000000000091
 31
0.0
  0
LINE
  8
NOTE
  6
CONTINUOUS
 62
     4
 10
-462.79997645070938
 20
-786.50000000000091
 30
0.0
 11
-462.79997645070938
 21
-826.50000000000091
 31
0.0
  0
LINE
  8
NOTE
  6
CONTINUOUS
 62
     4
 10
-462.79997645070938
 20
551.49999999999898
 30
0.0
 11
-462.79997645070938
 21
511.49999999999909
 31
0.0
  0
LINE
  8
NOTE
  6
CONTINUOUS
 62
     4
 10
525.00002354928984
 20
-227.05000000000109
 30
0.0
 11
525.00002354928984
 21
-239.9500000000007
 31
0.0
  0
LINE
  8
NOTE
  6
CONTINUOUS
 62
     4
 10
518.55002354929002
 20
-233.50000000000091
 30
0.0
 11
531.45002354929045
 21
-233.50000000000091
 31
0.0
  0
LINE
  8
NOTE
  6
CONTINUOUS
 62
     4
 10
525.00002354928984
 20
-131.05000000000109
 30
0.0
 11
525.00002354928984
 21
-143.9500000000007
 31
0.0
  0
LINE
  8
NOTE
  6
CONTINUOUS
 62
     4
 10
518.55002354929002
 20
-137.50000000000091
 30
0.0
 11
531.45002354929045
 21
-137.50000000000091
 31
0.0
  0
LINE
  8
OUTLINE
  6
CONTINUOUS
 62
     3
 10
240.00002354929069
 20
-862.5000000000008
 30
0.0
 11
237.00002354929069
 21
-862.5000000000008
 31
0.0
  0
LINE
  8
OUTLINE
  6
CONTINUOUS
 62
     3
 10
237.00002354929069
 20
-862.5000000000008
 30
0.0
 11
-356.9999764507092
 21
-862.5000000000008
 31
0.0
  0
LINE
  8
OUTLINE
  6
CONTINUOUS
 62
     3
 10
-356.9999764507092
 20
-862.5000000000008
 30
0.0
 11
-359.99997645070931
 21
-862.5000000000008
 31
0.0
  0
LINE
  8
OUTLINE
  6
CONTINUOUS
 62
     3
 10
430.00002354929069
 20
-842.50000000000091
 30
0.0
 11
425.00002354929069
 21
-842.50000000000091
 31
0.0
  0
LINE
  8
OUTLINE
  6
CONTINUOUS
 62
     3
 10
424.00002354929069
 20
-842.50000000000091
 30
0.0
 11
240.00002354929069
 21
-842.50000000000091
 31
0.0
  0
LINE
  8
OUTLINE
  6
CONTINUOUS
 62
     3
 10
-359.99997645070931
 20
-842.50000000000091
 30
0.0
 11
-423.9999764507092
 21
-842.50000000000091
 31
0.0
  0
LINE
  8
OUTLINE
  6
CONTINUOUS
 62
     3
 10
-424.99997645070931
 20
-842.50000000000091
 30
0.0
 11
-429.9999764507092
 21
-842.50000000000091
 31
0.0
  0
LINE
  8
OUTLINE
  6
CONTINUOUS
 62
     3
 10
434.20002354929051
 20
-841.70000000000061
 30
0.0
 11
430.00002354929069
 21
-841.70000000000061
 31
0.0
  0
LINE
  8
OUTLINE
  6
CONTINUOUS
 62
     3
 10
425.00002354929069
 20
-841.70000000000061
 30
0.0
 11
424.00002354929069
 21
-841.70000000000061
 31
0.0
  0
LINE
  8
OUTLINE
  6
CONTINUOUS
 62
     3
 10
-423.9999764507092
 20
-841.70000000000061
 30
0.0
 11
-424.99997645070931
 21
-841.70000000000061
 31
0.0
  0
LINE
  8
OUTLINE
  6
CONTINUOUS
 62
     3
 10
-429.9999764507092
 20
-838.30000000000109
 30
0.0
 11
-430.9999764507092
 21
-838.30000000000109
 31
0.0
  0
LINE
  8
OUTLINE
  6
CONTINUOUS
 62
     3
 10
482.70002354929062
 20
-836.50000000000091
 30
0.0
 11
434.20002354929051
 21
-836.50000000000091
 31
0.0
  0
LINE
  8
OUTLINE
  6
CONTINUOUS
 62
     3
 10
-430.9999764507092
 20
-836.50000000000091
 30
0.0
 11
-482.69997645070907
 21
-836.50000000000091
 31
0.0
  0
LINE
  8
OUTLINE
  6
CONTINUOUS
 62
     3
 10
-484.9999764507092
 20
-834.0000000000008
 30
0.0
 11
-482.69997645070907
 21
-834.0000000000008
 31
0.0
  0
LINE
  8
OUTLINE
  6
CONTINUOUS
 62
     3
 10
485.20002354929051
 20
-834.0000000000008
 30
0.0
 11
482.70002354929062
 21
-834.0000000000008
 31
0.0
  0
LINE
  8
OUTLINE
  6
CONTINUOUS
 62
     3
 10
-484.9999764507092
 20
-812.5000000000008
 30
0.0
 11
-469.79997645070938
 21
-812.5000000000008
 31
0.0
  0
LINE
  8
OUTLINE
  6
CONTINUOUS
 62
     3
 10
485.20002354929051
 20
-812.5000000000008
 30
0.0
 11
469.20002354929051
 21
-812.5000000000008
 31
0.0
  0
LINE
  8
OUTLINE
  6
CONTINUOUS
 62
     3
 10
-484.9999764507092
 20
-800.50000000000091
 30
0.0
 11
-469.79997645070938
 21
-800.50000000000091
 31
0.0
  0
LINE
  8
OUTLINE
  6
CONTINUOUS
 62
     3
 10
485.20002354929051
 20
-800.50000000000091
 30
0.0
 11
469.20002354929051
 21
-800.50000000000091
 31
0.0
  0
LINE
  8
OUTLINE
  6
CONTINUOUS
 62
     3
 10
485.20002354929051
 20
-731.50000000000091
 30
0.0
 11
434.20002354929051
 21
-731.50000000000091
 31
0.0
  0
LINE
  8
OUTLINE
  6
CONTINUOUS
 62
     3
 10
-430.9999764507092
 20
-731.50000000000091
 30
0.0
 11
-484.9999764507092
 21
-731.50000000000091
 31
0.0
  0
LINE
  8
OUTLINE
  6
CONTINUOUS
 62
     3
 10
435.00002354929069
 20
-728.50000000000091
 30
0.0
 11
434.20002354929051
 21
-728.50000000000091
 31
0.0
  0
LINE
  8
OUTLINE
  6
CONTINUOUS
 62
     3
 10
435.00002354929069
 20
-727.70000000000073
 30
0.0
 11
435.80002354929093
 21
-727.70000000000073
 31
0.0
  0
LINE
  8
OUTLINE
  6
CONTINUOUS
 62
     3
 10
435.00002354929069
 20
-363.30000000000109
 30
0.0
 11
435.80002354929093
 21
-363.30000000000109
 31
0.0
  0
LINE
  8
OUTLINE
  6
CONTINUOUS
 62
     3
 10
434.20002354929051
 20
-286.00000000000091
 30
0.0
 11
435.00002354929069
 21
-286.00000000000091
 31
0.0
  0
LINE
  8
OUTLINE
  6
CONTINUOUS
 62
     3
 10
450.00002354929069
 20
-258.00000000000091
 30
0.0
 11
434.20002354929051
 21
-258.00000000000091
 31
0.0
  0
LINE
  8
OUTLINE
  6
CONTINUOUS
 62
     3
 10
450.00002354929069
 20
-244.6000000000013
 30
0.0
 11
505.74894844819022
 21
-244.6000000000013
 31
0.0
  0
LINE
  8
OUTLINE
  6
CONTINUOUS
 62
     3
 10
525.00002354929074
 20
-242.74000000000069
 30
0.0
 11
510.07848451829062
 21
-242.74000000000069
 31
0.0
  0
LINE
  8
OUTLINE
  6
CONTINUOUS
 62
     3
 10
525.00002354929074
 20
-224.2600000000011
 30
0.0
 11
510.07848451829062
 21
-224.2600000000011
 31
0.0
  0
LINE
  8
OUTLINE
  6
CONTINUOUS
 62
     3
 10
450.00002354929069
 20
-222.40000000000049
 30
0.0
 11
505.74894844819022
 21
-222.40000000000049
 31
0.0
  0
LINE
  8
OUTLINE
  6
CONTINUOUS
 62
     3
 10
450.00002354929069
 20
-209.00000000000091
 30
0.0
 11
434.20002354929051
 21
-209.00000000000091
 31
0.0
  0
LINE
  8
OUTLINE
  6
CONTINUOUS
 62
     3
 10
434.20002354929051
 20
-155.50000000000091
 30
0.0
 11
450.00002354929069
 21
-155.50000000000091
 31
0.0
  0
LINE
  8
OUTLINE
  6
CONTINUOUS
 62
     3
 10
525.00002354929074
 20
-143.0100000000011
 30
0.0
 11
514.71007405559055
 21
-143.0100000000011
 31
0.0
  0
LINE
  8
OUTLINE
  6
CONTINUOUS
 62
     3
 10
450.00002354929069
 20
-142.2600000000011
 30
0.0
 11
513.96007405559055
 21
-142.2600000000011
 31
0.0
  0
LINE
  8
OUTLINE
  6
CONTINUOUS
 62
     3
 10
450.00002354929069
 20
-132.74000000000069
 30
0.0
 11
513.96007405559055
 21
-132.74000000000069
 31
0.0
  0
LINE
  8
OUTLINE
  6
CONTINUOUS
 62
     3
 10
525.00002354929074
 20
-131.99000000000069
 30
0.0
 11
514.71007405559055
 21
-131.99000000000069
 31
0.0
  0
LINE
  8
OUTLINE
  6
CONTINUOUS
 62
     3
 10
510.07848451829062
 20
-242.74000000000069
 30
0.0
 11
509.5245237342906
 21
-242.42017059220049
 31
0.0
  0
LINE
  8
OUTLINE
  6
CONTINUOUS
 62
     3
 10
509.5245237342906
 20
-224.57982940780039
 30
0.0
 11
505.74894844819022
 21
-222.40000000000049
 31
0.0
  0
LINE
  8
OUTLINE
  6
CONTINUOUS
 62
     3
 10
514.71007405559055
 20
-143.0100000000011
 30
0.0
 11
513.96007405559055
 21
-142.2600000000011
 31
0.0
  0
LINE
  8
OUTLINE
  6
CONTINUOUS
 62
     3
 10
525.00002354929074
 20
-242.73958482600119
 30
0.0
 11
525.00002354929074
 21
-224.2604151740006
 31
0.0
  0
LINE
  8
OUTLINE
  6
CONTINUOUS
 62
     3
 10
525.00002354929074
 20
-143.00956169620071
 30
0.0
 11
525.00002354929074
 21
-131.990438303801
 31
0.0
  0
LINE
  8
OUTLINE
  6
CONTINUOUS
 62
     3
 10
500.80002354929093
 20
466.49999999999909
 30
0.0
 11
500.80002354929093
 21
111.4999999999991
 31
0.0
  0
LINE
  8
OUTLINE
  6
CONTINUOUS
 62
     3
 10
500.00002354929069
 20
496.49999999999898
 30
0.0
 11
500.00002354929069
 21
466.49999999999909
 31
0.0
  0
LINE
  8
OUTLINE
  6
CONTINUOUS
 62
     3
 10
499.00002354929069
 20
109.6999999999998
 30
0.0
 11
499.00002354929069
 21
110.4999999999991
 31
0.0
  0
LINE
  8
OUTLINE
  6
CONTINUOUS
 62
     3
 10
514.71007405559055
 20
-131.99000000000069
 30
0.0
 11
513.96007405559055
 21
-132.74000000000069
 31
0.0
  0
LINE
  8
OUTLINE
  6
CONTINUOUS
 62
     3
 10
509.5245237342906
 20
-242.42017059220049
 30
0.0
 11
505.74894844819022
 21
-244.6000000000013
 31
0.0
  0
LINE
  8
OUTLINE
  6
CONTINUOUS
 62
     3
 10
510.07848451829062
 20
-224.2600000000011
 30
0.0
 11
509.5245237342906
 21
-224.57982940780039
 31
0.0
  0
LINE
  8
OUTLINE
  6
CONTINUOUS
 62
     3
 10
434.20002354929051
 20
-119.5000000000009
 30
0.0
 11
450.00002354929069
 21
-119.5000000000009
 31
0.0
  0
LINE
  8
OUTLINE
  6
CONTINUOUS
 62
     3
 10
492.00002354929069
 20
498.29999999999922
 30
0.0
 11
492.00002354929069
 21
497.49999999999898
 31
0.0
  0
LINE
  8
OUTLINE
  6
CONTINUOUS
 62
     3
 10
485.20002354929051
 20
558.99999999999898
 30
0.0
 11
485.20002354929051
 21
537.49999999999909
 31
0.0
  0
LINE
  8
OUTLINE
  6
CONTINUOUS
 62
     3
 10
485.20002354929051
 20
525.49999999999909
 30
0.0
 11
485.20002354929051
 21
498.02915026221132
 31
0.0
  0
LINE
  8
OUTLINE
  6
CONTINUOUS
 62
     3
 10
485.20002354929051
 20
-731.50000000000091
 30
0.0
 11
485.20002354929051
 21
-800.50000000000091
 31
0.0
  0
LINE
  8
OUTLINE
  6
CONTINUOUS
 62
     3
 10
485.20002354929051
 20
-812.5000000000008
 30
0.0
 11
485.20002354929051
 21
-834.0000000000008
 31
0.0
  0
LINE
  8
OUTLINE
  6
CONTINUOUS
 62
     3
 10
482.70002354929062
 20
561.49999999999909
 30
0.0
 11
482.70002354929062
 21
558.99999999999898
 31
0.0
  0
LINE
  8
OUTLINE
  6
CONTINUOUS
 62
     3
 10
482.70002354929062
 20
-836.50000000000091
 30
0.0
 11
482.70002354929062
 21
-834.0000000000008
 31
0.0
  0
LINE
  8
OUTLINE
  6
CONTINUOUS
 62
     3
 10
469.20002354929051
 20
-814.5000000000008
 30
0.0
 11
469.20002354929051
 21
-812.5000000000008
 31
0.0
  0
LINE
  8
OUTLINE
  6
CONTINUOUS
 62
     3
 10
469.20002354929051
 20
-800.50000000000091
 30
0.0
 11
469.20002354929051
 21
-798.50000000000091
 31
0.0
  0
LINE
  8
OUTLINE
  6
CONTINUOUS
 62
     3
 10
469.20002354929051
 20
523.49999999999909
 30
0.0
 11
469.20002354929051
 21
525.49999999999909
 31
0.0
  0
LINE
  8
OUTLINE
  6
CONTINUOUS
 62
     3
 10
469.20002354929051
 20
537.49999999999909
 30
0.0
 11
469.20002354929051
 21
539.49999999999898
 31
0.0
  0
LINE
  8
OUTLINE
  6
CONTINUOUS
 62
     3
 10
455.20002354929051
 20
539.49999999999898
 30
0.0
 11
455.20002354929051
 21
523.49999999999909
 31
0.0
  0
LINE
  8
OUTLINE
  6
CONTINUOUS
 62
     3
 10
455.20002354929051
 20
-798.50000000000091
 30
0.0
 11
455.20002354929051
 21
-814.5000000000008
 31
0.0
  0
LINE
  8
OUTLINE
  6
CONTINUOUS
 62
     3
 10
450.00002354929069
 20
-119.5000000000009
 30
0.0
 11
450.00002354929069
 21
-132.74000000000069
 31
0.0
  0
LINE
  8
OUTLINE
  6
CONTINUOUS
 62
     3
 10
450.00002354929069
 20
-142.2600000000011
 30
0.0
 11
450.00002354929069
 21
-155.50000000000091
 31
0.0
  0
LINE
  8
OUTLINE
  6
CONTINUOUS
 62
     3
 10
450.00002354929069
 20
-257.9995717741013
 30
0.0
 11
450.00002354929069
 21
-244.60000000000039
 31
0.0
  0
LINE
  8
OUTLINE
  6
CONTINUOUS
 62
     3
 10
450.00002354929069
 20
-222.40000000000049
 30
0.0
 11
450.00002354929069
 21
-209.00042822600059
 31
0.0
  0
LINE
  8
OUTLINE
  6
CONTINUOUS
 62
     3
 10
435.80002354929093
 20
814.69999999999891
 30
0.0
 11
435.80002354929093
 21
588.29999999999916
 31
0.0
  0
LINE
  8
OUTLINE
  6
CONTINUOUS
 62
     3
 10
435.80002354929093
 20
-363.30000000000109
 30
0.0
 11
435.80002354929093
 21
-471.50000000000091
 31
0.0
  0
LINE
  8
OUTLINE
  6
CONTINUOUS
 62
     3
 10
435.80002354929002
 20
-503.50000000000091
 30
0.0
 11
435.80002354929093
 21
-651.50000000000091
 31
0.0
  0
LINE
  8
OUTLINE
  6
CONTINUOUS
 62
     3
 10
435.80002354929093
 20
-683.5000000000008
 30
0.0
 11
435.80002354929093
 21
-727.70000000000073
 31
0.0
  0
LINE
  8
OUTLINE
  6
CONTINUOUS
 62
     3
 10
435.00002354929069
 20
815.49999999999898
 30
0.0
 11
435.00002354929069
 21
814.69999999999891
 31
0.0
  0
LINE
  8
OUTLINE
  6
CONTINUOUS
 62
     3
 10
435.00002354929069
 20
588.29999999999916
 30
0.0
 11
435.00002354929069
 21
587.49999999999909
 31
0.0
  0
LINE
  8
OUTLINE
  6
CONTINUOUS
 62
     3
 10
435.00002354929069
 20
-727.70000000000073
 30
0.0
 11
435.00002354929069
 21
-728.50000000000091
 31
0.0
  0
LINE
  8
OUTLINE
  6
CONTINUOUS
 62
     3
 10
435.00002354929069
 20
-363.30000000000109
 30
0.0
 11
435.00002354929069
 21
-362.00000000000091
 31
0.0
  0
LINE
  8
OUTLINE
  6
CONTINUOUS
 62
     3
 10
435.00002354929069
 20
-337.00000000000091
 30
0.0
 11
435.00002354929069
 21
-330.15146649335747
 31
0.0
  0
LINE
  8
OUTLINE
  6
CONTINUOUS
 62
     3
 10
435.00002354929069
 20
-296.84853350664338
 30
0.0
 11
435.00002354929069
 21
-286.00000000000091
 31
0.0
  0
LINE
  8
OUTLINE
  6
CONTINUOUS
 62
     3
 10
434.20002354929051
 20
109.6999999999998
 30
0.0
 11
434.20002354929051
 21
-119.5000000000009
 31
0.0
  0
LINE
  8
OUTLINE
  6
CONTINUOUS
 62
     3
 10
434.20002354929142
 20
-155.50000000000091
 30
0.0
 11
434.20002354929051
 21
-209.00000000000091
 31
0.0
  0
LINE
  8
OUTLINE
  6
CONTINUOUS
 62
     3
 10
434.20002354929051
 20
-258.00000000000091
 30
0.0
 11
434.20002354929051
 21
-286.00000000000091
 31
0.0
  0
LINE
  8
OUTLINE
  6
CONTINUOUS
 62
     3
 10
434.20002354929051
 20
-330.16543054530121
 30
0.0
 11
434.20002354929051
 21
-337.00000000000091
 31
0.0
  0
LINE
  8
OUTLINE
  6
CONTINUOUS
 62
     3
 10
434.20002354929051
 20
-728.50000000000091
 30
0.0
 11
434.20002354929051
 21
-731.50000000000091
 31
0.0
  0
LINE
  8
OUTLINE
  6
CONTINUOUS
 62
     3
 10
434.20002354929051
 20
-836.50000000000091
 30
0.0
 11
434.20002354929051
 21
-841.70000000000061
 31
0.0
  0
LINE
  8
OUTLINE
  6
CONTINUOUS
 62
     3
 10
430.00002354929069
 20
587.49999999999909
 30
0.0
 11
430.00002354929069
 21
563.29999999999916
 31
0.0
  0
LINE
  8
OUTLINE
  6
CONTINUOUS
 62
     3
 10
430.00002354929069
 20
-841.70000000000061
 30
0.0
 11
430.00002354929069
 21
-842.50000000000091
 31
0.0
  0
LINE
  8
OUTLINE
  6
CONTINUOUS
 62
     3
 10
430.00002354929069
 20
815.49999999999898
 30
0.0
 11
430.00002354929069
 21
841.69999999999891
 31
0.0
  0
LINE
  8
OUTLINE
  6
CONTINUOUS
 62
     3
 10
429.20002354929051
 20
561.69999999999891
 30
0.0
 11
429.20002354929051
 21
561.49999999999909
 31
0.0
  0
LINE
  8
OUTLINE
  6
CONTINUOUS
 62
     3
 10
426.00002354929069
 20
563.29999999999916
 30
0.0
 11
426.00002354929069
 21
562.49999999999909
 31
0.0
  0
LINE
  8
OUTLINE
  6
CONTINUOUS
 62
     3
 10
426.00002354929069
 20
562.49999999999909
 30
0.0
 11
426.00002354929069
 21
561.69999999999891
 31
0.0
  0
LINE
  8
OUTLINE
  6
CONTINUOUS
 62
     3
 10
425.00002354929069
 20
-842.50000000000091
 30
0.0
 11
425.00002354929069
 21
-841.70000000000061
 31
0.0
  0
LINE
  8
OUTLINE
  6
CONTINUOUS
 62
     3
 10
424.00002354929069
 20
-841.70000000000061
 30
0.0
 11
424.00002354929069
 21
-842.50000000000091
 31
0.0
  0
LINE
  8
OUTLINE
  6
CONTINUOUS
 62
     3
 10
424.00002354929069
 20
841.69999999999891
 30
0.0
 11
424.00002354929069
 21
842.49999999999909
 31
0.0
  0
LINE
  8
OUTLINE
  6
CONTINUOUS
 62
     3
 10
499.00002354929069
 20
109.6999999999998
 30
0.0
 11
434.20002354929051
 21
109.6999999999998
 31
0.0
  0
LINE
  8
OUTLINE
  6
CONTINUOUS
 62
     3
 10
500.80002354929093
 20
111.4999999999991
 30
0.0
 11
500.00002354929069
 21
111.4999999999991
 31
0.0
  0
LINE
  8
OUTLINE
  6
CONTINUOUS
 62
     3
 10
-429.9999764507092
 20
111.4999999999991
 30
0.0
 11
-430.9999764507092
 21
111.4999999999991
 31
0.0
  0
LINE
  8
OUTLINE
  6
CONTINUOUS
 62
     3
 10
240.00002354929069
 20
-859.50000000000091
 30
0.0
 11
240.00002354929069
 21
-842.50000000000091
 31
0.0
  0
LINE
  8
OUTLINE
  6
CONTINUOUS
 62
     3
 10
240.00002354929069
 20
-859.50000000000091
 30
0.0
 11
240.00002354929069
 21
-862.5000000000008
 31
0.0
  0
LINE
  8
OUTLINE
  6
CONTINUOUS
 62
     3
 10
-484.9999764507092
 20
456.49999999999898
 30
0.0
 11
-429.9999764507092
 21
456.49999999999898
 31
0.0
  0
LINE
  8
OUTLINE
  6
CONTINUOUS
 62
     3
 10
500.80002354929093
 20
466.49999999999909
 30
0.0
 11
500.00002354929069
 21
466.49999999999909
 31
0.0
  0
LINE
  8
OUTLINE
  6
CONTINUOUS
 62
     3
 10
492.00002354929069
 20
497.49999999999898
 30
0.0
 11
499.00002354929069
 21
497.49999999999898
 31
0.0
  0
LINE
  8
OUTLINE
  6
CONTINUOUS
 62
     3
 10
485.80002354929093
 20
498.29999999999922
 30
0.0
 11
492.00002354929069
 21
498.29999999999922
 31
0.0
  0
LINE
  8
OUTLINE
  6
CONTINUOUS
 62
     3
 10
-484.9999764507092
 20
525.49999999999909
 30
0.0
 11
-469.79997645070938
 21
525.49999999999909
 31
0.0
  0
LINE
  8
OUTLINE
  6
CONTINUOUS
 62
     3
 10
485.20002354929051
 20
525.49999999999909
 30
0.0
 11
469.20002354929051
 21
525.49999999999909
 31
0.0
  0
LINE
  8
OUTLINE
  6
CONTINUOUS
 62
     3
 10
-484.9999764507092
 20
537.49999999999909
 30
0.0
 11
-469.79997645070938
 21
537.49999999999909
 31
0.0
  0
LINE
  8
OUTLINE
  6
CONTINUOUS
 62
     3
 10
485.20002354929051
 20
537.49999999999909
 30
0.0
 11
469.20002354929051
 21
537.49999999999909
 31
0.0
  0
LINE
  8
OUTLINE
  6
CONTINUOUS
 62
     3
 10
-484.9999764507092
 20
558.99999999999898
 30
0.0
 11
-482.69997645070907
 21
558.99999999999898
 31
0.0
  0
LINE
  8
OUTLINE
  6
CONTINUOUS
 62
     3
 10
485.20002354929051
 20
558.99999999999898
 30
0.0
 11
482.70002354929062
 21
558.99999999999898
 31
0.0
  0
LINE
  8
OUTLINE
  6
CONTINUOUS
 62
     3
 10
-482.69997645070907
 20
561.49999999999909
 30
0.0
 11
-429.9999764507092
 21
561.49999999999909
 31
0.0
  0
LINE
  8
OUTLINE
  6
CONTINUOUS
 62
     3
 10
429.20002354929051
 20
561.49999999999909
 30
0.0
 11
482.70002354929062
 21
561.49999999999909
 31
0.0
  0
LINE
  8
OUTLINE
  6
CONTINUOUS
 62
     3
 10
426.00002354929069
 20
561.69999999999891
 30
0.0
 11
429.20002354929051
 21
561.69999999999891
 31
0.0
  0
LINE
  8
OUTLINE
  6
CONTINUOUS
 62
     3
 10
426.00002354929069
 20
563.29999999999916
 30
0.0
 11
430.00002354929069
 21
563.29999999999916
 31
0.0
  0
LINE
  8
OUTLINE
  6
CONTINUOUS
 62
     3
 10
435.00002354929069
 20
587.49999999999909
 30
0.0
 11
430.00002354929069
 21
587.49999999999909
 31
0.0
  0
LINE
  8
OUTLINE
  6
CONTINUOUS
 62
     3
 10
435.80002354929093
 20
588.29999999999916
 30
0.0
 11
435.00002354929069
 21
588.29999999999916
 31
0.0
  0
LINE
  8
OUTLINE
  6
CONTINUOUS
 62
     3
 10
-359.99997645070931
 20
-862.5000000000008
 30
0.0
 11
-359.99997645070931
 21
-859.50000000000091
 31
0.0
  0
LINE
  8
OUTLINE
  6
CONTINUOUS
 62
     3
 10
-359.99997645070931
 20
-859.50000000000091
 30
0.0
 11
-359.99997645070931
 21
-842.50000000000091
 31
0.0
  0
LINE
  8
OUTLINE
  6
CONTINUOUS
 62
     3
 10
435.80002354929093
 20
814.69999999999891
 30
0.0
 11
435.00002354929069
 21
814.69999999999891
 31
0.0
  0
LINE
  8
OUTLINE
  6
CONTINUOUS
 62
     3
 10
435.00002354929069
 20
815.49999999999898
 30
0.0
 11
430.00002354929069
 21
815.49999999999898
 31
0.0
  0
LINE
  8
OUTLINE
  6
CONTINUOUS
 62
     3
 10
-429.9999764507092
 20
841.69999999999891
 30
0.0
 11
-423.9999764507092
 21
841.69999999999891
 31
0.0
  0
LINE
  8
OUTLINE
  6
CONTINUOUS
 62
     3
 10
424.00002354929069
 20
841.69999999999891
 30
0.0
 11
430.00002354929069
 21
841.69999999999891
 31
0.0
  0
LINE
  8
OUTLINE
  6
CONTINUOUS
 62
     3
 10
-423.9999764507092
 20
842.49999999999909
 30
0.0
 11
-349.99997645070931
 21
842.49999999999909
 31
0.0
  0
LINE
  8
OUTLINE
  6
CONTINUOUS
 62
     3
 10
350.00002354929069
 20
842.49999999999909
 30
0.0
 11
424.00002354929069
 21
842.49999999999909
 31
0.0
  0
LINE
  8
OUTLINE
  6
CONTINUOUS
 62
     3
 10
-423.9999764507092
 20
842.49999999999909
 30
0.0
 11
-423.9999764507092
 21
841.69999999999891
 31
0.0
  0
LINE
  8
OUTLINE
  6
CONTINUOUS
 62
     3
 10
-423.9999764507092
 20
-841.70000000000061
 30
0.0
 11
-423.9999764507092
 21
-842.50000000000091
 31
0.0
  0
LINE
  8
OUTLINE
  6
CONTINUOUS
 62
     3
 10
-424.99997645070931
 20
-842.50000000000091
 30
0.0
 11
-424.99997645070931
 21
-841.70000000000061
 31
0.0
  0
LINE
  8
OUTLINE
  6
CONTINUOUS
 62
     3
 10
-429.19997645070907
 20
132.2999999999993
 30
0.0
 11
-429.19997645070907
 21
153.49999999999909
 31
0.0
  0
LINE
  8
OUTLINE
  6
CONTINUOUS
 62
     3
 10
-429.9999764507092
 20
-842.50000000000091
 30
0.0
 11
-429.9999764507092
 21
-838.30000000000109
 31
0.0
  0
LINE
  8
OUTLINE
  6
CONTINUOUS
 62
     3
 10
-429.9999764507092
 20
111.4999999999991
 30
0.0
 11
-429.9999764507092
 21
132.2999999999993
 31
0.0
  0
LINE
  8
OUTLINE
  6
CONTINUOUS
 62
     3
 10
-429.9999764507092
 20
153.49999999999909
 30
0.0
 11
-429.9999764507092
 21
456.49999999999898
 31
0.0
  0
LINE
  8
OUTLINE
  6
CONTINUOUS
 62
     3
 10
-429.9999764507092
 20
561.49999999999909
 30
0.0
 11
-429.9999764507092
 21
841.69999999999891
 31
0.0
  0
LINE
  8
OUTLINE
  6
CONTINUOUS
 62
     3
 10
-430.9999764507092
 20
-838.30000000000109
 30
0.0
 11
-430.9999764507092
 21
-836.50000000000091
 31
0.0
  0
LINE
  8
OUTLINE
  6
CONTINUOUS
 62
     3
 10
-430.9999764507092
 20
-731.50000000000091
 30
0.0
 11
-430.9999764507092
 21
111.4999999999991
 31
0.0
  0
LINE
  8
OUTLINE
  6
CONTINUOUS
 62
     3
 10
-455.79997645070938
 20
-814.5000000000008
 30
0.0
 11
-455.79997645070938
 21
-798.50000000000091
 31
0.0
  0
LINE
  8
OUTLINE
  6
CONTINUOUS
 62
     3
 10
-455.79997645070938
 20
523.49999999999909
 30
0.0
 11
-455.79997645070938
 21
539.49999999999898
 31
0.0
  0
LINE
  8
OUTLINE
  6
CONTINUOUS
 62
     3
 10
-469.79997645070938
 20
539.49999999999898
 30
0.0
 11
-469.79997645070938
 21
537.49999999999909
 31
0.0
  0
LINE
  8
OUTLINE
  6
CONTINUOUS
 62
     3
 10
-469.79997645070938
 20
525.49999999999909
 30
0.0
 11
-469.79997645070938
 21
523.49999999999909
 31
0.0
  0
LINE
  8
OUTLINE
  6
CONTINUOUS
 62
     3
 10
-469.79997645070938
 20
-798.50000000000091
 30
0.0
 11
-469.79997645070938
 21
-800.50000000000091
 31
0.0
  0
LINE
  8
OUTLINE
  6
CONTINUOUS
 62
     3
 10
-469.79997645070938
 20
-812.5000000000008
 30
0.0
 11
-469.79997645070938
 21
-814.5000000000008
 31
0.0
  0
LINE
  8
OUTLINE
  6
CONTINUOUS
 62
     3
 10
-482.69997645070907
 20
561.49999999999909
 30
0.0
 11
-482.69997645070907
 21
558.99999999999898
 31
0.0
  0
LINE
  8
OUTLINE
  6
CONTINUOUS
 62
     3
 10
-482.69997645070907
 20
-836.50000000000091
 30
0.0
 11
-482.69997645070907
 21
-834.0000000000008
 31
0.0
  0
LINE
  8
OUTLINE
  6
CONTINUOUS
 62
     3
 10
-484.9999764507092
 20
-834.0000000000008
 30
0.0
 11
-484.9999764507092
 21
-812.5000000000008
 31
0.0
  0
LINE
  8
OUTLINE
  6
CONTINUOUS
 62
     3
 10
-484.9999764507092
 20
-800.50000000000091
 30
0.0
 11
-484.9999764507092
 21
-731.50000000000091
 31
0.0
  0
LINE
  8
OUTLINE
  6
CONTINUOUS
 62
     3
 10
-484.9999764507092
 20
456.49999999999898
 30
0.0
 11
-484.9999764507092
 21
525.49999999999909
 31
0.0
  0
LINE
  8
OUTLINE
  6
CONTINUOUS
 62
     3
 10
-484.9999764507092
 20
537.49999999999909
 30
0.0
 11
-484.9999764507092
 21
558.99999999999898
 31
0.0
  0
ARC
  8
OUTLINE
  6
CONTINUOUS
 62
     3
 10
485.80002354929093
 20
497.49999999999898
 30
0.0
 40
0.7999999999999546
 50
90.0
 51
139.03299095132641
  0
ARC
  8
OUTLINE
  6
CONTINUOUS
 62
     3
 10
-462.79997645070938
 20
-814.5000000000008
 30
0.0
 40
7.0
 50
180.0
 51
0.0
  0
ARC
  8
OUTLINE
  6
CONTINUOUS
 62
     3
 10
-462.79997645070938
 20
-798.50000000000091
 30
0.0
 40
7.0
 50
0.0
 51
180.0
  0
ARC
  8
OUTLINE
  6
CONTINUOUS
 62
     3
 10
462.20002354929051
 20
-798.50000000000091
 30
0.0
 40
7.0
 50
0.0
 51
180.0
  0
ARC
  8
OUTLINE
  6
CONTINUOUS
 62
     3
 10
462.20002354929051
 20
-814.5000000000008
 30
0.0
 40
7.0
 50
180.0
 51
0.0
  0
ARC
  8
OUTLINE
  6
CONTINUOUS
 62
     3
 10
-462.79997645070938
 20
523.49999999999909
 30
0.0
 40
7.0
 50
180.0
 51
0.0
  0
ARC
  8
OUTLINE
  6
CONTINUOUS
 62
     3
 10
-462.79997645070938
 20
539.49999999999898
 30
0.0
 40
7.0
 50
0.0
 51
180.0
  0
ARC
  8
OUTLINE
  6
CONTINUOUS
 62
     3
 10
462.20002354929051
 20
539.49999999999898
 30
0.0
 40
7.0
 50
0.0
 51
180.0
  0
ARC
  8
OUTLINE
  6
CONTINUOUS
 62
     3
 10
462.20002354929051
 20
523.49999999999909
 30
0.0
 40
7.0
 50
180.0
 51
0.0
  0
ARC
  8
OUTLINE
  6
CONTINUOUS
 62
     3
 10
499.00002354929069
 20
111.4999999999991
 30
0.0
 40
0.9999999999999539
 50
270.0
 51
0.0
  0
ARC
  8
OUTLINE
  6
CONTINUOUS
 62
     3
 10
499.00002354929069
 20
496.49999999999898
 30
0.0
 40
1.0
 50
0.0
 51
90.0
  0
LINE
  8
OUTLINE
  6
CONTINUOUS
 62
     3
 10
435.80002354929002
 20
-683.5000000000008
 30
0.0
 11
440.00002354929069
 21
-683.5000000000008
 31
0.0
  0
LINE
  8
OUTLINE
  6
CONTINUOUS
 62
     3
 10
450.00002354929069
 20
-683.5000000000008
 30
0.0
 11
445.00002354929069
 21
-684.00000000000091
 31
0.0
  0
LINE
  8
OUTLINE
  6
CONTINUOUS
 62
     3
 10
445.00002354929069
 20
-683.5000000000008
 30
0.0
 11
440.00002354929069
 21
-684.00000000000091
 31
0.0
  0
LINE
  8
OUTLINE
  6
CONTINUOUS
 62
     3
 10
435.80002354929002
 20
-651.50000000000091
 30
0.0
 11
440.00002354929069
 21
-651.50000000000091
 31
0.0
  0
LINE
  8
OUTLINE
  6
CONTINUOUS
 62
     3
 10
445.00002354929069
 20
-651.50000000000091
 30
0.0
 11
440.00002354929069
 21
-651.00000000000091
 31
0.0
  0
LINE
  8
OUTLINE
  6
CONTINUOUS
 62
     3
 10
450.00002354929069
 20
-651.50000000000091
 30
0.0
 11
445.00002354929069
 21
-651.00000000000091
 31
0.0
  0
LINE
  8
OUTLINE
  6
CONTINUOUS
 62
     3
 10
450.00002354929069
 20
-503.50000000000091
 30
0.0
 11
445.00002354929069
 21
-504.0000000000008
 31
0.0
  0
LINE
  8
OUTLINE
  6
CONTINUOUS
 62
     3
 10
445.00002354929069
 20
-503.50000000000091
 30
0.0
 11
440.00002354929069
 21
-504.0000000000008
 31
0.0
  0
LINE
  8
OUTLINE
  6
CONTINUOUS
 62
     3
 10
435.80002354929002
 20
-503.50000000000091
 30
0.0
 11
440.00002354929069
 21
-503.50000000000091
 31
0.0
  0
LINE
  8
OUTLINE
  6
CONTINUOUS
 62
     3
 10
435.80002354929002
 20
-471.50000000000091
 30
0.0
 11
440.00002354929069
 21
-471.50000000000091
 31
0.0
  0
LINE
  8
OUTLINE
  6
CONTINUOUS
 62
     3
 10
445.00002354929069
 20
-471.50000000000091
 30
0.0
 11
440.00002354929069
 21
-471.0000000000008
 31
0.0
  0
LINE
  8
OUTLINE
  6
CONTINUOUS
 62
     3
 10
450.00002354929069
 20
-471.50000000000091
 30
0.0
 11
445.00002354929069
 21
-471.0000000000008
 31
0.0
  0
LINE
  8
OUTLINE
  6
CONTINUOUS
 62
     3
 10
435.00002354929069
 20
-362.00000000000091
 30
0.0
 11
492.63267155023448
 21
-362.00000000000091
 31
0.0
  0
LINE
  8
OUTLINE
  6
CONTINUOUS
 62
     3
 10
434.20002354929051
 20
-330.1654305453003
 30
0.0
 11
458.00002354929069
 21
-329.75000000000091
 31
0.0
  0
LINE
  8
OUTLINE
  6
CONTINUOUS
 62
     3
 10
434.20002354929051
 20
-337.00000000000091
 30
0.0
 11
492.63267155023448
 21
-337.00000000000091
 31
0.0
  0
LINE
  8
OUTLINE
  6
CONTINUOUS
 62
     3
 10
458.00002354929069
 20
-329.50000000000091
 30
0.0
 11
482.50002354929069
 21
-329.50000000000091
 31
0.0
  0
LINE
  8
OUTLINE
  6
CONTINUOUS
 62
     3
 10
458.00002354929069
 20
-297.50000000000091
 30
0.0
 11
482.50002354929069
 21
-297.50000000000091
 31
0.0
  0
LINE
  8
OUTLINE
  6
CONTINUOUS
 62
     3
 10
435.00002354929069
 20
-296.84853350664338
 30
0.0
 11
458.00002354929069
 21
-297.25000000000091
 31
0.0
  0
LINE
  8
OUTLINE
  6
CONTINUOUS
 62
     3
 10
483.00002354929069
 20
-298.00000000000091
 30
0.0
 11
483.00002354929069
 21
-329.00000000000091
 31
0.0
  0
LINE
  8
OUTLINE
  6
CONTINUOUS
 62
     3
 10
458.00002354929069
 20
-297.25000000000091
 30
0.0
 11
458.00002354929069
 21
-297.50000000000091
 31
0.0
  0
LINE
  8
OUTLINE
  6
CONTINUOUS
 62
     3
 10
458.00002354929069
 20
-329.50000000000091
 30
0.0
 11
458.00002354929069
 21
-329.75000000000091
 31
0.0
  0
LINE
  8
OUTLINE
  6
CONTINUOUS
 62
     3
 10
450.00002354929069
 20
-683.5000000000008
 30
0.0
 11
450.00002354929069
 21
-651.50000000000091
 31
0.0
  0
LINE
  8
OUTLINE
  6
CONTINUOUS
 62
     3
 10
450.00002354929069
 20
-503.50000000000091
 30
0.0
 11
450.00002354929069
 21
-471.50000000000091
 31
0.0
  0
LINE
  8
OUTLINE
  6
CONTINUOUS
 62
     3
 10
445.00002354929069
 20
-684.00000000000091
 30
0.0
 11
445.00002354929069
 21
-683.5000000000008
 31
0.0
  0
LINE
  8
OUTLINE
  6
CONTINUOUS
 62
     3
 10
445.00002354929069
 20
-651.50000000000091
 30
0.0
 11
445.00002354929069
 21
-651.00000000000091
 31
0.0
  0
LINE
  8
OUTLINE
  6
CONTINUOUS
 62
     3
 10
445.00002354929069
 20
-504.0000000000008
 30
0.0
 11
445.00002354929069
 21
-503.50000000000091
 31
0.0
  0
LINE
  8
OUTLINE
  6
CONTINUOUS
 62
     3
 10
445.00002354929069
 20
-471.50000000000091
 30
0.0
 11
445.00002354929069
 21
-471.0000000000008
 31
0.0
  0
LINE
  8
OUTLINE
  6
CONTINUOUS
 62
     3
 10
440.00002354929069
 20
-684.00000000000091
 30
0.0
 11
440.00002354929069
 21
-683.5000000000008
 31
0.0
  0
LINE
  8
OUTLINE
  6
CONTINUOUS
 62
     3
 10
440.00002354929069
 20
-651.50000000000091
 30
0.0
 11
440.00002354929069
 21
-651.00000000000091
 31
0.0
  0
LINE
  8
OUTLINE
  6
CONTINUOUS
 62
     3
 10
440.00002354929069
 20
-504.0000000000008
 30
0.0
 11
440.00002354929069
 21
-503.50000000000091
 31
0.0
  0
LINE
  8
OUTLINE
  6
CONTINUOUS
 62
     3
 10
440.00002354929069
 20
-471.50000000000091
 30
0.0
 11
440.00002354929069
 21
-471.0000000000008
 31
0.0
  0
LINE
  8
OUTLINE
  6
CONTINUOUS
 62
     3
 10
350.00002354929069
 20
842.49999999999909
 30
0.0
 11
350.00002354929069
 21
862.49999999999909
 31
0.0
  0
LINE
  8
OUTLINE
  6
CONTINUOUS
 62
     3
 10
350.00002354929069
 20
862.49999999999909
 30
0.0
 11
-349.99997645070931
 21
862.49999999999909
 31
0.0
  0
LINE
  8
OUTLINE
  6
CONTINUOUS
 62
     3
 10
-349.99997645070931
 20
862.49999999999909
 30
0.0
 11
-349.99997645070931
 21
842.49999999999909
 31
0.0
  0
ARC
  8
OUTLINE
  6
CONTINUOUS
 62
     3
 10
482.50002354929069
 20
-298.00000000000091
 30
0.0
 40
0.5
 50
0.0
 51
90.0
  0
ARC
  8
OUTLINE
  6
CONTINUOUS
 62
     3
 10
482.50002354929069
 20
-329.00000000000091
 30
0.0
 40
0.5
 50
270.0
 51
0.0
  0
LINE
  8
OUTLINE
  6
CONTINUOUS
 62
     3
 10
508.28002354929322
 20
-358.29881810247298
 30
0.0
 11
508.28002354929322
 21
-357.61775999999099
 31
0.0
  0
LINE
  8
OUTLINE
  6
CONTINUOUS
 62
     3
 10
508.28002354929129
 20
-341.3822400000081
 30
0.0
 11
508.28002354929129
 21
-340.7011818975397
 31
0.0
  0
LINE
  8
OUTLINE
  6
CONTINUOUS
 62
     3
 10
509.28002354929959
 20
-338.96913108995892
 30
0.0
 11
508.28002354929129
 21
-340.7011818975397
 31
0.0
  0
LINE
  8
OUTLINE
  6
CONTINUOUS
 62
     3
 10
509.28002354929959
 20
-338.96913108995892
 30
0.0
 11
514.00002354928245
 21
-338.96913108995892
 31
0.0
  0
LINE
  8
OUTLINE
  6
CONTINUOUS
 62
     3
 10
509.2800235492914
 20
-360.03086891004108
 30
0.0
 11
508.28002354929322
 21
-358.29881810247298
 31
0.0
  0
LINE
  8
OUTLINE
  6
CONTINUOUS
 62
     3
 10
514.00002354929074
 20
-360.03086891004108
 30
0.0
 11
509.2800235492914
 21
-360.03086891004108
 31
0.0
  0
LINE
  8
OUTLINE
  6
CONTINUOUS
 62
     3
 10
515.00002354928893
 20
-358.2988181024748
 30
0.0
 11
515.00002354928893
 21
-357.61775999999099
 31
0.0
  0
LINE
  8
OUTLINE
  6
CONTINUOUS
 62
     3
 10
515.00002354929074
 20
-341.3822400000081
 30
0.0
 11
515.00002354929074
 21
-340.70118189754157
 31
0.0
  0
LINE
  8
OUTLINE
  6
CONTINUOUS
 62
     3
 10
508.28002354929231
 20
-341.3822400000081
 30
0.0
 11
504.44002354929211
 21
-341.50224000000799
 31
0.0
  0
LINE
  8
OUTLINE
  6
CONTINUOUS
 62
     3
 10
508.28002354929231
 20
-357.61775999999099
 30
0.0
 11
504.44002354929211
 21
-357.49775999999292
 31
0.0
  0
LINE
  8
OUTLINE
  6
CONTINUOUS
 62
     3
 10
502.44002354929222
 20
-359.60756917791792
 30
0.0
 11
492.63267155023448
 21
-359.60756917791792
 31
0.0
  0
LINE
  8
OUTLINE
  6
CONTINUOUS
 62
     3
 10
502.44002354929222
 20
-359.60756917791792
 30
0.0
 11
504.44002354929211
 21
-358.45286863953879
 31
0.0
  0
LINE
  8
OUTLINE
  6
CONTINUOUS
 62
     3
 10
504.44002354929211
 20
-358.45286863953879
 30
0.0
 11
504.44002354929211
 21
-357.49775999999292
 31
0.0
  0
LINE
  8
OUTLINE
  6
CONTINUOUS
 62
     3
 10
504.44002354929211
 20
-341.50224000000799
 30
0.0
 11
504.44002354929211
 21
-340.54713136047491
 31
0.0
  0
LINE
  8
OUTLINE
  6
CONTINUOUS
 62
     3
 10
502.44002354929222
 20
-339.39243082209492
 30
0.0
 11
504.44002354929211
 21
-340.54713136047491
 31
0.0
  0
LINE
  8
OUTLINE
  6
CONTINUOUS
 62
     3
 10
502.44002354929222
 20
-339.39243082209492
 30
0.0
 11
492.63267155023448
 21
-339.39243082209492
 31
0.0
  0
LINE
  8
OUTLINE
  6
CONTINUOUS
 62
     3
 10
492.63267155023448
 20
-337.00000000000642
 30
0.0
 11
492.63267155023448
 21
-339.39243082209492
 31
0.0
  0
LINE
  8
OUTLINE
  6
CONTINUOUS
 62
     3
 10
492.63267155023448
 20
-359.60756917791792
 30
0.0
 11
492.63267155023448
 21
-362.00000000000642
 31
0.0
  0
LINE
  8
OUTLINE
  6
CONTINUOUS
 62
     3
 10
514.00002354928245
 20
-338.96913108995892
 30
0.0
 11
515.00002354929074
 21
-340.70118189754157
 31
0.0
  0
LINE
  8
OUTLINE
  6
CONTINUOUS
 62
     3
 10
514.00002354929074
 20
-360.03086891004108
 30
0.0
 11
515.00002354928893
 21
-358.2988181024748
 31
0.0
  0
LINE
  8
OUTLINE
  6
CONTINUOUS
 62
     3
 10
515.00002354928984
 20
-341.3822400000081
 30
0.0
 11
525.00002354929165
 21
-341.69474000000719
 31
0.0
  0
LINE
  8
OUTLINE
  6
CONTINUOUS
 62
     3
 10
515.00002354928984
 20
-357.61775999999099
 30
0.0
 11
525.00002354928893
 21
-357.3052599999956
 31
0.0
  0
LINE
  8
OUTLINE
  6
CONTINUOUS
 62
     3
 10
525.00002354928893
 20
-357.3052599999956
 30
0.0
 11
525.00002354929165
 21
-341.69474000000719
 31
0.0
  0
LINE
  8
OUTLINE
  6
CONTINUOUS
 62
     3
 10
525.00002354928893
 20
-357.3052599999956
 30
0.0
 11
525.00002354929165
 21
-341.69474000000719
 31
0.0
  0
LINE
  8
OUTLINE
  6
CONTINUOUS
 62
     3
 10
-429.19997645070907
 20
132.2999999999993
 30
0.0
 11
-429.9999764507092
 21
132.2999999999993
 31
0.0
  0
LINE
  8
OUTLINE
  6
CONTINUOUS
 62
     3
 10
-429.19997645070907
 20
153.49999999999909
 30
0.0
 11
-429.9999764507092
 21
153.49999999999909
 31
0.0
  0
LINE
  8
SIZE
  6
CONTINUOUS
 62
    30
 10
450.00002354929069
 20
-523.50000000000091
 30
0.0
 11
450.00002354929069
 21
-583.60026612964248
 31
0.0
  0
LINE
  8
SIZE
  6
CONTINUOUS
 62
    30
 10
425.00002354929069
 20
-278.00000000000091
 30
0.0
 11
425.00002354929069
 21
-583.60026612964248
 31
0.0
  0
LINE
  8
SIZE
  6
CONTINUOUS
 62
    30
 10
450.00002354929069
 20
-563.60026612964248
 30
0.0
 11
480.00002354929069
 21
-563.60026612964248
 31
0.0
  0
LINE
  8
SIZE
  6
CONTINUOUS
 62
    30
 10
425.00002354929069
 20
-563.60026612964248
 30
0.0
 11
266.71430926357579
 21
-563.60026612964248
 31
0.0
  0
LINE
  8
SIZE
  6
CONTINUOUS
 62
    30
 10
450.00002354929069
 20
-563.60026612964248
 30
0.0
 11
425.00002354929069
 21
-563.60026612964248
 31
0.0
  0
CIRCLE
  8
SIZE
  6
CONTINUOUS
 62
    30
 10
450.00002354929069
 20
-563.60026612964248
 30
0.0
 40
7.5
  0
CIRCLE
  8
SIZE
  6
CONTINUOUS
 62
    30
 10
425.00002354929069
 20
-563.60026612964248
 30
0.0
 40
7.5
  0
TEXT
  8
SIZE
  6
CONTINUOUS
 62
    30
 10
282.37716640643288
 20
-543.60026612964236
 30
0.0
 40
40.0
  1
25
 50
0.0
 41
0.9
 51
0.0
  7
STANDARD
 71
     0
 72
     1
 11
315.8571664064329
 21
-543.60026612964236
 31
0.0
210
0.0
220
0.0
230
1.0
  0
POINT
  8
DEFPOINTS
  6
CONTINUOUS
 62
    30
 10
450.00002354929069
 20
-503.50000000000091
 30
0.0
  0
POINT
  8
DEFPOINTS
  6
CONTINUOUS
 62
    30
 10
425.00002354929069
 20
-258.00000000000091
 30
0.0
  0
POINT
  8
DEFPOINTS
  6
CONTINUOUS
 62
    30
 10
425.00002354929069
 20
-563.60026612964248
 30
0.0
  0
LINE
  8
DETAIL
  6
CONTINUOUS
 62
     5
 10
406.80002354929093
 20
608.49999999999909
 30
0.0
 11
-396.19997645070907
 21
698.49999999999909
 31
0.0
  0
LINE
  8
DETAIL
  6
CONTINUOUS
 62
     5
 10
-396.19997645070907
 20
608.49999999999909
 30
0.0
 11
406.80002354929093
 21
698.49999999999909
 31
0.0
  0
LINE
  8
DETAIL
  6
CONTINUOUS
 62
     5
 10
406.80002354929093
 20
703.49999999999909
 30
0.0
 11
-396.19997645070907
 21
793.49999999999898
 31
0.0
  0
LINE
  8
DETAIL
  6
CONTINUOUS
 62
     5
 10
-396.19997645070907
 20
703.49999999999909
 30
0.0
 11
406.80002354929093
 21
793.49999999999898
 31
0.0
  0
LINE
  8
NOTE
  6
CONTINUOUS
 62
     4
 10
-8.7016329298448891
 20
1004.482239207961
 30
0.0
 11
-28.944839564661379
 21
1004.482239207961
 31
0.0
  0
LINE
  8
NOTE
  6
CONTINUOUS
 62
     4
 10
45.143050711568321
 20
1004.482239207961
 30
0.0
 11
24.89984407675092
 21
1004.482239207961
 31
0.0
  0
LINE
  8
NOTE
  6
CONTINUOUS
 62
     4
 10
-28.944839564661379
 20
1004.482239207961
 30
0.0
 11
8.0991055734530164
 21
968.62560000373105
 31
0.0
  0
LINE
  8
NOTE
  6
CONTINUOUS
 62
     4
 10
45.143050711568321
 20
1004.482239207961
 30
0.0
 11
8.0991055734530164
 21
968.62560000373105
 31
0.0
  0
LINE
  8
NOTE
  6
CONTINUOUS
 62
     4
 10
-8.7016329298448891
 20
1004.482239207961
 30
0.0
 11
-8.7016329298448891
 21
1040.200173978596
 31
0.0
  0
LINE
  8
NOTE
  6
CONTINUOUS
 62
     4
 10
24.89984407675092
 20
1004.482239207961
 30
0.0
 11
24.89984407675092
 21
1040.200173978596
 31
0.0
  0
LINE
  8
NOTE
  6
CONTINUOUS
 62
     4
 10
24.89984407675092
 20
1040.200173978596
 30
0.0
 11
-8.7016329298448891
 21
1040.200173978596
 31
0.0
  0
LINE
  8
NOTE
  6
CONTINUOUS
 62
     4
 10
-9.9359877299275468
 20
-1045.2217133731181
 30
0.0
 11
-30.179194364744038
 21
-1045.2217133731181
 31
0.0
  0
LINE
  8
NOTE
  6
CONTINUOUS
 62
     4
 10
43.908695911485658
 20
-1045.2217133731181
 30
0.0
 11
23.665489276668271
 21
-1045.2217133731181
 31
0.0
  0
LINE
  8
NOTE
  6
CONTINUOUS
 62
     4
 10
-30.179194364744038
 20
-1045.2217133731181
 30
0.0
 11
6.8647507733703597
 21
-1081.0783525773479
 31
0.0
  0
LINE
  8
NOTE
  6
CONTINUOUS
 62
     4
 10
43.908695911485658
 20
-1045.2217133731181
 30
0.0
 11
6.8647507733703597
 21
-1081.0783525773479
 31
0.0
  0
LINE
  8
NOTE
  6
CONTINUOUS
 62
     4
 10
-9.9359877299275468
 20
-1045.2217133731181
 30
0.0
 11
-9.9359877299275468
 21
-1009.503778602483
 31
0.0
  0
LINE
  8
NOTE
  6
CONTINUOUS
 62
     4
 10
23.665489276668271
 20
-1045.2217133731181
 30
0.0
 11
23.665489276668271
 21
-1009.503778602483
 31
0.0
  0
LINE
  8
NOTE
  6
CONTINUOUS
 62
     4
 10
23.665489276668271
 20
-1009.503778602483
 30
0.0
 11
-9.9359877299275468
 21
-1009.503778602483
 31
0.0
  0
CIRCLE
  8
FIX
  6
CONTINUOUS
 62
    11
 10
-462.79997645070938
 20
-806.5000000000008
 30
0.0
 40
10.63443637122327
  0
CIRCLE
  8
FIX
  6
CONTINUOUS
 62
    11
 10
-462.79997645070938
 20
531.49999999999898
 30
0.0
 40
10.63443637122327
  0
CIRCLE
  8
FIX
  6
CONTINUOUS
 62
    11
 10
462.20002354929051
 20
531.49999999999898
 30
0.0
 40
10.63443637122327
  0
CIRCLE
  8
FIX
  6
CONTINUOUS
 62
    11
 10
462.20002354929051
 20
-806.5000000000008
 30
0.0
 40
10.63443637122327
  0
TEXT
  8
NOTE
  6
CONTINUOUS
 62
     4
 10
840.55238300447206
 20
-664.36634767615305
 30
0.0
 40
64.0
  1
点検口
 41
0.9
  0
LINE
  8
NOTE
  6
CONTINUOUS
 62
     4
 10
1258.6630133445999
 20
725.29836133440347
 30
0.0
 11
1234.200008795741
 21
706.16257026055507
 31
0.0
  0
LINE
  8
NOTE
  6
CONTINUOUS
 62
     4
 10
1234.200008795741
 20
706.16257026055507
 30
0.0
 11
1245.817696781691
 21
734.96615367374534
 31
0.0
  0
LINE
  8
NOTE
  6
CONTINUOUS
 62
     4
 10
1234.200008795741
 20
706.16257026055507
 30
0.0
 11
1252.2403550631459
 21
730.13225750407435
 31
0.0
  0
LINE
  8
NOTE
  6
CONTINUOUS
 62
     4
 10
1252.2403550631459
 20
730.13225750407435
 30
0.0
 11
1432.7590526217
 21
969.98223920336841
 31
0.0
  0
LINE
  8
NOTE
  6
CONTINUOUS
 62
     4
 10
1432.7590526217
 20
969.98223920336841
 30
0.0
 11
1977.595564003926
 21
969.98223920336841
 31
0.0
  0
TEXT
  8
NOTE
  6
CONTINUOUS
 62
     4
 10
1433.0491121254729
 20
977.59726178225094
 30
0.0
 40
64.0
  1
サービススペース
 41
0.9
  0
LINE
  8
NOTE
  6
CONTINUOUS
 62
     4
 10
530.41304649881613
 20
-168.08294090056501
 30
0.0
 11
525.00002354929074
 21
-137.50000000000091
 31
0.0
  0
LINE
  8
NOTE
  6
CONTINUOUS
 62
     4
 10
525.00002354929074
 20
-137.50000000000091
 30
0.0
 11
544.97930927725508
 21
-161.2790923582015
 31
0.0
  0
LINE
  8
NOTE
  6
CONTINUOUS
 62
     4
 10
525.00002354929074
 20
-137.50000000000091
 30
0.0
 11
537.69617788803578
 21
-164.68101662938329
 31
0.0
  0
LINE
  8
NOTE
  6
CONTINUOUS
 62
     4
 10
537.69617788803578
 20
-164.68101662938329
 30
0.0
 11
997.27317655291608
 21
-1148.582890370036
 31
0.0
  0
LINE
  8
NOTE
  6
CONTINUOUS
 62
     4
 10
997.27317655291608
 20
-1148.582890370036
 30
0.0
 11
1429.095044194363
 21
-1148.582890370036
 31
0.0
  0
TEXT
  8
NOTE
  6
CONTINUOUS
 62
     4
 10
1010.598461518318
 20
-1128.6508514132811
 30
0.0
 40
64.0
  1
 RL %%C9.52
 41
0.9
  0
LINE
  8
NOTE
  6
CONTINUOUS
 62
     4
 10
529.89375522512773
 20
-264.17031923316631
 30
0.0
 11
525.00002354928984
 21
-233.49999999999909
 31
0.0
  0
LINE
  8
NOTE
  6
CONTINUOUS
 62
     4
 10
525.00002354928984
 20
-233.49999999999909
 30
0.0
 11
544.57327900705775
 21
-257.61440984897632
 31
0.0
  0
LINE
  8
NOTE
  6
CONTINUOUS
 62
     4
 10
525.00002354928984
 20
-233.49999999999909
 30
0.0
 11
537.23351711609303
 21
-260.89236454107117
 31
0.0
  0
LINE
  8
NOTE
  6
CONTINUOUS
 62
     4
 10
537.23351711609303
 20
-260.89236454107117
 30
0.0
 11
985.03186473399819
 21
-1263.570423090536
 31
0.0
  0
LINE
  8
NOTE
  6
CONTINUOUS
 62
     4
 10
985.03186473399819
 20
-1263.570423090536
 30
0.0
 11
1467.3634734380751
 21
-1263.570423090536
 31
0.0
  0
TEXT
  8
NOTE
  6
CONTINUOUS
 62
     4
 10
997.51875767869842
 20
-1248.313139207243
 30
0.0
 40
64.0
  1
 RG %%C15.88
 41
0.9
  0
LINE
  8
NOTE
  6
CONTINUOUS
 62
     4
 10
-487.41378764719002
 20
-825.4414199563688
 30
0.0
 11
-462.79997645070938
 21
-806.5000000000008
 31
0.0
  0
LINE
  8
NOTE
  6
CONTINUOUS
 62
     4
 10
-462.79997645070938
 20
-806.5000000000008
 30
0.0
 11
-474.64545238287832
 21
-835.210656410468
 31
0.0
  0
LINE
  8
NOTE
  6
CONTINUOUS
 62
     4
 10
-462.79997645070938
 20
-806.5000000000008
 30
0.0
 11
-481.02962001503408
 21
-830.32603818341852
 31
0.0
  0
LINE
  8
NOTE
  6
CONTINUOUS
 62
     4
 10
-481.02962001503408
 20
-830.32603818341852
 30
0.0
 11
-653.01168926085393
 21
-1055.105603085781
 31
0.0
  0
LINE
  8
NOTE
  6
CONTINUOUS
 62
     4
 10
-653.01168926085393
 20
-1055.105603085781
 30
0.0
 11
-1451.8443183340901
 21
-1055.105603085781
 31
0.0
  0
TEXT
  8
NOTE
  6
CONTINUOUS
 62
     4
 10
-1435.522263204218
 20
-1039.848319202488
 30
0.0
 40
64.0
  1
AH 2x2 M10ボルト用
 41
0.9
  0
LINE
  8
NOTE
  6
CONTINUOUS
 62
     4
 10
-476.89191602740038
 20
206.51009087905339
 30
0.0
 11
-465.79997291064677
 21
177.49999109511279
 31
0.0
  0
LINE
  8
NOTE
  6
CONTINUOUS
 62
     4
 10
-465.79997291064677
 20
177.49999109511279
 30
0.0
 11
-489.91092723024371
 21
197.07750302533029
 31
0.0
  0
LINE
  8
NOTE
  6
CONTINUOUS
 62
     4
 10
-465.79997291064677
 20
177.49999109511279
 30
0.0
 11
-483.40142162882188
 21
201.7937969521918
 31
0.0
  0
LINE
  8
NOTE
  6
CONTINUOUS
 62
     4
 10
-483.40142162882188
 20
201.7937969521918
 30
0.0
 11
-675.42728431346313
 21
466.83101646138402
 31
0.0
  0
LINE
  8
NOTE
  6
CONTINUOUS
 62
     4
 10
-675.42728431346313
 20
466.83101646138402
 30
0.0
 11
-1220.2637956956889
 21
466.83101646138402
 31
0.0
  0
TEXT
  8
NOTE
  6
CONTINUOUS
 62
     4
 10
-1213.317343817236
 20
474.44603904026638
 30
0.0
 40
64.0
  1
サービススペース
 41
0.9
  0
LINE
  8
BASIS
  6
DASHDOT
 62
     6
 10
0.0000244445318458
 20
895.28847796933678
 30
0.0
 11
-0.0000242247751885
 21
-887.23982778018853
 31
0.0
  0
TEXT
  8
ETC
  6
CONTINUOUS
 62
    61
 10
-764.50238652888675
 20
1580.6588031717631
 30
0.0
 40
64.0
  1
フィルターボックス組込
 41
0.9
  0
CIRCLE
  8
ARRANGE
  6
CONTINUOUS
 62
     1
 10
0.0
 20
0.0
 30
0.0
 40
40.0
  0
LINE
  8
ARRANGE
  6
CONTINUOUS
 62
     1
 10
36.845437407348982
 20
-36.845437407348072
 30
0.0
 11
-36.845437407348982
 21
36.845437407349891
 31
0.0
  0
LINE
  8
ARRANGE
  6
CONTINUOUS
 62
     1
 10
-36.845437407348982
 20
-36.845437407348072
 30
0.0
 11
36.845437407350801
 21
36.845437407349891
 31
0.0
  0
LINE
  8
BASIS
  6
DASHDOT
 62
     6
 10
473.08785334465841
 20
0.0
 30
0.0
 11
-458.61936440716181
 21
0.0
 31
0.0
  0
ENDSEC
  0
EOF
