  0
SECTION
  2
HEADER
  9
$ACADVER
  1
AC1009
  9
$INSBASE
 10
0.0
 20
0.0
 30
0.0
  9
$EXTMIN
 10
-1381.879627408649
 20
-903.11874373015962
 30
-0.0000000000112498
  9
$EXTMAX
 10
1280.8302420024479
 20
872.74478720334082
 30
0.0000000000002956
  9
$LIMMIN
 10
-4267.1522210604826
 20
-2696.083210198412
  9
$LIMMAX
 10
7190.7174225864646
 20
5141.155363923066
  9
$ORTHOMODE
 70
     0
  9
$REGENMODE
 70
     1
  9
$FILLMODE
 70
     1
  9
$QTEXTMODE
 70
     0
  9
$MIRRTEXT
 70
     0
  9
$DRAGMODE
 70
     2
  9
$LTSCALE
 40
20.0
  9
$OSMODE
 70
   431
  9
$ATTMODE
 70
     1
  9
$TEXTSIZE
 40
64.0
  9
$TRACEWID
 40
0.05
  9
$TEXTSTYLE
  7
NOTE
  9
$CLAYER
  8
SYMBOLLINE
  9
$CELTYPE
  6
CONTINUOUS
  9
$CECOLOR
 62
     7
  9
$DIMSCALE
 40
1.0
  9
$DIMASZ
 40
25.0
  9
$DIMEXO
 40
20.0
  9
$DIMDLI
 40
80.0
  9
$DIMRND
 40
0.0
  9
$DIMDLE
 40
0.0
  9
$DIMEXE
 40
20.0
  9
$DIMTP
 40
0.0
  9
$DIMTM
 40
0.0
  9
$DIMTXT
 40
50.0
  9
$DIMCEN
 40
0.09
  9
$DIMTSZ
 40
0.0
  9
$DIMTOL
 70
     0
  9
$DIMLIM
 70
     0
  9
$DIMTIH
 70
     0
  9
$DIMTOH
 70
     0
  9
$DIMSE1
 70
     0
  9
$DIMSE2
 70
     0
  9
$DIMTAD
 70
     1
  9
$DIMZIN
 70
     8
  9
$DIMBLK
  1
SMALL
  9
$DIMASO
 70
     1
  9
$DIMSHO
 70
     0
  9
$DIMPOST
  1

  9
$DIMAPOST
  1

  9
$DIMALT
 70
     0
  9
$DIMALTD
 70
     2
  9
$DIMALTF
 40
25.399999999999999
  9
$DIMLFAC
 40
1.0
  9
$DIMTOFL
 70
     1
  9
$DIMTVP
 40
0.0
  9
$DIMTIX
 70
     0
  9
$DIMSOXD
 70
     0
  9
$DIMSAH
 70
     0
  9
$DIMBLK1
  1

  9
$DIMBLK2
  1

  9
$DIMSTYLE
  2
STANDARD
  9
$DIMCLRD
 70
     0
  9
$DIMCLRE
 70
     0
  9
$DIMCLRT
 70
     0
  9
$DIMTFAC
 40
1.0
  9
$DIMGAP
 40
0.09
  9
$LUNITS
 70
     2
  9
$LUPREC
 70
     4
  9
$SKETCHINC
 40
0.1
  9
$FILLETRAD
 40
30.0
  9
$AUNITS
 70
     1
  9
$AUPREC
 70
     3
  9
$MENU
  1
ACAD
  9
$ELEVATION
 40
0.0
  9
$PELEVATION
 40
0.0
  9
$THICKNESS
 40
0.0
  9
$LIMCHECK
 70
     0
  9
$BLIPMODE
 70
     0
  9
$CHAMFERA
 40
0.0
  9
$CHAMFERB
 40
0.0
  9
$SKPOLY
 70
     0
  9
$TDCREATE
 40
2450330.4399309959
  9
$TDUPDATE
 40
2457003.6591393058
  9
$TDINDWG
 40
4.0988084954000001
  9
$TDUSRTIMER
 40
4.0988048842999998
  9
$USRTIMER
 70
     1
  9
$ANGBASE
 50
0.0
  9
$ANGDIR
 70
     0
  9
$PDMODE
 70
     3
  9
$PDSIZE
 40
-2.0
  9
$PLINEWID
 40
0.0
  9
$COORDS
 70
     1
  9
$SPLFRAME
 70
     0
  9
$SPLINETYPE
 70
     6
  9
$SPLINESEGS
 70
     8
  9
$ATTDIA
 70
     1
  9
$ATTREQ
 70
     1
  9
$HANDLING
 70
     1
  9
$HANDSEED
  5
617
  9
$SURFTAB1
 70
     6
  9
$SURFTAB2
 70
     6
  9
$SURFTYPE
 70
     6
  9
$SURFU
 70
     6
  9
$SURFV
 70
     6
  9
$UCSNAME
  2

  9
$UCSORG
 10
0.0
 20
0.0
 30
0.0
  9
$UCSXDIR
 10
1.0
 20
0.0
 30
0.0
  9
$UCSYDIR
 10
0.0
 20
1.0
 30
0.0
  9
$PUCSNAME
  2

  9
$PUCSORG
 10
0.0
 20
0.0
 30
0.0
  9
$PUCSXDIR
 10
1.0
 20
0.0
 30
0.0
  9
$PUCSYDIR
 10
0.0
 20
1.0
 30
0.0
  9
$USERI1
 70
     0
  9
$USERI2
 70
     0
  9
$USERI3
 70
     0
  9
$USERI4
 70
     0
  9
$USERI5
 70
     0
  9
$USERR1
 40
20.0
  9
$USERR2
 40
0.0
  9
$USERR3
 40
0.0
  9
$USERR4
 40
0.0
  9
$USERR5
 40
0.0
  9
$WORLDVIEW
 70
     1
  9
$SHADEDGE
 70
     3
  9
$SHADEDIF
 70
    70
  9
$TILEMODE
 70
     1
  9
$MAXACTVP
 70
    64
  9
$PLIMCHECK
 70
     0
  9
$PEXTMIN
 10
1.0000000000000000E+020
 20
1.0000000000000000E+020
 30
1.0000000000000000E+020
  9
$PEXTMAX
 10
-1.0000000000000000E+020
 20
-1.0000000000000000E+020
 30
-1.0000000000000000E+020
  9
$PLIMMIN
 10
0.0
 20
0.0
  9
$PLIMMAX
 10
12.0
 20
9.0
  9
$UNITMODE
 70
     0
  9
$VISRETAIN
 70
     1
  9
$PLINEGEN
 70
     0
  9
$PSLTSCALE
 70
     1
  0
ENDSEC
  0
SECTION
  2
TABLES
  0
TABLE
  2
VPORT
 70
     1
  0
VPORT
  2
*ACTIVE
 70
     0
 10
0.0
 20
0.0
 11
1.0
 21
1.0
 12
-50.524692703100342
 22
-15.186978263409401
 13
0.0
 23
0.0
 14
50.0
 24
50.0
 15
100.0
 25
100.0
 16
0.0
 26
0.0
 36
1.0
 17
0.0
 27
0.0
 37
0.0
 40
1789.8101031659619
 41
1.6159895150720831
 42
50.0
 43
0.0
 44
0.0
 50
0.0
 51
0.0
 71
     0
 72
  1000
 73
     1
 74
     0
 75
     0
 76
     0
 77
     0
 78
     0
  0
ENDTAB
  0
TABLE
  2
LTYPE
 70
     4
  0
LTYPE
  2
CONTINUOUS
 70
     0
  3
実線
 72
    65
 73
     0
 40
0.0
  0
LTYPE
  2
DASHDOT
 70
     0
  3
____ _ ____ _ ____ _ ____ _ ____ _ ____ _ ____
 72
    65
 73
     4
 40
5.5
 49
4.0
 49
-0.6
 49
0.3
 49
-0.6
  0
ENDTAB
  0
TABLE
  2
LAYER
 70
    12
  0
LAYER
  2
0
 70
     0
 62
     7
  6
CONTINUOUS
  0
LAYER
  2
SYMBOLLINE
 70
     0
 62
    15
  6
CONTINUOUS
  0
LAYER
  2
SIZE
 70
     0
 62
    30
  6
CONTINUOUS
  0
LAYER
  2
OUTLINE
 70
     0
 62
     3
  6
CONTINUOUS
  0
LAYER
  2
DETAIL
 70
     0
 62
     5
  6
CONTINUOUS
  0
LAYER
  2
BASIS
 70
     0
 62
     6
  6
DASHDOT
  0
LAYER
  2
NOTE
 70
     0
 62
     4
  6
CONTINUOUS
  0
LAYER
  2
ARRANGE
 70
     0
 62
     1
  6
CONTINUOUS
  0
LAYER
  2
FIX
 70
     0
 62
    11
  6
CONTINUOUS
  0
LAYER
  2
SERVICESPACE
 70
     0
 62
     2
  6
DASHDOT
  0
LAYER
  2
ETC
 70
     0
 62
    61
  6
CONTINUOUS
  0
LAYER
  2
DEFPOINTS
 70
     0
 62
     7
  6
CONTINUOUS
  0
ENDTAB
  0
TABLE
  2
STYLE
 70
     4
  0
STYLE
  2
STANDARD
 70
     0
 40
0.0
 41
0.9
 50
0.0
 71
     0
 42
64.0
  3
SIMPLEX
  4
BIGFONT
  0
STYLE
  2
ANNOTATIVE
 70
     0
 40
0.0
 41
1.0
 50
0.0
 71
     0
 42
0.2
  3
txt
  4

  0
STYLE
  2
NOTE
 70
     0
 40
0.0
 41
0.7
 50
0.0
 71
     0
 42
64.0
  3
SIMPLEX.shx
  4
BIGFONT.shx
  0
STYLE
  2
STANDARD1
 70
     0
 40
0.0
 41
1.0
 50
0.0
 71
     0
 42
64.0
  3
MONOTXT
  4
BIGFONT
  0
ENDTAB
  0
TABLE
  2
VIEW
 70
     1
  0
VIEW
  2
ALL
 70
     0
 40
9000.0
 10
241.50664699999999
 20
0.0
 41
12483.01
 11
0.0
 21
0.0
 31
1.0
 12
0.0
 22
0.0
 32
0.0
 42
50.0
 43
0.0
 44
0.0
 50
0.0
 71
     0
  0
ENDTAB
  0
TABLE
  2
UCS
 70
     0
  0
ENDTAB
  0
TABLE
  2
APPID
 70
     5
  0
APPID
  2
ACAD
 70
     0
  0
APPID
  2
ACADANNOTATIVE
 70
     0
  0
APPID
  2
ACAD_MLEADERVER
 70
     0
  0
APPID
  2
ACAD_EXEMPT_FROM_CAD_STANDARDS
 70
     0
  0
APPID
  2
ACAD_NAV_VCDISPLAY
 70
     0
  0
ENDTAB
  0
TABLE
  2
DIMSTYLE
 70
     3
  0
DIMSTYLE
  2
STANDARD
 70
     0
  3

  4

  5

  6

  7

 40
1.0
 41
0.18
 42
0.0625
 43
0.38
 44
0.18
 45
0.0
 46
0.0
 47
0.0
 48
0.0
140
0.18
141
0.09
142
0.0
143
25.399999999999999
144
1.0
145
0.0
146
1.0
147
0.09
 71
     0
 72
     0
 73
     1
 74
     1
 75
     0
 76
     0
 77
     0
 78
     0
170
     0
171
     2
172
     0
173
     0
174
     0
175
     0
176
     0
177
     0
178
     0
  0
DIMSTYLE
  2
ANNOTATIVE
 70
     0
  3

  4

  5

  6

  7

 40
1.0
 41
0.18
 42
0.0625
 43
0.38
 44
0.18
 45
0.0
 46
0.0
 47
0.0
 48
0.0
140
0.18
141
0.09
142
0.0
143
25.399999999999999
144
1.0
145
0.0
146
1.0
147
0.09
 71
     0
 72
     0
 73
     1
 74
     1
 75
     0
 76
     0
 77
     0
 78
     0
170
     0
171
     2
172
     0
173
     0
174
     0
175
     0
176
     0
177
     0
178
     0
  0
ENDTAB
  0
ENDSEC
  0
SECTION
  2
BLOCKS
  0
BLOCK
  8
0
  2
$MODEL_SPACE
 70
     0
 10
0.0
 20
0.0
 30
0.0
  3
$MODEL_SPACE
  1

  0
ENDBLK
  5
57E
  8
0
  0
BLOCK
 67
     1
  8
0
  2
$PAPER_SPACE
 70
     0
 10
0.0
 20
0.0
 30
0.0
  3
$PAPER_SPACE
  1

  0
ENDBLK
  5
57A
 67
     1
  8
0
  0
BLOCK
  8
0
  2
_SMALL
 70
     0
 10
0.0
 20
0.0
 30
0.0
  3
_SMALL
  1

  0
CIRCLE
  5
8D
  8
0
  6
CONTINUOUS
 62
     7
 10
0.0
 20
0.0
 30
0.0
 40
0.25
  0
ENDBLK
  5
8E
  8
0
  0
BLOCK
  8
0
 62
     7
  2
A$C6E6848E3
 70
     0
 10
0.0
 20
0.0
 30
0.0
  3
A$C6E6848E3
  1

  0
TEXT
  5
5A8
  8
ETC
  6
CONTINUOUS
 62
    61
 10
0.000012213284208
 20
106.7089694668659
 30
0.0
 40
60.0
  1
GE-P1680_2100MG1_2
 50
0.0000029998804485
 41
0.8
  0
TEXT
  5
5A9
  8
ETC
  6
CONTINUOUS
 62
    61
 10
0.000012213284208
 20
5.7142668178494196
 30
0.0
 40
60.0
  1
GE-P1680_2100MG3_2
 50
0.0000029998804485
 41
0.8
  0
ENDBLK
  5
5AB
  8
0
 62
     7
  0
ENDSEC
  0
SECTION
  2
ENTITIES
  0
LINE
  5
8F
  8
DETAIL
  6
CONTINUOUS
 62
     5
 10
-225.000002630822
 20
-382.19999798899278
 30
0.0
 11
-591.00000070505939
 21
-382.19999798899278
 31
0.0
  0
LINE
  5
90
  8
DETAIL
  6
CONTINUOUS
 62
     5
 10
269.99999476466007
 20
-454.99999760595108
 30
0.0
 11
-700.00000013153556
 21
-454.99999760595108
 31
0.0
  0
CIRCLE
  5
91
  8
DETAIL
  6
CONTINUOUS
 62
     5
 10
-521.00000107337576
 20
-264.99999860566493
 30
0.0
 40
22.999999878981821
  0
CIRCLE
  5
92
  8
DETAIL
  6
CONTINUOUS
 62
     5
 10
-530.00000102601552
 20
-409.99999784272518
 30
0.0
 40
16.49999991318278
  0
CIRCLE
  5
93
  8
DETAIL
  6
CONTINUOUS
 62
     5
 10
-530.00000102601552
 20
-409.99999784272518
 30
0.0
 40
13.999999926336921
  0
LINE
  5
94
  8
DETAIL
  6
CONTINUOUS
 62
     5
 10
270.79999465415898
 20
-14.99999992107808
 30
0.0
 11
-700.00000013153556
 21
-14.99999992107808
 31
0.0
  0
ARC
  5
95
  8
DETAIL
  6
CONTINUOUS
 62
     5
 10
-530.00000102601552
 20
-409.99999784272518
 30
0.0
 40
23.999999873720391
 50
0.0
 51
180.0
  0
CIRCLE
  5
96
  8
DETAIL
  6
CONTINUOUS
 62
     5
 10
-521.00000107337576
 20
-264.99999860566493
 30
0.0
 40
18.499999902659361
  0
LINE
  5
97
  8
DETAIL
  6
CONTINUOUS
 62
     5
 10
-225.000002630822
 20
-44.999999763228452
 30
0.0
 11
-594.00000068927761
 21
-44.999999763228452
 31
0.0
  0
LINE
  5
98
  8
NOTE
  6
CONTINUOUS
 62
     4
 10
-501.00000117860958
 20
-409.99999784272518
 30
0.0
 11
-559.00000087343585
 21
-409.99999784272518
 31
0.0
  0
LINE
  5
99
  8
DETAIL
  6
CONTINUOUS
 62
     5
 10
-591.00000070505939
 20
-454.99999760595108
 30
0.0
 11
-591.00000070505939
 21
-44.999999763228452
 31
0.0
  0
LINE
  5
9A
  8
DETAIL
  6
CONTINUOUS
 62
     5
 10
-724.99999999999545
 20
-54.999999710611931
 30
0.0
 11
-724.99999999999545
 21
-354.99999813211599
 31
0.0
  0
LINE
  5
9C
  8
DETAIL
  6
CONTINUOUS
 62
     5
 10
-700.00000013153556
 20
-354.99999813211599
 30
0.0
 11
-724.99999999999545
 21
-354.99999813211599
 31
0.0
  0
CIRCLE
  5
9D
  8
DETAIL
  6
CONTINUOUS
 62
     5
 10
-715.00000005261188
 20
-304.99999839519882
 30
0.0
 40
1.6999999910550601
  0
LINE
  5
9F
  8
NOTE
  6
CONTINUOUS
 62
     4
 10
-708.30000008786465
 20
-304.99999839519882
 30
0.0
 11
-721.70000001735855
 21
-304.99999839519882
 31
0.0
  0
LINE
  5
A0
  8
NOTE
  6
CONTINUOUS
 62
     4
 10
-715.00000005261188
 20
-298.29999843045101
 30
0.0
 11
-715.00000005261188
 21
-311.69999835994662
 31
0.0
  0
LINE
  5
A1
  8
DETAIL
  6
CONTINUOUS
 62
     5
 10
-554.00000089974174
 20
-454.99999760595108
 30
0.0
 11
-554.00000089974174
 21
-409.99999784272518
 31
0.0
  0
ARC
  5
A4
  8
DETAIL
  6
CONTINUOUS
 62
     5
 10
-584.00000074189381
 20
-332.19999825207492
 30
0.0
 40
5.9999999684300231
 50
270.0
 51
90.0
  0
LINE
  5
A5
  8
DETAIL
  6
CONTINUOUS
 62
     5
 10
-591.00000070505939
 20
-326.1999982836503
 30
0.0
 11
-584.00000074189381
 21
-326.1999982836503
 31
0.0
  0
LINE
  5
A6
  8
DETAIL
  6
CONTINUOUS
 62
     5
 10
-591.00000070505939
 20
-338.19999822050909
 30
0.0
 11
-584.00000074189381
 21
-338.19999822050909
 31
0.0
  0
CIRCLE
  5
A8
  8
DETAIL
  6
CONTINUOUS
 62
     5
 10
-715.00000005261188
 20
-204.9999989213641
 30
0.0
 40
1.6999999910550601
  0
LINE
  5
A9
  8
NOTE
  6
CONTINUOUS
 62
     4
 10
-708.30000008786465
 20
-204.9999989213641
 30
0.0
 11
-721.70000001735855
 21
-204.9999989213641
 31
0.0
  0
LINE
  5
AA
  8
NOTE
  6
CONTINUOUS
 62
     4
 10
-715.00000005261188
 20
-198.29999895661629
 30
0.0
 11
-715.00000005261188
 21
-211.69999888611139
 31
0.0
  0
CIRCLE
  5
AB
  8
DETAIL
  6
CONTINUOUS
 62
     5
 10
-715.00000005261188
 20
-104.99999944752921
 30
0.0
 40
1.6999999910550601
  0
LINE
  5
AC
  8
NOTE
  6
CONTINUOUS
 62
     4
 10
-708.30000008786465
 20
-104.99999944752921
 30
0.0
 11
-721.70000001735855
 21
-104.99999944752921
 31
0.0
  0
LINE
  5
AD
  8
NOTE
  6
CONTINUOUS
 62
     4
 10
-715.00000005261188
 20
-98.299999482781857
 30
0.0
 11
-715.00000005261188
 21
-111.69999941227699
 31
0.0
  0
LINE
  5
AF
  8
DETAIL
  6
CONTINUOUS
 62
     5
 10
-724.99999999999545
 20
-54.999999710611931
 30
0.0
 11
-700.00000013153556
 21
-54.999999710611931
 31
0.0
  0
LINE
  5
B0
  8
DETAIL
  6
CONTINUOUS
 62
     5
 10
-594.00000068927761
 20
-19.99999989476958
 30
0.0
 11
-699.00000013680335
 21
-19.99999989476958
 31
0.0
  0
LINE
  5
B1
  8
DETAIL
  6
CONTINUOUS
 62
     5
 10
-660.00000034200275
 20
-31.999999831628369
 30
0.0
 11
-597.00000067348435
 21
-31.999999831628369
 31
0.0
  0
LINE
  5
B2
  8
DETAIL
  6
CONTINUOUS
 62
     5
 10
-594.00000068927761
 20
-59.999999684303873
 30
0.0
 11
-699.00000013680335
 21
-59.999999684303873
 31
0.0
  0
ARC
  5
B3
  8
DETAIL
  6
CONTINUOUS
 62
     5
 10
-660.00000034200275
 20
-28.999999847411289
 30
0.0
 40
2.999999984215151
 50
180.0
 51
270.0
  0
ARC
  5
B4
  8
DETAIL
  6
CONTINUOUS
 62
     5
 10
-678.00000024729582
 20
-28.999999847411289
 30
0.0
 40
2.9999999842150791
 50
270.0
 51
0.0
  0
ARC
  5
B5
  8
DETAIL
  6
CONTINUOUS
 62
     5
 10
-693.50000016573938
 20
-28.999999847411289
 30
0.0
 40
2.999999984215151
 50
180.0
 51
270.0
  0
LINE
  5
B6
  8
DETAIL
  6
CONTINUOUS
 62
     5
 10
-663.00000032621847
 20
-28.999999847411289
 30
0.0
 11
-663.00000032621847
 21
-19.99999989476958
 31
0.0
  0
LINE
  5
B7
  8
DETAIL
  6
CONTINUOUS
 62
     5
 10
-675.0000002630776
 20
-28.999999847411289
 30
0.0
 11
-675.0000002630776
 21
-19.99999989476958
 31
0.0
  0
LINE
  5
B8
  8
DETAIL
  6
CONTINUOUS
 62
     5
 10
-696.5000001499584
 20
-28.999999847411289
 30
0.0
 11
-696.5000001499584
 21
-19.99999989476958
 31
0.0
  0
LINE
  5
B9
  8
DETAIL
  6
CONTINUOUS
 62
     5
 10
-699.00000013680335
 20
-59.999999684303873
 30
0.0
 11
-699.00000013680335
 21
-19.99999989476958
 31
0.0
  0
LINE
  5
BA
  8
DETAIL
  6
CONTINUOUS
 62
     5
 10
-700.00000013153556
 20
-469.9999975270261
 30
0.0
 11
-700.00000013153556
 21
-0.0000000000026787
 31
0.0
  0
LINE
  5
BB
  8
DETAIL
  6
CONTINUOUS
 62
     5
 10
-693.50000016573938
 20
-31.999999831628369
 30
0.0
 11
-678.00000024729582
 21
-31.999999831628369
 31
0.0
  0
ARC
  5
BC
  8
DETAIL
  6
CONTINUOUS
 62
     5
 10
-584.00000074189381
 20
-94.999999500145719
 30
0.0
 40
5.9999999684300924
 50
270.0
 51
90.0
  0
LINE
  5
BD
  8
DETAIL
  6
CONTINUOUS
 62
     5
 10
-591.00000070505939
 20
-88.999999531712035
 30
0.0
 11
-584.00000074189381
 21
-88.999999531712035
 31
0.0
  0
LINE
  5
BE
  8
DETAIL
  6
CONTINUOUS
 62
     5
 10
-591.00000070505939
 20
-100.99999946857029
 30
0.0
 11
-584.00000074189381
 21
-100.99999946857029
 31
0.0
  0
ARC
  5
C0
  8
DETAIL
  6
CONTINUOUS
 62
     5
 10
-597.00000067348435
 20
-28.999999847411289
 30
0.0
 40
2.9999999842150791
 50
270.0
 51
0.0
  0
LINE
  5
C2
  8
DETAIL
  6
CONTINUOUS
 62
     5
 10
-594.00000068927761
 20
-59.999999684303873
 30
0.0
 11
-594.00000068927761
 21
-14.99999992107808
 31
0.0
  0
LINE
  5
C5
  8
DETAIL
  6
CONTINUOUS
 62
     5
 10
269.99999476466007
 20
-469.9999975270261
 30
0.0
 11
269.99999476466007
 21
-439.99999768487561
 31
0.0
  0
LINE
  5
C6
  8
DETAIL
  6
CONTINUOUS
 62
     5
 10
249.9999948698923
 20
-469.9999975270261
 30
0.0
 11
249.9999948698923
 21
-454.99999760595108
 31
0.0
  0
LINE
  5
C7
  8
DETAIL
  6
CONTINUOUS
 62
     5
 10
-146.0000030464943
 20
-34.999999815845008
 30
0.0
 11
214.9999950540504
 21
-34.999999815845008
 31
0.0
  0
LINE
  5
C8
  8
DETAIL
  6
CONTINUOUS
 62
     5
 10
214.9999950540504
 20
-244.99999871089801
 30
0.0
 11
-146.0000030464943
 21
-244.99999871089801
 31
0.0
  0
LINE
  5
C9
  8
NOTE
  6
CONTINUOUS
 62
     4
 10
-194.5000027913004
 20
-189.99999900028871
 30
0.0
 11
-229.5000026071416
 21
-189.99999900028871
 31
0.0
  0
LINE
  5
CA
  8
NOTE
  6
CONTINUOUS
 62
     4
 10
-194.5000027913004
 20
-189.99999900028871
 30
0.0
 11
-229.5000026071416
 21
-189.99999900028871
 31
0.0
  0
LINE
  5
CB
  8
DETAIL
  6
CONTINUOUS
 62
     5
 10
-206.73456827193971
 20
-180.87999904822689
 30
0.0
 11
-217.26543712655749
 21
-180.87999904822689
 31
0.0
  0
LINE
  5
CC
  8
DETAIL
  6
CONTINUOUS
 62
     5
 10
-217.26543712655749
 20
-199.1199989522959
 30
0.0
 11
-206.73456827193101
 21
-199.1199989522959
 31
0.0
  0
CIRCLE
  5
CD
  8
DETAIL
  6
CONTINUOUS
 62
     5
 10
-212.00000269922009
 20
-189.99999900028871
 30
0.0
 40
7.8052599589258431
  0
CIRCLE
  5
CE
  8
DETAIL
  6
CONTINUOUS
 62
     5
 10
-212.00000269922009
 20
-189.99999900028871
 30
0.0
 40
6.983499963247767
  0
CIRCLE
  5
CF
  8
DETAIL
  6
CONTINUOUS
 62
     5
 10
-212.00000269922009
 20
-189.99999900028871
 30
0.0
 40
4.4999999763225906
  0
CIRCLE
  5
D0
  8
DETAIL
  6
CONTINUOUS
 62
     5
 10
-212.00000269922009
 20
-189.99999900028871
 30
0.0
 40
12.499999934229329
  0
LINE
  5
D1
  8
DETAIL
  6
CONTINUOUS
 62
     5
 10
-200.80000275815149
 20
-152.99999919497159
 30
0.0
 11
-225.000002630822
 21
-152.99999919497159
 31
0.0
  0
LINE
  5
D2
  8
DETAIL
  6
CONTINUOUS
 62
     5
 10
-225.000002630822
 20
-226.99999880560549
 30
0.0
 11
-200.80000275815149
 21
-226.99999880560549
 31
0.0
  0
LINE
  5
D3
  8
DETAIL
  6
CONTINUOUS
 62
     5
 10
-225.000002630822
 20
-454.99999760595108
 30
0.0
 11
-225.000002630822
 21
-14.99999992107808
 31
0.0
  0
ARC
  5
D4
  8
DETAIL
  6
CONTINUOUS
 62
     5
 10
-350.00000197311419
 20
-434.9999977111836
 30
0.0
 40
23.999999873720238
 50
0.0
 51
180.0
  0
LINE
  5
D5
  8
NOTE
  6
CONTINUOUS
 62
     4
 10
-321.00000212570637
 20
-434.9999977111836
 30
0.0
 11
-379.00000182053282
 21
-434.9999977111836
 31
0.0
  0
LINE
  5
D6
  8
DETAIL
  6
CONTINUOUS
 62
     5
 10
-506.00000115230148
 20
-454.99999760595108
 30
0.0
 11
-506.00000115230148
 21
-409.99999784272518
 31
0.0
  0
LINE
  5
D7
  8
NOTE
  6
CONTINUOUS
 62
     4
 10
-530.00000102601552
 20
-380.99999799530758
 30
0.0
 11
-530.00000102601552
 21
-438.99999769013323
 31
0.0
  0
LINE
  5
D8
  8
DETAIL
  6
CONTINUOUS
 62
     5
 10
-374.00000184684029
 20
-454.99999760595108
 30
0.0
 11
-374.00000184684029
 21
-434.9999977111836
 31
0.0
  0
LINE
  5
D9
  8
NOTE
  6
CONTINUOUS
 62
     4
 10
-350.00000197311419
 20
-405.99999786376628
 30
0.0
 11
-350.00000197311419
 21
-463.99999755859233
 31
0.0
  0
CIRCLE
  5
DA
  8
DETAIL
  6
CONTINUOUS
 62
     5
 10
-350.00000197311419
 20
-434.9999977111836
 30
0.0
 40
16.499999913182648
  0
CIRCLE
  5
DB
  8
DETAIL
  6
CONTINUOUS
 62
     5
 10
-350.00000197311419
 20
-434.9999977111836
 30
0.0
 40
13.99999992633678
  0
LINE
  5
DC
  8
DETAIL
  6
CONTINUOUS
 62
     5
 10
-326.00000209939839
 20
-454.99999760595108
 30
0.0
 11
-326.00000209939839
 21
-434.9999977111836
 31
0.0
  0
ARC
  5
DF
  8
DETAIL
  6
CONTINUOUS
 62
     5
 10
-232.0000025939884
 20
-332.19999825207492
 30
0.0
 40
5.9999999684300231
 50
90.0
 51
270.0
  0
LINE
  5
E0
  8
DETAIL
  6
CONTINUOUS
 62
     5
 10
-225.000002630822
 20
-326.1999982836503
 30
0.0
 11
-232.0000025939884
 21
-326.1999982836503
 31
0.0
  0
LINE
  5
E1
  8
DETAIL
  6
CONTINUOUS
 62
     5
 10
-225.000002630822
 20
-338.19999822050909
 30
0.0
 11
-232.0000025939884
 21
-338.19999822050909
 31
0.0
  0
LINE
  5
E2
  8
NOTE
  6
CONTINUOUS
 62
     4
 10
-212.00000269922009
 20
-172.49999909236769
 30
0.0
 11
-212.00000269922009
 21
-207.49999890820959
 31
0.0
  0
LINE
  5
E3
  8
NOTE
  6
CONTINUOUS
 62
     4
 10
-212.00000269922009
 20
-172.49999909236769
 30
0.0
 11
-212.00000269922009
 21
-207.49999890820959
 31
0.0
  0
LINE
  5
E4
  8
DETAIL
  6
CONTINUOUS
 62
     5
 10
-222.5308715538568
 20
-189.9999990002614
 30
0.0
 11
-217.26543712655749
 21
-180.87999904822689
 31
0.0
  0
LINE
  5
E5
  8
DETAIL
  6
CONTINUOUS
 62
     5
 10
-222.5308715538568
 20
-189.9999990002614
 30
0.0
 11
-217.26543712655749
 21
-199.1199989522959
 31
0.0
  0
ARC
  5
E6
  8
DETAIL
  6
CONTINUOUS
 62
     5
 10
-232.0000025939884
 20
-94.999999500145719
 30
0.0
 40
5.9999999684300924
 50
90.0
 51
270.0
  0
LINE
  5
E7
  8
DETAIL
  6
CONTINUOUS
 62
     5
 10
-225.000002630822
 20
-88.999999531712035
 30
0.0
 11
-232.0000025939884
 21
-88.999999531712035
 31
0.0
  0
LINE
  5
E8
  8
DETAIL
  6
CONTINUOUS
 62
     5
 10
-225.000002630822
 20
-100.99999946857029
 30
0.0
 11
-232.0000025939884
 21
-100.99999946857029
 31
0.0
  0
LINE
  5
EB
  8
DETAIL
  6
CONTINUOUS
 62
     5
 10
-146.0000030464943
 20
-299.99999842150669
 30
0.0
 11
-146.0000030464943
 21
-94.999999500145719
 31
0.0
  0
LINE
  5
EC
  8
DETAIL
  6
CONTINUOUS
 62
     5
 10
-90.000003341145216
 20
-244.99999871089801
 30
0.0
 11
-90.000003341145216
 21
-237.9999987477311
 31
0.0
  0
LINE
  5
ED
  8
DETAIL
  6
CONTINUOUS
 62
     5
 10
-102.0000032780039
 20
-244.99999871089801
 30
0.0
 11
-102.0000032780039
 21
-237.9999987477311
 31
0.0
  0
LINE
  5
EE
  8
DETAIL
  6
CONTINUOUS
 62
     5
 10
-59.061925947728461
 20
-259.9999986319728
 30
0.0
 11
-9.8404078374196615
 21
-259.9999986319728
 31
0.0
  0
LINE
  5
EF
  8
DETAIL
  6
CONTINUOUS
 62
     5
 10
-163.20427134897091
 20
-454.99999760595108
 30
0.0
 11
-163.20427134897091
 21
-299.99999842150669
 31
0.0
  0
ARC
  5
F0
  8
DETAIL
  6
CONTINUOUS
 62
     5
 10
-156.20427138580359
 20
-349.1999981626343
 30
0.0
 40
5.9999999684300231
 50
270.0
 51
90.0
  0
LINE
  5
F1
  8
DETAIL
  6
CONTINUOUS
 62
     5
 10
-163.20427134897091
 20
-355.19999813105898
 30
0.0
 11
-156.20427138580359
 21
-355.19999813105898
 31
0.0
  0
LINE
  5
F2
  8
DETAIL
  6
CONTINUOUS
 62
     5
 10
-163.20427134897091
 20
-299.99999842150669
 30
0.0
 11
-115.2654308568076
 21
-299.99999842150669
 31
0.0
  0
LINE
  5
F3
  8
DETAIL
  6
CONTINUOUS
 62
     5
 10
-163.20427134897091
 20
-343.1999981942007
 30
0.0
 11
-156.20427138580359
 21
-343.1999981942007
 31
0.0
  0
LINE
  5
F4
  8
NOTE
  6
CONTINUOUS
 62
     4
 10
-96.000003309579824
 20
-283.99999850568969
 30
0.0
 11
-96.000003309579824
 21
-345.99999817946559
 31
0.0
  0
CIRCLE
  5
F5
  8
DETAIL
  6
CONTINUOUS
 62
     5
 10
-96.000003309579824
 20
-314.99999834258222
 30
0.0
 40
24.499999871089539
  0
CIRCLE
  5
F6
  8
DETAIL
  6
CONTINUOUS
 62
     5
 10
-96.000003309579824
 20
-314.99999834258222
 30
0.0
 40
21.49999988687453
  0
LINE
  5
F7
  8
DETAIL
  6
CONTINUOUS
 62
     5
 10
-59.061925947728461
 20
-299.99999842150669
 30
0.0
 11
-59.061925947728461
 21
-259.9999986319728
 31
0.0
  0
LINE
  5
F8
  8
NOTE
  6
CONTINUOUS
 62
     4
 10
-65.00000347268633
 20
-314.99999834258222
 30
0.0
 11
-127.0000031464605
 21
-314.99999834258222
 31
0.0
  0
CIRCLE
  5
F9
  8
DETAIL
  6
CONTINUOUS
 62
     5
 10
-96.000003309579824
 20
-314.99999834258222
 30
0.0
 40
11.499999939491049
  0
CIRCLE
  5
FA
  8
DETAIL
  6
CONTINUOUS
 62
     5
 10
-96.000003309579824
 20
-314.99999834258222
 30
0.0
 40
14.09999992581079
  0
CIRCLE
  5
FB
  8
DETAIL
  6
CONTINUOUS
 62
     5
 10
-96.000003309579824
 20
-314.99999834258222
 30
0.0
 40
9.5250000000000004
  0
LINE
  5
FC
  8
DETAIL
  6
CONTINUOUS
 62
     5
 10
-76.734575762439363
 20
-299.99999842150669
 30
0.0
 11
-59.061925947728461
 21
-299.99999842150669
 31
0.0
  0
ARC
  5
FD
  8
DETAIL
  6
CONTINUOUS
 62
     5
 10
62.25734347902744
 20
-349.1999981626343
 30
0.0
 40
5.9999999684301724
 50
90.0
 51
270.0
  0
LINE
  5
FE
  8
DETAIL
  6
CONTINUOUS
 62
     5
 10
69.257343442195634
 20
-244.99999871089801
 30
0.0
 11
69.257343442195634
 21
-454.99999760595108
 31
0.0
  0
LINE
  5
FF
  8
DETAIL
  6
CONTINUOUS
 62
     5
 10
69.257343442195634
 20
-355.19999813105898
 30
0.0
 11
62.25734347902744
 21
-355.19999813105898
 31
0.0
  0
LINE
  5
100
  8
DETAIL
  6
CONTINUOUS
 62
     5
 10
9.8404002080324062
 20
-259.9999986319728
 30
0.0
 11
69.257343442195634
 21
-259.9999986319728
 31
0.0
  0
LINE
  5
101
  8
NOTE
  6
CONTINUOUS
 62
     4
 10
-0.0000038146945371
 20
-251.9999986740643
 30
0.0
 11
-0.0000038146945371
 21
-297.99999843203187
 31
0.0
  0
LINE
  5
102
  8
NOTE
  6
CONTINUOUS
 62
     4
 10
22.999996064290372
 20
-274.99999855304827
 30
0.0
 11
-23.00000369367762
 21
-274.99999855304827
 31
0.0
  0
CIRCLE
  5
103
  8
DETAIL
  6
CONTINUOUS
 62
     5
 10
-0.0000038146945371
 20
-274.99999855304827
 30
0.0
 40
4.759999999999998
  0
CIRCLE
  5
104
  8
DETAIL
  6
CONTINUOUS
 62
     5
 10
-0.0000038146945371
 20
-274.99999855304827
 30
0.0
 40
17.99999990529022
  0
CIRCLE
  5
105
  8
DETAIL
  6
CONTINUOUS
 62
     5
 10
-0.0000038146945371
 20
-274.99999855304827
 30
0.0
 40
14.99999992107521
  0
CIRCLE
  5
106
  8
DETAIL
  6
CONTINUOUS
 62
     5
 10
-0.0000038146945371
 20
-274.99999855304827
 30
0.0
 40
7.7599999591695319
  0
LINE
  5
107
  8
DETAIL
  6
CONTINUOUS
 62
     5
 10
69.257343442195634
 20
-343.1999981942007
 30
0.0
 11
62.25734347902744
 21
-343.1999981942007
 31
0.0
  0
LINE
  5
108
  8
DETAIL
  6
CONTINUOUS
 62
     5
 10
-201.46913384460359
 20
-189.99999900028871
 30
0.0
 11
-206.73456827193971
 21
-180.87999904822689
 31
0.0
  0
LINE
  5
109
  8
DETAIL
  6
CONTINUOUS
 62
     5
 10
-200.80000275815149
 20
-184.4952471725467
 30
0.0
 11
-200.80000275815149
 21
-152.99999919497159
 31
0.0
  0
LINE
  5
10A
  8
DETAIL
  6
CONTINUOUS
 62
     5
 10
-206.73456827193101
 20
-199.119998952305
 30
0.0
 11
-201.46913384460359
 21
-189.99999900028871
 31
0.0
  0
LINE
  5
10B
  8
DETAIL
  6
CONTINUOUS
 62
     5
 10
-200.80000275815149
 20
-226.99999880560549
 30
0.0
 11
-200.80000275815149
 21
-195.50475082812159
 31
0.0
  0
LINE
  5
10C
  8
DETAIL
  6
CONTINUOUS
 62
     5
 10
-200.80000275815149
 20
-200.99999894240531
 30
0.0
 11
-206.1289782202156
 21
-200.99999894240531
 31
0.0
  0
LINE
  5
10D
  8
DETAIL
  6
CONTINUOUS
 62
     5
 10
-206.1289782202156
 20
-178.9999990581631
 30
0.0
 11
-200.80000275815149
 21
-178.9999990581631
 31
0.0
  0
ARC
  5
10E
  8
DETAIL
  6
CONTINUOUS
 62
     5
 10
-96.000003309579824
 20
-237.9999987477311
 30
0.0
 40
5.9999999684301724
 50
0.0
 51
180.0
  0
LINE
  5
10F
  8
NOTE
  6
CONTINUOUS
 62
     4
 10
-176.00000288864641
 20
-53.749999717188921
 30
0.0
 11
-176.00000288864641
 21
-96.249999493568765
 31
0.0
  0
LINE
  5
110
  8
DETAIL
  6
CONTINUOUS
 62
     5
 10
-146.0000030464943
 20
-54.999999710611931
 30
0.0
 11
-146.0000030464943
 21
-94.999999500145719
 31
0.0
  0
LINE
  5
111
  8
DETAIL
  6
CONTINUOUS
 62
     5
 10
-203.5000027439491
 20
-54.999999710611931
 30
0.0
 11
-203.5000027439491
 21
-94.999999500145719
 31
0.0
  0
CIRCLE
  5
112
  8
DETAIL
  6
CONTINUOUS
 62
     5
 10
-176.00000288864641
 20
-74.999999605378832
 30
0.0
 40
12.289971364234519
  0
CIRCLE
  5
113
  8
DETAIL
  6
CONTINUOUS
 62
     5
 10
-176.00000288864641
 20
-74.999999605378832
 30
0.0
 40
16.24999991449814
  0
LINE
  5
114
  8
NOTE
  6
CONTINUOUS
 62
     4
 10
-154.75000300045599
 20
-74.999999605378832
 30
0.0
 11
-197.25000277683739
 21
-74.999999605378832
 31
0.0
  0
LINE
  5
115
  8
DETAIL
  6
CONTINUOUS
 62
     5
 10
-203.5000027439491
 20
-94.999999500145719
 30
0.0
 11
-146.0000030464943
 21
-94.999999500145719
 31
0.0
  0
CIRCLE
  5
116
  8
DETAIL
  6
CONTINUOUS
 62
     5
 10
-176.00000288864641
 20
-74.999999605378832
 30
0.0
 40
5.0748815320978551
  0
LINE
  5
117
  8
DETAIL
  6
CONTINUOUS
 62
     5
 10
-146.0000030464943
 20
-54.999999710611931
 30
0.0
 11
-203.5000027439491
 21
-54.999999710611931
 31
0.0
  0
LINE
  5
118
  8
DETAIL
  6
CONTINUOUS
 62
     5
 10
-146.0000030464943
 20
-54.999999710611931
 30
0.0
 11
-146.0000030464943
 21
-14.99999992107808
 31
0.0
  0
ARC
  5
119
  8
DETAIL
  6
CONTINUOUS
 62
     5
 10
-96.000003309579824
 20
-41.999999779011361
 30
0.0
 40
5.9999999684300231
 50
180.0
 51
0.0
  0
LINE
  5
11A
  8
DETAIL
  6
CONTINUOUS
 62
     5
 10
-90.000003341145216
 20
-34.999999815845008
 30
0.0
 11
-90.000003341145216
 21
-41.999999779011361
 31
0.0
  0
LINE
  5
11B
  8
DETAIL
  6
CONTINUOUS
 62
     5
 10
-102.0000032780039
 20
-34.999999815845008
 30
0.0
 11
-102.0000032780039
 21
-41.999999779011361
 31
0.0
  0
LINE
  5
11C
  8
DETAIL
  6
CONTINUOUS
 62
     5
 10
700.00000013154113
 20
-0.0000000000026787
 30
0.0
 11
700.00000013154113
 21
-469.9999975270261
 31
0.0
  0
LINE
  5
11D
  8
DETAIL
  6
CONTINUOUS
 62
     5
 10
290.99999465416022
 20
-11.999999936861
 30
0.0
 11
290.99999465416022
 21
-0.0000000000026787
 31
0.0
  0
LINE
  5
11E
  8
DETAIL
  6
CONTINUOUS
 62
     5
 10
247.99999488041931
 20
-57.599999696924847
 30
0.0
 11
635.79999283994607
 21
-57.599999696924847
 31
0.0
  0
LINE
  5
11F
  8
DETAIL
  6
CONTINUOUS
 62
     5
 10
635.79999283994607
 20
-439.99999768487561
 30
0.0
 11
247.99999488041931
 21
-439.99999768487561
 31
0.0
  0
LINE
  5
120
  8
DETAIL
  6
CONTINUOUS
 62
     5
 10
269.99999476466007
 20
-459.99999757964258
 30
0.0
 11
633.99999284941532
 21
-459.99999757964258
 31
0.0
  0
LINE
  5
121
  8
DETAIL
  6
CONTINUOUS
 62
     5
 10
293.9999946383773
 20
-14.99999992107808
 30
0.0
 11
700.00000013154113
 21
-14.99999992107808
 31
0.0
  0
LINE
  5
122
  8
DETAIL
  6
CONTINUOUS
 62
     5
 10
270.99999475939239
 20
-29.999999842153041
 30
0.0
 11
564.99999321247321
 21
-29.999999842153041
 31
0.0
  0
LINE
  5
123
  8
DETAIL
  6
CONTINUOUS
 62
     5
 10
247.99999488041931
 20
-439.99999768487561
 30
0.0
 11
247.99999488041931
 21
-57.599999696924847
 31
0.0
  0
LINE
  5
124
  8
DETAIL
  6
CONTINUOUS
 62
     5
 10
214.9999950540504
 20
-14.99999992107808
 30
0.0
 11
214.9999950540504
 21
-454.99999760595108
 31
0.0
  0
LINE
  5
125
  8
DETAIL
  6
CONTINUOUS
 62
     5
 10
170.99999528555909
 20
-244.99999871089801
 30
0.0
 11
170.99999528555909
 21
-237.9999987477311
 31
0.0
  0
LINE
  5
126
  8
DETAIL
  6
CONTINUOUS
 62
     5
 10
158.99999534869991
 20
-244.99999871089801
 30
0.0
 11
158.99999534869991
 21
-237.9999987477311
 31
0.0
  0
LINE
  5
127
  8
DETAIL
  6
CONTINUOUS
 62
     5
 10
228.7999949814411
 20
-100.99999946857029
 30
0.0
 11
228.7999949814411
 21
-134.99999928967941
 31
0.0
  0
ARC
  5
128
  8
DETAIL
  6
CONTINUOUS
 62
     5
 10
164.99999531713451
 20
-237.9999987477311
 30
0.0
 40
5.9999999684300231
 50
0.0
 51
180.0
  0
LINE
  5
129
  8
DETAIL
  6
CONTINUOUS
 62
     5
 10
231.79999496565819
 20
-137.99999927389649
 30
0.0
 11
247.99999488041931
 21
-137.99999927389649
 31
0.0
  0
LINE
  5
12A
  8
DETAIL
  6
CONTINUOUS
 62
     5
 10
231.79999496565819
 20
-137.99999927389649
 30
0.0
 11
228.7999949814411
 21
-134.99999928967941
 31
0.0
  0
ARC
  5
12B
  8
DETAIL
  6
CONTINUOUS
 62
     5
 10
164.99999531713451
 20
-41.999999779011361
 30
0.0
 40
5.9999999684300924
 50
180.0
 51
0.0
  0
LINE
  5
12C
  8
DETAIL
  6
CONTINUOUS
 62
     5
 10
158.99999534869991
 20
-34.999999815845008
 30
0.0
 11
158.99999534869991
 21
-41.999999779011361
 31
0.0
  0
LINE
  5
12D
  8
DETAIL
  6
CONTINUOUS
 62
     5
 10
170.99999528555909
 20
-34.999999815845008
 30
0.0
 11
170.99999528555909
 21
-41.999999779011361
 31
0.0
  0
LINE
  5
12E
  8
DETAIL
  6
CONTINUOUS
 62
     5
 10
231.79999496565819
 20
-97.999999484362874
 30
0.0
 11
247.99999488041931
 21
-97.999999484362874
 31
0.0
  0
LINE
  5
12F
  8
DETAIL
  6
CONTINUOUS
 62
     5
 10
228.7999949814411
 20
-100.99999946857029
 30
0.0
 11
231.79999496565819
 21
-97.999999484362874
 31
0.0
  0
LINE
  5
130
  8
DETAIL
  6
CONTINUOUS
 62
     5
 10
267.99999477518531
 20
-57.599999696924847
 30
0.0
 11
267.99999477518531
 21
-32.999999826370129
 31
0.0
  0
ARC
  5
131
  8
DETAIL
  6
CONTINUOUS
 62
     5
 10
270.99999475939239
 20
-32.999999826370129
 30
0.0
 40
2.9999999842150111
 50
90.0
 51
180.0
  0
LINE
  5
132
  8
DETAIL
  6
CONTINUOUS
 62
     5
 10
270.79999465415898
 20
-30.006673939802511
 30
0.0
 11
270.79999465415898
 21
-0.0000000000026787
 31
0.0
  0
LINE
  5
133
  8
DETAIL
  6
CONTINUOUS
 62
     5
 10
290.99999465416022
 20
-11.999999936861
 30
0.0
 11
293.9999946383773
 21
-14.99999992107808
 31
0.0
  0
LINE
  5
134
  8
DETAIL
  6
CONTINUOUS
 62
     5
 10
724.9999923706082
 20
-434.9999977111836
 30
0.0
 11
724.9999923706082
 21
-34.999997711183781
 31
0.0
  0
LINE
  5
135
  8
DETAIL
  6
CONTINUOUS
 62
     5
 10
635.79999283994607
 20
-439.99999768487561
 30
0.0
 11
635.79999283994607
 21
-57.599999696924847
 31
0.0
  0
LINE
  5
136
  8
DETAIL
  6
CONTINUOUS
 62
     5
 10
618.49999250076871
 20
-444.99999765856711
 30
0.0
 11
579.49999356637716
 21
-444.99999765856711
 31
0.0
  0
LINE
  5
137
  8
DETAIL
  6
CONTINUOUS
 62
     5
 10
700.00000013154113
 20
-469.9999975270261
 30
0.0
 11
-700.00000013153556
 21
-469.9999975270261
 31
0.0
  0
LINE
  5
138
  8
DETAIL
  6
CONTINUOUS
 62
     5
 10
548.49999286908405
 20
-444.99999765856711
 30
0.0
 11
509.49999393469261
 21
-444.99999765856711
 31
0.0
  0
LINE
  5
139
  8
DETAIL
  6
CONTINUOUS
 62
     5
 10
507.49999351501828
 20
-442.99999766909201
 30
0.0
 11
507.49999351501828
 21
-439.99999768487561
 31
0.0
  0
ARC
  5
13A
  8
DETAIL
  6
CONTINUOUS
 62
     5
 10
509.49999350449337
 20
-442.99999766909201
 30
0.0
 40
1.999999989476684
 50
180.0
 51
270.0
  0
LINE
  5
13B
  8
DETAIL
  6
CONTINUOUS
 62
     5
 10
550.49999328876845
 20
-442.99999766909201
 30
0.0
 11
550.49999328876845
 21
-439.99999768487561
 31
0.0
  0
ARC
  5
13C
  8
DETAIL
  6
CONTINUOUS
 62
     5
 10
548.49999329928426
 20
-442.99999766909201
 30
0.0
 40
1.999999989476724
 50
270.0
 51
0.0
  0
LINE
  5
13D
  8
DETAIL
  6
CONTINUOUS
 62
     5
 10
577.49999314670129
 20
-442.99999766909201
 30
0.0
 11
577.49999314670129
 21
-439.99999768487561
 31
0.0
  0
ARC
  5
13E
  8
DETAIL
  6
CONTINUOUS
 62
     5
 10
579.49999313617764
 20
-442.99999766909201
 30
0.0
 40
1.999999989476684
 50
180.0
 51
270.0
  0
LINE
  5
13F
  8
DETAIL
  6
CONTINUOUS
 62
     5
 10
633.99999284941532
 20
-459.99999757964258
 30
0.0
 11
700.00000013154113
 21
-459.99999757964258
 31
0.0
  0
LINE
  5
140
  8
DETAIL
  6
CONTINUOUS
 62
     5
 10
633.99999284941532
 20
-439.99999768487561
 30
0.0
 11
633.99999284941532
 21
-459.99999757964258
 31
0.0
  0
LINE
  5
141
  8
DETAIL
  6
CONTINUOUS
 62
     5
 10
620.49999292045368
 20
-442.99999766909201
 30
0.0
 11
620.49999292045368
 21
-439.99999768487561
 31
0.0
  0
ARC
  5
142
  8
DETAIL
  6
CONTINUOUS
 62
     5
 10
618.49999293097005
 20
-442.99999766909201
 30
0.0
 40
1.999999989476724
 50
270.0
 51
0.0
  0
LINE
  5
143
  8
DETAIL
  6
CONTINUOUS
 62
     5
 10
700.00000013154113
 20
-434.9999977111836
 30
0.0
 11
724.9999923706082
 21
-434.9999977111836
 31
0.0
  0
CIRCLE
  5
144
  8
DETAIL
  6
CONTINUOUS
 62
     5
 10
714.99999242322417
 20
-384.99999797426631
 30
0.0
 40
1.7
  0
LINE
  5
145
  8
NOTE
  6
CONTINUOUS
 62
     4
 10
721.44999238928222
 20
-384.99999797426631
 30
0.0
 11
708.54999245715851
 21
-384.99999797426631
 31
0.0
  0
LINE
  5
146
  8
NOTE
  6
CONTINUOUS
 62
     4
 10
714.99999242322417
 20
-378.54999800819979
 30
0.0
 11
714.99999242322417
 21
-391.4499979403239
 31
0.0
  0
CIRCLE
  5
147
  8
DETAIL
  6
CONTINUOUS
 62
     5
 10
714.99999242322417
 20
-284.99999850043167
 30
0.0
 40
1.7
  0
LINE
  5
148
  8
NOTE
  6
CONTINUOUS
 62
     4
 10
721.44999238928222
 20
-284.99999850043167
 30
0.0
 11
708.54999245715851
 21
-284.99999850043167
 31
0.0
  0
LINE
  5
149
  8
NOTE
  6
CONTINUOUS
 62
     4
 10
714.99999242322417
 20
-278.54999853436522
 30
0.0
 11
714.99999242322417
 21
-291.44999846648921
 31
0.0
  0
LINE
  5
14A
  8
DETAIL
  6
CONTINUOUS
 62
     5
 10
698.99999250740757
 20
-19.99999989476958
 30
0.0
 11
593.9999930598824
 21
-19.99999989476958
 31
0.0
  0
LINE
  5
14B
  8
DETAIL
  6
CONTINUOUS
 62
     5
 10
596.99999304409812
 20
-31.999999831628369
 30
0.0
 11
659.99999271261538
 21
-31.999999831628369
 31
0.0
  0
LINE
  5
14C
  8
DETAIL
  6
CONTINUOUS
 62
     5
 10
567.99999319669041
 20
-57.599999696924847
 30
0.0
 11
567.99999319669041
 21
-32.999999826370129
 31
0.0
  0
ARC
  5
14D
  8
DETAIL
  6
CONTINUOUS
 62
     5
 10
564.99999321247321
 20
-32.999999826370129
 30
0.0
 40
2.9999999842150111
 50
0.0
 51
90.0
  0
ARC
  5
14E
  8
DETAIL
  6
CONTINUOUS
 62
     5
 10
596.99999304409812
 20
-28.999999847411289
 30
0.0
 40
2.9999999842150511
 50
180.0
 51
270.0
  0
LINE
  5
14F
  8
DETAIL
  6
CONTINUOUS
 62
     5
 10
593.9999930598824
 20
-28.999999847411289
 30
0.0
 11
593.9999930598824
 21
-19.99999989476958
 31
0.0
  0
LINE
  5
150
  8
DETAIL
  6
CONTINUOUS
 62
     5
 10
593.9999930598824
 20
-57.599999696924847
 30
0.0
 11
593.9999930598824
 21
-28.999999847411289
 31
0.0
  0
LINE
  5
152
  8
NOTE
  6
CONTINUOUS
 62
     4
 10
714.99999242322417
 20
-178.5499990605303
 30
0.0
 11
714.99999242322417
 21
-191.4499989926548
 31
0.0
  0
CIRCLE
  5
153
  8
DETAIL
  6
CONTINUOUS
 62
     5
 10
714.99999242322417
 20
-184.99999902659729
 30
0.0
 40
1.7
  0
LINE
  5
154
  8
NOTE
  6
CONTINUOUS
 62
     4
 10
721.44999238928222
 20
-184.99999902659729
 30
0.0
 11
708.54999245715851
 21
-184.99999902659729
 31
0.0
  0
LINE
  5
155
  8
DETAIL
  6
CONTINUOUS
 62
     5
 10
677.99999261790754
 20
-31.999999831628369
 30
0.0
 11
693.4999925363436
 21
-31.999999831628369
 31
0.0
  0
LINE
  5
156
  8
DETAIL
  6
CONTINUOUS
 62
     5
 10
635.79999283994607
 20
-59.999999684303873
 30
0.0
 11
698.99999250740757
 21
-59.999999684303873
 31
0.0
  0
ARC
  5
157
  8
DETAIL
  6
CONTINUOUS
 62
     5
 10
659.99999271261538
 20
-28.999999847411289
 30
0.0
 40
2.9999999842150791
 50
270.0
 51
0.0
  0
ARC
  5
158
  8
DETAIL
  6
CONTINUOUS
 62
     5
 10
677.99999261790754
 20
-28.999999847411289
 30
0.0
 40
2.9999999842150311
 50
180.0
 51
270.0
  0
LINE
  5
159
  8
DETAIL
  6
CONTINUOUS
 62
     5
 10
674.99999263369045
 20
-28.999999847411289
 30
0.0
 11
674.99999263369045
 21
-19.99999989476958
 31
0.0
  0
LINE
  5
15A
  8
DETAIL
  6
CONTINUOUS
 62
     5
 10
662.99999269683292
 20
-28.999999847411289
 30
0.0
 11
662.99999269683292
 21
-19.99999989476958
 31
0.0
  0
CIRCLE
  5
15B
  8
DETAIL
  6
CONTINUOUS
 62
     5
 10
714.99999242322417
 20
-84.999999552762276
 30
0.0
 40
1.7
  0
LINE
  5
15C
  8
NOTE
  6
CONTINUOUS
 62
     4
 10
721.44999238928222
 20
-84.999999552762276
 30
0.0
 11
708.54999245715851
 21
-84.999999552762276
 31
0.0
  0
LINE
  5
15D
  8
NOTE
  6
CONTINUOUS
 62
     4
 10
714.99999242322417
 20
-78.549999586695733
 30
0.0
 11
714.99999242322417
 21
-91.449999518820206
 31
0.0
  0
ARC
  5
15E
  8
DETAIL
  6
CONTINUOUS
 62
     5
 10
693.4999925363436
 20
-28.999999847411289
 30
0.0
 40
2.9999999842150791
 50
270.0
 51
0.0
  0
LINE
  5
15F
  8
DETAIL
  6
CONTINUOUS
 62
     5
 10
698.99999250740757
 20
-19.99999989476958
 30
0.0
 11
698.99999250740757
 21
-59.999999684303873
 31
0.0
  0
LINE
  5
160
  8
DETAIL
  6
CONTINUOUS
 62
     5
 10
696.49999252056102
 20
-28.999999847411289
 30
0.0
 11
696.49999252056102
 21
-19.99999989476958
 31
0.0
  0
LINE
  5
161
  8
DETAIL
  6
CONTINUOUS
 62
     5
 10
-700.00000013153556
 20
-0.0000000000026787
 30
0.0
 11
700.00000013154113
 21
-0.0000000000026787
 31
0.0
  0
LINE
  5
162
  8
SERVICESPACE
  6
DASHDOT
 62
     2
 10
-750.00000013153533
 20
-469.99999752702308
 30
0.0
 11
-750.00000013153533
 21
-489.99999752702308
 31
0.0
  0
LINE
  5
163
  8
SERVICESPACE
  6
DASHDOT
 62
     2
 10
-750.00000013153533
 20
-489.99999752702308
 30
0.0
 11
700.00000013154113
 21
-489.99999752702308
 31
0.0
  0
LINE
  5
164
  8
SERVICESPACE
  6
DASHDOT
 62
     2
 10
700.00000013154113
 20
-489.99999752702308
 30
0.0
 11
700.00000013154113
 21
-469.99999752702308
 31
0.0
  0
LINE
  5
165
  8
SERVICESPACE
  6
DASHDOT
 62
     2
 10
700.00000013154113
 20
-469.99999752702308
 30
0.0
 11
-750.00000013153533
 21
-469.99999752702308
 31
0.0
  0
LINE
  5
166
  8
SERVICESPACE
  6
DASHDOT
 62
     2
 10
-550.00000013153556
 20
-469.9999975270261
 30
0.0
 11
-550.00000013153556
 21
-489.99999752702308
 31
0.0
  0
LINE
  5
167
  8
SERVICESPACE
  6
DASHDOT
 62
     2
 10
549.99999986846467
 20
-469.9999975270261
 30
0.0
 11
549.99999986846467
 21
-489.99999752702308
 31
0.0
  0
LINE
  5
168
  8
SERVICESPACE
  6
DASHDOT
 62
     2
 10
-750.00000013153533
 20
19.999999999996849
 30
0.0
 11
-750.00000013153533
 21
-0.0000000000031335
 31
0.0
  0
LINE
  5
169
  8
SERVICESPACE
  6
DASHDOT
 62
     2
 10
-750.00000013153533
 20
-0.0000000000031335
 30
0.0
 11
700.00000013154113
 21
-0.0000000000031335
 31
0.0
  0
LINE
  5
16A
  8
SERVICESPACE
  6
DASHDOT
 62
     2
 10
700.00000013154113
 20
-0.0000000000031335
 30
0.0
 11
700.00000013154113
 21
19.999999999996849
 31
0.0
  0
LINE
  5
16B
  8
SERVICESPACE
  6
DASHDOT
 62
     2
 10
700.00000013154113
 20
19.999999999996849
 30
0.0
 11
-750.00000013153533
 21
19.999999999996849
 31
0.0
  0
LINE
  5
16C
  8
SERVICESPACE
  6
DASHDOT
 62
     2
 10
-550.00000013153556
 20
-469.99999752702308
 30
0.0
 11
549.99999986846467
 21
-489.99999752702308
 31
0.0
  0
LINE
  5
16D
  8
SERVICESPACE
  6
DASHDOT
 62
     2
 10
549.99999986846467
 20
-469.9999975270261
 30
0.0
 11
-550.00000013153556
 21
-489.99999752702308
 31
0.0
  0
LINE
  5
16E
  8
SIZE
  6
CONTINUOUS
 62
    30
 10
741.4499923892821
 20
-384.99999797426631
 30
0.0
 11
966.80986838216461
 21
-384.99999797426642
 31
0.0
  0
LINE
  5
16F
  8
SIZE
  6
CONTINUOUS
 62
    30
 10
744.9999923706082
 20
-434.9999977111836
 30
0.0
 11
966.80986838216461
 21
-434.99999771118371
 31
0.0
  0
LINE
  5
170
  8
SIZE
  6
CONTINUOUS
 62
    30
 10
946.80986838216472
 20
-384.99999797426642
 30
0.0
 11
946.80986838216472
 21
-434.99999771118371
 31
0.0
  0
LINE
  5
171
  8
SIZE
  6
CONTINUOUS
 62
    30
 10
946.80986838216472
 20
-434.99999771118371
 30
0.0
 11
946.80986838216472
 21
-585.37063117464481
 31
0.0
  0
CIRCLE
  5
172
  8
SIZE
  6
CONTINUOUS
 62
    30
 10
946.80986838216472
 20
-384.99999797426642
 30
0.0
 40
6.25
  0
CIRCLE
  5
173
  8
SIZE
  6
CONTINUOUS
 62
    30
 10
946.80986838216472
 20
-434.99999771118371
 30
0.0
 40
6.25
  0
TEXT
  5
174
  8
SIZE
  6
CONTINUOUS
 62
    30
 10
931.80986838216472
 20
-570.37063117464459
 30
0.0
 40
50.0
  1
50
 50
90.0
 41
0.9
 72
     1
 11
931.80986838216472
 21
-533.94205974607326
 31
0.0
  0
POINT
  5
175
  8
DEFPOINTS
  6
CONTINUOUS
 62
     7
 10
721.44999238928222
 20
-384.99999797426631
 30
0.0
  0
POINT
  5
176
  8
DEFPOINTS
  6
CONTINUOUS
 62
     7
 10
724.9999923706082
 20
-434.9999977111836
 30
0.0
  0
POINT
  5
177
  8
DEFPOINTS
  6
CONTINUOUS
 62
     7
 10
946.80986838216472
 20
-434.99999771118371
 30
0.0
  0
LINE
  5
178
  8
SIZE
  6
CONTINUOUS
 62
    30
 10
741.4499923892821
 20
-384.99999797426631
 30
0.0
 11
966.80986838216802
 21
-384.99999797426642
 31
0.0
  0
LINE
  5
179
  8
SIZE
  6
CONTINUOUS
 62
    30
 10
741.4499923892821
 20
-84.999999552762304
 30
0.0
 11
966.80986838216802
 21
-84.999999552762347
 31
0.0
  0
LINE
  5
17A
  8
SIZE
  6
CONTINUOUS
 62
    30
 10
946.80986838216791
 20
-384.99999797426642
 30
0.0
 11
946.80986838216791
 21
-84.999999552762347
 31
0.0
  0
CIRCLE
  5
17B
  8
SIZE
  6
CONTINUOUS
 62
    30
 10
946.80986838216791
 20
-384.99999797426642
 30
0.0
 40
6.25
  0
CIRCLE
  5
17C
  8
SIZE
  6
CONTINUOUS
 62
    30
 10
946.80986838216791
 20
-84.999999552762347
 30
0.0
 40
6.25
  0
TEXT
  5
17D
  8
SIZE
  6
CONTINUOUS
 62
    30
 10
931.80986838216813
 20
-292.85714162065682
 30
0.0
 40
50.0
  1
300
 50
90.0
 41
0.9
 72
     1
 11
931.80986838216813
 21
-234.99999876351399
 31
0.0
  0
POINT
  5
17E
  8
DEFPOINTS
  6
CONTINUOUS
 62
     7
 10
721.44999238928222
 20
-384.99999797426631
 30
0.0
  0
POINT
  5
17F
  8
DEFPOINTS
  6
CONTINUOUS
 62
     7
 10
721.44999238928222
 20
-84.999999552762276
 30
0.0
  0
POINT
  5
180
  8
DEFPOINTS
  6
CONTINUOUS
 62
     7
 10
946.80986838216791
 20
-84.999999552762347
 30
0.0
  0
LINE
  5
181
  8
SIZE
  6
CONTINUOUS
 62
    30
 10
720.00000013154113
 20
-469.99999752702308
 30
0.0
 11
1280.694589330664
 21
-469.99999752702348
 31
0.0
  0
LINE
  5
182
  8
SIZE
  6
CONTINUOUS
 62
    30
 10
720.00000013154113
 20
-0.000000000003125
 30
0.0
 11
1280.694589330664
 21
-0.0000000000032838
 31
0.0
  0
LINE
  5
183
  8
SIZE
  6
CONTINUOUS
 62
    30
 10
1260.6945893306649
 20
-469.99999752702348
 30
0.0
 11
1260.6945893306649
 21
-0.0000000000032781
 31
0.0
  0
CIRCLE
  5
184
  8
SIZE
  6
CONTINUOUS
 62
    30
 10
1260.6945893306649
 20
-469.99999752702348
 30
0.0
 40
6.25
  0
CIRCLE
  5
185
  8
SIZE
  6
CONTINUOUS
 62
    30
 10
1260.6945893306649
 20
-0.0000000000032781
 30
0.0
 40
6.25
  0
TEXT
  5
186
  8
SIZE
  6
CONTINUOUS
 62
    30
 10
1245.6945893306649
 20
-292.85714162065602
 30
0.0
 40
50.0
  1
470
 50
90.0
 41
0.9
 72
     1
 11
1245.6945893306649
 21
-234.9999987635131
 31
0.0
  0
POINT
  5
187
  8
DEFPOINTS
  6
CONTINUOUS
 62
     7
 10
700.00000013154113
 20
-469.99999752702308
 30
0.0
  0
POINT
  5
188
  8
DEFPOINTS
  6
CONTINUOUS
 62
     7
 10
700.00000013154113
 20
-0.0000000000031193
 30
0.0
  0
POINT
  5
189
  8
DEFPOINTS
  6
CONTINUOUS
 62
     7
 10
1260.6945893306649
 20
-0.0000000000032781
 30
0.0
  0
LINE
  5
18A
  8
DETAIL
  6
CONTINUOUS
 62
     5
 10
700.00000013154113
 20
-34.999997711183781
 30
0.0
 11
724.9999923706082
 21
-34.999997711183781
 31
0.0
  0
LINE
  5
18B
  8
SIZE
  6
CONTINUOUS
 62
    30
 10
744.9999923706082
 20
-434.9999977111836
 30
0.0
 11
1096.8170838259421
 21
-434.99999771118371
 31
0.0
  0
LINE
  5
18C
  8
SIZE
  6
CONTINUOUS
 62
    30
 10
720.00000013154113
 20
-469.99999752702308
 30
0.0
 11
1096.8170838259421
 21
-469.99999752702308
 31
0.0
  0
LINE
  5
18D
  8
SIZE
  6
CONTINUOUS
 62
    30
 10
1076.8170838259421
 20
-434.99999771118371
 30
0.0
 11
1076.8170838259421
 21
-469.99999752702308
 31
0.0
  0
LINE
  5
18E
  8
SIZE
  6
CONTINUOUS
 62
    30
 10
1076.8170838259421
 20
-469.99999752702308
 30
0.0
 11
1076.8170838259421
 21
-597.85714038416609
 31
0.0
  0
CIRCLE
  5
18F
  8
SIZE
  6
CONTINUOUS
 62
    30
 10
1076.8170838259421
 20
-434.99999771118371
 30
0.0
 40
6.25
  0
CIRCLE
  5
190
  8
SIZE
  6
CONTINUOUS
 62
    30
 10
1076.8170838259421
 20
-469.99999752702308
 30
0.0
 40
6.25
  0
TEXT
  5
191
  8
SIZE
  6
CONTINUOUS
 62
    30
 10
1061.8170838259421
 20
-582.85714038416586
 30
0.0
 40
50.0
  1
35
 50
90.0
 41
0.9
 72
     1
 11
1061.8170838259421
 21
-546.42856895559453
 31
0.0
  0
POINT
  5
192
  8
DEFPOINTS
  6
CONTINUOUS
 62
     7
 10
724.9999923706082
 20
-434.9999977111836
 30
0.0
  0
POINT
  5
193
  8
DEFPOINTS
  6
CONTINUOUS
 62
     7
 10
700.00000013154113
 20
-469.99999752702308
 30
0.0
  0
POINT
  5
194
  8
DEFPOINTS
  6
CONTINUOUS
 62
     7
 10
1076.8170838259421
 20
-469.99999752702308
 30
0.0
  0
LINE
  5
195
  8
SIZE
  6
CONTINUOUS
 62
    30
 10
744.9999923706082
 20
-434.9999977111836
 30
0.0
 11
1096.8170838259421
 21
-434.99999771118371
 31
0.0
  0
LINE
  5
196
  8
SIZE
  6
CONTINUOUS
 62
    30
 10
744.9999923706082
 20
-34.999997711183759
 30
0.0
 11
1096.8170838259421
 21
-34.999997711183852
 31
0.0
  0
LINE
  5
197
  8
SIZE
  6
CONTINUOUS
 62
    30
 10
1076.8170838259421
 20
-434.99999771118371
 30
0.0
 11
1076.8170838259421
 21
-34.999997711183852
 31
0.0
  0
CIRCLE
  5
198
  8
SIZE
  6
CONTINUOUS
 62
    30
 10
1076.8170838259421
 20
-434.99999771118371
 30
0.0
 40
6.25
  0
CIRCLE
  5
199
  8
SIZE
  6
CONTINUOUS
 62
    30
 10
1076.8170838259421
 20
-34.999997711183852
 30
0.0
 40
6.25
  0
TEXT
  5
19A
  8
SIZE
  6
CONTINUOUS
 62
    30
 10
1061.8170838259421
 20
-292.85714056832637
 30
0.0
 40
50.0
  1
400
 50
90.0
 41
0.9
 72
     1
 11
1061.8170838259421
 21
-234.99999771118351
 31
0.0
  0
POINT
  5
19B
  8
DEFPOINTS
  6
CONTINUOUS
 62
     7
 10
724.9999923706082
 20
-434.9999977111836
 30
0.0
  0
POINT
  5
19C
  8
DEFPOINTS
  6
CONTINUOUS
 62
     7
 10
724.9999923706082
 20
-34.999997711183759
 30
0.0
  0
POINT
  5
19D
  8
DEFPOINTS
  6
CONTINUOUS
 62
     7
 10
1076.8170838259421
 20
-34.999997711183852
 30
0.0
  0
TEXT
  5
19E
  8
SIZE
  6
CONTINUOUS
 62
    30
 10
1141.756837666893
 20
-361.79559349124571
 30
0.0
 40
50.0
  1
(ダクト寸法)
 50
90.000002504416585
 41
0.7031250221965211
  7
STANDARD1
  0
TEXT
  5
19F
  8
SIZE
  6
CONTINUOUS
 62
    30
 10
869.54689996615616
 20
-335.26659781980118
 30
0.0
 40
50.0
  1
100\U+00D73=
 50
90.000002504416585
 41
0.7031250221965211
  7
STANDARD1
  0
LINE
  5
1A0
  8
SIZE
  6
CONTINUOUS
 62
    30
 10
-741.70000001735855
 20
-304.99999839519882
 30
0.0
 11
-845.87187151323167
 21
-304.99999839519882
 31
0.0
  0
LINE
  5
1A1
  8
SIZE
  6
CONTINUOUS
 62
    30
 10
-744.99999999999545
 20
-354.99999813211599
 30
0.0
 11
-845.87187151323167
 21
-354.99999813211599
 31
0.0
  0
LINE
  5
1A2
  8
SIZE
  6
CONTINUOUS
 62
    30
 10
-825.87187151323189
 20
-304.99999839519882
 30
0.0
 11
-825.87187151323189
 21
-354.99999813211599
 31
0.0
  0
LINE
  5
1A3
  8
SIZE
  6
CONTINUOUS
 62
    30
 10
-825.87187151323189
 20
-354.99999813211599
 30
0.0
 11
-825.87187151323189
 21
-463.3664201840545
 31
0.0
  0
CIRCLE
  5
1A4
  8
SIZE
  6
CONTINUOUS
 62
    30
 10
-825.87187151323189
 20
-304.99999839519882
 30
0.0
 40
6.25
  0
CIRCLE
  5
1A5
  8
SIZE
  6
CONTINUOUS
 62
    30
 10
-825.87187151323189
 20
-354.99999813211599
 30
0.0
 40
6.25
  0
TEXT
  5
1A6
  8
SIZE
  6
CONTINUOUS
 62
    30
 10
-840.87187151323155
 20
-447.79308910157721
 30
0.0
 40
50.0
  1
50
 50
90.0
 41
0.9
 72
     1
 11
-840.87187151323155
 21
-411.36451767300582
 31
0.0
  0
POINT
  5
1A7
  8
DEFPOINTS
  6
CONTINUOUS
 62
     7
 10
-721.70000001735855
 20
-304.99999839519882
 30
0.0
  0
POINT
  5
1A8
  8
DEFPOINTS
  6
CONTINUOUS
 62
     7
 10
-724.99999999999545
 20
-354.99999813211599
 30
0.0
  0
POINT
  5
1A9
  8
DEFPOINTS
  6
CONTINUOUS
 62
     7
 10
-825.87187151323189
 20
-354.99999813211599
 30
0.0
  0
LINE
  5
1AA
  8
SIZE
  6
CONTINUOUS
 62
    30
 10
-741.70000001735855
 20
-304.99999839519882
 30
0.0
 11
-845.87187151323519
 21
-304.99999839519882
 31
0.0
  0
LINE
  5
1AB
  8
SIZE
  6
CONTINUOUS
 62
    30
 10
-741.70000001735855
 20
-104.99999944752921
 30
0.0
 11
-845.87187151323519
 21
-104.99999944752911
 31
0.0
  0
LINE
  5
1AC
  8
SIZE
  6
CONTINUOUS
 62
    30
 10
-825.87187151323553
 20
-304.99999839519882
 30
0.0
 11
-825.87187151323553
 21
-104.99999944752911
 31
0.0
  0
CIRCLE
  5
1AD
  8
SIZE
  6
CONTINUOUS
 62
    30
 10
-825.87187151323553
 20
-304.99999839519882
 30
0.0
 40
6.25
  0
CIRCLE
  5
1AE
  8
SIZE
  6
CONTINUOUS
 62
    30
 10
-825.87187151323553
 20
-104.99999944752911
 30
0.0
 40
6.25
  0
TEXT
  5
1AF
  8
SIZE
  6
CONTINUOUS
 62
    30
 10
-840.87187151323531
 20
-262.85714177850701
 30
0.0
 40
50.0
  1
200
 50
90.0
 41
0.9
 72
     1
 11
-840.87187151323531
 21
-204.9999989213641
 31
0.0
  0
POINT
  5
1B0
  8
DEFPOINTS
  6
CONTINUOUS
 62
     7
 10
-721.70000001735855
 20
-304.99999839519882
 30
0.0
  0
POINT
  5
1B1
  8
DEFPOINTS
  6
CONTINUOUS
 62
     7
 10
-721.70000001735855
 20
-104.99999944752921
 30
0.0
  0
POINT
  5
1B2
  8
DEFPOINTS
  6
CONTINUOUS
 62
     7
 10
-825.87187151323553
 20
-104.99999944752911
 30
0.0
  0
TEXT
  5
1B3
  8
SIZE
  6
CONTINUOUS
 62
    30
 10
-903.34818256627545
 20
-313.20739746452762
 30
0.0
 40
50.0
  1
100\U+00D72=
 50
90.000002504416585
 41
0.7031250221965211
  7
STANDARD1
  0
LINE
  5
1B4
  8
SIZE
  6
CONTINUOUS
 62
    30
 10
-744.99999999999545
 20
-354.99999813211599
 30
0.0
 11
-1222.857639771599
 21
-354.99999813211588
 31
0.0
  0
LINE
  5
1B5
  8
SIZE
  6
CONTINUOUS
 62
    30
 10
-720.00000013153556
 20
-469.9999975270261
 30
0.0
 11
-1222.857639771599
 21
-469.99999752702593
 31
0.0
  0
LINE
  5
1B6
  8
SIZE
  6
CONTINUOUS
 62
    30
 10
-1202.857639771599
 20
-354.99999813211588
 30
0.0
 11
-1202.857639771599
 21
-469.99999752702593
 31
0.0
  0
LINE
  5
1B7
  8
SIZE
  6
CONTINUOUS
 62
    30
 10
-1202.857639771599
 20
-469.99999752702593
 30
0.0
 11
-1202.857639771599
 21
-597.08560069680607
 31
0.0
  0
CIRCLE
  5
1B8
  8
SIZE
  6
CONTINUOUS
 62
    30
 10
-1202.857639771599
 20
-354.99999813211588
 30
0.0
 40
6.25
  0
CIRCLE
  5
1B9
  8
SIZE
  6
CONTINUOUS
 62
    30
 10
-1202.857639771599
 20
-469.99999752702593
 30
0.0
 40
6.25
  0
TEXT
  5
1BA
  8
SIZE
  6
CONTINUOUS
 62
    30
 10
-1217.857639771599
 20
-583.96903932543557
 30
0.0
 40
50.0
  1
115
 50
90.0
 41
0.9
 72
     1
 11
-1217.857639771599
 21
-534.68332503972124
 31
0.0
  0
POINT
  5
1BB
  8
DEFPOINTS
  6
CONTINUOUS
 62
     7
 10
-724.99999999999545
 20
-354.99999813211599
 30
0.0
  0
POINT
  5
1BC
  8
DEFPOINTS
  6
CONTINUOUS
 62
     7
 10
-700.00000013153556
 20
-469.9999975270261
 30
0.0
  0
POINT
  5
1BD
  8
DEFPOINTS
  6
CONTINUOUS
 62
     7
 10
-1202.857639771599
 20
-469.99999752702593
 30
0.0
  0
LINE
  5
1BE
  8
SIZE
  6
CONTINUOUS
 62
    30
 10
-744.99999999999545
 20
-354.99999813211599
 30
0.0
 11
-1222.857639771599
 21
-354.99999813211588
 31
0.0
  0
LINE
  5
1BF
  8
SIZE
  6
CONTINUOUS
 62
    30
 10
-744.99999999999545
 20
-54.999999710611888
 30
0.0
 11
-1222.857639771599
 21
-54.999999710611753
 31
0.0
  0
LINE
  5
1C0
  8
SIZE
  6
CONTINUOUS
 62
    30
 10
-1202.857639771599
 20
-354.99999813211588
 30
0.0
 11
-1202.857639771599
 21
-54.999999710611753
 31
0.0
  0
CIRCLE
  5
1C1
  8
SIZE
  6
CONTINUOUS
 62
    30
 10
-1202.857639771599
 20
-354.99999813211588
 30
0.0
 40
6.25
  0
CIRCLE
  5
1C2
  8
SIZE
  6
CONTINUOUS
 62
    30
 10
-1202.857639771599
 20
-54.999999710611753
 30
0.0
 40
6.25
  0
TEXT
  5
1C3
  8
SIZE
  6
CONTINUOUS
 62
    30
 10
-1217.857639771599
 20
-262.85714177850679
 30
0.0
 40
50.0
  1
300
 50
90.0
 41
0.9
 72
     1
 11
-1217.857639771599
 21
-204.99999892136401
 31
0.0
  0
POINT
  5
1C4
  8
DEFPOINTS
  6
CONTINUOUS
 62
     7
 10
-724.99999999999545
 20
-354.99999813211599
 30
0.0
  0
POINT
  5
1C5
  8
DEFPOINTS
  6
CONTINUOUS
 62
     7
 10
-724.99999999999545
 20
-54.999999710611888
 30
0.0
  0
POINT
  5
1C6
  8
DEFPOINTS
  6
CONTINUOUS
 62
     7
 10
-1202.857639771599
 20
-54.999999710611753
 30
0.0
  0
TEXT
  5
1C7
  8
SIZE
  6
CONTINUOUS
 62
    30
 10
-1140.370963866266
 20
-338.0428677817647
 30
0.0
 40
50.0
  1
(ダクト寸法)
 50
90.000002504416585
 41
0.7031250221965211
  7
STANDARD1
  0
TEXT
  5
1C8
  8
NOTE
  6
CONTINUOUS
 62
     4
 10
53.210358809224552
 20
30.214736652371851
 30
0.0
 40
50.0
  1
サービススペース
 50
0.0000025044165917
 41
0.7031250221965211
  7
STANDARD1
  0
TEXT
  5
1C9
  8
NOTE
  6
CONTINUOUS
 62
     4
 10
-233.17547547718681
 20
-544.38633712994044
 30
0.0
 40
50.0
  1
点検口
 50
0.0000025044165917
 41
0.7031250221965211
  7
STANDARD1
  0
LINE
  5
1CA
  8
SIZE
  6
CONTINUOUS
 62
    30
 10
-700.00000013153556
 20
-489.9999975270261
 30
0.0
 11
-700.00000013153556
 21
-709.9746851937465
 31
0.0
  0
LINE
  5
1CB
  8
SIZE
  6
CONTINUOUS
 62
    30
 10
-350.00000197311419
 20
-483.99999755859233
 30
0.0
 11
-350.00000197311419
 21
-709.9746851937465
 31
0.0
  0
LINE
  5
1CC
  8
SIZE
  6
CONTINUOUS
 62
    30
 10
-700.00000013153556
 20
-689.97468519374638
 30
0.0
 11
-350.00000197311419
 21
-689.97468519374638
 31
0.0
  0
CIRCLE
  5
1CD
  8
SIZE
  6
CONTINUOUS
 62
    30
 10
-700.00000013153556
 20
-689.97468519374638
 30
0.0
 40
6.25
  0
CIRCLE
  5
1CE
  8
SIZE
  6
CONTINUOUS
 62
    30
 10
-350.00000197311419
 20
-689.97468519374638
 30
0.0
 40
6.25
  0
TEXT
  5
1CF
  8
SIZE
  6
CONTINUOUS
 62
    30
 10
-544.20471685355244
 20
-674.9746851937465
 30
0.0
 40
50.0
  1
350
 41
0.9
 72
     1
 11
-486.34757399640961
 21
-674.9746851937465
 31
0.0
  0
POINT
  5
1D0
  8
DEFPOINTS
  6
CONTINUOUS
 62
     7
 10
-700.00000013153556
 20
-469.9999975270261
 30
0.0
  0
POINT
  5
1D1
  8
DEFPOINTS
  6
CONTINUOUS
 62
     7
 10
-350.00000197311419
 20
-463.99999755859233
 30
0.0
  0
POINT
  5
1D2
  8
DEFPOINTS
  6
CONTINUOUS
 62
     7
 10
-350.00000197311419
 20
-689.97468519374638
 30
0.0
  0
LINE
  5
1D3
  8
SIZE
  6
CONTINUOUS
 62
    30
 10
-700.00000013153556
 20
-489.9999975270261
 30
0.0
 11
-700.00000013153556
 21
-807.00437418158015
 31
0.0
  0
LINE
  5
1D4
  8
SIZE
  6
CONTINUOUS
 62
    30
 10
-96.000003309579824
 20
-365.99999817946571
 30
0.0
 11
-96.000003309579853
 21
-807.00437418158015
 31
0.0
  0
LINE
  5
1D5
  8
SIZE
  6
CONTINUOUS
 62
    30
 10
-700.00000013153556
 20
-787.00437418158015
 30
0.0
 11
-96.000003309579853
 21
-787.00437418158015
 31
0.0
  0
CIRCLE
  5
1D6
  8
SIZE
  6
CONTINUOUS
 62
    30
 10
-700.00000013153556
 20
-787.00437418158015
 30
0.0
 40
6.25
  0
CIRCLE
  5
1D7
  8
SIZE
  6
CONTINUOUS
 62
    30
 10
-96.000003309579853
 20
-787.00437418158015
 30
0.0
 40
6.25
  0
TEXT
  5
1D8
  8
SIZE
  6
CONTINUOUS
 62
    30
 10
-456.92857314912902
 20
-772.00437418158015
 30
0.0
 40
50.0
  1
604
 41
0.9
 72
     1
 11
-398.00000172055769
 21
-772.00437418158015
 31
0.0
  0
POINT
  5
1D9
  8
DEFPOINTS
  6
CONTINUOUS
 62
     7
 10
-700.00000013153556
 20
-469.9999975270261
 30
0.0
  0
POINT
  5
1DA
  8
DEFPOINTS
  6
CONTINUOUS
 62
     7
 10
-96.000003309579824
 20
-345.99999817946559
 30
0.0
  0
POINT
  5
1DB
  8
DEFPOINTS
  6
CONTINUOUS
 62
     7
 10
-96.000003309579853
 20
-787.00437418158015
 30
0.0
  0
LINE
  5
1DC
  8
SIZE
  6
CONTINUOUS
 62
    30
 10
-96.000003309579824
 20
-365.99999817946571
 30
0.0
 11
-96.000003309579853
 21
-807.00437418158015
 31
0.0
  0
LINE
  5
1DD
  8
SIZE
  6
CONTINUOUS
 62
    30
 10
-0.0000038146945384
 20
-317.99999843203187
 30
0.0
 11
-0.0000038146945683
 21
-807.00437418158015
 31
0.0
  0
LINE
  5
1DE
  8
SIZE
  6
CONTINUOUS
 62
    30
 10
-96.000003309579853
 20
-787.00437418158015
 30
0.0
 11
-0.0000038146945671
 21
-787.00437418158015
 31
0.0
  0
LINE
  5
1DF
  8
SIZE
  6
CONTINUOUS
 62
    30
 10
-0.0000038146945671
 20
-787.00437418158015
 30
0.0
 11
125.7142818995911
 21
-787.00437418158015
 31
0.0
  0
CIRCLE
  5
1E0
  8
SIZE
  6
CONTINUOUS
 62
    30
 10
-96.000003309579853
 20
-787.00437418158015
 30
0.0
 40
6.25
  0
CIRCLE
  5
1E1
  8
SIZE
  6
CONTINUOUS
 62
    30
 10
-0.0000038146945671
 20
-787.00437418158015
 30
0.0
 40
6.25
  0
TEXT
  5
1E2
  8
SIZE
  6
CONTINUOUS
 62
    30
 10
27.499996185305388
 20
-772.00437418158015
 30
0.0
 40
50.0
  1
96
 41
0.9
 72
     1
 11
62.85713904244826
 21
-772.00437418158015
 31
0.0
  0
POINT
  5
1E3
  8
DEFPOINTS
  6
CONTINUOUS
 62
     7
 10
-96.000003309579824
 20
-345.99999817946559
 30
0.0
  0
POINT
  5
1E4
  8
DEFPOINTS
  6
CONTINUOUS
 62
     7
 10
-0.0000038146945371
 20
-297.99999843203187
 30
0.0
  0
POINT
  5
1E5
  8
DEFPOINTS
  6
CONTINUOUS
 62
     7
 10
-0.0000038146945671
 20
-787.00437418158015
 30
0.0
  0
LINE
  5
1E6
  8
SIZE
  6
CONTINUOUS
 62
    30
 10
714.99999242322417
 20
-58.549999586695719
 30
0.0
 11
714.99999242322417
 21
75.897312514955559
 31
0.0
  0
LINE
  5
1E7
  8
SIZE
  6
CONTINUOUS
 62
    30
 10
724.9999923706082
 20
-14.999997711183759
 30
0.0
 11
724.9999923706082
 21
75.897312514955559
 31
0.0
  0
LINE
  5
1E8
  8
SIZE
  6
CONTINUOUS
 62
    30
 10
714.99999242322417
 20
55.897312514955573
 30
0.0
 11
689.99999242322417
 21
55.897312514955573
 31
0.0
  0
LINE
  5
1E9
  8
SIZE
  6
CONTINUOUS
 62
    30
 10
724.9999923706082
 20
55.897312514955573
 30
0.0
 11
849.04536358627945
 21
55.897312514955573
 31
0.0
  0
LINE
  5
1EA
  8
SIZE
  6
CONTINUOUS
 62
    30
 10
714.99999242322417
 20
55.897312514955573
 30
0.0
 11
724.9999923706082
 21
55.897312514955573
 31
0.0
  0
CIRCLE
  5
1EB
  8
SIZE
  6
CONTINUOUS
 62
    30
 10
714.99999242322417
 20
55.897312514955573
 30
0.0
 40
6.25
  0
CIRCLE
  5
1EC
  8
SIZE
  6
CONTINUOUS
 62
    30
 10
724.9999923706082
 20
55.897312514955573
 30
0.0
 40
6.25
  0
TEXT
  5
1ED
  8
SIZE
  6
CONTINUOUS
 62
    30
 10
754.87982083558677
 20
70.897312514955544
 30
0.0
 40
50.0
  1
10
 41
0.9
 72
     1
 11
787.02267797844388
 21
70.897312514955544
 31
0.0
  0
POINT
  5
1EE
  8
DEFPOINTS
  6
CONTINUOUS
 62
     7
 10
714.99999242322417
 20
-78.549999586695733
 30
0.0
  0
POINT
  5
1EF
  8
DEFPOINTS
  6
CONTINUOUS
 62
     7
 10
724.9999923706082
 20
-34.999997711183759
 30
0.0
  0
POINT
  5
1F0
  8
DEFPOINTS
  6
CONTINUOUS
 62
     7
 10
724.9999923706082
 20
55.897312514955573
 30
0.0
  0
LINE
  5
1F1
  8
SIZE
  6
CONTINUOUS
 62
    30
 10
-715.00000005261188
 20
-78.299999482781857
 30
0.0
 11
-715.00000005261188
 21
75.897312514955559
 31
0.0
  0
LINE
  5
1F2
  8
SIZE
  6
CONTINUOUS
 62
    30
 10
-724.99999999999545
 20
-34.999999710611888
 30
0.0
 11
-724.99999999999545
 21
75.897312514955559
 31
0.0
  0
LINE
  5
1F3
  8
SIZE
  6
CONTINUOUS
 62
    30
 10
-715.00000005261188
 20
55.897312514955573
 30
0.0
 11
-690.00000005261188
 21
55.897312514955573
 31
0.0
  0
LINE
  5
1F4
  8
SIZE
  6
CONTINUOUS
 62
    30
 10
-724.99999999999545
 20
55.897312514955573
 30
0.0
 11
-845.83493418770354
 21
55.897312514955573
 31
0.0
  0
LINE
  5
1F5
  8
SIZE
  6
CONTINUOUS
 62
    30
 10
-715.00000005261188
 20
55.897312514955573
 30
0.0
 11
-724.99999999999545
 21
55.897312514955573
 31
0.0
  0
CIRCLE
  5
1F6
  8
SIZE
  6
CONTINUOUS
 62
    30
 10
-715.00000005261188
 20
55.897312514955573
 30
0.0
 40
6.25
  0
CIRCLE
  5
1F7
  8
SIZE
  6
CONTINUOUS
 62
    30
 10
-724.99999999999545
 20
55.897312514955573
 30
0.0
 40
6.25
  0
TEXT
  5
1F8
  8
SIZE
  6
CONTINUOUS
 62
    30
 10
-817.56032423670672
 20
70.897312514955544
 30
0.0
 40
50.0
  1
10
 41
0.9
 72
     1
 11
-785.41746709384961
 21
70.897312514955544
 31
0.0
  0
POINT
  5
1F9
  8
DEFPOINTS
  6
CONTINUOUS
 62
     7
 10
-715.00000005261188
 20
-98.299999482781857
 30
0.0
  0
POINT
  5
1FA
  8
DEFPOINTS
  6
CONTINUOUS
 62
     7
 10
-724.99999999999545
 20
-54.999999710611888
 30
0.0
  0
POINT
  5
1FB
  8
DEFPOINTS
  6
CONTINUOUS
 62
     7
 10
-724.99999999999545
 20
55.897312514955573
 30
0.0
  0
LINE
  5
1FC
  8
SIZE
  6
CONTINUOUS
 62
    30
 10
-212.00000269922009
 20
-152.49999909236769
 30
0.0
 11
-212.00000269922009
 21
180.8873830633878
 31
0.0
  0
LINE
  5
1FD
  8
SIZE
  6
CONTINUOUS
 62
    30
 10
-700.00000013153556
 20
19.999999999997328
 30
0.0
 11
-700.00000013153556
 21
180.8873830633878
 31
0.0
  0
LINE
  5
1FE
  8
SIZE
  6
CONTINUOUS
 62
    30
 10
-212.00000269922009
 20
160.8873830633878
 30
0.0
 11
-700.00000013153556
 21
160.8873830633878
 31
0.0
  0
CIRCLE
  5
1FF
  8
SIZE
  6
CONTINUOUS
 62
    30
 10
-212.00000269922009
 20
160.8873830633878
 30
0.0
 40
6.25
  0
CIRCLE
  5
200
  8
SIZE
  6
CONTINUOUS
 62
    30
 10
-700.00000013153556
 20
160.8873830633878
 30
0.0
 40
6.25
  0
TEXT
  5
201
  8
SIZE
  6
CONTINUOUS
 62
    30
 10
-513.85714427252037
 20
175.8873830633878
 30
0.0
 40
50.0
  1
488
 41
0.9
 72
     1
 11
-456.0000014153776
 21
175.8873830633878
 31
0.0
  0
POINT
  5
202
  8
DEFPOINTS
  6
CONTINUOUS
 62
     7
 10
-212.00000269922009
 20
-172.49999909236769
 30
0.0
  0
POINT
  5
203
  8
DEFPOINTS
  6
CONTINUOUS
 62
     7
 10
-700.00000013153556
 20
-0.0000000000026645
 30
0.0
  0
POINT
  5
204
  8
DEFPOINTS
  6
CONTINUOUS
 62
     7
 10
-700.00000013153556
 20
160.8873830633878
 30
0.0
  0
LINE
  5
205
  8
SIZE
  6
CONTINUOUS
 62
    30
 10
-700.00000013153556
 20
19.999999999996881
 30
0.0
 11
-700.00000013153556
 21
270.676657522467
 31
0.0
  0
LINE
  5
206
  8
SIZE
  6
CONTINUOUS
 62
    30
 10
-176.00000288864641
 20
-33.749999717188921
 30
0.0
 11
-176.00000288864641
 21
270.676657522467
 31
0.0
  0
LINE
  5
207
  8
SIZE
  6
CONTINUOUS
 62
    30
 10
-700.00000013153556
 20
250.676657522467
 30
0.0
 11
-176.00000288864641
 21
250.676657522467
 31
0.0
  0
CIRCLE
  5
208
  8
SIZE
  6
CONTINUOUS
 62
    30
 10
-700.00000013153556
 20
250.676657522467
 30
0.0
 40
6.25
  0
CIRCLE
  5
209
  8
SIZE
  6
CONTINUOUS
 62
    30
 10
-176.00000288864641
 20
250.676657522467
 30
0.0
 40
6.25
  0
TEXT
  5
20A
  8
SIZE
  6
CONTINUOUS
 62
    30
 10
-496.92857293866251
 20
265.676657522467
 30
0.0
 40
50.0
  1
524
 41
0.9
 72
     1
 11
-438.00000151009101
 21
265.676657522467
 31
0.0
  0
POINT
  5
20B
  8
DEFPOINTS
  6
CONTINUOUS
 62
     7
 10
-700.00000013153556
 20
-0.0000000000031193
 30
0.0
  0
POINT
  5
20C
  8
DEFPOINTS
  6
CONTINUOUS
 62
     7
 10
-176.00000288864641
 20
-53.749999717188921
 30
0.0
  0
POINT
  5
20D
  8
DEFPOINTS
  6
CONTINUOUS
 62
     7
 10
-176.00000288864641
 20
250.676657522467
 30
0.0
  0
LINE
  5
20E
  8
NOTE
  6
CONTINUOUS
 62
     4
 10
-649.00000039988765
 20
-19.99999989476958
 30
0.0
 11
-689.00000018941955
 21
-19.99999989476958
 31
0.0
  0
LINE
  5
20F
  8
NOTE
  6
CONTINUOUS
 62
     4
 10
-669.00000029465355
 20
-0.0000000000026787
 30
0.0
 11
-669.00000029465355
 21
-39.999999789536488
 31
0.0
  0
LINE
  5
210
  8
NOTE
  6
CONTINUOUS
 62
     4
 10
688.9999925600232
 20
-19.99999989476958
 30
0.0
 11
648.99999277049164
 21
-19.99999989476958
 31
0.0
  0
LINE
  5
211
  8
NOTE
  6
CONTINUOUS
 62
     4
 10
668.99999266525697
 20
-0.0000000000026787
 30
0.0
 11
668.99999266525697
 21
-39.999999789536488
 31
0.0
  0
LINE
  5
212
  8
SIZE
  6
CONTINUOUS
 62
    30
 10
-669.00000029465355
 20
19.999999999997328
 30
0.0
 11
-669.00000029465355
 21
356.83774260933791
 31
0.0
  0
LINE
  5
213
  8
SIZE
  6
CONTINUOUS
 62
    30
 10
-699.00000013680335
 20
0.000000105230427
 30
0.0
 11
-699.00000013680335
 21
356.83774260933791
 31
0.0
  0
LINE
  5
214
  8
SIZE
  6
CONTINUOUS
 62
    30
 10
-669.00000029465355
 20
336.83774260933779
 30
0.0
 11
-644.00000029465355
 21
336.83774260933779
 31
0.0
  0
LINE
  5
215
  8
SIZE
  6
CONTINUOUS
 62
    30
 10
-699.00000013680335
 20
336.83774260933779
 30
0.0
 11
-834.23274884603586
 21
336.83774260933779
 31
0.0
  0
LINE
  5
216
  8
SIZE
  6
CONTINUOUS
 62
    30
 10
-669.00000029465355
 20
336.83774260933779
 30
0.0
 11
-699.00000013680335
 21
336.83774260933779
 31
0.0
  0
CIRCLE
  5
217
  8
SIZE
  6
CONTINUOUS
 62
    30
 10
-669.00000029465355
 20
336.83774260933779
 30
0.0
 40
6.25
  0
CIRCLE
  5
218
  8
SIZE
  6
CONTINUOUS
 62
    30
 10
-699.00000013680335
 20
336.83774260933779
 30
0.0
 40
6.25
  0
TEXT
  5
219
  8
SIZE
  6
CONTINUOUS
 62
    30
 10
-821.11629960773587
 20
351.83774260933791
 30
0.0
 40
50.0
  1
30
 41
0.9
 72
     1
 11
-784.68772817916454
 21
351.83774260933791
 31
0.0
  0
POINT
  5
21A
  8
DEFPOINTS
  6
CONTINUOUS
 62
     7
 10
-669.00000029465355
 20
-0.0000000000026645
 30
0.0
  0
POINT
  5
21B
  8
DEFPOINTS
  6
CONTINUOUS
 62
     7
 10
-699.00000013680335
 20
-19.999999894769559
 30
0.0
  0
POINT
  5
21C
  8
DEFPOINTS
  6
CONTINUOUS
 62
     7
 10
-699.00000013680335
 20
336.83774260933779
 30
0.0
  0
LINE
  5
21D
  8
SIZE
  6
CONTINUOUS
 62
    30
 10
-669.00000029465355
 20
19.999999999997328
 30
0.0
 11
-669.00000029465355
 21
356.83774260933791
 31
0.0
  0
LINE
  5
21E
  8
SIZE
  6
CONTINUOUS
 62
    30
 10
668.99999266525697
 20
19.999999999997328
 30
0.0
 11
668.99999266525697
 21
356.83774260933791
 31
0.0
  0
LINE
  5
21F
  8
SIZE
  6
CONTINUOUS
 62
    30
 10
-669.00000029465355
 20
336.83774260933779
 30
0.0
 11
668.99999266525697
 21
336.83774260933779
 31
0.0
  0
CIRCLE
  5
220
  8
SIZE
  6
CONTINUOUS
 62
    30
 10
-669.00000029465355
 20
336.83774260933779
 30
0.0
 40
6.25
  0
CIRCLE
  5
221
  8
SIZE
  6
CONTINUOUS
 62
    30
 10
668.99999266525697
 20
336.83774260933779
 30
0.0
 40
6.25
  0
TEXT
  5
222
  8
SIZE
  6
CONTINUOUS
 62
    30
 10
-333.42857524326968
 20
364.93298070457598
 30
0.0
 40
50.0
  1
1338 (吊りボルトピッチ)
 41
0.9
 72
     1
 11
-0.0000038146981751
 21
364.93298070457598
 31
0.0
  0
POINT
  5
223
  8
DEFPOINTS
  6
CONTINUOUS
 62
     7
 10
-669.00000029465355
 20
-0.0000000000026645
 30
0.0
  0
POINT
  5
224
  8
DEFPOINTS
  6
CONTINUOUS
 62
     7
 10
668.99999266525697
 20
-0.0000000000026645
 30
0.0
  0
POINT
  5
225
  8
DEFPOINTS
  6
CONTINUOUS
 62
     7
 10
668.99999266525697
 20
336.83774260933779
 30
0.0
  0
LINE
  5
226
  8
SIZE
  6
CONTINUOUS
 62
    30
 10
-700.00000013153556
 20
19.999999999997328
 30
0.0
 11
-700.00000013153556
 21
480.25540325383048
 31
0.0
  0
LINE
  5
227
  8
SIZE
  6
CONTINUOUS
 62
    30
 10
-724.99999999999545
 20
-34.999999710611888
 30
0.0
 11
-724.99999999999545
 21
480.25540325383048
 31
0.0
  0
LINE
  5
228
  8
SIZE
  6
CONTINUOUS
 62
    30
 10
-700.00000013153556
 20
460.25540325383042
 30
0.0
 11
-675.00000013153556
 21
460.25540325383042
 31
0.0
  0
LINE
  5
229
  8
SIZE
  6
CONTINUOUS
 62
    30
 10
-724.99999999999545
 20
460.25540325383042
 30
0.0
 11
-847.34919808433551
 21
460.25540325383042
 31
0.0
  0
LINE
  5
22A
  8
SIZE
  6
CONTINUOUS
 62
    30
 10
-700.00000013153556
 20
460.25540325383042
 30
0.0
 11
-724.99999999999545
 21
460.25540325383042
 31
0.0
  0
CIRCLE
  5
22B
  8
SIZE
  6
CONTINUOUS
 62
    30
 10
-700.00000013153556
 20
460.25540325383042
 30
0.0
 40
6.25
  0
CIRCLE
  5
22C
  8
SIZE
  6
CONTINUOUS
 62
    30
 10
-724.99999999999545
 20
460.25540325383042
 30
0.0
 40
6.25
  0
TEXT
  5
22D
  8
SIZE
  6
CONTINUOUS
 62
    30
 10
-822.60317047073647
 20
475.25540325383059
 30
0.0
 40
50.0
  1
25
 41
0.9
 72
     1
 11
-786.17459904216503
 21
475.25540325383059
 31
0.0
  0
POINT
  5
22E
  8
DEFPOINTS
  6
CONTINUOUS
 62
     7
 10
-700.00000013153556
 20
-0.0000000000026645
 30
0.0
  0
POINT
  5
22F
  8
DEFPOINTS
  6
CONTINUOUS
 62
     7
 10
-724.99999999999545
 20
-54.999999710611888
 30
0.0
  0
POINT
  5
230
  8
DEFPOINTS
  6
CONTINUOUS
 62
     7
 10
-724.99999999999545
 20
460.25540325383042
 30
0.0
  0
LINE
  5
231
  8
SIZE
  6
CONTINUOUS
 62
    30
 10
-700.00000013153556
 20
19.999999999997328
 30
0.0
 11
-700.00000013153556
 21
480.25540325383048
 31
0.0
  0
LINE
  5
232
  8
SIZE
  6
CONTINUOUS
 62
    30
 10
700.00000013154113
 20
19.999999999996881
 30
0.0
 11
700.00000013154113
 21
480.25540325383048
 31
0.0
  0
LINE
  5
233
  8
SIZE
  6
CONTINUOUS
 62
    30
 10
-700.00000013153556
 20
460.25540325383042
 30
0.0
 11
700.00000013154113
 21
460.25540325383042
 31
0.0
  0
CIRCLE
  5
234
  8
SIZE
  6
CONTINUOUS
 62
    30
 10
-700.00000013153556
 20
460.25540325383042
 30
0.0
 40
6.25
  0
CIRCLE
  5
235
  8
SIZE
  6
CONTINUOUS
 62
    30
 10
700.00000013154113
 20
460.25540325383042
 30
0.0
 40
6.25
  0
TEXT
  5
236
  8
SIZE
  6
CONTINUOUS
 62
    30
 10
-171.42857142856869
 20
488.3506413490685
 30
0.0
 40
50.0
  1
1400 (本体)
 41
0.9
 72
     1
 11
0.0000000000027285
 21
488.3506413490685
 31
0.0
  0
POINT
  5
237
  8
DEFPOINTS
  6
CONTINUOUS
 62
     7
 10
-700.00000013153556
 20
-0.0000000000026645
 30
0.0
  0
POINT
  5
238
  8
DEFPOINTS
  6
CONTINUOUS
 62
     7
 10
700.00000013154113
 20
-0.0000000000031193
 30
0.0
  0
POINT
  5
239
  8
DEFPOINTS
  6
CONTINUOUS
 62
     7
 10
700.00000013154113
 20
460.25540325383042
 30
0.0
  0
LINE
  5
23A
  8
SIZE
  6
CONTINUOUS
 62
    30
 10
700.00000013154113
 20
19.999999999996881
 30
0.0
 11
700.00000013154113
 21
480.25540325383048
 31
0.0
  0
LINE
  5
23B
  8
SIZE
  6
CONTINUOUS
 62
    30
 10
724.9999923706082
 20
-14.999997711183759
 30
0.0
 11
724.9999923706082
 21
480.25540325383048
 31
0.0
  0
LINE
  5
23C
  8
SIZE
  6
CONTINUOUS
 62
    30
 10
700.00000013154113
 20
460.25540325383042
 30
0.0
 11
675.00000013154113
 21
460.25540325383042
 31
0.0
  0
LINE
  5
23D
  8
SIZE
  6
CONTINUOUS
 62
    30
 10
724.9999923706082
 20
460.25540325383042
 30
0.0
 11
853.41751333238062
 21
460.25540325383042
 31
0.0
  0
LINE
  5
23E
  8
SIZE
  6
CONTINUOUS
 62
    30
 10
700.00000013154113
 20
460.25540325383042
 30
0.0
 11
724.9999923706082
 21
460.25540325383042
 31
0.0
  0
CIRCLE
  5
23F
  8
SIZE
  6
CONTINUOUS
 62
    30
 10
700.00000013154113
 20
460.25540325383042
 30
0.0
 40
6.25
  0
CIRCLE
  5
240
  8
SIZE
  6
CONTINUOUS
 62
    30
 10
724.9999923706082
 20
460.25540325383042
 30
0.0
 40
6.25
  0
TEXT
  5
241
  8
SIZE
  6
CONTINUOUS
 62
    30
 10
752.78018142292274
 20
475.25540325383059
 30
0.0
 40
50.0
  1
25
 41
0.9
 72
     1
 11
789.20875285149418
 21
475.25540325383059
 31
0.0
  0
POINT
  5
242
  8
DEFPOINTS
  6
CONTINUOUS
 62
     7
 10
700.00000013154113
 20
-0.0000000000031193
 30
0.0
  0
POINT
  5
243
  8
DEFPOINTS
  6
CONTINUOUS
 62
     7
 10
724.9999923706082
 20
-34.999997711183759
 30
0.0
  0
POINT
  5
244
  8
DEFPOINTS
  6
CONTINUOUS
 62
     7
 10
724.9999923706082
 20
460.25540325383042
 30
0.0
  0
LINE
  5
245
  8
SIZE
  6
CONTINUOUS
 62
    30
 10
-724.99999999999545
 20
-34.999999710611888
 30
0.0
 11
-724.99999999999545
 21
602.83951905443473
 31
0.0
  0
LINE
  5
246
  8
SIZE
  6
CONTINUOUS
 62
    30
 10
724.9999923706082
 20
-14.999997711183759
 30
0.0
 11
724.9999923706082
 21
602.83951905443473
 31
0.0
  0
LINE
  5
247
  8
SIZE
  6
CONTINUOUS
 62
    30
 10
-724.99999999999545
 20
582.83951905443473
 30
0.0
 11
724.9999923706082
 21
582.83951905443473
 31
0.0
  0
CIRCLE
  5
248
  8
SIZE
  6
CONTINUOUS
 62
    30
 10
-724.99999999999545
 20
582.83951905443473
 30
0.0
 40
6.25
  0
CIRCLE
  5
249
  8
SIZE
  6
CONTINUOUS
 62
    30
 10
724.9999923706082
 20
582.83951905443473
 30
0.0
 40
6.25
  0
TEXT
  5
24A
  8
SIZE
  6
CONTINUOUS
 62
    30
 10
-75.000003814693599
 20
597.83951905443473
 30
0.0
 40
50.0
  1
1450
 41
0.9
 72
     1
 11
-0.0000038146936276
 21
597.83951905443473
 31
0.0
  0
POINT
  5
24B
  8
DEFPOINTS
  6
CONTINUOUS
 62
     7
 10
-724.99999999999545
 20
-54.999999710611888
 30
0.0
  0
POINT
  5
24C
  8
DEFPOINTS
  6
CONTINUOUS
 62
     7
 10
724.9999923706082
 20
-34.999997711183759
 30
0.0
  0
POINT
  5
24D
  8
DEFPOINTS
  6
CONTINUOUS
 62
     7
 10
724.9999923706082
 20
582.83951905443473
 30
0.0
  0
LINE
  5
24E
  8
SIZE
  6
CONTINUOUS
 62
    30
 10
-399.00000182053282
 20
-434.9999977111836
 30
0.0
 11
-444.18677737046249
 21
-434.9999977111836
 31
0.0
  0
LINE
  5
24F
  8
SIZE
  6
CONTINUOUS
 62
    30
 10
-680.00000013153556
 20
-469.9999975270261
 30
0.0
 11
-404.18677737046221
 21
-469.9999975270261
 31
0.0
  0
LINE
  5
250
  8
SIZE
  6
CONTINUOUS
 62
    30
 10
-424.18677737046232
 20
-434.9999977111836
 30
0.0
 11
-424.18677737046232
 21
-469.9999975270261
 31
0.0
  0
LINE
  5
251
  8
SIZE
  6
CONTINUOUS
 62
    30
 10
-424.18677737046232
 20
-469.9999975270261
 30
0.0
 11
-424.18677737046232
 21
-585.72155095381834
 31
0.0
  0
CIRCLE
  5
252
  8
SIZE
  6
CONTINUOUS
 62
    30
 10
-424.18677737046232
 20
-434.9999977111836
 30
0.0
 40
6.25
  0
CIRCLE
  5
253
  8
SIZE
  6
CONTINUOUS
 62
    30
 10
-424.18677737046232
 20
-469.9999975270261
 30
0.0
 40
6.25
  0
TEXT
  5
254
  8
SIZE
  6
CONTINUOUS
 62
    30
 10
-439.18677737046249
 20
-569.56374300353821
 30
0.0
 40
50.0
  1
35
 50
90.0
 41
0.9
 72
     1
 11
-439.18677737046249
 21
-533.13517157496688
 31
0.0
  0
POINT
  5
255
  8
DEFPOINTS
  6
CONTINUOUS
 62
     7
 10
-379.00000182053282
 20
-434.9999977111836
 30
0.0
  0
POINT
  5
256
  8
DEFPOINTS
  6
CONTINUOUS
 62
     7
 10
-700.00000013153556
 20
-469.9999975270261
 30
0.0
  0
POINT
  5
257
  8
DEFPOINTS
  6
CONTINUOUS
 62
     7
 10
-424.18677737046232
 20
-469.9999975270261
 30
0.0
  0
LINE
  5
258
  8
SIZE
  6
CONTINUOUS
 62
    30
 10
-680.00000013153556
 20
-469.9999975270261
 30
0.0
 11
-254.12773880738089
 21
-469.9999975270261
 31
0.0
  0
LINE
  5
259
  8
SIZE
  6
CONTINUOUS
 62
    30
 10
-249.50000260714151
 20
-189.99999900028871
 30
0.0
 11
-294.12773880738092
 21
-189.99999900028871
 31
0.0
  0
LINE
  5
25A
  8
SIZE
  6
CONTINUOUS
 62
    30
 10
-274.12773880738092
 20
-469.9999975270261
 30
0.0
 11
-274.12773880738092
 21
-189.99999900028871
 31
0.0
  0
CIRCLE
  5
25B
  8
SIZE
  6
CONTINUOUS
 62
    30
 10
-274.12773880738092
 20
-469.9999975270261
 30
0.0
 40
6.25
  0
CIRCLE
  5
25C
  8
SIZE
  6
CONTINUOUS
 62
    30
 10
-274.12773880738092
 20
-189.99999900028871
 30
0.0
 40
6.25
  0
TEXT
  5
25D
  8
SIZE
  6
CONTINUOUS
 62
    30
 10
-289.12773880738081
 20
-362.65251693754459
 30
0.0
 40
50.0
  1
280
 50
90.0
 41
0.9
 72
     1
 11
-289.12773880738081
 21
-304.79537408040181
 31
0.0
  0
POINT
  5
25E
  8
DEFPOINTS
  6
CONTINUOUS
 62
     7
 10
-700.00000013153556
 20
-469.9999975270261
 30
0.0
  0
POINT
  5
25F
  8
DEFPOINTS
  6
CONTINUOUS
 62
     7
 10
-229.5000026071416
 20
-189.99999900028871
 30
0.0
  0
POINT
  5
260
  8
DEFPOINTS
  6
CONTINUOUS
 62
     7
 10
-274.12773880738092
 20
-189.99999900028871
 30
0.0
  0
LINE
  5
261
  8
SIZE
  6
CONTINUOUS
 62
    30
 10
-720.00000013153556
 20
-469.9999975270261
 30
0.0
 11
-1028.7459769134689
 21
-469.99999752702598
 31
0.0
  0
LINE
  5
262
  8
SIZE
  6
CONTINUOUS
 62
    30
 10
-217.25000277683739
 20
-74.999999605378832
 30
0.0
 11
-1028.7459769134689
 21
-74.999999605378591
 31
0.0
  0
LINE
  5
263
  8
SIZE
  6
CONTINUOUS
 62
    30
 10
-1008.74597691347
 20
-469.99999752702598
 30
0.0
 11
-1008.745976913469
 21
-74.999999605378591
 31
0.0
  0
CIRCLE
  5
264
  8
SIZE
  6
CONTINUOUS
 62
    30
 10
-1008.74597691347
 20
-469.99999752702598
 30
0.0
 40
6.25
  0
CIRCLE
  5
265
  8
SIZE
  6
CONTINUOUS
 62
    30
 10
-1008.745976913469
 20
-74.999999605378591
 30
0.0
 40
6.25
  0
TEXT
  5
266
  8
SIZE
  6
CONTINUOUS
 62
    30
 10
-1023.745976913469
 20
-330.3571414233453
 30
0.0
 40
50.0
  1
395
 50
90.0
 41
0.9
 72
     1
 11
-1023.745976913469
 21
-272.49999856620241
 31
0.0
  0
POINT
  5
267
  8
DEFPOINTS
  6
CONTINUOUS
 62
     7
 10
-700.00000013153556
 20
-469.9999975270261
 30
0.0
  0
POINT
  5
268
  8
DEFPOINTS
  6
CONTINUOUS
 62
     7
 10
-197.25000277683739
 20
-74.999999605378832
 30
0.0
  0
POINT
  5
269
  8
DEFPOINTS
  6
CONTINUOUS
 62
     7
 10
-1008.745976913469
 20
-74.999999605378591
 30
0.0
  0
LINE
  5
26A
  8
SIZE
  6
CONTINUOUS
 62
    30
 10
-45.00000347268633
 20
-314.99999834258222
 30
0.0
 11
172.03164857525829
 21
-314.99999834258239
 31
0.0
  0
LINE
  5
26B
  8
SIZE
  6
CONTINUOUS
 62
    30
 10
680.00000013154113
 20
-469.99999752702308
 30
0.0
 11
132.0316485752582
 21
-469.99999752702308
 31
0.0
  0
LINE
  5
26C
  8
SIZE
  6
CONTINUOUS
 62
    30
 10
152.03164857525829
 20
-314.99999834258239
 30
0.0
 11
152.03164857525809
 21
-469.99999752702308
 31
0.0
  0
CIRCLE
  5
26D
  8
SIZE
  6
CONTINUOUS
 62
    30
 10
152.03164857525829
 20
-314.99999834258239
 30
0.0
 40
6.25
  0
CIRCLE
  5
26E
  8
SIZE
  6
CONTINUOUS
 62
    30
 10
152.03164857525809
 20
-469.99999752702308
 30
0.0
 40
6.25
  0
TEXT
  5
26F
  8
SIZE
  6
CONTINUOUS
 62
    30
 10
137.03164857525829
 20
-446.07142650623132
 30
0.0
 40
50.0
  1
155
 50
90.0
 41
0.9
 72
     1
 11
137.03164857525829
 21
-392.49999793480282
 31
0.0
  0
POINT
  5
270
  8
DEFPOINTS
  6
CONTINUOUS
 62
     7
 10
-65.00000347268633
 20
-314.99999834258222
 30
0.0
  0
POINT
  5
271
  8
DEFPOINTS
  6
CONTINUOUS
 62
     7
 10
700.00000013154113
 20
-469.99999752702308
 30
0.0
  0
POINT
  5
272
  8
DEFPOINTS
  6
CONTINUOUS
 62
     7
 10
152.03164857525809
 20
-469.99999752702308
 30
0.0
  0
LINE
  5
273
  8
SIZE
  6
CONTINUOUS
 62
    30
 10
-45.00000347268633
 20
-314.99999834258222
 30
0.0
 11
172.03164857525809
 21
-314.99999834258239
 31
0.0
  0
LINE
  5
274
  8
SIZE
  6
CONTINUOUS
 62
    30
 10
42.999996064290357
 20
-274.99999855304827
 30
0.0
 11
172.03164857525809
 21
-274.99999855304839
 31
0.0
  0
LINE
  5
275
  8
SIZE
  6
CONTINUOUS
 62
    30
 10
152.03164857525809
 20
-314.99999834258239
 30
0.0
 11
152.03164857525809
 21
-274.99999855304839
 31
0.0
  0
LINE
  5
276
  8
SIZE
  6
CONTINUOUS
 62
    30
 10
152.03164857525809
 20
-274.99999855304839
 30
0.0
 11
152.03164857525809
 21
-147.1428556959055
 31
0.0
  0
CIRCLE
  5
277
  8
SIZE
  6
CONTINUOUS
 62
    30
 10
152.03164857525809
 20
-314.99999834258239
 30
0.0
 40
6.25
  0
CIRCLE
  5
278
  8
SIZE
  6
CONTINUOUS
 62
    30
 10
152.03164857525809
 20
-274.99999855304839
 30
0.0
 40
6.25
  0
TEXT
  5
279
  8
SIZE
  6
CONTINUOUS
 62
    30
 10
137.03164857525829
 20
-234.99999855304819
 30
0.0
 40
50.0
  1
40
 50
90.0
 41
0.9
 72
     1
 11
137.03164857525829
 21
-198.5714271244768
 31
0.0
  0
POINT
  5
27A
  8
DEFPOINTS
  6
CONTINUOUS
 62
     7
 10
-65.00000347268633
 20
-314.99999834258222
 30
0.0
  0
POINT
  5
27B
  8
DEFPOINTS
  6
CONTINUOUS
 62
     7
 10
22.999996064290372
 20
-274.99999855304827
 30
0.0
  0
POINT
  5
27C
  8
DEFPOINTS
  6
CONTINUOUS
 62
     7
 10
152.03164857525809
 20
-274.99999855304839
 30
0.0
  0
LINE
  5
27D
  8
NOTE
  6
CONTINUOUS
 62
     4
 10
774.82580116220095
 20
-255.20606080510731
 30
0.0
 11
734.8258013726653
 21
-226.3385474975168
 31
0.0
  0
LINE
  5
27E
  8
NOTE
  6
CONTINUOUS
 62
     4
 10
774.82580116220095
 20
-197.4710341899266
 30
0.0
 11
734.8258013726653
 21
-226.3385474975168
 31
0.0
  0
LINE
  5
27F
  8
NOTE
  6
CONTINUOUS
 62
     4
 10
774.82580116220095
 20
-211.3385475764419
 30
0.0
 11
774.82580116220095
 21
-197.4710341899266
 31
0.0
  0
LINE
  5
280
  8
NOTE
  6
CONTINUOUS
 62
     4
 10
804.82580100435155
 20
-241.3385474185919
 30
0.0
 11
774.82580116220095
 21
-241.3385474185919
 31
0.0
  0
LINE
  5
281
  8
NOTE
  6
CONTINUOUS
 62
     4
 10
804.82580100435155
 20
-211.3385475764419
 30
0.0
 11
774.82580116220095
 21
-211.3385475764419
 31
0.0
  0
LINE
  5
282
  8
NOTE
  6
CONTINUOUS
 62
     4
 10
774.82580116220095
 20
-255.20606080510731
 30
0.0
 11
774.82580116220095
 21
-241.3385474185919
 31
0.0
  0
LINE
  5
283
  8
NOTE
  6
CONTINUOUS
 62
     4
 10
804.82580100435155
 20
-211.3385475764419
 30
0.0
 11
804.82580100435155
 21
-241.3385474185919
 31
0.0
  0
LINE
  5
284
  8
NOTE
  6
CONTINUOUS
 62
     4
 10
-765.54034937664369
 20
-232.5148261727303
 30
0.0
 11
-805.54034916617854
 21
-203.6473128651399
 31
0.0
  0
LINE
  5
285
  8
NOTE
  6
CONTINUOUS
 62
     4
 10
-765.54034937664369
 20
-174.7797995575495
 30
0.0
 11
-805.54034916617854
 21
-203.6473128651399
 31
0.0
  0
LINE
  5
286
  8
NOTE
  6
CONTINUOUS
 62
     4
 10
-765.54034937664369
 20
-188.64731294406491
 30
0.0
 11
-765.54034937664369
 21
-174.7797995575495
 31
0.0
  0
LINE
  5
287
  8
NOTE
  6
CONTINUOUS
 62
     4
 10
-735.540349534494
 20
-218.6473127862148
 30
0.0
 11
-765.54034937664369
 21
-218.6473127862148
 31
0.0
  0
LINE
  5
288
  8
NOTE
  6
CONTINUOUS
 62
     4
 10
-735.540349534494
 20
-188.64731294406491
 30
0.0
 11
-765.54034937664369
 21
-188.64731294406491
 31
0.0
  0
LINE
  5
289
  8
NOTE
  6
CONTINUOUS
 62
     4
 10
-765.54034937664369
 20
-232.5148261727303
 30
0.0
 11
-765.54034937664369
 21
-218.6473127862148
 31
0.0
  0
LINE
  5
28A
  8
NOTE
  6
CONTINUOUS
 62
     4
 10
-735.540349534494
 20
-188.64731294406491
 30
0.0
 11
-735.540349534494
 21
-218.6473127862148
 31
0.0
  0
TEXT
  5
28D
  8
NOTE
  6
CONTINUOUS
 62
     4
 10
101.3699298723908
 20
-557.6703483939358
 30
0.0
 40
50.0
  1
RL %%C9.52
 50
0.0000025044165917
 41
0.7
  7
STANDARD1
  0
LINE
  5
28E
  8
NOTE
  6
CONTINUOUS
 62
     4
 10
363.59992926381477
 20
-571.34768481769561
 30
0.0
 11
94.870479493309276
 21
-571.34768481769572
 31
0.0
  0
LINE
  5
28F
  8
NOTE
  6
CONTINUOUS
 62
     4
 10
94.870479493309276
 20
-571.34768481769561
 30
0.0
 11
-0.0000038146945371
 21
-274.99999855304787
 31
0.0
  0
TEXT
  5
291
  8
NOTE
  6
CONTINUOUS
 62
     4
 10
-12.85755769677462
 20
127.2376095930472
 30
0.0
 40
50.0
  1
加湿器給水口(1/2B)
 50
0.0000025044165917
 41
0.7
  7
STANDARD1
  0
LINE
  5
292
  8
NOTE
  6
CONTINUOUS
 62
     4
 10
433.2619329607831
 20
113.5602731692875
 30
0.0
 11
-22.52931819478999
 21
113.5602731692875
 31
0.0
  0
TEXT
  5
293
  8
NOTE
  6
CONTINUOUS
 62
     4
 10
-32.125635952682842
 20
232.7748865818634
 30
0.0
 40
50.0
  1
D2
 50
0.0000025044165917
 41
0.7
  7
STANDARD1
  0
LINE
  5
294
  8
NOTE
  6
CONTINUOUS
 62
     4
 10
37.646815582716492
 20
219.0975501581037
 30
0.0
 11
-41.797396450696851
 21
219.0975501581037
 31
0.0
  0
LINE
  5
295
  8
NOTE
  6
CONTINUOUS
 62
     4
 10
-22.52931819478999
 20
113.5602731692875
 30
0.0
 11
-212.00000269922009
 21
-189.99999900028871
 31
0.0
  0
LINE
  5
296
  8
NOTE
  6
CONTINUOUS
 62
     4
 10
-176.00000288864641
 20
-74.999999605378832
 30
0.0
 11
-41.797396450696851
 21
219.0975501581037
 31
0.0
  0
TEXT
  5
297
  8
NOTE
  6
CONTINUOUS
 62
     4
 10
-289.15397080795441
 20
-630.2929899616006
 30
0.0
 40
50.0
  1
D1
 50
0.0000025044165917
 41
0.7
  7
STANDARD1
  0
LINE
  5
298
  8
NOTE
  6
CONTINUOUS
 62
     4
 10
-221.9529887353855
 20
-643.97032638535995
 30
0.0
 11
-299.2781424657378
 21
-643.97032638535995
 31
0.0
  0
LINE
  5
299
  8
NOTE
  6
CONTINUOUS
 62
     4
 10
-350.00000197311419
 20
-434.9999977111836
 30
0.0
 11
-299.2781424657378
 21
-643.97032638535995
 31
0.0
  0
TEXT
  5
29A
  8
NOTE
  6
CONTINUOUS
 62
     4
 10
-1182.2719831763859
 20
-17.253518292314251
 30
0.0
 40
50.0
  1
3-%%C3.4
 50
0.0000025044165917
 41
0.7
  7
STANDARD1
  0
LINE
  5
29B
  8
NOTE
  6
CONTINUOUS
 62
     4
 10
-975.72427208947283
 20
-30.930854716073949
 30
0.0
 11
-1189.79539426876
 21
-30.930854716073949
 31
0.0
  0
TEXT
  5
29C
  8
NOTE
  6
CONTINUOUS
 62
     4
 10
928.75978141441044
 20
48.794961934420392
 30
0.0
 40
50.0
  1
4-%%C3.4
 50
0.0000025044165917
 41
0.7
  7
STANDARD1
  0
LINE
  5
29D
  8
NOTE
  6
CONTINUOUS
 62
     4
 10
1132.382513813317
 20
35.117625510660723
 30
0.0
 11
919.08802091639393
 21
35.117625510660723
 31
0.0
  0
LINE
  5
29E
  8
NOTE
  6
CONTINUOUS
 62
     4
 10
919.08802091639393
 20
35.117625510660723
 30
0.0
 11
714.99999242322417
 21
-84.999999552758183
 31
0.0
  0
LINE
  5
29F
  8
NOTE
  6
CONTINUOUS
 62
     4
 10
-975.72427208947283
 20
-30.930854716073949
 30
0.0
 11
-715.00000005261188
 21
-104.99999944752921
 31
0.0
  0
LINE
  5
2A0
  8
SIZE
  6
CONTINUOUS
 62
    30
 10
-700.00000013153556
 20
-489.9999975270261
 30
0.0
 11
-700.00000013153556
 21
-902.53970020292149
 31
0.0
  0
LINE
  5
2A1
  8
SIZE
  6
CONTINUOUS
 62
    30
 10
-750.00000013153533
 20
-509.99999752702308
 30
0.0
 11
-750.00000013153533
 21
-902.53970020292149
 31
0.0
  0
LINE
  5
2A2
  8
SIZE
  6
CONTINUOUS
 62
    30
 10
-700.00000013153556
 20
-882.53970020292161
 30
0.0
 11
-750.00000013153533
 21
-882.53970020292161
 31
0.0
  0
LINE
  5
2A3
  8
SIZE
  6
CONTINUOUS
 62
    30
 10
-750.00000013153533
 20
-882.53970020292161
 30
0.0
 11
-864.94826996711708
 21
-882.53970020292161
 31
0.0
  0
CIRCLE
  5
2A4
  8
SIZE
  6
CONTINUOUS
 62
    30
 10
-700.00000013153556
 20
-882.53970020292161
 30
0.0
 40
6.25
  0
CIRCLE
  5
2A5
  8
SIZE
  6
CONTINUOUS
 62
    30
 10
-750.00000013153533
 20
-882.53970020292161
 30
0.0
 40
6.25
  0
TEXT
  5
2A6
  8
SIZE
  6
CONTINUOUS
 62
    30
 10
-843.9027064778976
 20
-867.53970020292161
 30
0.0
 40
50.0
  1
50
 41
0.9
 72
     1
 11
-807.47413504932615
 21
-867.53970020292161
 31
0.0
  0
POINT
  5
2A7
  8
DEFPOINTS
  6
CONTINUOUS
 62
     7
 10
-700.00000013153556
 20
-469.9999975270261
 30
0.0
  0
POINT
  5
2A8
  8
DEFPOINTS
  6
CONTINUOUS
 62
     7
 10
-750.00000013153533
 20
-489.99999752702308
 30
0.0
  0
POINT
  5
2A9
  8
DEFPOINTS
  6
CONTINUOUS
 62
     7
 10
-750.00000013153533
 20
-882.53970020292161
 30
0.0
  0
LINE
  5
2AA
  8
SIZE
  6
CONTINUOUS
 62
    30
 10
-700.00000013153556
 20
-489.9999975270261
 30
0.0
 11
-700.00000013153556
 21
-902.53970020292149
 31
0.0
  0
LINE
  5
2AB
  8
SIZE
  6
CONTINUOUS
 62
    30
 10
-550.00000013153556
 20
-509.99999752702308
 30
0.0
 11
-550.00000013153556
 21
-902.53970020292149
 31
0.0
  0
LINE
  5
2AC
  8
SIZE
  6
CONTINUOUS
 62
    30
 10
-700.00000013153556
 20
-882.53970020292161
 30
0.0
 11
-550.00000013153556
 21
-882.53970020292161
 31
0.0
  0
CIRCLE
  5
2AD
  8
SIZE
  6
CONTINUOUS
 62
    30
 10
-700.00000013153556
 20
-882.53970020292161
 30
0.0
 40
6.25
  0
CIRCLE
  5
2AE
  8
SIZE
  6
CONTINUOUS
 62
    30
 10
-550.00000013153556
 20
-882.53970020292161
 30
0.0
 40
6.25
  0
TEXT
  5
2AF
  8
SIZE
  6
CONTINUOUS
 62
    30
 10
-678.57142870296423
 20
-867.53970020292161
 30
0.0
 40
50.0
  1
150
 41
0.9
 72
     1
 11
-625.00000013153556
 21
-867.53970020292161
 31
0.0
  0
POINT
  5
2B0
  8
DEFPOINTS
  6
CONTINUOUS
 62
     7
 10
-700.00000013153556
 20
-469.9999975270261
 30
0.0
  0
POINT
  5
2B1
  8
DEFPOINTS
  6
CONTINUOUS
 62
     7
 10
-550.00000013153556
 20
-489.99999752702308
 30
0.0
  0
POINT
  5
2B2
  8
DEFPOINTS
  6
CONTINUOUS
 62
     7
 10
-550.00000013153556
 20
-882.53970020292161
 30
0.0
  0
LINE
  5
2B3
  8
SIZE
  6
CONTINUOUS
 62
    30
 10
-550.00000013153556
 20
-509.99999752702308
 30
0.0
 11
-550.00000013153556
 21
-902.53970020292149
 31
0.0
  0
LINE
  5
2B4
  8
SIZE
  6
CONTINUOUS
 62
    30
 10
549.99999986846467
 20
-509.99999752702308
 30
0.0
 11
549.99999986846467
 21
-902.53970020292149
 31
0.0
  0
LINE
  5
2B5
  8
SIZE
  6
CONTINUOUS
 62
    30
 10
-550.00000013153556
 20
-882.53970020292161
 30
0.0
 11
549.99999986846467
 21
-882.53970020292161
 31
0.0
  0
CIRCLE
  5
2B6
  8
SIZE
  6
CONTINUOUS
 62
    30
 10
-550.00000013153556
 20
-882.53970020292161
 30
0.0
 40
6.25
  0
CIRCLE
  5
2B7
  8
SIZE
  6
CONTINUOUS
 62
    30
 10
549.99999986846467
 20
-882.53970020292161
 30
0.0
 40
6.25
  0
TEXT
  5
2B8
  8
SIZE
  6
CONTINUOUS
 62
    30
 10
-70.714285845821152
 20
-867.53970020292161
 30
0.0
 40
50.0
  1
1100
 41
0.9
 72
     1
 11
-0.0000001315354439
 21
-867.53970020292161
 31
0.0
  0
POINT
  5
2B9
  8
DEFPOINTS
  6
CONTINUOUS
 62
     7
 10
-550.00000013153556
 20
-489.99999752702308
 30
0.0
  0
POINT
  5
2BA
  8
DEFPOINTS
  6
CONTINUOUS
 62
     7
 10
549.99999986846467
 20
-489.99999752702308
 30
0.0
  0
POINT
  5
2BB
  8
DEFPOINTS
  6
CONTINUOUS
 62
     7
 10
549.99999986846467
 20
-882.53970020292161
 30
0.0
  0
TEXT
  5
2BC
  8
NOTE
  6
CONTINUOUS
 62
     4
 10
-1371.6214291029321
 20
206.33651239267999
 30
0.0
 40
50.0
  1
AH 4-14\U+00D730長穴 (M10)
 50
0.0000025044165917
 41
0.7
  7
STANDARD1
  0
LINE
  5
2BD
  8
NOTE
  6
CONTINUOUS
 62
     4
 10
-768.02073664603483
 20
192.65917596892041
 30
0.0
 11
-1381.293189600947
 21
192.65917596892041
 31
0.0
  0
LINE
  5
2BE
  8
NOTE
  6
CONTINUOUS
 62
     4
 10
-768.02073664603483
 20
192.65917596892041
 30
0.0
 11
-669.00000029465355
 21
-19.99999989476958
 31
0.0
  0
CIRCLE
  5
2BF
  8
FIX
  6
CONTINUOUS
 62
    11
 10
668.99999266525697
 20
-19.99999989476958
 30
0.0
 40
16.155115914013201
  0
CIRCLE
  5
2C0
  8
FIX
  6
CONTINUOUS
 62
    11
 10
-669.00000029465355
 20
-19.99999989476958
 30
0.0
 40
16.155115914013201
  0
LINE
  5
2C1
  8
NOTE
  6
CONTINUOUS
 62
     4
 10
-715.00000005261188
 20
-104.99999944752859
 30
0.0
 11
-743.2146387869534
 21
-85.345894759668624
 31
0.0
  0
LINE
  5
2C2
  8
NOTE
  6
CONTINUOUS
 62
     4
 10
-715.00000005261188
 20
-104.99999944752859
 30
0.0
 11
-749.26164634150655
 21
-102.0863653655599
 31
0.0
  0
LINE
  5
2C3
  8
NOTE
  6
CONTINUOUS
 62
     4
 10
-669.00000029465355
 20
-19.99999989476958
 30
0.0
 11
-674.1227997751073
 21
14.00156764959369
 31
0.0
  0
LINE
  5
2C4
  8
NOTE
  6
CONTINUOUS
 62
     4
 10
-669.00000029465355
 20
-19.99999989476958
 30
0.0
 11
-690.43725894709007
 21
6.8848213145579873
 31
0.0
  0
LINE
  5
2C5
  8
NOTE
  6
CONTINUOUS
 62
     4
 10
-350.0000019731205
 20
-434.99999771118718
 30
0.0
 11
-350.71916889688549
 21
-469.37778805505309
 31
0.0
  0
LINE
  5
2C6
  8
NOTE
  6
CONTINUOUS
 62
     4
 10
-350.0000019731205
 20
-434.99999771118718
 30
0.0
 11
-333.4339231877334
 21
-465.13162069544398
 31
0.0
  0
LINE
  5
2C7
  8
NOTE
  6
CONTINUOUS
 62
     4
 10
-96.000003309684871
 20
-314.99999834230613
 30
0.0
 11
-87.508375855785715
 21
-348.32029145588808
 31
0.0
  0
LINE
  5
2C8
  8
NOTE
  6
CONTINUOUS
 62
     4
 10
-96.000003309684871
 20
-314.99999834230613
 30
0.0
 11
-71.985891299796094
 21
-339.61040456336411
 31
0.0
  0
LINE
  5
2C9
  8
NOTE
  6
CONTINUOUS
 62
     4
 10
-0.0000038146927182
 20
-274.99999855304873
 30
0.0
 11
2.26501914551545
 21
-309.31062869853878
 31
0.0
  0
LINE
  5
2CA
  8
NOTE
  6
CONTINUOUS
 62
     4
 10
-0.0000038146927182
 20
-274.99999855304873
 30
0.0
 11
19.116879098155081
 21
-303.58136412024169
 31
0.0
  0
LINE
  5
2CB
  8
NOTE
  6
CONTINUOUS
 62
     4
 10
-212.00000269922009
 20
-189.99999900028911
 30
0.0
 11
-187.00940982910191
 21
-166.38178700211239
 31
0.0
  0
LINE
  5
2CC
  8
NOTE
  6
CONTINUOUS
 62
     4
 10
-212.00000269922009
 20
-189.99999900028911
 30
0.0
 11
-202.1666208972228
 21
-157.05073083959741
 31
0.0
  0
LINE
  5
2CD
  8
NOTE
  6
CONTINUOUS
 62
     4
 10
-176.00000288864331
 20
-74.999999605378832
 30
0.0
 11
-153.72913286052599
 21
-48.801564190617171
 31
0.0
  0
LINE
  5
2CE
  8
NOTE
  6
CONTINUOUS
 62
     4
 10
-176.00000288864331
 20
-74.999999605378832
 30
0.0
 11
-169.81208188010351
 21
-41.176053892598631
 31
0.0
  0
LINE
  5
2CF
  8
NOTE
  6
CONTINUOUS
 62
     4
 10
714.99999242322087
 20
-84.999999552756378
 30
0.0
 11
748.07604884726015
 21
-75.601906053291231
 31
0.0
  0
LINE
  5
2D0
  8
NOTE
  6
CONTINUOUS
 62
     4
 10
714.99999242322087
 20
-84.999999552756378
 30
0.0
 11
738.94565043415605
 21
-60.322983274195778
 31
0.0
  0
LINE
  5
2D1
  8
SIZE
  6
CONTINUOUS
 62
    30
 10
720.00000013154113
 20
-469.9999975270261
 30
0.0
 11
1280.694589330664
 21
-469.9999975270261
 31
0.0
  0
LINE
  5
2D2
  8
SIZE
  6
CONTINUOUS
 62
    30
 10
720.00000013154113
 20
-489.99999752702308
 30
0.0
 11
1280.694589330664
 21
-489.99999752702308
 31
0.0
  0
LINE
  5
2D3
  8
SIZE
  6
CONTINUOUS
 62
    30
 10
1260.6945893306649
 20
-469.9999975270261
 30
0.0
 11
1260.6945893306649
 21
-444.9999975270261
 31
0.0
  0
LINE
  5
2D4
  8
SIZE
  6
CONTINUOUS
 62
    30
 10
1260.6945893306649
 20
-489.99999752702308
 30
0.0
 11
1260.6945893306649
 21
-716.10189485647049
 31
0.0
  0
LINE
  5
2D5
  8
SIZE
  6
CONTINUOUS
 62
    30
 10
1260.6945893306649
 20
-469.9999975270261
 30
0.0
 11
1260.6945893306649
 21
-489.99999752702308
 31
0.0
  0
CIRCLE
  5
2D6
  8
SIZE
  6
CONTINUOUS
 62
    30
 10
1260.6945893306649
 20
-469.9999975270261
 30
0.0
 40
6.25
  0
CIRCLE
  5
2D7
  8
SIZE
  6
CONTINUOUS
 62
    30
 10
1260.6945893306649
 20
-489.99999752702308
 30
0.0
 40
6.25
  0
TEXT
  5
2D8
  8
SIZE
  6
CONTINUOUS
 62
    30
 10
1245.6945893306649
 20
-694.36456919839975
 30
0.0
 40
50.0
  1
20以上
 50
90.0
 41
0.9
 72
     1
 11
1245.6945893306649
 21
-603.50742634125675
 31
0.0
  0
POINT
  5
2D9
  8
DEFPOINTS
  6
CONTINUOUS
 62
     7
 10
700.00000013154113
 20
-469.9999975270261
 30
0.0
  0
POINT
  5
2DA
  8
DEFPOINTS
  6
CONTINUOUS
 62
     7
 10
700.00000013154113
 20
-489.99999752702308
 30
0.0
  0
POINT
  5
2DB
  8
DEFPOINTS
  6
CONTINUOUS
 62
     7
 10
1260.6945893306649
 20
-489.99999752702308
 30
0.0
  0
LINE
  5
2DC
  8
SIZE
  6
CONTINUOUS
 62
    30
 10
720.00000013154113
 20
-0.000000000003125
 30
0.0
 11
1280.694589330664
 21
-0.0000000000032838
 31
0.0
  0
LINE
  5
2DD
  8
SIZE
  6
CONTINUOUS
 62
    30
 10
720.00000013154113
 20
19.99999999999687
 30
0.0
 11
1280.694589330664
 21
19.99999999999671
 31
0.0
  0
LINE
  5
2DE
  8
SIZE
  6
CONTINUOUS
 62
    30
 10
1260.6945893306649
 20
-0.0000000000032781
 30
0.0
 11
1260.6945893306649
 21
-25.000000000003279
 31
0.0
  0
LINE
  5
2DF
  8
SIZE
  6
CONTINUOUS
 62
    30
 10
1260.6945893306649
 20
19.99999999999671
 30
0.0
 11
1260.6945893306649
 21
265.42812550632152
 31
0.0
  0
LINE
  5
2E0
  8
SIZE
  6
CONTINUOUS
 62
    30
 10
1260.6945893306649
 20
-0.0000000000032781
 30
0.0
 11
1260.6945893306649
 21
19.99999999999671
 31
0.0
  0
CIRCLE
  5
2E1
  8
SIZE
  6
CONTINUOUS
 62
    30
 10
1260.6945893306649
 20
-0.0000000000032781
 30
0.0
 40
6.25
  0
CIRCLE
  5
2E2
  8
SIZE
  6
CONTINUOUS
 62
    30
 10
1260.6945893306649
 20
19.99999999999671
 30
0.0
 40
6.25
  0
TEXT
  5
2E3
  8
SIZE
  6
CONTINUOUS
 62
    30
 10
1245.6945893306649
 20
51.856919896016258
 30
0.0
 40
50.0
  1
20以上
 50
90.0
 41
0.9
 72
     1
 11
1245.6945893306649
 21
142.71406275315911
 31
0.0
  0
POINT
  5
2E4
  8
DEFPOINTS
  6
CONTINUOUS
 62
     7
 10
700.00000013154113
 20
-0.0000000000031193
 30
0.0
  0
POINT
  5
2E5
  8
DEFPOINTS
  6
CONTINUOUS
 62
     7
 10
700.00000013154113
 20
19.99999999999687
 30
0.0
  0
POINT
  5
2E6
  8
DEFPOINTS
  6
CONTINUOUS
 62
     7
 10
1260.6945893306649
 20
19.99999999999671
 30
0.0
  0
LINE
  5
2E7
  8
BASIS
  6
DASHDOT
 62
     6
 10
0.0
 20
53.422722220280363
 30
0.0
 11
0.0
 21
-533.40208320662839
 31
0.0
  0
CIRCLE
  5
2E8
  8
ARRANGE
  6
CONTINUOUS
 62
     1
 10
0.0000000000031832
 20
-0.0000000000035882
 30
0.0
 40
50.0
  0
LINE
  5
2E9
  8
ARRANGE
  6
CONTINUOUS
 62
     1
 10
50.037350031332608
 20
-49.52235315032879
 30
0.0
 11
-50.037350031325332
 21
49.522353150321621
 31
0.0
  0
LINE
  5
2EA
  8
ARRANGE
  6
CONTINUOUS
 62
     1
 10
49.963763310504397
 20
49.596594797982149
 30
0.0
 11
-49.963763310498507
 21
-49.596594797985702
 31
0.0
  0
LINE
  5
2EC
  8
OUTLINE
  6
CONTINUOUS
 62
     3
 10
-700.00000013153556
 20
-0.0000000000026787
 30
0.0
 11
700.00000013154113
 21
-0.0000000000026787
 31
0.0
  0
LINE
  5
2ED
  8
OUTLINE
  6
CONTINUOUS
 62
     3
 10
700.00000013154113
 20
-0.0000000000026787
 30
0.0
 11
700.00000013154113
 21
-469.9999975270261
 31
0.0
  0
LINE
  5
2EE
  8
OUTLINE
  6
CONTINUOUS
 62
     3
 10
700.00000013154113
 20
-469.9999975270261
 30
0.0
 11
-700.00000013153556
 21
-469.9999975270261
 31
0.0
  0
LINE
  5
2EF
  8
OUTLINE
  6
CONTINUOUS
 62
     3
 10
-700.00000013153556
 20
-469.9999975270261
 30
0.0
 11
-700.00000013153556
 21
-0.0000000000026787
 31
0.0
  0
LINE
  5
2F0
  8
SIZE
  6
CONTINUOUS
 62
    30
 10
-709.00000018941955
 20
-19.999999894769559
 30
0.0
 11
-914.09148840142473
 21
-19.999999894769498
 31
0.0
  0
LINE
  5
2F1
  8
SIZE
  6
CONTINUOUS
 62
    30
 10
-720.00000013153556
 20
-0.0000000000026588
 30
0.0
 11
-914.09148840142473
 21
-0.0000000000026039
 31
0.0
  0
LINE
  5
2F2
  8
SIZE
  6
CONTINUOUS
 62
    30
 10
-894.09148840142461
 20
-19.999999894769509
 30
0.0
 11
-894.09148840142461
 21
-44.999999894769502
 31
0.0
  0
LINE
  5
2F3
  8
SIZE
  6
CONTINUOUS
 62
    30
 10
-894.09148840142461
 20
-0.0000000000026095
 30
0.0
 11
-894.09148840142461
 21
125.8057660808044
 31
0.0
  0
LINE
  5
2F4
  8
SIZE
  6
CONTINUOUS
 62
    30
 10
-894.09148840142461
 20
-19.999999894769509
 30
0.0
 11
-894.09148840142461
 21
-0.0000000000026095
 31
0.0
  0
CIRCLE
  5
2F5
  8
SIZE
  6
CONTINUOUS
 62
    30
 10
-894.09148840142461
 20
-19.999999894769509
 30
0.0
 40
6.25
  0
CIRCLE
  5
2F6
  8
SIZE
  6
CONTINUOUS
 62
    30
 10
-894.09148840142461
 20
-0.0000000000026095
 30
0.0
 40
6.25
  0
TEXT
  5
2F7
  8
SIZE
  6
CONTINUOUS
 62
    30
 10
-909.09148840142461
 20
26.474311611829499
 30
0.0
 40
50.0
  1
20
 50
90.0
 41
0.9
 72
     1
 11
-909.09148840142461
 21
62.902883040400923
 31
0.0
  0
POINT
  5
2F8
  8
DEFPOINTS
  6
CONTINUOUS
 62
     7
 10
-689.00000018941955
 20
-19.999999894769559
 30
0.0
  0
POINT
  5
2F9
  8
DEFPOINTS
  6
CONTINUOUS
 62
     7
 10
-700.00000013153556
 20
-0.0000000000026645
 30
0.0
  0
POINT
  5
2FA
  8
DEFPOINTS
  6
CONTINUOUS
 62
     7
 10
-894.09148840142461
 20
-0.0000000000026095
 30
0.0
  0
TEXT
  5
5A4
  8
ETC
  6
CONTINUOUS
 62
    61
 10
440.83705022837228
 20
812.70106659618375
 30
0.0
 40
60.0
  1
GE-P1680_2100MG1_4
 50
0.0000029998804485
 41
0.8
  0
TEXT
  5
5A5
  8
ETC
  6
CONTINUOUS
 62
    61
 10
440.83705022837228
 20
711.70636394716712
 30
0.0
 40
60.0
  1
GE-P1680_2100MG3_4
 50
0.0000029998804485
 41
0.8
  0
TEXT
  5
5B8
  8
NOTE
  6
CONTINUOUS
 62
     4
 10
137.63939565568941
 20
-656.56376171262298
 30
0.0
 40
50.0
  1
RG %%C19.05
 50
0.0000025044165941
 41
0.7
  7
STANDARD1
  0
LINE
  5
5B9
  8
NOTE
  6
CONTINUOUS
 62
     4
 10
481.98141189591109
 20
-722.82795301608712
 30
0.0
 11
123.1416731344579
 21
-722.82795301608701
 31
0.0
  0
TEXT
  5
5BA
  8
NOTE
  6
CONTINUOUS
 62
     4
 10
170.61318217094589
 20
-707.2372202188343
 30
0.0
 40
35.0
  1
GE-P1680MG
 50
0.0000025044165941
 41
0.6
  7
STANDARD1
  0
TEXT
  5
5BB
  8
NOTE
  6
CONTINUOUS
 62
     4
 10
210.2821154378762
 20
-800.59012354731021
 30
0.0
 40
50.0
  1
RG %%C22.2
 50
0.0000025044165941
 41
0.7
  7
STANDARD1
  0
LINE
  5
5BC
  8
NOTE
  6
CONTINUOUS
 62
     4
 10
529.69402423638905
 20
-866.85431485077424
 30
0.0
 11
200.5325876681531
 21
-866.85431485077424
 31
0.0
  0
TEXT
  5
5BD
  8
NOTE
  6
CONTINUOUS
 62
     4
 10
240.95925139058821
 20
-851.26358205352165
 30
0.0
 40
35.0
  1
GE-P2100MG
 50
0.0000025044165941
 41
0.6
  7
STANDARD1
  0
LINE
  5
5C4
  8
NOTE
  6
CONTINUOUS
 62
     4
 10
200.5325876681531
 20
-866.85431485077424
 30
0.0
 11
-96.000003309579824
 21
-314.99999834258222
 31
0.0
  0
ENDSEC
  0
EOF
