  0
SECTION
  2
HEADER
  9
$ACADVER
  1
AC1009
  9
$INSBASE
 10
0.0
 20
0.0
 30
0.0
  9
$EXTMIN
 10
-1283.9730263357701
 20
-1323.4662415955611
 30
-0.000000000000013
  9
$EXTMAX
 10
1487.1334371202929
 20
857.19850705469059
 30
0.0000000000000023
  9
$LIMMIN
 10
-4267.1522210604826
 20
-2696.083210198412
  9
$LIMMAX
 10
7190.7174225864646
 20
5141.155363923066
  9
$ORTHOMODE
 70
     0
  9
$REGENMODE
 70
     1
  9
$FILLMODE
 70
     1
  9
$QTEXTMODE
 70
     0
  9
$MIRRTEXT
 70
     0
  9
$DRAGMODE
 70
     2
  9
$LTSCALE
 40
20.0
  9
$OSMODE
 70
   431
  9
$ATTMODE
 70
     1
  9
$TEXTSIZE
 40
64.0
  9
$TRACEWID
 40
0.05
  9
$TEXTSTYLE
  7
NOTE
  9
$CLAYER
  8
SYMBOLLINE
  9
$CELTYPE
  6
CONTINUOUS
  9
$CECOLOR
 62
     7
  9
$DIMSCALE
 40
1.0
  9
$DIMASZ
 40
25.0
  9
$DIMEXO
 40
20.0
  9
$DIMDLI
 40
80.0
  9
$DIMRND
 40
0.0
  9
$DIMDLE
 40
0.0
  9
$DIMEXE
 40
20.0
  9
$DIMTP
 40
0.0
  9
$DIMTM
 40
0.0
  9
$DIMTXT
 40
50.0
  9
$DIMCEN
 40
0.09
  9
$DIMTSZ
 40
0.0
  9
$DIMTOL
 70
     0
  9
$DIMLIM
 70
     0
  9
$DIMTIH
 70
     0
  9
$DIMTOH
 70
     0
  9
$DIMSE1
 70
     0
  9
$DIMSE2
 70
     0
  9
$DIMTAD
 70
     1
  9
$DIMZIN
 70
     8
  9
$DIMBLK
  1
SMALL
  9
$DIMASO
 70
     1
  9
$DIMSHO
 70
     0
  9
$DIMPOST
  1

  9
$DIMAPOST
  1

  9
$DIMALT
 70
     0
  9
$DIMALTD
 70
     2
  9
$DIMALTF
 40
25.399999999999999
  9
$DIMLFAC
 40
1.0
  9
$DIMTOFL
 70
     1
  9
$DIMTVP
 40
0.0
  9
$DIMTIX
 70
     0
  9
$DIMSOXD
 70
     0
  9
$DIMSAH
 70
     0
  9
$DIMBLK1
  1

  9
$DIMBLK2
  1

  9
$DIMSTYLE
  2
STANDARD
  9
$DIMCLRD
 70
     0
  9
$DIMCLRE
 70
     0
  9
$DIMCLRT
 70
     0
  9
$DIMTFAC
 40
1.0
  9
$DIMGAP
 40
0.09
  9
$LUNITS
 70
     2
  9
$LUPREC
 70
     4
  9
$SKETCHINC
 40
0.1
  9
$FILLETRAD
 40
30.0
  9
$AUNITS
 70
     1
  9
$AUPREC
 70
     3
  9
$MENU
  1
ACAD
  9
$ELEVATION
 40
0.0
  9
$PELEVATION
 40
0.0
  9
$THICKNESS
 40
0.0
  9
$LIMCHECK
 70
     0
  9
$BLIPMODE
 70
     0
  9
$CHAMFERA
 40
0.0
  9
$CHAMFERB
 40
0.0
  9
$SKPOLY
 70
     0
  9
$TDCREATE
 40
2450330.4399309959
  9
$TDUPDATE
 40
2457003.6617918289
  9
$TDINDWG
 40
4.1254427198999997
  9
$TDUSRTIMER
 40
4.1254399884000001
  9
$USRTIMER
 70
     1
  9
$ANGBASE
 50
0.0
  9
$ANGDIR
 70
     0
  9
$PDMODE
 70
     3
  9
$PDSIZE
 40
-2.0
  9
$PLINEWID
 40
0.0
  9
$COORDS
 70
     1
  9
$SPLFRAME
 70
     0
  9
$SPLINETYPE
 70
     6
  9
$SPLINESEGS
 70
     8
  9
$ATTDIA
 70
     1
  9
$ATTREQ
 70
     1
  9
$HANDLING
 70
     1
  9
$HANDSEED
  5
561
  9
$SURFTAB1
 70
     6
  9
$SURFTAB2
 70
     6
  9
$SURFTYPE
 70
     6
  9
$SURFU
 70
     6
  9
$SURFV
 70
     6
  9
$UCSNAME
  2

  9
$UCSORG
 10
0.0
 20
0.0
 30
0.0
  9
$UCSXDIR
 10
1.0
 20
0.0
 30
0.0
  9
$UCSYDIR
 10
0.0
 20
1.0
 30
0.0
  9
$PUCSNAME
  2

  9
$PUCSORG
 10
0.0
 20
0.0
 30
0.0
  9
$PUCSXDIR
 10
1.0
 20
0.0
 30
0.0
  9
$PUCSYDIR
 10
0.0
 20
1.0
 30
0.0
  9
$USERI1
 70
     0
  9
$USERI2
 70
     0
  9
$USERI3
 70
     0
  9
$USERI4
 70
     0
  9
$USERI5
 70
     0
  9
$USERR1
 40
20.0
  9
$USERR2
 40
0.0
  9
$USERR3
 40
0.0
  9
$USERR4
 40
0.0
  9
$USERR5
 40
0.0
  9
$WORLDVIEW
 70
     1
  9
$SHADEDGE
 70
     3
  9
$SHADEDIF
 70
    70
  9
$TILEMODE
 70
     1
  9
$MAXACTVP
 70
    64
  9
$PLIMCHECK
 70
     0
  9
$PEXTMIN
 10
1.0000000000000000E+020
 20
1.0000000000000000E+020
 30
1.0000000000000000E+020
  9
$PEXTMAX
 10
-1.0000000000000000E+020
 20
-1.0000000000000000E+020
 30
-1.0000000000000000E+020
  9
$PLIMMIN
 10
0.0
 20
0.0
  9
$PLIMMAX
 10
12.0
 20
9.0
  9
$UNITMODE
 70
     0
  9
$VISRETAIN
 70
     1
  9
$PLINEGEN
 70
     0
  9
$PSLTSCALE
 70
     1
  0
ENDSEC
  0
SECTION
  2
TABLES
  0
TABLE
  2
VPORT
 70
     1
  0
VPORT
  2
*ACTIVE
 70
     0
 10
0.0
 20
0.0
 11
1.0
 21
1.0
 12
101.5802053922616
 22
-233.1338672704351
 13
0.0
 23
0.0
 14
50.0
 24
50.0
 15
100.0
 25
100.0
 16
0.0
 26
0.0
 36
1.0
 17
0.0
 27
0.0
 37
0.0
 40
2197.790388037557
 41
1.6159895150720831
 42
50.0
 43
0.0
 44
0.0
 50
0.0
 51
0.0
 71
     0
 72
  1000
 73
     1
 74
     0
 75
     0
 76
     0
 77
     0
 78
     0
  0
ENDTAB
  0
TABLE
  2
LTYPE
 70
     4
  0
LTYPE
  2
CONTINUOUS
 70
     0
  3
実線
 72
    65
 73
     0
 40
0.0
  0
LTYPE
  2
DASHDOT
 70
     0
  3
____ _ ____ _ ____ _ ____ _ ____ _ ____ _ ____
 72
    65
 73
     4
 40
5.5
 49
4.0
 49
-0.6
 49
0.3
 49
-0.6
  0
ENDTAB
  0
TABLE
  2
LAYER
 70
    12
  0
LAYER
  2
0
 70
     0
 62
     7
  6
CONTINUOUS
  0
LAYER
  2
SYMBOLLINE
 70
     0
 62
    15
  6
CONTINUOUS
  0
LAYER
  2
SIZE
 70
     0
 62
    30
  6
CONTINUOUS
  0
LAYER
  2
OUTLINE
 70
     0
 62
     3
  6
CONTINUOUS
  0
LAYER
  2
DETAIL
 70
     0
 62
     5
  6
CONTINUOUS
  0
LAYER
  2
BASIS
 70
     0
 62
     6
  6
DASHDOT
  0
LAYER
  2
NOTE
 70
     0
 62
     4
  6
CONTINUOUS
  0
LAYER
  2
ARRANGE
 70
     0
 62
     1
  6
CONTINUOUS
  0
LAYER
  2
FIX
 70
     0
 62
    11
  6
CONTINUOUS
  0
LAYER
  2
SERVICESPACE
 70
     0
 62
     2
  6
DASHDOT
  0
LAYER
  2
ETC
 70
     0
 62
    61
  6
CONTINUOUS
  0
LAYER
  2
DEFPOINTS
 70
     0
 62
     7
  6
CONTINUOUS
  0
ENDTAB
  0
TABLE
  2
STYLE
 70
     4
  0
STYLE
  2
STANDARD
 70
     0
 40
0.0
 41
0.9
 50
0.0
 71
     0
 42
64.0
  3
SIMPLEX
  4
BIGFONT
  0
STYLE
  2
ANNOTATIVE
 70
     0
 40
0.0
 41
1.0
 50
0.0
 71
     0
 42
0.2
  3
txt
  4

  0
STYLE
  2
NOTE
 70
     0
 40
0.0
 41
0.7
 50
0.0
 71
     0
 42
64.0
  3
SIMPLEX.shx
  4
BIGFONT.shx
  0
STYLE
  2
STANDARD1
 70
     0
 40
0.0
 41
1.0
 50
0.0
 71
     0
 42
64.0
  3
MONOTXT
  4
BIGFONT
  0
ENDTAB
  0
TABLE
  2
VIEW
 70
     1
  0
VIEW
  2
ALL
 70
     0
 40
9000.0
 10
241.50664699999999
 20
0.0
 41
12483.01
 11
0.0
 21
0.0
 31
1.0
 12
0.0
 22
0.0
 32
0.0
 42
50.0
 43
0.0
 44
0.0
 50
0.0
 71
     0
  0
ENDTAB
  0
TABLE
  2
UCS
 70
     0
  0
ENDTAB
  0
TABLE
  2
APPID
 70
     5
  0
APPID
  2
ACAD
 70
     0
  0
APPID
  2
ACADANNOTATIVE
 70
     0
  0
APPID
  2
ACAD_MLEADERVER
 70
     0
  0
APPID
  2
ACAD_EXEMPT_FROM_CAD_STANDARDS
 70
     0
  0
APPID
  2
ACAD_NAV_VCDISPLAY
 70
     0
  0
ENDTAB
  0
TABLE
  2
DIMSTYLE
 70
     3
  0
DIMSTYLE
  2
STANDARD
 70
     0
  3

  4

  5

  6

  7

 40
1.0
 41
0.18
 42
0.0625
 43
0.38
 44
0.18
 45
0.0
 46
0.0
 47
0.0
 48
0.0
140
0.18
141
0.09
142
0.0
143
25.399999999999999
144
1.0
145
0.0
146
1.0
147
0.09
 71
     0
 72
     0
 73
     1
 74
     1
 75
     0
 76
     0
 77
     0
 78
     0
170
     0
171
     2
172
     0
173
     0
174
     0
175
     0
176
     0
177
     0
178
     0
  0
DIMSTYLE
  2
ANNOTATIVE
 70
     0
  3

  4

  5

  6

  7

 40
1.0
 41
0.18
 42
0.0625
 43
0.38
 44
0.18
 45
0.0
 46
0.0
 47
0.0
 48
0.0
140
0.18
141
0.09
142
0.0
143
25.399999999999999
144
1.0
145
0.0
146
1.0
147
0.09
 71
     0
 72
     0
 73
     1
 74
     1
 75
     0
 76
     0
 77
     0
 78
     0
170
     0
171
     2
172
     0
173
     0
174
     0
175
     0
176
     0
177
     0
178
     0
  0
ENDTAB
  0
ENDSEC
  0
SECTION
  2
BLOCKS
  0
BLOCK
  8
0
  2
$MODEL_SPACE
 70
     0
 10
0.0
 20
0.0
 30
0.0
  3
$MODEL_SPACE
  1

  0
ENDBLK
  5
4CD
  8
0
  0
BLOCK
 67
     1
  8
0
  2
$PAPER_SPACE
 70
     0
 10
0.0
 20
0.0
 30
0.0
  3
$PAPER_SPACE
  1

  0
ENDBLK
  5
4C9
 67
     1
  8
0
  0
BLOCK
  8
0
  2
_SMALL
 70
     0
 10
0.0
 20
0.0
 30
0.0
  3
_SMALL
  1

  0
CIRCLE
  5
8D
  8
0
  6
CONTINUOUS
 62
     7
 10
0.0
 20
0.0
 30
0.0
 40
0.25
  0
ENDBLK
  5
8E
  8
0
  0
ENDSEC
  0
SECTION
  2
ENTITIES
  0
LINE
  5
8F
  8
DETAIL
  6
CONTINUOUS
 62
     5
 10
-270.00000807946702
 20
-454.99998912388679
 30
0.0
 11
699.99998681672923
 21
-455.00001750930022
 31
0.0
  0
LINE
  5
90
  8
DETAIL
  6
CONTINUOUS
 62
     5
 10
-270.79999509310892
 20
-14.999991415603811
 30
0.0
 11
699.99999969258795
 21
-15.000019824427991
 31
0.0
  0
LINE
  5
91
  8
DETAIL
  6
CONTINUOUS
 62
     5
 10
724.99999839051327
 20
-55.000020345544769
 30
0.0
 11
724.99998972857315
 21
-355.00001876704903
 31
0.0
  0
LINE
  5
92
  8
DETAIL
  6
CONTINUOUS
 62
     5
 10
699.99998974306118
 20
-355.00001803546593
 30
0.0
 11
724.99998961151994
 21
-355.00001876704903
 31
0.0
  0
CIRCLE
  5
94
  8
DETAIL
  6
CONTINUOUS
 62
     5
 10
714.99999112730097
 20
-305.00001873749852
 30
0.0
 40
1.6999999910550601
  0
LINE
  5
96
  8
NOTE
  6
CONTINUOUS
 62
     4
 10
708.29999116255385
 20
-305.00001854143432
 30
0.0
 11
721.699991092049
 21
-305.00001893356279
 31
0.0
  0
LINE
  5
97
  8
NOTE
  6
CONTINUOUS
 62
     4
 10
714.99999132336495
 20
-298.30001877275078
 30
0.0
 11
714.99999093123824
 21
-311.70001870224638
 31
0.0
  0
LINE
  5
98
  8
DETAIL
  6
CONTINUOUS
 62
     5
 10
699.99999852205519
 20
-55.000019613961832
 30
0.0
 11
724.99999839051304
 21
-55.000020345544797
 31
0.0
  0
CIRCLE
  5
99
  8
DETAIL
  6
CONTINUOUS
 62
     5
 10
714.99999405363315
 20
-205.0000192636638
 30
0.0
 40
1.6999999910550601
  0
LINE
  5
9A
  8
NOTE
  6
CONTINUOUS
 62
     4
 10
708.29999408888625
 20
-205.0000190675996
 30
0.0
 11
721.69999401838118
 21
-205.00001945972821
 31
0.0
  0
LINE
  5
9B
  8
NOTE
  6
CONTINUOUS
 62
     4
 10
714.99999424969701
 20
-198.30001929891611
 30
0.0
 11
714.99999385756917
 21
-211.70001922841129
 31
0.0
  0
CIRCLE
  5
9C
  8
DETAIL
  6
CONTINUOUS
 62
     5
 10
714.99999697996407
 20
-105.0000197898289
 30
0.0
 40
1.6999999910550601
  0
LINE
  5
9D
  8
NOTE
  6
CONTINUOUS
 62
     4
 10
708.29999701521717
 20
-105.00001959376461
 30
0.0
 11
721.6999969447121
 21
-105.0000199858932
 31
0.0
  0
LINE
  5
9E
  8
NOTE
  6
CONTINUOUS
 62
     4
 10
714.99999717602839
 20
-98.300019825081634
 30
0.0
 11
714.9999967839002
 21
-111.7000197545767
 31
0.0
  0
LINE
  5
A1
  8
DETAIL
  6
CONTINUOUS
 62
     5
 10
594.0000001040122
 20
-20.000016696208679
 30
0.0
 11
698.99999955153669
 21
-20.0000197688565
 31
0.0
  0
LINE
  5
A2
  8
DETAIL
  6
CONTINUOUS
 62
     5
 10
659.99999940557746
 20
-32.00001856444586
 30
0.0
 11
596.99999973705985
 21
-32.000016720857332
 31
0.0
  0
LINE
  5
A3
  8
DETAIL
  6
CONTINUOUS
 62
     5
 10
593.99999893347922
 20
-60.000016485742968
 30
0.0
 11
698.9999983810053
 21
-60.000019558390797
 31
0.0
  0
ARC
  5
A4
  8
DETAIL
  6
CONTINUOUS
 62
     5
 10
659.99999949336734
 20
-29.00001858022879
 30
0.0
 40
2.999999984215151
 50
269.9999983233356
 51
359.9999983233356
  0
ARC
  5
A5
  8
DETAIL
  6
CONTINUOUS
 62
     5
 10
677.99999939865916
 20
-29.000019106968541
 30
0.0
 40
2.9999999842150791
 50
179.9999983233354
 51
269.9999983233356
  0
ARC
  5
A6
  8
DETAIL
  6
CONTINUOUS
 62
     5
 10
693.49999931710545
 20
-29.00001956054993
 30
0.0
 40
2.999999984215151
 50
269.9999983233356
 51
359.9999983233356
  0
LINE
  5
A7
  8
DETAIL
  6
CONTINUOUS
 62
     5
 10
662.99999947758397
 20
-29.000018668018669
 30
0.0
 11
662.99999974095294
 21
-20.00001871537695
 31
0.0
  0
LINE
  5
A8
  8
DETAIL
  6
CONTINUOUS
 62
     5
 10
674.99999941444207
 20
-29.000019019178659
 30
0.0
 11
674.99999967781196
 21
-20.000019066536961
 31
0.0
  0
LINE
  5
A9
  8
DETAIL
  6
CONTINUOUS
 62
     5
 10
696.49999930132287
 20
-29.000019648339808
 30
0.0
 11
696.49999956469208
 21
-20.000019695698121
 31
0.0
  0
LINE
  5
AA
  8
DETAIL
  6
CONTINUOUS
 62
     5
 10
698.9999983810053
 20
-60.000019558390797
 30
0.0
 11
698.99999955153669
 21
-20.0000197688565
 31
0.0
  0
LINE
  5
AB
  8
DETAIL
  6
CONTINUOUS
 62
     5
 10
699.99998637777833
 20
-470.00001743037518
 30
0.0
 11
700.00000013153613
 21
-0.0000199033525803
 31
0.0
  0
LINE
  5
AC
  8
DETAIL
  6
CONTINUOUS
 62
     5
 10
693.49999922931522
 20
-32.000019544767
 30
0.0
 11
677.99999931087029
 21
-32.000019091185628
 31
0.0
  0
ARC
  5
AD
  8
DETAIL
  6
CONTINUOUS
 62
     5
 10
596.99999982485031
 20
-29.000016736640269
 30
0.0
 40
2.9999999842150791
 50
179.9999983233354
 51
269.9999983233356
  0
LINE
  5
AF
  8
DETAIL
  6
CONTINUOUS
 62
     5
 10
593.99999893347922
 20
-60.000016485742968
 30
0.0
 11
594.00000010401243
 21
-20.000016696208679
 31
0.0
  0
LINE
  5
B0
  8
DETAIL
  6
CONTINUOUS
 62
     5
 10
-270.000008518416
 20
-469.99998904496169
 30
0.0
 11
-270.00000807946702
 21
-454.99998912388679
 31
0.0
  0
LINE
  5
B1
  8
DETAIL
  6
CONTINUOUS
 62
     5
 10
-250.0000086236486
 20
-469.9999896302279
 30
0.0
 11
-250.00000818469971
 21
-454.999989709153
 31
0.0
  0
LINE
  5
B2
  8
NOTE
  6
CONTINUOUS
 62
     4
 10
95.999994998798243
 20
-284.00000073399877
 30
0.0
 11
95.999993184473624
 21
-346.00000040777468
 31
0.0
  0
LINE
  5
B3
  8
NOTE
  6
CONTINUOUS
 62
     4
 10
64.999994254744252
 20
-314.99999966372837
 30
0.0
 11
126.9999939285194
 21
-315.00000147805389
 31
0.0
  0
LINE
  5
B4
  8
NOTE
  6
CONTINUOUS
 62
     4
 10
-0.0000035596599446
 20
-251.9999980930952
 30
0.0
 11
-0.0000049057725846
 21
-297.99999785106269
 31
0.0
  0
LINE
  5
B5
  8
NOTE
  6
CONTINUOUS
 62
     4
 10
-23.000004111699589
 20
-274.99999729902299
 30
0.0
 11
22.999995646267049
 21
-274.99999864513518
 31
0.0
  0
LINE
  5
B6
  8
DETAIL
  6
CONTINUOUS
 62
     5
 10
-700.00000013153965
 20
0.0000210652860062
 30
0.0
 11
-700.00001388529768
 21
-469.99997646173688
 31
0.0
  0
LINE
  5
B7
  8
DETAIL
  6
CONTINUOUS
 62
     5
 10
-290.99999500531879
 20
-11.999990840267481
 30
0.0
 11
-290.9999946541588
 21
0.0000090965908441
 31
0.0
  0
LINE
  5
B8
  8
DETAIL
  6
CONTINUOUS
 62
     5
 10
-270.00000822578289
 20
-459.99998909757778
 30
0.0
 11
-700.00001359266287
 21
-459.99997651435342
 31
0.0
  0
LINE
  5
B9
  8
DETAIL
  6
CONTINUOUS
 62
     5
 10
-293.9999950773244
 20
-14.999990736694681
 30
0.0
 11
-700.00000057048874
 21
-14.999978855789401
 31
0.0
  0
LINE
  5
BA
  8
DETAIL
  6
CONTINUOUS
 62
     5
 10
-270.79999509310892
 20
-14.999991415603811
 30
0.0
 11
-270.79999465415858
 21
0.0000085054715839
 31
0.0
  0
LINE
  5
BB
  8
DETAIL
  6
CONTINUOUS
 62
     5
 10
-290.99999500531879
 20
-11.999990840267481
 30
0.0
 11
-293.9999950773244
 21
-14.999990736694681
 31
0.0
  0
LINE
  5
BC
  8
DETAIL
  6
CONTINUOUS
 62
     5
 10
-725.00000510014752
 20
-434.99997591431247
 30
0.0
 11
-724.9999933948227
 21
-34.99997591431255
 31
0.0
  0
LINE
  5
BD
  8
DETAIL
  6
CONTINUOUS
 62
     5
 10
-700.00001388529768
 20
-469.99997646173688
 30
0.0
 11
699.99998637777833
 21
-470.00001743037518
 31
0.0
  0
LINE
  5
BF
  8
DETAIL
  6
CONTINUOUS
 62
     5
 10
-700.0000128610809
 20
-434.999976645895
 30
0.0
 11
-725.00000510014752
 21
-434.99997591431247
 31
0.0
  0
CIRCLE
  5
C0
  8
DETAIL
  6
CONTINUOUS
 62
     5
 10
-715.00000368959866
 20
-384.99997647002829
 30
0.0
 40
1.7
  0
LINE
  5
C1
  8
NOTE
  6
CONTINUOUS
 62
     4
 10
-721.45000365565647
 20
-384.99997628128
 30
0.0
 11
-708.55000372353243
 21
-384.99997665877657
 31
0.0
  0
LINE
  5
C2
  8
NOTE
  6
CONTINUOUS
 62
     4
 10
-715.0000035008502
 20
-378.54997650396172
 30
0.0
 11
-715.00000387834689
 21
-391.44997643608559
 31
0.0
  0
CIRCLE
  5
C3
  8
DETAIL
  6
CONTINUOUS
 62
     5
 10
-715.00000076326705
 20
-284.99997699619382
 30
0.0
 40
1.7
  0
LINE
  5
C4
  8
NOTE
  6
CONTINUOUS
 62
     4
 10
-721.45000072932555
 20
-284.99997680744548
 30
0.0
 11
-708.55000079720094
 21
-284.999977184942
 31
0.0
  0
LINE
  5
C5
  8
NOTE
  6
CONTINUOUS
 62
     4
 10
-715.00000057451848
 20
-278.54997703012708
 30
0.0
 11
-715.00000095201449
 21
-291.44997696225118
 31
0.0
  0
LINE
  5
C6
  8
DETAIL
  6
CONTINUOUS
 62
     5
 10
-698.99999309267241
 20
-19.999978858744331
 30
0.0
 11
-593.99999364514645
 21
-19.999981931392171
 31
0.0
  0
LINE
  5
C7
  8
DETAIL
  6
CONTINUOUS
 62
     5
 10
-596.99999398052285
 20
-31.99998178046107
 30
0.0
 11
-659.99999364903965
 21
-31.99997993687256
 31
0.0
  0
ARC
  5
C8
  8
DETAIL
  6
CONTINUOUS
 62
     5
 10
-596.99999389273285
 20
-28.999981796243979
 30
0.0
 40
2.9999999842150511
 50
269.9999983233356
 51
359.9999983233356
  0
LINE
  5
CA
  8
DETAIL
  6
CONTINUOUS
 62
     5
 10
-593.99999481567875
 20
-59.999981720926897
 30
0.0
 11
-593.99999390851519
 21
-19.99998193139216
 31
0.0
  0
LINE
  5
CB
  8
NOTE
  6
CONTINUOUS
 62
     4
 10
-714.99999764818756
 20
-178.54997755629211
 30
0.0
 11
-714.99999802568482
 21
-191.44997748841661
 31
0.0
  0
CIRCLE
  5
CC
  8
DETAIL
  6
CONTINUOUS
 62
     5
 10
-714.9999978369359
 20
-184.9999775223589
 30
0.0
 40
1.7
  0
LINE
  5
CD
  8
NOTE
  6
CONTINUOUS
 62
     4
 10
-721.44999780299474
 20
-184.99997733361079
 30
0.0
 11
-708.54999787087081
 21
-184.99997771110731
 31
0.0
  0
LINE
  5
CE
  8
DETAIL
  6
CONTINUOUS
 62
     5
 10
-677.99999355433272
 20
-31.999979410132791
 30
0.0
 11
-693.49999347276889
 21
-31.999978956551399
 31
0.0
  0
LINE
  5
CF
  8
DETAIL
  6
CONTINUOUS
 62
     5
 10
-593.99999481567875
 20
-59.999981720926421
 30
0.0
 11
-698.99999426320483
 21
-59.999978648278642
 31
0.0
  0
ARC
  5
D0
  8
DETAIL
  6
CONTINUOUS
 62
     5
 10
-659.99999356124977
 20
-28.99997995265549
 30
0.0
 40
2.9999999842150791
 50
179.9999983233354
 51
269.9999983233356
  0
ARC
  5
D1
  8
DETAIL
  6
CONTINUOUS
 62
     5
 10
-677.99999346654295
 20
-28.999979425915701
 30
0.0
 40
2.9999999842150311
 50
269.9999983233356
 51
359.9999983233356
  0
LINE
  5
D2
  8
DETAIL
  6
CONTINUOUS
 62
     5
 10
-674.9999934823245
 20
-28.9999795137056
 30
0.0
 11
-674.99999321895484
 21
-19.999979561063881
 31
0.0
  0
LINE
  5
D3
  8
DETAIL
  6
CONTINUOUS
 62
     5
 10
-662.99999354546765
 20
-28.99997986486559
 30
0.0
 11
-662.99999328209719
 21
-19.999979912223889
 31
0.0
  0
CIRCLE
  5
D4
  8
DETAIL
  6
CONTINUOUS
 62
     5
 10
-714.99999491060453
 20
-84.999978048524184
 30
0.0
 40
1.7
  0
LINE
  5
D5
  8
NOTE
  6
CONTINUOUS
 62
     4
 10
-721.44999487666291
 20
-84.999977859775825
 30
0.0
 11
-708.54999494453978
 21
-84.999978237272529
 31
0.0
  0
LINE
  5
D6
  8
NOTE
  6
CONTINUOUS
 62
     4
 10
-714.99999472185561
 20
-78.549978082457613
 30
0.0
 11
-714.99999509935424
 21
-91.449978014582101
 31
0.0
  0
ARC
  5
D7
  8
DETAIL
  6
CONTINUOUS
 62
     5
 10
-693.49999338497958
 20
-28.999978972334329
 30
0.0
 40
2.9999999842150791
 50
179.9999983233354
 51
269.9999983233356
  0
LINE
  5
D8
  8
DETAIL
  6
CONTINUOUS
 62
     5
 10
-698.99999309267241
 20
-19.999978858744331
 30
0.0
 11
-698.99999426320483
 21
-59.999978648278642
 31
0.0
  0
LINE
  5
D9
  8
DETAIL
  6
CONTINUOUS
 62
     5
 10
-696.49999336919632
 20
-28.99997888454444
 30
0.0
 11
-696.49999310582689
 21
-19.999978931902721
 31
0.0
  0
LINE
  5
DA
  8
DETAIL
  6
CONTINUOUS
 62
     5
 10
700.00000013153613
 20
-0.0000199033525803
 30
0.0
 11
-700.00000013153965
 21
0.0000210652860062
 31
0.0
  0
LINE
  5
DB
  8
SERVICESPACE
  6
DASHDOT
 62
     2
 10
-700.00001388529768
 20
-489.99999694605401
 30
0.0
 11
749.99998102351014
 21
-489.99999694605401
 31
0.0
  0
LINE
  5
DC
  8
SERVICESPACE
  6
DASHDOT
 62
     2
 10
749.99998102351014
 20
-489.99999694605401
 30
0.0
 11
749.99998102351014
 21
-469.99999694605413
 31
0.0
  0
LINE
  5
DD
  8
SERVICESPACE
  6
DASHDOT
 62
     2
 10
749.99998102351014
 20
-469.99999694605413
 30
0.0
 11
-700.00001388529768
 21
-469.99999694605413
 31
0.0
  0
LINE
  5
DE
  8
SERVICESPACE
  6
DASHDOT
 62
     2
 10
-700.00001923956745
 20
20.000000580966031
 30
0.0
 11
-700.00001923956745
 21
0.0000005809660308
 31
0.0
  0
LINE
  5
DF
  8
SERVICESPACE
  6
DASHDOT
 62
     2
 10
-700.00001923956745
 20
0.0000005809660308
 30
0.0
 11
749.99998102351014
 21
0.0000005809660308
 31
0.0
  0
LINE
  5
E0
  8
SERVICESPACE
  6
DASHDOT
 62
     2
 10
749.99998102351014
 20
0.0000005809660308
 30
0.0
 11
749.99998102351014
 21
20.000000580966031
 31
0.0
  0
LINE
  5
E1
  8
SERVICESPACE
  6
DASHDOT
 62
     2
 10
749.99998102351014
 20
20.000000580966031
 30
0.0
 11
-700.00001923956745
 21
20.000000580966031
 31
0.0
  0
LINE
  5
E2
  8
SIZE
  6
CONTINUOUS
 62
    30
 10
-741.45000365565647
 20
-384.99997628128
 30
0.0
 11
-867.87994238374176
 21
-384.99997628128
 31
0.0
  0
LINE
  5
E3
  8
SIZE
  6
CONTINUOUS
 62
    30
 10
-745.00000510014752
 20
-434.99997591431247
 30
0.0
 11
-867.87994238374176
 21
-434.99997591431247
 31
0.0
  0
LINE
  5
E4
  8
SIZE
  6
CONTINUOUS
 62
    30
 10
-847.87994238374165
 20
-384.99997628128
 30
0.0
 11
-847.87994238374165
 21
-434.99997591431247
 31
0.0
  0
LINE
  5
E5
  8
SIZE
  6
CONTINUOUS
 62
    30
 10
-847.87994238374165
 20
-434.99997591431247
 30
0.0
 11
-847.87994238374165
 21
-585.37060309465483
 31
0.0
  0
CIRCLE
  5
E6
  8
SIZE
  6
CONTINUOUS
 62
    30
 10
-847.87994238374165
 20
-384.99997628128
 30
0.0
 40
6.25
  0
CIRCLE
  5
E7
  8
SIZE
  6
CONTINUOUS
 62
    30
 10
-847.87994238374165
 20
-434.99997591431247
 30
0.0
 40
6.25
  0
TEXT
  5
E8
  8
SIZE
  6
CONTINUOUS
 62
    30
 10
-862.87994238374165
 20
-570.37060309465471
 30
0.0
 40
50.0
  1
50
 50
90.0
 41
0.9
 72
     1
 11
-862.87994238374165
 21
-533.94203166608338
 31
0.0
  0
POINT
  5
E9
  8
DEFPOINTS
  6
CONTINUOUS
 62
     7
 10
-721.45000365565647
 20
-384.99997628128
 30
0.0
  0
POINT
  5
EA
  8
DEFPOINTS
  6
CONTINUOUS
 62
     7
 10
-725.00000510014752
 20
-434.99997591431247
 30
0.0
  0
POINT
  5
EB
  8
DEFPOINTS
  6
CONTINUOUS
 62
     7
 10
-847.87994238374165
 20
-434.99997591431247
 30
0.0
  0
LINE
  5
EC
  8
SIZE
  6
CONTINUOUS
 62
    30
 10
-741.45000365565647
 20
-384.99997628128
 30
0.0
 11
-867.87993360457097
 21
-384.99997628128
 31
0.0
  0
LINE
  5
ED
  8
SIZE
  6
CONTINUOUS
 62
    30
 10
-741.4499948766628
 20
-84.999977859775825
 30
0.0
 11
-867.87993360457097
 21
-84.999977859775782
 31
0.0
  0
LINE
  5
EE
  8
SIZE
  6
CONTINUOUS
 62
    30
 10
-847.87993360457085
 20
-384.99997628128
 30
0.0
 11
-847.87993360457085
 21
-84.999977859775797
 31
0.0
  0
CIRCLE
  5
EF
  8
SIZE
  6
CONTINUOUS
 62
    30
 10
-847.87993360457085
 20
-384.99997628128
 30
0.0
 40
6.25
  0
CIRCLE
  5
F0
  8
SIZE
  6
CONTINUOUS
 62
    30
 10
-847.87993360457085
 20
-84.999977859775797
 30
0.0
 40
6.25
  0
TEXT
  5
F1
  8
SIZE
  6
CONTINUOUS
 62
    30
 10
-862.87993360457085
 20
-292.86842834346612
 30
0.0
 40
50.0
  1
300
 50
90.0
 41
0.9
 72
     1
 11
-862.87993360457085
 21
-235.0112854863232
 31
0.0
  0
POINT
  5
F2
  8
DEFPOINTS
  6
CONTINUOUS
 62
     7
 10
-721.45000365565647
 20
-384.99997628128
 30
0.0
  0
POINT
  5
F3
  8
DEFPOINTS
  6
CONTINUOUS
 62
     7
 10
-721.44999487666291
 20
-84.999977859775825
 30
0.0
  0
POINT
  5
F4
  8
DEFPOINTS
  6
CONTINUOUS
 62
     7
 10
-847.87993360457085
 20
-84.999977859775797
 30
0.0
  0
LINE
  5
F5
  8
SIZE
  6
CONTINUOUS
 62
    30
 10
-720.0000138852979
 20
-469.99997646173409
 30
0.0
 11
-1238.2211537038061
 21
-469.99997646173398
 31
0.0
  0
LINE
  5
F6
  8
SIZE
  6
CONTINUOUS
 62
    30
 10
-720.00000013153965
 20
0.0000210652855713
 30
0.0
 11
-1238.2211537038061
 21
0.0000210652857181
 31
0.0
  0
LINE
  5
F7
  8
SIZE
  6
CONTINUOUS
 62
    30
 10
-1218.2211537038061
 20
-469.99997646173398
 30
0.0
 11
-1218.2211537038061
 21
0.0000210652857124
 31
0.0
  0
CIRCLE
  5
F8
  8
SIZE
  6
CONTINUOUS
 62
    30
 10
-1218.2211537038061
 20
-469.99997646173398
 30
0.0
 40
6.25
  0
CIRCLE
  5
F9
  8
SIZE
  6
CONTINUOUS
 62
    30
 10
-1218.2211537038061
 20
0.0000210652857124
 30
0.0
 40
6.25
  0
TEXT
  5
FA
  8
SIZE
  6
CONTINUOUS
 62
    30
 10
-1233.2211537038061
 20
-292.8571205553672
 30
0.0
 40
50.0
  1
470
 50
90.0
 41
0.9
 72
     1
 11
-1233.2211537038061
 21
-234.99997769822431
 31
0.0
  0
POINT
  5
FB
  8
DEFPOINTS
  6
CONTINUOUS
 62
     7
 10
-700.00001388529768
 20
-469.99997646173409
 30
0.0
  0
POINT
  5
FC
  8
DEFPOINTS
  6
CONTINUOUS
 62
     7
 10
-700.00000013153965
 20
0.0000210652855656
 30
0.0
  0
POINT
  5
FD
  8
DEFPOINTS
  6
CONTINUOUS
 62
     7
 10
-1218.2211537038061
 20
0.0000210652857124
 30
0.0
  0
LINE
  5
FE
  8
DETAIL
  6
CONTINUOUS
 62
     5
 10
-700.00000115575608
 20
-34.999976645895067
 30
0.0
 11
-724.9999933948227
 21
-34.99997591431255
 31
0.0
  0
LINE
  5
FF
  8
SIZE
  6
CONTINUOUS
 62
    30
 10
-745.00000510014752
 20
-434.99997591431247
 30
0.0
 11
-1116.817098603934
 21
-434.99997591431247
 31
0.0
  0
LINE
  5
100
  8
SIZE
  6
CONTINUOUS
 62
    30
 10
-720.0000138852979
 20
-469.99997646173409
 30
0.0
 11
-1116.817098603934
 21
-469.99997646173409
 31
0.0
  0
LINE
  5
101
  8
SIZE
  6
CONTINUOUS
 62
    30
 10
-1096.817098603934
 20
-434.99997591431247
 30
0.0
 11
-1096.817098603934
 21
-469.99997646173409
 31
0.0
  0
LINE
  5
102
  8
SIZE
  6
CONTINUOUS
 62
    30
 10
-1096.817098603934
 20
-469.99997646173409
 30
0.0
 11
-1096.817098603934
 21
-597.85711931887647
 31
0.0
  0
CIRCLE
  5
103
  8
SIZE
  6
CONTINUOUS
 62
    30
 10
-1096.817098603934
 20
-434.99997591431247
 30
0.0
 40
6.25
  0
CIRCLE
  5
104
  8
SIZE
  6
CONTINUOUS
 62
    30
 10
-1096.817098603934
 20
-469.99997646173409
 30
0.0
 40
6.25
  0
TEXT
  5
105
  8
SIZE
  6
CONTINUOUS
 62
    30
 10
-1111.817098603934
 20
-582.85711931887704
 30
0.0
 40
50.0
  1
35
 50
90.0
 41
0.9
 72
     1
 11
-1111.817098603934
 21
-546.42854789030559
 31
0.0
  0
POINT
  5
106
  8
DEFPOINTS
  6
CONTINUOUS
 62
     7
 10
-725.00000510014752
 20
-434.99997591431247
 30
0.0
  0
POINT
  5
107
  8
DEFPOINTS
  6
CONTINUOUS
 62
     7
 10
-700.00001388529768
 20
-469.99997646173409
 30
0.0
  0
POINT
  5
108
  8
DEFPOINTS
  6
CONTINUOUS
 62
     7
 10
-1096.817098603934
 20
-469.99997646173409
 30
0.0
  0
LINE
  5
109
  8
SIZE
  6
CONTINUOUS
 62
    30
 10
-745.00000510014752
 20
-434.99997591431247
 30
0.0
 11
-1116.817073144595
 21
-434.99997591431247
 31
0.0
  0
LINE
  5
10A
  8
SIZE
  6
CONTINUOUS
 62
    30
 10
-744.9999933948227
 20
-34.99997591431255
 30
0.0
 11
-1116.817073144595
 21
-34.999975914312436
 31
0.0
  0
LINE
  5
10B
  8
SIZE
  6
CONTINUOUS
 62
    30
 10
-1096.817073144595
 20
-434.99997591431247
 30
0.0
 11
-1096.817073144595
 21
-34.999975914312436
 31
0.0
  0
CIRCLE
  5
10C
  8
SIZE
  6
CONTINUOUS
 62
    30
 10
-1096.817073144595
 20
-434.99997591431247
 30
0.0
 40
6.25
  0
CIRCLE
  5
10D
  8
SIZE
  6
CONTINUOUS
 62
    30
 10
-1096.817073144595
 20
-34.999975914312436
 30
0.0
 40
6.25
  0
TEXT
  5
10E
  8
SIZE
  6
CONTINUOUS
 62
    30
 10
-1111.817073144595
 20
-292.85711877145542
 30
0.0
 40
50.0
  1
400
 50
90.0
 41
0.9
 72
     1
 11
-1111.817073144595
 21
-234.99997591431261
 31
0.0
  0
POINT
  5
10F
  8
DEFPOINTS
  6
CONTINUOUS
 62
     7
 10
-725.00000510014752
 20
-434.99997591431247
 30
0.0
  0
POINT
  5
110
  8
DEFPOINTS
  6
CONTINUOUS
 62
     7
 10
-724.9999933948227
 20
-34.99997591431255
 30
0.0
  0
POINT
  5
111
  8
DEFPOINTS
  6
CONTINUOUS
 62
     7
 10
-1096.817073144595
 20
-34.999975914312436
 30
0.0
  0
TEXT
  5
112
  8
SIZE
  6
CONTINUOUS
 62
    30
 10
-1030.5133733648711
 20
-361.79555949868802
 30
0.0
 40
50.0
  1
(ダクト寸法)
 50
90.000004181133022
 41
0.7031250221965211
  7
STANDARD1
  0
TEXT
  5
113
  8
SIZE
  6
CONTINUOUS
 62
    30
 10
-926.21183853703485
 20
-339.53995658683982
 30
0.0
 40
50.0
  1
100\U+00D73=
 50
89.999995818866964
 41
0.7031250221965211
  7
STANDARD1
  0
LINE
  5
114
  8
SIZE
  6
CONTINUOUS
 62
    30
 10
741.69999109204889
 20
-305.00001893356279
 30
0.0
 11
984.47614428717407
 21
-305.0000189335629
 31
0.0
  0
LINE
  5
115
  8
SIZE
  6
CONTINUOUS
 62
    30
 10
744.99998961151994
 20
-355.00001876704891
 30
0.0
 11
984.47614428717407
 21
-355.00001876704891
 31
0.0
  0
LINE
  5
116
  8
SIZE
  6
CONTINUOUS
 62
    30
 10
964.47614428717395
 20
-305.0000189335629
 30
0.0
 11
964.47614428717395
 21
-355.00001876704891
 31
0.0
  0
LINE
  5
117
  8
SIZE
  6
CONTINUOUS
 62
    30
 10
964.47614428717395
 20
-355.00001876704891
 30
0.0
 11
964.47614428717395
 21
-459.42923274556603
 31
0.0
  0
CIRCLE
  5
118
  8
SIZE
  6
CONTINUOUS
 62
    30
 10
964.47614428717395
 20
-305.0000189335629
 30
0.0
 40
6.25
  0
CIRCLE
  5
119
  8
SIZE
  6
CONTINUOUS
 62
    30
 10
964.47614428717395
 20
-355.00001876704891
 30
0.0
 40
6.25
  0
TEXT
  5
11A
  8
SIZE
  6
CONTINUOUS
 62
    30
 10
949.47614428717452
 20
-443.64319718487877
 30
0.0
 40
50.0
  1
50
 50
90.0
 41
0.9
 72
     1
 11
949.47614428717452
 21
-407.21462575630738
 31
0.0
  0
POINT
  5
11B
  8
DEFPOINTS
  6
CONTINUOUS
 62
     7
 10
721.699991092049
 20
-305.00001893356279
 30
0.0
  0
POINT
  5
11C
  8
DEFPOINTS
  6
CONTINUOUS
 62
     7
 10
724.99998961151994
 20
-355.00001876704891
 30
0.0
  0
POINT
  5
11D
  8
DEFPOINTS
  6
CONTINUOUS
 62
     7
 10
964.47614428717395
 20
-355.00001876704891
 30
0.0
  0
LINE
  5
11E
  8
SIZE
  6
CONTINUOUS
 62
    30
 10
741.69999109204889
 20
-305.00001893356279
 30
0.0
 11
984.47615160315092
 21
-305.0000189335629
 31
0.0
  0
LINE
  5
11F
  8
SIZE
  6
CONTINUOUS
 62
    30
 10
741.69999694471164
 20
-105.0000199858932
 30
0.0
 11
984.47615160315092
 21
-105.0000199858933
 31
0.0
  0
LINE
  5
120
  8
SIZE
  6
CONTINUOUS
 62
    30
 10
964.47615160315081
 20
-305.0000189335629
 30
0.0
 11
964.47615160315081
 21
-105.0000199858933
 31
0.0
  0
CIRCLE
  5
121
  8
SIZE
  6
CONTINUOUS
 62
    30
 10
964.47615160315081
 20
-305.0000189335629
 30
0.0
 40
6.25
  0
CIRCLE
  5
122
  8
SIZE
  6
CONTINUOUS
 62
    30
 10
964.47615160315081
 20
-105.0000199858933
 30
0.0
 40
6.25
  0
TEXT
  5
123
  8
SIZE
  6
CONTINUOUS
 62
    30
 10
949.47615160315127
 20
-262.8571623168707
 30
0.0
 40
50.0
  1
200
 50
90.0
 41
0.9
 72
     1
 11
949.47615160315127
 21
-205.00001945972789
 31
0.0
  0
POINT
  5
124
  8
DEFPOINTS
  6
CONTINUOUS
 62
     7
 10
721.699991092049
 20
-305.00001893356279
 30
0.0
  0
POINT
  5
125
  8
DEFPOINTS
  6
CONTINUOUS
 62
     7
 10
721.6999969447121
 20
-105.0000199858932
 30
0.0
  0
POINT
  5
126
  8
DEFPOINTS
  6
CONTINUOUS
 62
     7
 10
964.47615160315081
 20
-105.0000199858933
 30
0.0
  0
TEXT
  5
127
  8
SIZE
  6
CONTINUOUS
 62
    30
 10
890.71637841434278
 20
-311.52072292111819
 30
0.0
 40
50.0
  1
100\U+00D72=
 50
89.999995818866964
 41
0.7031250221965211
  7
STANDARD1
  0
LINE
  5
128
  8
SIZE
  6
CONTINUOUS
 62
    30
 10
744.99998961151994
 20
-355.00001876704891
 30
0.0
 11
1114.7704176686859
 21
-355.00001876704891
 31
0.0
  0
LINE
  5
129
  8
SIZE
  6
CONTINUOUS
 62
    30
 10
719.99998637777878
 20
-470.00001743037518
 30
0.0
 11
1114.7704176686859
 21
-470.00001743037552
 31
0.0
  0
LINE
  5
12A
  8
SIZE
  6
CONTINUOUS
 62
    30
 10
1094.7704176686859
 20
-355.00001876704891
 30
0.0
 11
1094.7704176686859
 21
-470.00001743037552
 31
0.0
  0
LINE
  5
12B
  8
SIZE
  6
CONTINUOUS
 62
    30
 10
1094.7704176686859
 20
-470.00001743037552
 30
0.0
 11
1094.770417668685
 21
-609.85622361284527
 31
0.0
  0
CIRCLE
  5
12C
  8
SIZE
  6
CONTINUOUS
 62
    30
 10
1094.7704176686859
 20
-355.00001876704891
 30
0.0
 40
6.25
  0
CIRCLE
  5
12D
  8
SIZE
  6
CONTINUOUS
 62
    30
 10
1094.7704176686859
 20
-470.00001743037552
 30
0.0
 40
6.25
  0
TEXT
  5
12E
  8
SIZE
  6
CONTINUOUS
 62
    30
 10
1079.7704176686859
 20
-589.21383480732459
 30
0.0
 40
50.0
  1
115
 50
90.0
 41
0.9
 72
     1
 11
1079.7704176686859
 21
-539.92812052161025
 31
0.0
  0
POINT
  5
12F
  8
DEFPOINTS
  6
CONTINUOUS
 62
     7
 10
724.99998961151994
 20
-355.00001876704891
 30
0.0
  0
POINT
  5
130
  8
DEFPOINTS
  6
CONTINUOUS
 62
     7
 10
699.99998637777833
 20
-470.00001743037518
 30
0.0
  0
POINT
  5
131
  8
DEFPOINTS
  6
CONTINUOUS
 62
     7
 10
1094.7704176686859
 20
-470.00001743037552
 30
0.0
  0
LINE
  5
132
  8
SIZE
  6
CONTINUOUS
 62
    30
 10
744.99998961151994
 20
-355.00001876704891
 30
0.0
 11
1114.7704298129611
 21
-355.00001876704891
 31
0.0
  0
LINE
  5
133
  8
SIZE
  6
CONTINUOUS
 62
    30
 10
744.99999839051316
 20
-55.000020345544769
 30
0.0
 11
1114.7704298129611
 21
-55.000020345544911
 31
0.0
  0
LINE
  5
134
  8
SIZE
  6
CONTINUOUS
 62
    30
 10
1094.7704298129611
 20
-355.00001876704891
 30
0.0
 11
1094.7704298129611
 21
-55.00002034554489
 31
0.0
  0
CIRCLE
  5
135
  8
SIZE
  6
CONTINUOUS
 62
    30
 10
1094.7704298129611
 20
-355.00001876704891
 30
0.0
 40
6.25
  0
CIRCLE
  5
136
  8
SIZE
  6
CONTINUOUS
 62
    30
 10
1094.7704298129611
 20
-55.00002034554489
 30
0.0
 40
6.25
  0
TEXT
  5
137
  8
SIZE
  6
CONTINUOUS
 62
    30
 10
1079.7704298129611
 20
-262.8571624134396
 30
0.0
 40
50.0
  1
300
 50
90.0
 41
0.9
 72
     1
 11
1079.7704298129611
 21
-205.00001955629671
 31
0.0
  0
POINT
  5
138
  8
DEFPOINTS
  6
CONTINUOUS
 62
     7
 10
724.99998961151994
 20
-355.00001876704891
 30
0.0
  0
POINT
  5
139
  8
DEFPOINTS
  6
CONTINUOUS
 62
     7
 10
724.99999839051316
 20
-55.000020345544769
 30
0.0
  0
POINT
  5
13A
  8
DEFPOINTS
  6
CONTINUOUS
 62
     7
 10
1094.7704298129611
 20
-55.00002034554489
 30
0.0
  0
TEXT
  5
13B
  8
NOTE
  6
CONTINUOUS
 62
     4
 10
-376.64786813543782
 20
30.21476239286168
 30
0.0
 40
50.0
  1
サービススペース
 50
359.99999581891882
 41
0.7031250221965211
  7
STANDARD1
  0
LINE
  5
13C
  8
SIZE
  6
CONTINUOUS
 62
    30
 10
699.99998579250985
 20
-490.00001743037541
 30
0.0
 11
699.99997651586898
 21
-1118.1016132699431
 31
0.0
  0
LINE
  5
13D
  8
SIZE
  6
CONTINUOUS
 62
    30
 10
95.999992599204688
 20
-366.00000040777479
 30
0.0
 11
95.999979693896563
 21
-1118.101595594821
 31
0.0
  0
LINE
  5
13E
  8
SIZE
  6
CONTINUOUS
 62
    30
 10
699.99997710113803
 20
-1098.1016132699431
 30
0.0
 11
95.999980279165513
 21
-1098.101595594821
 31
0.0
  0
CIRCLE
  5
13F
  8
SIZE
  6
CONTINUOUS
 62
    30
 10
699.99997710113803
 20
-1098.1016132699431
 30
0.0
 40
6.25
  0
CIRCLE
  5
140
  8
SIZE
  6
CONTINUOUS
 62
    30
 10
95.999980279165513
 20
-1098.101595594821
 30
0.0
 40
6.25
  0
TEXT
  5
141
  8
SIZE
  6
CONTINUOUS
 62
    30
 10
339.07140770053212
 20
-1083.1016027079279
 30
0.0
 40
50.0
  1
604
 50
359.99999832332799
 41
0.9
 72
     1
 11
397.99997912910351
 21
-1083.101604432381
 31
0.0
  0
POINT
  5
142
  8
DEFPOINTS
  6
CONTINUOUS
 62
     7
 10
699.99998637777833
 20
-470.00001743037518
 30
0.0
  0
POINT
  5
143
  8
DEFPOINTS
  6
CONTINUOUS
 62
     7
 10
95.999993184473624
 20
-346.00000040777468
 30
0.0
  0
POINT
  5
144
  8
DEFPOINTS
  6
CONTINUOUS
 62
     7
 10
95.999980279165513
 20
-1098.101595594821
 30
0.0
  0
LINE
  5
145
  8
SIZE
  6
CONTINUOUS
 62
    30
 10
95.999992599204688
 20
-366.00000040777479
 30
0.0
 11
95.999979693896563
 21
-1118.101595594833
 31
0.0
  0
LINE
  5
146
  8
SIZE
  6
CONTINUOUS
 62
    30
 10
-0.0000054910415214
 20
-317.9999978510628
 30
0.0
 11
-0.0000198009950747
 21
-1118.1015927855419
 31
0.0
  0
LINE
  5
147
  8
SIZE
  6
CONTINUOUS
 62
    30
 10
95.999980279165513
 20
-1098.101595594833
 30
0.0
 11
-0.000019215726138
 21
-1098.1015927855419
 31
0.0
  0
LINE
  5
148
  8
SIZE
  6
CONTINUOUS
 62
    30
 10
-0.000019215726138
 20
-1098.1015927855419
 30
0.0
 11
-125.71430493001181
 21
-1098.1015891067091
 31
0.0
  0
CIRCLE
  5
149
  8
SIZE
  6
CONTINUOUS
 62
    30
 10
95.999980279165513
 20
-1098.101595594833
 30
0.0
 40
6.25
  0
CIRCLE
  5
14A
  8
SIZE
  6
CONTINUOUS
 62
    30
 10
-0.000019215726138
 20
-1098.1015927855419
 30
0.0
 40
6.25
  0
TEXT
  5
14B
  8
SIZE
  6
CONTINUOUS
 62
    30
 10
-98.214304930011807
 20
-1083.101589545661
 30
0.0
 40
50.0
  1
96
 50
359.99999832332799
 41
0.9
 72
     1
 11
-62.857162072868952
 21
-1083.1015905803331
 31
0.0
  0
POINT
  5
14C
  8
DEFPOINTS
  6
CONTINUOUS
 62
     7
 10
95.999993184473624
 20
-346.00000040777468
 30
0.0
  0
POINT
  5
14D
  8
DEFPOINTS
  6
CONTINUOUS
 62
     7
 10
-0.0000049057725846
 20
-297.9999978510628
 30
0.0
  0
POINT
  5
14E
  8
DEFPOINTS
  6
CONTINUOUS
 62
     7
 10
-0.000019215726138
 20
-1098.1015927855419
 30
0.0
  0
LINE
  5
14F
  8
SIZE
  6
CONTINUOUS
 62
    30
 10
-714.99999413658645
 20
-58.549978082457599
 30
0.0
 11
-714.99999020219479
 21
75.897334019192343
 31
0.0
  0
LINE
  5
150
  8
SIZE
  6
CONTINUOUS
 62
    30
 10
-724.99999280955365
 20
-14.99997591431255
 30
0.0
 11
-724.99999014958519
 21
75.89733431182681
 31
0.0
  0
LINE
  5
151
  8
SIZE
  6
CONTINUOUS
 62
    30
 10
-714.99999078746384
 20
55.897334019192357
 30
0.0
 11
-689.99999078746384
 21
55.89733328760618
 31
0.0
  0
LINE
  5
152
  8
SIZE
  6
CONTINUOUS
 62
    30
 10
-724.99999073485424
 20
55.897334311826832
 30
0.0
 11
-841.03662538528079
 21
55.897338534124152
 31
0.0
  0
LINE
  5
153
  8
SIZE
  6
CONTINUOUS
 62
    30
 10
-714.99999078746384
 20
55.897334019192357
 30
0.0
 11
-724.99999073485424
 21
55.897334311826832
 31
0.0
  0
CIRCLE
  5
154
  8
SIZE
  6
CONTINUOUS
 62
    30
 10
-714.99999078746384
 20
55.897334019192357
 30
0.0
 40
6.25
  0
CIRCLE
  5
155
  8
SIZE
  6
CONTINUOUS
 62
    30
 10
-724.99999073485424
 20
55.897334311826832
 30
0.0
 40
6.25
  0
TEXT
  5
156
  8
SIZE
  6
CONTINUOUS
 62
    30
 10
-815.16116520292451
 20
70.897338095172429
 30
0.0
 40
50.0
  1
10
 50
359.99999832332799
 41
0.9
 72
     1
 11
-783.0183080600674
 21
70.897337154561654
 31
0.0
  0
POINT
  5
157
  8
DEFPOINTS
  6
CONTINUOUS
 62
     7
 10
-714.99999472185561
 20
-78.549978082457613
 30
0.0
  0
POINT
  5
158
  8
DEFPOINTS
  6
CONTINUOUS
 62
     7
 10
-724.9999933948227
 20
-34.99997591431255
 30
0.0
  0
POINT
  5
159
  8
DEFPOINTS
  6
CONTINUOUS
 62
     7
 10
-724.99999073485424
 20
55.897334311826832
 30
0.0
  0
LINE
  5
15A
  8
SIZE
  6
CONTINUOUS
 62
    30
 10
714.99999776129732
 20
-78.30001982508162
 30
0.0
 11
715.00000227364205
 21
75.897292172656705
 31
0.0
  0
LINE
  5
15B
  8
SIZE
  6
CONTINUOUS
 62
    30
 10
724.99999897578175
 20
-35.000020345544797
 30
0.0
 11
725.0000022210196
 21
75.897291880022223
 31
0.0
  0
LINE
  5
15C
  8
SIZE
  6
CONTINUOUS
 62
    30
 10
715.00000168837323
 20
55.897292172656719
 30
0.0
 11
690.00000168837323
 21
55.897292904242889
 31
0.0
  0
LINE
  5
15D
  8
SIZE
  6
CONTINUOUS
 62
    30
 10
725.00000163575044
 20
55.897291880022252
 30
0.0
 11
854.07275768826355
 21
55.897287657724931
 31
0.0
  0
LINE
  5
15E
  8
SIZE
  6
CONTINUOUS
 62
    30
 10
715.00000168837323
 20
55.897292172656719
 30
0.0
 11
725.00000163575044
 21
55.897291880022252
 31
0.0
  0
CIRCLE
  5
15F
  8
SIZE
  6
CONTINUOUS
 62
    30
 10
715.00000168837323
 20
55.897292172656719
 30
0.0
 40
6.25
  0
CIRCLE
  5
160
  8
SIZE
  6
CONTINUOUS
 62
    30
 10
725.00000163575044
 20
55.897291880022252
 30
0.0
 40
6.25
  0
TEXT
  5
161
  8
SIZE
  6
CONTINUOUS
 62
    30
 10
757.85714493184503
 20
70.897289977898168
 30
0.0
 40
50.0
  1
10
 50
359.99999832332799
 41
0.9
 72
     1
 11
790.00000207470214
 21
70.897289037287393
 31
0.0
  0
POINT
  5
162
  8
DEFPOINTS
  6
CONTINUOUS
 62
     7
 10
714.99999717602839
 20
-98.300019825081634
 30
0.0
  0
POINT
  5
163
  8
DEFPOINTS
  6
CONTINUOUS
 62
     7
 10
724.99999839051304
 20
-55.000020345544797
 30
0.0
  0
POINT
  5
164
  8
DEFPOINTS
  6
CONTINUOUS
 62
     7
 10
725.00000163575044
 20
55.897291880022252
 30
0.0
  0
LINE
  5
165
  8
NOTE
  6
CONTINUOUS
 62
     4
 10
648.99999981462031
 20
-20.000018305690531
 30
0.0
 11
688.99999960415505
 21
-20.0000194762234
 31
0.0
  0
LINE
  5
166
  8
NOTE
  6
CONTINUOUS
 62
     4
 10
669.00000029465275
 20
-0.0000189961902777
 30
0.0
 11
668.99999912412113
 21
-40.000018785724087
 31
0.0
  0
LINE
  5
167
  8
NOTE
  6
CONTINUOUS
 62
     4
 10
-688.9999931452885
 20
-19.999979151377438
 30
0.0
 11
-648.99999335575603
 21
-19.99998032190987
 31
0.0
  0
LINE
  5
168
  8
NOTE
  6
CONTINUOUS
 62
     4
 10
-668.99999266525617
 20
0.0000201581232488
 30
0.0
 11
-668.99999383578916
 21
-39.999979631410582
 31
0.0
  0
LINE
  5
169
  8
SIZE
  6
CONTINUOUS
 62
    30
 10
669.00000087992191
 20
19.999981003809719
 30
0.0
 11
669.00001073695523
 21
356.83772361315448
 31
0.0
  0
LINE
  5
16A
  8
SIZE
  6
CONTINUOUS
 62
    30
 10
699.00000013680562
 20
-0.0000197688564971
 30
0.0
 11
699.00001057910765
 21
356.83772273525108
 31
0.0
  0
LINE
  5
16B
  8
SIZE
  6
CONTINUOUS
 62
    30
 10
669.00001015168607
 20
336.83772361315448
 30
0.0
 11
644.00001015168607
 21
336.83772434474082
 31
0.0
  0
LINE
  5
16C
  8
SIZE
  6
CONTINUOUS
 62
    30
 10
699.00000999383883
 20
336.83772273525102
 30
0.0
 11
834.13057317529422
 21
336.8377182621241
 31
0.0
  0
LINE
  5
16D
  8
SIZE
  6
CONTINUOUS
 62
    30
 10
669.00001015168607
 20
336.83772361315448
 30
0.0
 11
699.00000999383883
 21
336.83772273525102
 31
0.0
  0
CIRCLE
  5
16E
  8
SIZE
  6
CONTINUOUS
 62
    30
 10
669.00001015168607
 20
336.83772361315448
 30
0.0
 40
6.25
  0
CIRCLE
  5
16F
  8
SIZE
  6
CONTINUOUS
 62
    30
 10
699.00000999383883
 20
336.83772273525102
 30
0.0
 40
6.25
  0
TEXT
  5
170
  8
SIZE
  6
CONTINUOUS
 62
    30
 10
750.48001132670822
 20
351.83772083312709
 30
0.0
 40
50.0
  1
30
 50
359.99999832332799
 41
0.9
 72
     1
 11
786.90858275527967
 21
351.83771976710148
 31
0.0
  0
POINT
  5
171
  8
DEFPOINTS
  6
CONTINUOUS
 62
     7
 10
669.00000029465275
 20
-0.0000189961902635
 30
0.0
  0
POINT
  5
172
  8
DEFPOINTS
  6
CONTINUOUS
 62
     7
 10
698.99999955153669
 20
-20.000019768856479
 30
0.0
  0
POINT
  5
173
  8
DEFPOINTS
  6
CONTINUOUS
 62
     7
 10
699.00000999383883
 20
336.83772273525102
 30
0.0
  0
LINE
  5
174
  8
SIZE
  6
CONTINUOUS
 62
    30
 10
669.00000087992191
 20
19.999981003809719
 30
0.0
 11
669.00001073695523
 21
356.83772361297241
 31
0.0
  0
LINE
  5
175
  8
SIZE
  6
CONTINUOUS
 62
    30
 10
-668.99999207998724
 20
20.000020158123249
 30
0.0
 11
-668.99998222295369
 21
356.83776276746391
 31
0.0
  0
LINE
  5
176
  8
SIZE
  6
CONTINUOUS
 62
    30
 10
669.00001015168607
 20
336.8377236129723
 30
0.0
 11
-668.99998280822285
 21
336.83776276746408
 31
0.0
  0
CIRCLE
  5
177
  8
SIZE
  6
CONTINUOUS
 62
    30
 10
669.00001015168607
 20
336.8377236129723
 30
0.0
 40
6.25
  0
CIRCLE
  5
178
  8
SIZE
  6
CONTINUOUS
 62
    30
 10
-668.99998280822285
 20
336.83776276746408
 30
0.0
 40
6.25
  0
TEXT
  5
179
  8
SIZE
  6
CONTINUOUS
 62
    30
 10
-333.42855693467612
 20
364.93299104272518
 30
0.0
 40
50.0
  1
1338 (吊りボルトピッチ)
 50
359.99999832332799
 41
0.9
 72
     1
 11
0.0000144938952583
 21
364.93298128545621
 31
0.0
  0
POINT
  5
17A
  8
DEFPOINTS
  6
CONTINUOUS
 62
     7
 10
669.00000029465275
 20
-0.0000189961902635
 30
0.0
  0
POINT
  5
17B
  8
DEFPOINTS
  6
CONTINUOUS
 62
     7
 10
-668.99999266525617
 20
0.000020158123263
 30
0.0
  0
POINT
  5
17C
  8
DEFPOINTS
  6
CONTINUOUS
 62
     7
 10
-668.99998280822285
 20
336.83776276746408
 30
0.0
  0
LINE
  5
17D
  8
SIZE
  6
CONTINUOUS
 62
    30
 10
700.00000071680495
 20
19.99998009664742
 30
0.0
 11
700.00001418546435
 21
480.2553833504831
 31
0.0
  0
LINE
  5
17E
  8
SIZE
  6
CONTINUOUS
 62
    30
 10
724.99999897578175
 20
-35.000020345544797
 30
0.0
 11
725.00001405393084
 21
480.2553826188971
 31
0.0
  0
LINE
  5
17F
  8
SIZE
  6
CONTINUOUS
 62
    30
 10
700.00001360019519
 20
460.25538335048338
 30
0.0
 11
675.00001360019542
 21
460.25538408206961
 31
0.0
  0
LINE
  5
180
  8
SIZE
  6
CONTINUOUS
 62
    30
 10
725.00001346866213
 20
460.25538261889687
 30
0.0
 11
846.5232681790435
 21
460.25537814577029
 31
0.0
  0
LINE
  5
181
  8
SIZE
  6
CONTINUOUS
 62
    30
 10
700.00001360019519
 20
460.25538335048338
 30
0.0
 11
725.00001346866213
 21
460.25538261889687
 31
0.0
  0
CIRCLE
  5
182
  8
SIZE
  6
CONTINUOUS
 62
    30
 10
700.00001360019519
 20
460.25538335048338
 30
0.0
 40
6.25
  0
CIRCLE
  5
183
  8
SIZE
  6
CONTINUOUS
 62
    30
 10
725.00001346866213
 20
460.25538261889687
 30
0.0
 40
6.25
  0
TEXT
  5
184
  8
SIZE
  6
CONTINUOUS
 62
    30
 10
749.33306939528165
 20
475.25538071677312
 30
0.0
 40
50.0
  1
25
 50
359.99999832332799
 41
0.9
 72
     1
 11
785.7616408238531
 21
475.25537965074761
 31
0.0
  0
POINT
  5
185
  8
DEFPOINTS
  6
CONTINUOUS
 62
     7
 10
700.0000001315359
 20
-0.0000199033525661
 30
0.0
  0
POINT
  5
186
  8
DEFPOINTS
  6
CONTINUOUS
 62
     7
 10
724.99999839051304
 20
-55.000020345544797
 30
0.0
  0
POINT
  5
187
  8
DEFPOINTS
  6
CONTINUOUS
 62
     7
 10
725.00001346866213
 20
460.25538261889687
 30
0.0
  0
LINE
  5
188
  8
SIZE
  6
CONTINUOUS
 62
    30
 10
700.00000071680495
 20
19.99998009664742
 30
0.0
 11
700.00001418546435
 21
480.25538335029421
 31
0.0
  0
LINE
  5
189
  8
SIZE
  6
CONTINUOUS
 62
    30
 10
-699.99999954627071
 20
20.000021065285551
 30
0.0
 11
-699.9999860776112
 21
480.25542431911958
 31
0.0
  0
LINE
  5
18A
  8
SIZE
  6
CONTINUOUS
 62
    30
 10
700.00001360019519
 20
460.25538335029421
 30
0.0
 11
-699.99998666288013
 21
460.2554243191197
 31
0.0
  0
CIRCLE
  5
18B
  8
SIZE
  6
CONTINUOUS
 62
    30
 10
700.00001360019519
 20
460.25538335029421
 30
0.0
 40
6.25
  0
CIRCLE
  5
18C
  8
SIZE
  6
CONTINUOUS
 62
    30
 10
-699.99998666288013
 20
460.2554243191197
 30
0.0
 40
6.25
  0
TEXT
  5
18D
  8
SIZE
  6
CONTINUOUS
 62
    30
 10
-171.42855713775009
 20
488.35064694653562
 30
0.0
 40
50.0
  1
1400 (本体)
 50
359.99999832332799
 41
0.9
 72
     1
 11
0.0000142908212065
 21
488.35064192994491
 31
0.0
  0
POINT
  5
18E
  8
DEFPOINTS
  6
CONTINUOUS
 62
     7
 10
700.0000001315359
 20
-0.0000199033525661
 30
0.0
  0
POINT
  5
18F
  8
DEFPOINTS
  6
CONTINUOUS
 62
     7
 10
-700.00000013153965
 20
0.0000210652855656
 30
0.0
  0
POINT
  5
190
  8
DEFPOINTS
  6
CONTINUOUS
 62
     7
 10
-699.99998666288013
 20
460.2554243191197
 30
0.0
  0
LINE
  5
191
  8
SIZE
  6
CONTINUOUS
 62
    30
 10
-699.99999954627071
 20
20.000021065285551
 30
0.0
 11
-699.9999860776112
 21
480.255424319116
 31
0.0
  0
LINE
  5
192
  8
SIZE
  6
CONTINUOUS
 62
    30
 10
-724.99999280955365
 20
-14.99997591431255
 30
0.0
 11
-724.99997831667372
 21
480.255425050702
 31
0.0
  0
LINE
  5
193
  8
SIZE
  6
CONTINUOUS
 62
    30
 10
-699.99998666288013
 20
460.255424319116
 30
0.0
 11
-674.99998666288013
 21
460.25542358752949
 31
0.0
  0
LINE
  5
194
  8
SIZE
  6
CONTINUOUS
 62
    30
 10
-724.99997890194243
 20
460.25542505070177
 30
0.0
 11
-853.41793083741516
 21
460.25542952382881
 31
0.0
  0
LINE
  5
195
  8
SIZE
  6
CONTINUOUS
 62
    30
 10
-699.99998666288013
 20
460.255424319116
 30
0.0
 11
-724.99997890194243
 21
460.25542505070177
 31
0.0
  0
CIRCLE
  5
196
  8
SIZE
  6
CONTINUOUS
 62
    30
 10
-699.99998666288013
 20
460.255424319116
 30
0.0
 40
6.25
  0
CIRCLE
  5
197
  8
SIZE
  6
CONTINUOUS
 62
    30
 10
-724.99997890194243
 20
460.25542505070177
 30
0.0
 40
6.25
  0
TEXT
  5
198
  8
SIZE
  6
CONTINUOUS
 62
    30
 10
-825.63752629825012
 20
475.25542908487699
 30
0.0
 40
50.0
  1
25
 50
359.99999832332799
 41
0.9
 72
     1
 11
-789.20895486967868
 21
475.25542801885149
 31
0.0
  0
POINT
  5
199
  8
DEFPOINTS
  6
CONTINUOUS
 62
     7
 10
-700.00000013153965
 20
0.0000210652855656
 30
0.0
  0
POINT
  5
19A
  8
DEFPOINTS
  6
CONTINUOUS
 62
     7
 10
-724.9999933948227
 20
-34.99997591431255
 30
0.0
  0
POINT
  5
19B
  8
DEFPOINTS
  6
CONTINUOUS
 62
     7
 10
-724.99997890194243
 20
460.25542505070177
 30
0.0
  0
LINE
  5
19C
  8
SIZE
  6
CONTINUOUS
 62
    30
 10
724.99999897578175
 20
-35.000020345544797
 30
0.0
 11
725.0000176411645
 21
602.83949841930701
 31
0.0
  0
LINE
  5
19D
  8
SIZE
  6
CONTINUOUS
 62
    30
 10
-724.99999280955365
 20
-14.99997591431255
 30
0.0
 11
-724.99997472944005
 21
602.8395408513046
 31
0.0
  0
LINE
  5
19E
  8
SIZE
  6
CONTINUOUS
 62
    30
 10
725.00001705589568
 20
582.83949841930701
 30
0.0
 11
-724.99997531470922
 21
582.8395408513046
 31
0.0
  0
CIRCLE
  5
19F
  8
SIZE
  6
CONTINUOUS
 62
    30
 10
725.00001705589568
 20
582.83949841930701
 30
0.0
 40
6.25
  0
CIRCLE
  5
1A0
  8
SIZE
  6
CONTINUOUS
 62
    30
 10
-724.99997531470922
 20
582.8395408513046
 30
0.0
 40
6.25
  0
TEXT
  5
1A1
  8
SIZE
  6
CONTINUOUS
 62
    30
 10
-74.99997869045481
 20
597.83952183006431
 30
0.0
 40
50.0
  1
1450
 50
359.99999832332799
 41
0.9
 72
     1
 11
0.0000213095451268
 21
597.83951963530581
 31
0.0
  0
POINT
  5
1A2
  8
DEFPOINTS
  6
CONTINUOUS
 62
     7
 10
724.99999839051304
 20
-55.000020345544797
 30
0.0
  0
POINT
  5
1A3
  8
DEFPOINTS
  6
CONTINUOUS
 62
     7
 10
-724.9999933948227
 20
-34.99997591431255
 30
0.0
  0
POINT
  5
1A4
  8
DEFPOINTS
  6
CONTINUOUS
 62
     7
 10
-724.99997531470922
 20
582.8395408513046
 30
0.0
  0
LINE
  5
1A5
  8
SIZE
  6
CONTINUOUS
 62
    30
 10
44.999994254744252
 20
-314.99999966372837
 30
0.0
 11
-172.03166232901449
 21
-314.99999966372837
 31
0.0
  0
LINE
  5
1A6
  8
SIZE
  6
CONTINUOUS
 62
    30
 10
-680.0000138852979
 20
-469.99997646173409
 30
0.0
 11
-132.03166232901449
 21
-469.99997646173432
 31
0.0
  0
LINE
  5
1A7
  8
SIZE
  6
CONTINUOUS
 62
    30
 10
-152.03166232901441
 20
-314.99999966372837
 30
0.0
 11
-152.03166232901441
 21
-469.99997646173432
 31
0.0
  0
CIRCLE
  5
1A8
  8
SIZE
  6
CONTINUOUS
 62
    30
 10
-152.03166232901441
 20
-314.99999966372837
 30
0.0
 40
6.25
  0
CIRCLE
  5
1A9
  8
SIZE
  6
CONTINUOUS
 62
    30
 10
-152.03166232901441
 20
-469.99997646173432
 30
0.0
 40
6.25
  0
TEXT
  5
1AA
  8
SIZE
  6
CONTINUOUS
 62
    30
 10
-167.03166232901441
 20
-446.0714166341599
 30
0.0
 40
50.0
  1
155
 50
90.0
 41
0.9
 72
     1
 11
-167.03166232901441
 21
-392.4999880627314
 31
0.0
  0
POINT
  5
1AB
  8
DEFPOINTS
  6
CONTINUOUS
 62
     7
 10
64.999994254744252
 20
-314.99999966372837
 30
0.0
  0
POINT
  5
1AC
  8
DEFPOINTS
  6
CONTINUOUS
 62
     7
 10
-700.00001388529768
 20
-469.99997646173409
 30
0.0
  0
POINT
  5
1AD
  8
DEFPOINTS
  6
CONTINUOUS
 62
     7
 10
-152.03166232901441
 20
-469.99997646173432
 30
0.0
  0
LINE
  5
1AE
  8
SIZE
  6
CONTINUOUS
 62
    30
 10
44.999994254744252
 20
-314.99999966372837
 30
0.0
 11
-172.03165662266881
 21
-314.99999966372837
 31
0.0
  0
LINE
  5
1AF
  8
SIZE
  6
CONTINUOUS
 62
    30
 10
-43.000004111699589
 20
-274.99999729902299
 30
0.0
 11
-172.03165662266881
 21
-274.99999729902299
 31
0.0
  0
LINE
  5
1B0
  8
SIZE
  6
CONTINUOUS
 62
    30
 10
-152.03165662266881
 20
-314.99999966372837
 30
0.0
 11
-152.03165662266881
 21
-274.99999729902299
 31
0.0
  0
LINE
  5
1B1
  8
SIZE
  6
CONTINUOUS
 62
    30
 10
-152.03165662266881
 20
-274.99999729902299
 30
0.0
 11
-152.03165662266869
 21
-161.23980273289629
 31
0.0
  0
CIRCLE
  5
1B2
  8
SIZE
  6
CONTINUOUS
 62
    30
 10
-152.03165662266881
 20
-314.99999966372837
 30
0.0
 40
6.25
  0
CIRCLE
  5
1B3
  8
SIZE
  6
CONTINUOUS
 62
    30
 10
-152.03165662266881
 20
-274.99999729902299
 30
0.0
 40
6.25
  0
TEXT
  5
1B4
  8
SIZE
  6
CONTINUOUS
 62
    30
 10
-167.03165662266869
 20
-254.54847144453109
 30
0.0
 40
50.0
  1
40
 50
90.0
 41
0.9
 72
     1
 11
-167.03165662266869
 21
-218.1199000159597
 31
0.0
  0
POINT
  5
1B5
  8
DEFPOINTS
  6
CONTINUOUS
 62
     7
 10
64.999994254744252
 20
-314.99999966372837
 30
0.0
  0
POINT
  5
1B6
  8
DEFPOINTS
  6
CONTINUOUS
 62
     7
 10
-23.000004111699589
 20
-274.99999729902299
 30
0.0
  0
POINT
  5
1B7
  8
DEFPOINTS
  6
CONTINUOUS
 62
     7
 10
-152.03165662266881
 20
-274.99999729902299
 30
0.0
  0
LINE
  5
1B8
  8
NOTE
  6
CONTINUOUS
 62
     4
 10
-774.82580863037413
 20
-255.20603755016771
 30
0.0
 11
-734.82580799608172
 21
-226.33852541310989
 31
0.0
  0
LINE
  5
1B9
  8
NOTE
  6
CONTINUOUS
 62
     4
 10
-774.8258069408563
 20
-197.47101093498711
 30
0.0
 11
-734.82580799608172
 21
-226.33852541310989
 31
0.0
  0
LINE
  5
1BA
  8
NOTE
  6
CONTINUOUS
 62
     4
 10
-774.82580734666521
 20
-211.33852432150249
 30
0.0
 11
-774.8258069408563
 21
-197.47101093498711
 31
0.0
  0
LINE
  5
1BB
  8
NOTE
  6
CONTINUOUS
 62
     4
 10
-804.82580806671535
 20
-241.3385232857531
 30
0.0
 11
-774.82580822456464
 21
-241.33852416365241
 31
0.0
  0
LINE
  5
1BC
  8
NOTE
  6
CONTINUOUS
 62
     4
 10
-804.82580718881604
 20
-211.33852344360321
 30
0.0
 11
-774.82580734666521
 21
-211.33852432150249
 31
0.0
  0
LINE
  5
1BD
  8
NOTE
  6
CONTINUOUS
 62
     4
 10
-774.82580863037413
 20
-255.20603755016771
 30
0.0
 11
-774.82580822456464
 21
-241.33852416365241
 31
0.0
  0
LINE
  5
1BE
  8
NOTE
  6
CONTINUOUS
 62
     4
 10
-804.82580718881604
 20
-211.33852344360321
 30
0.0
 11
-804.82580806671535
 21
-241.3385232857531
 31
0.0
  0
LINE
  5
1BF
  8
NOTE
  6
CONTINUOUS
 62
     4
 10
765.54034257248975
 20
-232.51484799400799
 30
0.0
 11
805.5403432067842
 21
-203.6473358569506
 31
0.0
  0
LINE
  5
1C0
  8
NOTE
  6
CONTINUOUS
 62
     4
 10
765.54034426200894
 20
-174.77982137882739
 30
0.0
 11
805.5403432067842
 21
-203.6473358569506
 31
0.0
  0
LINE
  5
1C1
  8
NOTE
  6
CONTINUOUS
 62
     4
 10
765.54034385619934
 20
-188.64733476534261
 30
0.0
 11
765.54034426200894
 21
-174.77982137882739
 31
0.0
  0
LINE
  5
1C2
  8
NOTE
  6
CONTINUOUS
 62
     4
 10
735.54034313614932
 20
-218.64733372959341
 30
0.0
 11
765.54034297830003
 21
-218.6473346074927
 31
0.0
  0
LINE
  5
1C3
  8
NOTE
  6
CONTINUOUS
 62
     4
 10
735.54034401404829
 20
-188.64733388744341
 30
0.0
 11
765.54034385619934
 21
-188.64733476534261
 31
0.0
  0
LINE
  5
1C4
  8
NOTE
  6
CONTINUOUS
 62
     4
 10
765.54034257248975
 20
-232.51484799400799
 30
0.0
 11
765.54034297830003
 21
-218.6473346074927
 31
0.0
  0
LINE
  5
1C5
  8
NOTE
  6
CONTINUOUS
 62
     4
 10
735.54034401404829
 20
-188.64733388744341
 30
0.0
 11
735.54034313614932
 21
-218.64733372959341
 31
0.0
  0
TEXT
  5
1C8
  8
NOTE
  6
CONTINUOUS
 62
     4
 10
131.91886881198789
 20
-966.9960238925122
 30
0.0
 40
50.0
  1
RL %%C9.52
 50
359.99999581891882
 41
0.7
  7
STANDARD1
  0
LINE
  5
1C9
  8
NOTE
  6
CONTINUOUS
 62
     4
 10
123.0647476773151
 20
-980.67337494781827
 30
0.0
 11
395.0121263106094
 21
-980.67338290589976
 31
0.0
  0
LINE
  5
1CA
  8
NOTE
  6
CONTINUOUS
 62
     4
 10
123.0647476773151
 20
-980.67337494781827
 30
0.0
 11
-0.0000042327160372
 21
-274.99999797207869
 31
0.0
  0
LINE
  5
1CB
  8
NOTE
  6
CONTINUOUS
 62
     4
 10
187.2901409089099
 20
-866.79310700042322
 30
0.0
 11
95.999994091635926
 21
-315.0000005708913
 31
0.0
  0
TEXT
  5
1CC
  8
NOTE
  6
CONTINUOUS
 62
     4
 10
999.56035971253698
 20
-18.667329146846519
 30
0.0
 40
50.0
  1
3-%%C3.4
 50
359.99999581891882
 41
0.7
  7
STANDARD1
  0
LINE
  5
1CD
  8
NOTE
  6
CONTINUOUS
 62
     4
 10
991.68765156455936
 20
-32.344675539297967
 30
0.0
 11
1203.814535280304
 21
-32.344681746833508
 31
0.0
  0
TEXT
  5
1CE
  8
NOTE
  6
CONTINUOUS
 62
     4
 10
-1125.878563521047
 20
48.795006721158558
 30
0.0
 40
50.0
  1
4-%%C3.4
 50
359.99999581891882
 41
0.7
  7
STANDARD1
  0
LINE
  5
1CF
  8
NOTE
  6
CONTINUOUS
 62
     4
 10
-1131.0140542517961
 20
35.117659188848762
 30
0.0
 11
-919.08801988873415
 21
35.11765298719083
 31
0.0
  0
LINE
  5
1D0
  8
NOTE
  6
CONTINUOUS
 62
     4
 10
-919.08801988873415
 20
35.11765298719083
 30
0.0
 11
-714.99999491060453
 21
-84.999978048520049
 31
0.0
  0
LINE
  5
1D1
  8
NOTE
  6
CONTINUOUS
 62
     4
 10
991.68765156455936
 20
-32.344675539297967
 30
0.0
 11
714.99999697996407
 21
-105.0000197898289
 31
0.0
  0
LINE
  5
1D2
  8
SIZE
  6
CONTINUOUS
 62
    30
 10
699.99998579250985
 20
-490.00001743037541
 30
0.0
 11
699.99997051010121
 21
-1323.332662076577
 31
0.0
  0
LINE
  5
1D3
  8
SIZE
  6
CONTINUOUS
 62
    30
 10
749.99998520724353
 20
-510.00001889353859
 30
0.0
 11
749.99997051010439
 21
-1323.3326635397491
 31
0.0
  0
LINE
  5
1D4
  8
SIZE
  6
CONTINUOUS
 62
    30
 10
699.99997109537014
 20
-1303.332662076577
 30
0.0
 11
749.99997109537355
 21
-1303.3326635397491
 31
0.0
  0
LINE
  5
1D5
  8
SIZE
  6
CONTINUOUS
 62
    30
 10
749.99997109537355
 20
-1303.3326635397491
 30
0.0
 11
877.85711395251644
 21
-1303.33266728129
 31
0.0
  0
CIRCLE
  5
1D6
  8
SIZE
  6
CONTINUOUS
 62
    30
 10
699.99997109537014
 20
-1303.332662076577
 30
0.0
 40
6.25
  0
CIRCLE
  5
1D7
  8
SIZE
  6
CONTINUOUS
 62
    30
 10
749.99997109537355
 20
-1303.3326635397491
 30
0.0
 40
6.25
  0
TEXT
  5
1D8
  8
SIZE
  6
CONTINUOUS
 62
    30
 10
777.49997109537355
 20
-1288.332664710287
 30
0.0
 40
50.0
  1
50
 50
359.99999832332799
 41
0.9
 72
     1
 11
813.92854252394488
 21
-1288.332665776313
 31
0.0
  0
POINT
  5
1D9
  8
DEFPOINTS
  6
CONTINUOUS
 62
     7
 10
699.99998637777833
 20
-470.00001743037518
 30
0.0
  0
POINT
  5
1DA
  8
DEFPOINTS
  6
CONTINUOUS
 62
     7
 10
749.99998579251314
 20
-490.00001889353848
 30
0.0
  0
POINT
  5
1DB
  8
DEFPOINTS
  6
CONTINUOUS
 62
     7
 10
749.99997109537355
 20
-1303.3326635397491
 30
0.0
  0
LINE
  5
1DC
  8
SIZE
  6
CONTINUOUS
 62
    30
 10
749.99998043824121
 20
-509.99999694605378
 30
0.0
 11
749.99996895117602
 21
-1213.6369407545119
 31
0.0
  0
LINE
  5
1DD
  8
SIZE
  6
CONTINUOUS
 62
    30
 10
-320.00001794729582
 20
-509.99999694605378
 30
0.0
 11
-320.00002943436021
 21
-1213.6369094426241
 31
0.0
  0
LINE
  5
1DE
  8
SIZE
  6
CONTINUOUS
 62
    30
 10
749.99996953644495
 20
-1193.6369407545119
 30
0.0
 11
-320.00002884909128
 21
-1193.6369094426241
 31
0.0
  0
CIRCLE
  5
1DF
  8
SIZE
  6
CONTINUOUS
 62
    30
 10
749.99996953644495
 20
-1193.6369407545119
 30
0.0
 40
6.25
  0
CIRCLE
  5
1E0
  8
SIZE
  6
CONTINUOUS
 62
    30
 10
-320.00002884909128
 20
-1193.6369094426241
 30
0.0
 40
6.25
  0
TEXT
  5
1E1
  8
SIZE
  6
CONTINUOUS
 62
    30
 10
139.99997078262851
 20
-1178.63692290381
 30
0.0
 40
50.0
  1
1070
 50
359.99999832332799
 41
0.9
 72
     1
 11
214.99997078262851
 21
-1178.6369250985681
 31
0.0
  0
POINT
  5
1E2
  8
DEFPOINTS
  6
CONTINUOUS
 62
     7
 10
749.99998102351014
 20
-489.99999694605401
 30
0.0
  0
POINT
  5
1E3
  8
DEFPOINTS
  6
CONTINUOUS
 62
     7
 10
-320.00001736202688
 20
-489.99999694605401
 30
0.0
  0
POINT
  5
1E4
  8
DEFPOINTS
  6
CONTINUOUS
 62
     7
 10
-320.00002884909128
 20
-1193.6369094426241
 30
0.0
  0
TEXT
  5
1E5
  8
NOTE
  6
CONTINUOUS
 62
     4
 10
771.95476847435793
 20
206.33651659531441
 30
0.0
 40
50.0
  1
AH 4-14\U+00D730長穴 (M10)
 50
359.99999581891882
 41
0.7
  7
STANDARD1
  0
LINE
  5
1E6
  8
NOTE
  6
CONTINUOUS
 62
     4
 10
768.0207422838821
 20
192.6591540750581
 30
0.0
 11
1381.2931952387939
 21
192.65913612867399
 31
0.0
  0
LINE
  5
1E7
  8
NOTE
  6
CONTINUOUS
 62
     4
 10
768.0207422838821
 20
192.6591540750581
 30
0.0
 11
668.99999970938825
 21
-20.000018890957179
 31
0.0
  0
CIRCLE
  5
1E8
  8
FIX
  6
CONTINUOUS
 62
    11
 10
-668.99999325052158
 20
-19.999979736643649
 30
0.0
 40
16.155115914013201
  0
CIRCLE
  5
1E9
  8
FIX
  6
CONTINUOUS
 62
    11
 10
668.99999970938825
 20
-20.000018890957179
 30
0.0
 40
16.155115914013201
  0
LINE
  5
1EA
  8
NOTE
  6
CONTINUOUS
 62
     4
 10
714.99999697996407
 20
-105.0000197898284
 30
0.0
 11
744.03271013381993
 21
-86.575817312740668
 31
0.0
  0
LINE
  5
1EB
  8
NOTE
  6
CONTINUOUS
 62
     4
 10
714.99999697996407
 20
-105.0000197898284
 30
0.0
 11
749.35516537148135
 21
-103.5605494776778
 31
0.0
  0
LINE
  5
1EC
  8
NOTE
  6
CONTINUOUS
 62
     4
 10
668.99999970938825
 20
-20.000018890957179
 30
0.0
 11
674.12280018484034
 21
14.001548503496361
 31
0.0
  0
LINE
  5
1ED
  8
NOTE
  6
CONTINUOUS
 62
     4
 10
668.99999970938825
 20
-20.000018890957179
 30
0.0
 11
690.43725914856429
 21
6.8848016910455101
 31
0.0
  0
LINE
  5
1EE
  8
NOTE
  6
CONTINUOUS
 62
     4
 10
95.03816656075594
 20
-314.03853973890551
 30
0.0
 11
109.9745619374241
 21
-345.01036182193297
 31
0.0
  0
LINE
  5
1EF
  8
NOTE
  6
CONTINUOUS
 62
     4
 10
95.03816656075594
 20
-314.03853973890551
 30
0.0
 11
92.487552856802154
 21
-348.32912211544601
 31
0.0
  0
LINE
  5
1F0
  8
NOTE
  6
CONTINUOUS
 62
     4
 10
0.0001392248634033
 20
-274.99979834701662
 30
0.0
 11
16.243857771090148
 21
-305.30641936919312
 31
0.0
  0
LINE
  5
1F1
  8
NOTE
  6
CONTINUOUS
 62
     4
 10
0.0001392248634033
 20
-274.99979834701662
 30
0.0
 11
-1.0856988740004849
 21
-309.36796131235468
 31
0.0
  0
LINE
  5
1F2
  8
NOTE
  6
CONTINUOUS
 62
     4
 10
-714.99999491060089
 20
-84.999978048518287
 30
0.0
 11
-748.07605105962102
 21
-75.601883581137926
 31
0.0
  0
LINE
  5
1F3
  8
NOTE
  6
CONTINUOUS
 62
     4
 10
-714.99999491060089
 20
-84.999978048518287
 30
0.0
 11
-738.94565219940614
 21
-60.322961069228398
 31
0.0
  0
LINE
  5
1F4
  8
SIZE
  6
CONTINUOUS
 62
    30
 10
-720.0000138852979
 20
-469.99997646173688
 30
0.0
 11
-1238.22116804283
 21
-469.99997646173682
 31
0.0
  0
LINE
  5
1F5
  8
SIZE
  6
CONTINUOUS
 62
    30
 10
-720.00001447056275
 20
-489.99997646173421
 30
0.0
 11
-1238.22116804283
 21
-489.99997646173409
 31
0.0
  0
LINE
  5
1F6
  8
SIZE
  6
CONTINUOUS
 62
    30
 10
-1218.22116804283
 20
-469.99997646173682
 30
0.0
 11
-1218.22116804283
 21
-444.99997646173682
 31
0.0
  0
LINE
  5
1F7
  8
SIZE
  6
CONTINUOUS
 62
    30
 10
-1218.22116804283
 20
-489.99997646173409
 30
0.0
 11
-1218.22116804283
 21
-717.96175519506505
 31
0.0
  0
LINE
  5
1F8
  8
SIZE
  6
CONTINUOUS
 62
    30
 10
-1218.22116804283
 20
-469.99997646173682
 30
0.0
 11
-1218.22116804283
 21
-489.99997646173409
 31
0.0
  0
CIRCLE
  5
1F9
  8
SIZE
  6
CONTINUOUS
 62
    30
 10
-1218.22116804283
 20
-469.99997646173682
 30
0.0
 40
6.25
  0
CIRCLE
  5
1FA
  8
SIZE
  6
CONTINUOUS
 62
    30
 10
-1218.22116804283
 20
-489.99997646173409
 30
0.0
 40
6.25
  0
TEXT
  5
1FB
  8
SIZE
  6
CONTINUOUS
 62
    30
 10
-1233.22116804283
 20
-694.8380086855426
 30
0.0
 40
50.0
  1
20以上
 50
90.0
 41
0.9
 72
     1
 11
-1233.22116804283
 21
-603.9808658283996
 31
0.0
  0
POINT
  5
1FC
  8
DEFPOINTS
  6
CONTINUOUS
 62
     7
 10
-700.00001388529768
 20
-469.99997646173688
 30
0.0
  0
POINT
  5
1FD
  8
DEFPOINTS
  6
CONTINUOUS
 62
     7
 10
-700.00001447056275
 20
-489.99997646173421
 30
0.0
  0
POINT
  5
1FE
  8
DEFPOINTS
  6
CONTINUOUS
 62
     7
 10
-1218.22116804283
 20
-489.99997646173409
 30
0.0
  0
LINE
  5
1FF
  8
SIZE
  6
CONTINUOUS
 62
    30
 10
-720.00000013153965
 20
0.0000210652855713
 30
0.0
 11
-1238.221153118526
 21
0.0000210652857181
 31
0.0
  0
LINE
  5
200
  8
SIZE
  6
CONTINUOUS
 62
    30
 10
-719.99999954627344
 20
20.000021065285559
 30
0.0
 11
-1238.221153118526
 21
20.000021065285701
 31
0.0
  0
LINE
  5
201
  8
SIZE
  6
CONTINUOUS
 62
    30
 10
-1218.221153118526
 20
0.0000210652857124
 30
0.0
 11
-1218.221153118526
 21
-24.999978934714282
 31
0.0
  0
LINE
  5
202
  8
SIZE
  6
CONTINUOUS
 62
    30
 10
-1218.221153118526
 20
20.000021065285701
 30
0.0
 11
-1218.221153118526
 21
247.3331622662663
 31
0.0
  0
LINE
  5
203
  8
SIZE
  6
CONTINUOUS
 62
    30
 10
-1218.221153118526
 20
0.0000210652857124
 30
0.0
 11
-1218.221153118526
 21
20.000021065285701
 31
0.0
  0
CIRCLE
  5
204
  8
SIZE
  6
CONTINUOUS
 62
    30
 10
-1218.221153118526
 20
0.0000210652857124
 30
0.0
 40
6.25
  0
CIRCLE
  5
205
  8
SIZE
  6
CONTINUOUS
 62
    30
 10
-1218.221153118526
 20
20.000021065285701
 30
0.0
 40
6.25
  0
TEXT
  5
206
  8
SIZE
  6
CONTINUOUS
 62
    30
 10
-1233.2211531185269
 20
42.809448808633149
 30
0.0
 40
50.0
  1
20以上
 50
90.0
 41
0.9
 72
     1
 11
-1233.2211531185269
 21
133.666591665776
 31
0.0
  0
POINT
  5
207
  8
DEFPOINTS
  6
CONTINUOUS
 62
     7
 10
-700.00000013153965
 20
0.0000210652855656
 30
0.0
  0
POINT
  5
208
  8
DEFPOINTS
  6
CONTINUOUS
 62
     7
 10
-699.99999954627356
 20
20.000021065285559
 30
0.0
  0
POINT
  5
209
  8
DEFPOINTS
  6
CONTINUOUS
 62
     7
 10
-1218.221153118526
 20
20.000021065285701
 30
0.0
  0
LINE
  5
20A
  8
BASIS
  6
DASHDOT
 62
     6
 10
0.0000015633258954
 20
53.42272280124952
 30
0.0
 11
-0.0000156091118697
 21
-533.40208262565886
 31
0.0
  0
CIRCLE
  5
20B
  8
ARRANGE
  6
CONTINUOUS
 62
     1
 10
-0.0000005852689355
 20
0.0000005809655761
 30
0.0
 40
50.0
  0
LINE
  5
20C
  8
ARRANGE
  6
CONTINUOUS
 62
     1
 10
-50.037352065784937
 20
-49.522351105100888
 30
0.0
 11
50.03735089524934
 21
49.522352267032062
 31
0.0
  0
LINE
  5
20D
  8
ARRANGE
  6
CONTINUOUS
 62
     1
 10
-49.963762444408992
 20
49.596596841056808
 30
0.0
 11
49.963761273872016
 21
-49.596595679121577
 31
0.0
  0
TEXT
  5
20E
  8
SIZE
  6
CONTINUOUS
 62
    30
 10
1161.975707983589
 20
-338.04290057182823
 30
0.0
 40
50.0
  1
(ダクト寸法)
 50
90.000004181133022
 41
0.7031250221965211
  7
STANDARD1
  0
LINE
  5
20F
  8
SERVICESPACE
  6
DASHDOT
 62
     2
 10
-320.00001736202688
 20
-469.9999764617346
 30
0.0
 11
-320.00001736202688
 21
-489.99999694605401
 31
0.0
  0
TEXT
  5
210
  8
NOTE
  6
CONTINUOUS
 62
     4
 10
422.6603956250658
 20
-548.21537889045032
 30
0.0
 40
50.0
  1
サービススペース
 50
359.9999958189112
 41
0.7031250221965211
  7
STANDARD1
  0
LINE
  5
211
  8
SERVICESPACE
  6
DASHDOT
 62
     2
 10
-700.00001388529768
 20
-469.99997646173688
 30
0.0
 11
-700.00001388529768
 21
-489.99999694605651
 31
0.0
  0
LINE
  5
213
  8
OUTLINE
  6
CONTINUOUS
 62
     3
 10
-700.00000013153965
 20
0.0000210652860062
 30
0.0
 11
700.00000013153613
 21
-0.0000199033525803
 31
0.0
  0
LINE
  5
214
  8
OUTLINE
  6
CONTINUOUS
 62
     3
 10
700.00000013153613
 20
-0.0000199033525803
 30
0.0
 11
699.99998637777833
 21
-470.00001743037518
 31
0.0
  0
LINE
  5
215
  8
OUTLINE
  6
CONTINUOUS
 62
     3
 10
699.99998637777833
 20
-470.00001743037518
 30
0.0
 11
-700.00001388529768
 21
-469.99997646173688
 31
0.0
  0
LINE
  5
216
  8
OUTLINE
  6
CONTINUOUS
 62
     3
 10
-700.00001388529768
 20
-469.99997646173688
 30
0.0
 11
-700.0000001315384
 21
0.0000210652860062
 31
0.0
  0
LINE
  5
217
  8
SIZE
  6
CONTINUOUS
 62
    30
 10
708.99999960415516
 20
-20.000019476223379
 30
0.0
 11
972.62623476335705
 21
-20.000019476223461
 31
0.0
  0
LINE
  5
218
  8
SIZE
  6
CONTINUOUS
 62
    30
 10
720.00000013153613
 20
-0.0000199033525717
 30
0.0
 11
972.62623476335705
 21
-0.0000199033526433
 31
0.0
  0
LINE
  5
219
  8
SIZE
  6
CONTINUOUS
 62
    30
 10
952.62623476335693
 20
-20.000019476223461
 30
0.0
 11
952.62623476335693
 21
-45.00001947622345
 31
0.0
  0
LINE
  5
21A
  8
SIZE
  6
CONTINUOUS
 62
    30
 10
952.62623476335693
 20
-0.0000199033526376
 30
0.0
 11
952.62623476335693
 21
114.9119410836683
 31
0.0
  0
LINE
  5
21B
  8
SIZE
  6
CONTINUOUS
 62
    30
 10
952.62623476335693
 20
-20.000019476223461
 30
0.0
 11
952.62623476335693
 21
-0.0000199033526376
 31
0.0
  0
CIRCLE
  5
21C
  8
SIZE
  6
CONTINUOUS
 62
    30
 10
952.62623476335693
 20
-20.000019476223461
 30
0.0
 40
6.25
  0
CIRCLE
  5
21D
  8
SIZE
  6
CONTINUOUS
 62
    30
 10
952.62623476335693
 20
-0.0000199033526376
 30
0.0
 40
6.25
  0
TEXT
  5
21E
  8
SIZE
  6
CONTINUOUS
 62
    30
 10
937.62623476335682
 20
21.027389161586431
 30
0.0
 40
50.0
  1
20
 50
90.0
 41
0.9
 72
     1
 11
937.62623476335682
 21
57.455960590157851
 31
0.0
  0
POINT
  5
21F
  8
DEFPOINTS
  6
CONTINUOUS
 62
     7
 10
688.99999960415505
 20
-20.000019476223379
 30
0.0
  0
POINT
  5
220
  8
DEFPOINTS
  6
CONTINUOUS
 62
     7
 10
700.00000013153613
 20
-0.0000199033525661
 30
0.0
  0
POINT
  5
221
  8
DEFPOINTS
  6
CONTINUOUS
 62
     7
 10
952.62623476335693
 20
-0.0000199033526376
 30
0.0
  0
LINE
  5
222
  8
SERVICESPACE
  6
DASHDOT
 62
     2
 10
549.99999954627208
 20
-469.99999694605827
 30
0.0
 11
549.99999954627208
 21
-489.9999969460556
 31
0.0
  0
LINE
  5
223
  8
SERVICESPACE
  6
DASHDOT
 62
     2
 10
-550.00000045372781
 20
-469.99999694605827
 30
0.0
 11
-550.00000045372781
 21
-489.9999969460556
 31
0.0
  0
LINE
  5
224
  8
SERVICESPACE
  6
DASHDOT
 62
     2
 10
549.99999954627208
 20
-469.99999694605577
 30
0.0
 11
-550.00000045372781
 21
-489.9999969460556
 31
0.0
  0
LINE
  5
225
  8
SERVICESPACE
  6
DASHDOT
 62
     2
 10
-550.00000045372781
 20
-469.99999694605827
 30
0.0
 11
549.99999954627208
 21
-489.9999969460556
 31
0.0
  0
LINE
  5
226
  8
SIZE
  6
CONTINUOUS
 62
    30
 10
699.99998637777833
 20
-489.99999694605401
 30
0.0
 11
699.99998637777833
 21
-1323.332662076577
 31
0.0
  0
LINE
  5
227
  8
SIZE
  6
CONTINUOUS
 62
    30
 10
549.99999954627208
 20
-509.99999694605538
 30
0.0
 11
549.99999954627208
 21
-1323.332662076577
 31
0.0
  0
LINE
  5
228
  8
SIZE
  6
CONTINUOUS
 62
    30
 10
699.99998637777833
 20
-1303.3326620765779
 30
0.0
 11
549.99999954627208
 21
-1303.3326620765779
 31
0.0
  0
CIRCLE
  5
229
  8
SIZE
  6
CONTINUOUS
 62
    30
 10
699.99998637777833
 20
-1303.3326620765779
 30
0.0
 40
6.25
  0
CIRCLE
  5
22A
  8
SIZE
  6
CONTINUOUS
 62
    30
 10
549.99999954627208
 20
-1303.3326620765779
 30
0.0
 40
6.25
  0
TEXT
  5
22B
  8
SIZE
  6
CONTINUOUS
 62
    30
 10
571.4285643905971
 20
-1288.3326620765779
 30
0.0
 40
50.0
  1
150
 41
0.9
 72
     1
 11
624.99999296202566
 21
-1288.3326620765779
 31
0.0
  0
POINT
  5
22C
  8
DEFPOINTS
  6
CONTINUOUS
 62
     7
 10
699.99998637777833
 20
-469.99999694605413
 30
0.0
  0
POINT
  5
22D
  8
DEFPOINTS
  6
CONTINUOUS
 62
     7
 10
549.99999954627208
 20
-489.9999969460556
 30
0.0
  0
POINT
  5
22E
  8
DEFPOINTS
  6
CONTINUOUS
 62
     7
 10
549.99999954627208
 20
-1303.3326620765779
 30
0.0
  0
LINE
  5
22F
  8
SIZE
  6
CONTINUOUS
 62
    30
 10
549.99999954627208
 20
-509.99999694605538
 30
0.0
 11
549.99999954627208
 21
-1323.332662076577
 31
0.0
  0
LINE
  5
230
  8
SIZE
  6
CONTINUOUS
 62
    30
 10
-550.00000045372781
 20
-509.99999694605378
 30
0.0
 11
-550.00000045372781
 21
-1323.332662076577
 31
0.0
  0
LINE
  5
231
  8
SIZE
  6
CONTINUOUS
 62
    30
 10
549.99999954627208
 20
-1303.3326620765779
 30
0.0
 11
-550.00000045372781
 21
-1303.3326620765779
 31
0.0
  0
CIRCLE
  5
232
  8
SIZE
  6
CONTINUOUS
 62
    30
 10
549.99999954627208
 20
-1303.3326620765779
 30
0.0
 40
6.25
  0
CIRCLE
  5
233
  8
SIZE
  6
CONTINUOUS
 62
    30
 10
-550.00000045372781
 20
-1303.3326620765779
 30
0.0
 40
6.25
  0
TEXT
  5
234
  8
SIZE
  6
CONTINUOUS
 62
    30
 10
-70.714286168013516
 20
-1288.3326620765779
 30
0.0
 40
50.0
  1
1100
 41
0.9
 72
     1
 11
-0.0000004537278073
 21
-1288.3326620765779
 31
0.0
  0
POINT
  5
235
  8
DEFPOINTS
  6
CONTINUOUS
 62
     7
 10
549.99999954627208
 20
-489.9999969460556
 30
0.0
  0
POINT
  5
236
  8
DEFPOINTS
  6
CONTINUOUS
 62
     7
 10
-550.00000045372781
 20
-489.99999694605401
 30
0.0
  0
POINT
  5
237
  8
DEFPOINTS
  6
CONTINUOUS
 62
     7
 10
-550.00000045372781
 20
-1303.3326620765779
 30
0.0
  0
TEXT
  5
238
  8
NOTE
  6
CONTINUOUS
 62
     4
 10
-133.2392412726976
 20
-544.38633654897114
 30
0.0
 40
50.0
  1
点検口
 50
0.0000025044165917
 41
0.7031250221965211
  7
STANDARD1
  0
TEXT
  5
4F8
  8
NOTE
  6
CONTINUOUS
 62
     4
 10
182.44042524363979
 20
-649.99609869542473
 30
0.0
 40
50.0
  1
RG %%C19.05
 50
0.0000025044165941
 41
0.7
  7
STANDARD1
  0
LINE
  5
4F9
  8
NOTE
  6
CONTINUOUS
 62
     4
 10
475.68978993689251
 20
-716.26028999888865
 30
0.0
 11
162.38558373926921
 21
-716.26028999888888
 31
0.0
  0
TEXT
  5
4FB
  8
NOTE
  6
CONTINUOUS
 62
     4
 10
192.01723146622311
 20
-700.66955720163605
 30
0.0
 40
35.0
  1
GE-P1680MG
 50
0.0000025044165941
 41
0.6
  7
STANDARD1
  0
TEXT
  5
4FC
  8
NOTE
  6
CONTINUOUS
 62
     4
 10
238.93259377272989
 20
-800.52891569695919
 30
0.0
 40
50.0
  1
RG %%C22.2
 50
0.0000025044165941
 41
0.7
  7
STANDARD1
  0
LINE
  5
4FD
  8
NOTE
  6
CONTINUOUS
 62
     4
 10
532.18195846598258
 20
-866.79310700042322
 30
0.0
 11
187.2901409089099
 21
-866.79310700042322
 31
0.0
  0
TEXT
  5
4FE
  8
NOTE
  6
CONTINUOUS
 62
     4
 10
248.50939999531329
 20
-851.20237420317062
 30
0.0
 40
35.0
  1
GE-P2100MG
 50
0.0000025044165941
 41
0.6
  7
STANDARD1
  0
TEXT
  5
505
  8
ETC
  6
CONTINUOUS
 62
    61
 10
650.28403178512588
 20
796.94595631277593
 30
0.0
 40
60.0
  1
GE-P1680_2100MG1_5
 50
0.0000029998804485
 41
0.8
  0
TEXT
  5
506
  8
ETC
  6
CONTINUOUS
 62
    61
 10
650.28403178512588
 20
695.95125366375942
 30
0.0
 40
60.0
  1
GE-P1680_2100MG3_5
 50
0.0000029998804485
 41
0.8
  0
ENDSEC
  0
EOF
