  0
SECTION
  2
HEADER
  9
$ACADVER
  1
AC1009
  9
$INSBASE
 10
0.0
 20
0.0
 30
0.0
  9
$EXTMIN
 10
-1389.7471221377159
 20
-1420.929459450552
 30
-0.0015258207003583
  9
$EXTMAX
 10
1560.563387924951
 20
1404.905915368643
 30
0.0000000349246037
  9
$LIMMIN
 10
-4267.1522210604826
 20
-2696.083210198412
  9
$LIMMAX
 10
7190.7174225864646
 20
5141.155363923066
  9
$ORTHOMODE
 70
     0
  9
$REGENMODE
 70
     1
  9
$FILLMODE
 70
     1
  9
$QTEXTMODE
 70
     0
  9
$MIRRTEXT
 70
     0
  9
$DRAGMODE
 70
     2
  9
$LTSCALE
 40
20.0
  9
$OSMODE
 70
  3071
  9
$ATTMODE
 70
     1
  9
$TEXTSIZE
 40
64.0
  9
$TRACEWID
 40
0.05
  9
$TEXTSTYLE
  7
NOTE
  9
$CLAYER
  8
SIZE
  9
$CELTYPE
  6
CONTINUOUS
  9
$CECOLOR
 62
     7
  9
$DIMSCALE
 40
1.0
  9
$DIMASZ
 40
25.0
  9
$DIMEXO
 40
20.0
  9
$DIMDLI
 40
80.0
  9
$DIMRND
 40
0.0
  9
$DIMDLE
 40
0.0
  9
$DIMEXE
 40
20.0
  9
$DIMTP
 40
0.0
  9
$DIMTM
 40
0.0
  9
$DIMTXT
 40
50.0
  9
$DIMCEN
 40
0.09
  9
$DIMTSZ
 40
0.0
  9
$DIMTOL
 70
     0
  9
$DIMLIM
 70
     0
  9
$DIMTIH
 70
     0
  9
$DIMTOH
 70
     0
  9
$DIMSE1
 70
     0
  9
$DIMSE2
 70
     0
  9
$DIMTAD
 70
     1
  9
$DIMZIN
 70
     8
  9
$DIMBLK
  1
SMALL
  9
$DIMASO
 70
     1
  9
$DIMSHO
 70
     0
  9
$DIMPOST
  1

  9
$DIMAPOST
  1

  9
$DIMALT
 70
     0
  9
$DIMALTD
 70
     2
  9
$DIMALTF
 40
25.399999999999999
  9
$DIMLFAC
 40
1.0
  9
$DIMTOFL
 70
     1
  9
$DIMTVP
 40
0.0
  9
$DIMTIX
 70
     0
  9
$DIMSOXD
 70
     0
  9
$DIMSAH
 70
     0
  9
$DIMBLK1
  1

  9
$DIMBLK2
  1

  9
$DIMSTYLE
  2
STANDARD
  9
$DIMCLRD
 70
     0
  9
$DIMCLRE
 70
     0
  9
$DIMCLRT
 70
     0
  9
$DIMTFAC
 40
1.0
  9
$DIMGAP
 40
0.09
  9
$LUNITS
 70
     2
  9
$LUPREC
 70
     4
  9
$SKETCHINC
 40
0.1
  9
$FILLETRAD
 40
30.0
  9
$AUNITS
 70
     1
  9
$AUPREC
 70
     3
  9
$MENU
  1
ACAD
  9
$ELEVATION
 40
0.0
  9
$PELEVATION
 40
0.0
  9
$THICKNESS
 40
0.0
  9
$LIMCHECK
 70
     0
  9
$BLIPMODE
 70
     0
  9
$CHAMFERA
 40
0.0
  9
$CHAMFERB
 40
0.0
  9
$SKPOLY
 70
     0
  9
$TDCREATE
 40
2450330.4399309959
  9
$TDUPDATE
 40
2454959.4049857291
  9
$TDINDWG
 40
4.0856501042
  9
$TDUSRTIMER
 40
4.0856329398
  9
$USRTIMER
 70
     1
  9
$ANGBASE
 50
0.0
  9
$ANGDIR
 70
     0
  9
$PDMODE
 70
     3
  9
$PDSIZE
 40
-2.0
  9
$PLINEWID
 40
0.0
  9
$COORDS
 70
     0
  9
$SPLFRAME
 70
     0
  9
$SPLINETYPE
 70
     6
  9
$SPLINESEGS
 70
     8
  9
$ATTDIA
 70
     0
  9
$ATTREQ
 70
     1
  9
$HANDLING
 70
     1
  9
$HANDSEED
  5
3A3
  9
$SURFTAB1
 70
     6
  9
$SURFTAB2
 70
     6
  9
$SURFTYPE
 70
     6
  9
$SURFU
 70
     6
  9
$SURFV
 70
     6
  9
$UCSNAME
  2

  9
$UCSORG
 10
0.0
 20
0.0
 30
0.0
  9
$UCSXDIR
 10
1.0
 20
0.0
 30
0.0
  9
$UCSYDIR
 10
0.0
 20
1.0
 30
0.0
  9
$PUCSNAME
  2

  9
$PUCSORG
 10
0.0
 20
0.0
 30
0.0
  9
$PUCSXDIR
 10
1.0
 20
0.0
 30
0.0
  9
$PUCSYDIR
 10
0.0
 20
1.0
 30
0.0
  9
$USERI1
 70
     0
  9
$USERI2
 70
     0
  9
$USERI3
 70
     0
  9
$USERI4
 70
     0
  9
$USERI5
 70
     0
  9
$USERR1
 40
20.0
  9
$USERR2
 40
0.0
  9
$USERR3
 40
0.0
  9
$USERR4
 40
0.0
  9
$USERR5
 40
0.0
  9
$WORLDVIEW
 70
     1
  9
$SHADEDGE
 70
     3
  9
$SHADEDIF
 70
    70
  9
$TILEMODE
 70
     1
  9
$MAXACTVP
 70
    64
  9
$PLIMCHECK
 70
     0
  9
$PEXTMIN
 10
1.0000000000000000E+020
 20
1.0000000000000000E+020
 30
1.0000000000000000E+020
  9
$PEXTMAX
 10
-1.0000000000000000E+020
 20
-1.0000000000000000E+020
 30
-1.0000000000000000E+020
  9
$PLIMMIN
 10
0.0
 20
0.0
  9
$PLIMMAX
 10
12.0
 20
9.0
  9
$UNITMODE
 70
     0
  9
$VISRETAIN
 70
     1
  9
$PLINEGEN
 70
     0
  9
$PSLTSCALE
 70
     1
  0
ENDSEC
  0
SECTION
  2
TABLES
  0
TABLE
  2
VPORT
 70
     1
  0
VPORT
  2
*ACTIVE
 70
     0
 10
0.0
 20
0.0
 11
1.0
 21
1.0
 12
1461.782600762991
 22
1222.536076862327
 13
0.0
 23
0.0
 14
50.0
 24
50.0
 15
100.0
 25
100.0
 16
0.0
 26
0.0
 36
1.0
 17
0.0
 27
0.0
 37
0.0
 40
7898.62686582478
 41
1.533333333333333
 42
50.0
 43
0.0
 44
0.0
 50
0.0
 51
0.0
 71
     0
 72
  1000
 73
     1
 74
     0
 75
     0
 76
     0
 77
     0
 78
     0
  0
ENDTAB
  0
TABLE
  2
LTYPE
 70
     3
  0
LTYPE
  2
CONTINUOUS
 70
     0
  3
実線
 72
    65
 73
     0
 40
0.0
  0
LTYPE
  2
DASHDOT
 70
     0
  3
____ _ ____ _ ____ _ ____ _ ____ _ ____ _ ____
 72
    65
 73
     4
 40
5.5
 49
4.0
 49
-0.6
 49
0.3
 49
-0.6
  0
ENDTAB
  0
TABLE
  2
LAYER
 70
    12
  0
LAYER
  2
0
 70
     0
 62
     7
  6
CONTINUOUS
  0
LAYER
  2
SIZE
 70
     0
 62
    30
  6
CONTINUOUS
  0
LAYER
  2
OUTLINE
 70
     0
 62
     3
  6
CONTINUOUS
  0
LAYER
  2
DETAIL
 70
     0
 62
     5
  6
CONTINUOUS
  0
LAYER
  2
BASIS
 70
     0
 62
     6
  6
DASHDOT
  0
LAYER
  2
NOTE
 70
     0
 62
     4
  6
CONTINUOUS
  0
LAYER
  2
ARRANGE
 70
     0
 62
     1
  6
CONTINUOUS
  0
LAYER
  2
FIX
 70
     0
 62
    11
  6
CONTINUOUS
  0
LAYER
  2
SERVICESPACE
 70
     0
 62
     2
  6
DASHDOT
  0
LAYER
  2
ETC
 70
     0
 62
    61
  6
CONTINUOUS
  0
LAYER
  2
SYMBOLLINE
 70
     0
 62
    15
  6
CONTINUOUS
  0
LAYER
  2
DEFPOINTS
 70
     0
 62
     7
  6
CONTINUOUS
  0
ENDTAB
  0
TABLE
  2
STYLE
 70
     4
  0
STYLE
  2
STANDARD
 70
     0
 40
0.0
 41
0.9
 50
0.0
 71
     0
 42
64.0
  3
SIMPLEX
  4
BIGFONT
  0
STYLE
  2
ANNOTATIVE
 70
     0
 40
0.0
 41
1.0
 50
0.0
 71
     0
 42
0.2
  3
txt
  4

  0
STYLE
  2
NOTE
 70
     0
 40
0.0
 41
0.7
 50
0.0
 71
     0
 42
64.0
  3
SIMPLEX.shx
  4
BIGFONT.shx
  0
STYLE
  2
STANDARD1
 70
     0
 40
0.0
 41
1.0
 50
0.0
 71
     0
 42
64.0
  3
MONOTXT
  4
BIGFONT
  0
ENDTAB
  0
TABLE
  2
VIEW
 70
     7
  0
VIEW
  2
ALL
 70
     0
 40
9000.0
 10
241.50664699999999
 20
0.0
 41
12483.01
 11
0.0
 21
0.0
 31
1.0
 12
0.0
 22
0.0
 32
0.0
 42
50.0
 43
0.0
 44
0.0
 50
0.0
 71
     0
  0
ENDTAB
  0
TABLE
  2
UCS
 70
     0
  0
ENDTAB
  0
TABLE
  2
APPID
 70
     4
  0
APPID
  2
ACAD
 70
     0
  0
APPID
  2
ACADANNOTATIVE
 70
     0
  0
APPID
  2
ACAD_MLEADERVER
 70
     0
  0
APPID
  2
ACAD_EXEMPT_FROM_CAD_STANDARDS
 70
     0
  0
ENDTAB
  0
TABLE
  2
DIMSTYLE
 70
     3
  0
DIMSTYLE
  2
STANDARD
 70
     0
  3

  4

  5

  6

  7

 40
1.0
 41
0.18
 42
0.0625
 43
0.38
 44
0.18
 45
0.0
 46
0.0
 47
0.0
 48
0.0
140
0.18
141
0.09
142
0.0
143
25.399999999999999
144
1.0
145
0.0
146
1.0
147
0.09
 71
     0
 72
     0
 73
     1
 74
     1
 75
     0
 76
     0
 77
     0
 78
     0
170
     0
171
     2
172
     0
173
     0
174
     0
175
     0
176
     0
177
     0
178
     0
  0
DIMSTYLE
  2
ANNOTATIVE
 70
     0
  3

  4

  5

  6

  7

 40
1.0
 41
0.18
 42
0.0625
 43
0.38
 44
0.18
 45
0.0
 46
0.0
 47
0.0
 48
0.0
140
0.18
141
0.09
142
0.0
143
25.399999999999999
144
1.0
145
0.0
146
1.0
147
0.09
 71
     0
 72
     0
 73
     1
 74
     1
 75
     0
 76
     0
 77
     0
 78
     0
170
     0
171
     2
172
     0
173
     0
174
     0
175
     0
176
     0
177
     0
178
     0
  0
ENDTAB
  0
ENDSEC
  0
SECTION
  2
BLOCKS
  0
BLOCK
  8
0
  2
$MODEL_SPACE
 70
     0
 10
0.0
 20
0.0
 30
0.0
  3
$MODEL_SPACE
  1

  0
ENDBLK
  5
76
  8
0
  0
BLOCK
 67
     1
  8
0
  2
$PAPER_SPACE
 70
     0
 10
0.0
 20
0.0
 30
0.0
  3
$PAPER_SPACE
  1

  0
ENDBLK
  5
72
 67
     1
  8
0
  0
BLOCK
  8
0
  2
_SMALL
 70
     0
 10
0.0
 20
0.0
 30
0.0
  3
_SMALL
  1

  0
CIRCLE
  5
8D
  8
0
  6
CONTINUOUS
 62
     7
 10
0.0
 20
0.0
 30
0.0
 40
0.25
  0
ENDBLK
  5
8E
  8
0
  0
ENDSEC
  0
SECTION
  2
ENTITIES
  0
LINE
  5
8F
  8
NOTE
  6
CONTINUOUS
 62
     4
 10
-19.319014770994521
 20
775.61846903616242
 30
0.0
 11
-48.186528078583052
 21
735.61846924662814
 31
0.0
  0
LINE
  5
90
  8
NOTE
  6
CONTINUOUS
 62
     4
 10
-77.054041386175228
 20
775.61846903616242
 30
0.0
 11
-48.186528078583052
 21
735.61846924662814
 31
0.0
  0
LINE
  5
91
  8
DETAIL
  6
CONTINUOUS
 62
     5
 10
649.99999763225185
 20
-546.49999721132633
 30
0.0
 11
649.99999763225185
 21
-513.49999721132633
 31
0.0
  0
LINE
  5
92
  8
DETAIL
  6
CONTINUOUS
 62
     5
 10
624.99999776379389
 20
699.99999631684432
 30
0.0
 11
624.99999776379389
 21
-699.99999631684148
 31
0.0
  0
LINE
  5
93
  8
DETAIL
  6
CONTINUOUS
 62
     5
 10
439.99999873720049
 20
-724.99999618530046
 30
0.0
 11
-560.00000034201423
 21
-724.99999618529955
 31
0.0
  0
LINE
  5
94
  8
DETAIL
  6
CONTINUOUS
 62
     5
 10
-625.00000000000591
 20
-699.99999631684079
 30
0.0
 11
624.99999999999409
 21
-699.99999631684148
 31
0.0
  0
LINE
  5
95
  8
DETAIL
  6
CONTINUOUS
 62
     5
 10
685.19999744704671
 20
-698.99999632210847
 30
0.0
 11
624.99999776379389
 21
-698.99999632210847
 31
0.0
  0
LINE
  5
96
  8
DETAIL
  6
CONTINUOUS
 62
     5
 10
685.19999744704671
 20
-593.99999687458251
 30
0.0
 11
624.99999776379389
 21
-593.99999687458251
 31
0.0
  0
LINE
  5
97
  8
DETAIL
  6
CONTINUOUS
 62
     5
 10
624.99999776379389
 20
-546.49999721132633
 30
0.0
 11
649.99999763225185
 21
-546.49999721132633
 31
0.0
  0
LINE
  5
98
  8
DETAIL
  6
CONTINUOUS
 62
     5
 10
685.19999744704671
 20
-593.99999687458251
 30
0.0
 11
685.19999744704671
 21
-662.99999651152439
 31
0.0
  0
ARC
  5
99
  8
DETAIL
  6
CONTINUOUS
 62
     5
 10
662.19999756806237
 20
-660.99999652204929
 30
0.0
 40
6.9999999631684604
 50
0.0
 51
180.0
  0
LINE
  5
9A
  8
DETAIL
  6
CONTINUOUS
 62
     5
 10
685.19999744704671
 20
-674.99999644838215
 30
0.0
 11
669.19999753122966
 21
-674.99999644838215
 31
0.0
  0
LINE
  5
9B
  8
DETAIL
  6
CONTINUOUS
 62
     5
 10
685.19999744704671
 20
-662.99999651152439
 30
0.0
 11
669.19999753122966
 21
-662.99999651152439
 31
0.0
  0
LINE
  5
9C
  8
DETAIL
  6
CONTINUOUS
 62
     5
 10
685.19999744704671
 20
-674.99999644838215
 30
0.0
 11
685.19999744704671
 21
-698.99999632210847
 31
0.0
  0
LINE
  5
9D
  8
DETAIL
  6
CONTINUOUS
 62
     5
 10
669.19999753122966
 20
-676.99999643785725
 30
0.0
 11
669.19999753122966
 21
-674.99999644838215
 31
0.0
  0
LINE
  5
9E
  8
DETAIL
  6
CONTINUOUS
 62
     5
 10
669.19999753122966
 20
-662.99999651152439
 30
0.0
 11
669.19999753122966
 21
-660.99999652204929
 31
0.0
  0
LINE
  5
9F
  8
DETAIL
  6
CONTINUOUS
 62
     5
 10
655.19999760489679
 20
-660.99999652204929
 30
0.0
 11
655.19999760489679
 21
-676.99999643785725
 31
0.0
  0
ARC
  5
A0
  8
DETAIL
  6
CONTINUOUS
 62
     5
 10
662.19999756806237
 20
-676.99999643785725
 30
0.0
 40
6.999999963168392
 50
180.0
 51
0.0
  0
LINE
  5
A1
  8
NOTE
  6
CONTINUOUS
 62
     4
 10
283.54999956038171
 20
-714.99999623791643
 30
0.0
 11
296.44999949251479
 21
-714.99999623791643
 31
0.0
  0
CIRCLE
  5
A2
  8
DETAIL
  6
CONTINUOUS
 62
     5
 10
289.9999995264472
 20
-714.99999623791643
 30
0.0
 40
1.7
  0
LINE
  5
A3
  8
DETAIL
  6
CONTINUOUS
 62
     5
 10
439.99999873720049
 20
-724.99999618530046
 30
0.0
 11
439.99999873720049
 21
-699.99999631684148
 31
0.0
  0
LINE
  5
A4
  8
NOTE
  6
CONTINUOUS
 62
     4
 10
383.54999903421532
 20
-714.99999623791643
 30
0.0
 11
396.44999896635039
 21
-714.99999623791643
 31
0.0
  0
LINE
  5
A5
  8
NOTE
  6
CONTINUOUS
 62
     4
 10
389.9999990002828
 20
-708.54999627185941
 30
0.0
 11
389.9999990002828
 21
-721.44999620398335
 31
0.0
  0
CIRCLE
  5
A6
  8
DETAIL
  6
CONTINUOUS
 62
     5
 10
389.9999990002828
 20
-714.99999623791643
 30
0.0
 40
1.7
  0
LINE
  5
A7
  8
NOTE
  6
CONTINUOUS
 62
     4
 10
289.99999952644902
 20
-708.54999627185941
 30
0.0
 11
289.99999952644902
 21
-721.44999620398335
 31
0.0
  0
LINE
  5
A8
  8
NOTE
  6
CONTINUOUS
 62
     4
 10
-9.99999994738622
 20
-708.54999627185941
 30
0.0
 11
-9.99999994738622
 21
-721.44999620398335
 31
0.0
  0
LINE
  5
A9
  8
NOTE
  6
CONTINUOUS
 62
     4
 10
-16.449999913453691
 20
-714.99999623791643
 30
0.0
 11
-3.54999998132056
 21
-714.99999623791643
 31
0.0
  0
CIRCLE
  5
AA
  8
DETAIL
  6
CONTINUOUS
 62
     5
 10
-9.99999994738622
 20
-714.99999623791643
 30
0.0
 40
1.7
  0
LINE
  5
AB
  8
NOTE
  6
CONTINUOUS
 62
     4
 10
-77.054041386175228
 20
-785.53104720911529
 30
0.0
 11
-48.186528078583052
 21
-825.53104699864934
 31
0.0
  0
LINE
  5
AC
  8
NOTE
  6
CONTINUOUS
 62
     4
 10
-19.319014770994521
 20
-785.53104720911529
 30
0.0
 11
-48.186528078583052
 21
-825.53104699864934
 31
0.0
  0
LINE
  5
AD
  8
NOTE
  6
CONTINUOUS
 62
     4
 10
-63.186527999658921
 20
-785.53104720911529
 30
0.0
 11
-77.054041386175228
 21
-785.53104720911529
 31
0.0
  0
LINE
  5
AE
  8
NOTE
  6
CONTINUOUS
 62
     4
 10
-19.319014770994521
 20
-785.53104720911529
 30
0.0
 11
-33.186528157509002
 21
-785.53104720911529
 31
0.0
  0
LINE
  5
AF
  8
NOTE
  6
CONTINUOUS
 62
     4
 10
-63.186527999658921
 20
-755.53104736696514
 30
0.0
 11
-33.186528157509002
 21
-755.53104736696514
 31
0.0
  0
LINE
  5
B0
  8
NOTE
  6
CONTINUOUS
 62
     4
 10
-33.186528157509002
 20
-755.53104736696514
 30
0.0
 11
-33.186528157509002
 21
-785.53104720911529
 31
0.0
  0
LINE
  5
B1
  8
NOTE
  6
CONTINUOUS
 62
     4
 10
-63.186527999658921
 20
-755.53104736696514
 30
0.0
 11
-63.186527999658921
 21
-785.53104720911529
 31
0.0
  0
LINE
  5
B2
  8
NOTE
  6
CONTINUOUS
 62
     4
 10
-310.00000165742739
 20
-708.54999627185941
 30
0.0
 11
-310.00000165742739
 21
-721.44999620398335
 31
0.0
  0
LINE
  5
B3
  8
NOTE
  6
CONTINUOUS
 62
     4
 10
-316.45000162349311
 20
-714.99999623791643
 30
0.0
 11
-303.55000169136002
 21
-714.99999623791643
 31
0.0
  0
CIRCLE
  5
B4
  8
DETAIL
  6
CONTINUOUS
 62
     5
 10
-310.00000165742739
 20
-714.99999623791643
 30
0.0
 40
1.7
  0
LINE
  5
B5
  8
NOTE
  6
CONTINUOUS
 62
     4
 10
-410.00000113126282
 20
-708.5499962718585
 30
0.0
 11
-410.00000113126282
 21
-721.44999620398335
 31
0.0
  0
LINE
  5
B6
  8
NOTE
  6
CONTINUOUS
 62
     4
 10
-416.4500010973286
 20
-714.9999962379153
 30
0.0
 11
-403.55000116519528
 21
-714.9999962379153
 31
0.0
  0
CIRCLE
  5
B7
  8
DETAIL
  6
CONTINUOUS
 62
     5
 10
-410.00000113126282
 20
-714.99999623791643
 30
0.0
 40
1.7
  0
LINE
  5
B8
  8
NOTE
  6
CONTINUOUS
 62
     4
 10
-510.0000006050966
 20
-708.5499962718585
 30
0.0
 11
-510.0000006050966
 21
-721.44999620398335
 31
0.0
  0
LINE
  5
B9
  8
NOTE
  6
CONTINUOUS
 62
     4
 10
-516.45000057116408
 20
-714.9999962379153
 30
0.0
 11
-503.55000063902912
 21
-714.9999962379153
 31
0.0
  0
CIRCLE
  5
BA
  8
DETAIL
  6
CONTINUOUS
 62
     5
 10
-510.0000006050966
 20
-714.99999623791643
 30
0.0
 40
1.7
  0
LINE
  5
BB
  8
DETAIL
  6
CONTINUOUS
 62
     5
 10
-560.00000034201423
 20
-724.99999618529955
 30
0.0
 11
-560.00000034201423
 21
-699.99999631684079
 31
0.0
  0
LINE
  5
BC
  8
DETAIL
  6
CONTINUOUS
 62
     5
 10
-685.00000447241155
 20
-662.99999651152325
 30
0.0
 11
-685.00000447241155
 21
-593.99999687458126
 31
0.0
  0
LINE
  5
BD
  8
DETAIL
  6
CONTINUOUS
 62
     5
 10
-625.00000000000614
 20
-698.99999632210734
 30
0.0
 11
-685.00000447241155
 21
-698.99999632210734
 31
0.0
  0
ARC
  5
BE
  8
DETAIL
  6
CONTINUOUS
 62
     5
 10
-662.80000466814329
 20
-660.99999652204929
 30
0.0
 40
6.9999999631684604
 50
0.0
 51
180.0
  0
LINE
  5
BF
  8
DETAIL
  6
CONTINUOUS
 62
     5
 10
-685.00000447241155
 20
-674.99999644838135
 30
0.0
 11
-669.80000463131034
 21
-674.99999644838135
 31
0.0
  0
LINE
  5
C0
  8
DETAIL
  6
CONTINUOUS
 62
     5
 10
-685.00000447241155
 20
-662.99999651152325
 30
0.0
 11
-669.80000463131034
 21
-662.99999651152325
 31
0.0
  0
LINE
  5
C1
  8
DETAIL
  6
CONTINUOUS
 62
     5
 10
-655.80000470497612
 20
-676.99999643785645
 30
0.0
 11
-655.80000470497612
 21
-660.99999652204929
 31
0.0
  0
LINE
  5
C2
  8
DETAIL
  6
CONTINUOUS
 62
     5
 10
-669.80000463131034
 20
-660.99999652204929
 30
0.0
 11
-669.80000463131034
 21
-662.99999651152325
 31
0.0
  0
LINE
  5
C3
  8
DETAIL
  6
CONTINUOUS
 62
     5
 10
-669.80000463131034
 20
-674.99999644838135
 30
0.0
 11
-669.80000463131034
 21
-676.99999643785645
 31
0.0
  0
LINE
  5
C4
  8
DETAIL
  6
CONTINUOUS
 62
     5
 10
-685.00000447241155
 20
-698.99999632210734
 30
0.0
 11
-685.00000447241155
 21
-674.99999644838135
 31
0.0
  0
ARC
  5
C5
  8
DETAIL
  6
CONTINUOUS
 62
     5
 10
-662.80000466814329
 20
-676.99999643785725
 30
0.0
 40
6.9999999631684604
 50
180.0
 51
0.0
  0
LINE
  5
C6
  8
DETAIL
  6
CONTINUOUS
 62
     5
 10
-625.00000000000614
 20
-593.99999687458126
 30
0.0
 11
-685.00000447241155
 21
-593.99999687458126
 31
0.0
  0
LINE
  5
C7
  8
DETAIL
  6
CONTINUOUS
 62
     5
 10
624.99999999999409
 20
270.7999985751452
 30
0.0
 11
-625.00000000000591
 21
270.79999857514628
 31
0.0
  0
LINE
  5
C8
  8
DETAIL
  6
CONTINUOUS
 62
     5
 10
624.99999999999409
 20
290.99999846885572
 30
0.0
 11
-625.00000000000591
 21
290.99999846885652
 31
0.0
  0
LINE
  5
C9
  8
DETAIL
  6
CONTINUOUS
 62
     5
 10
624.99999999999409
 20
699.99999631684432
 30
0.0
 11
-625.00000000000591
 21
699.99999631684545
 31
0.0
  0
LINE
  5
CA
  8
DETAIL
  6
CONTINUOUS
 62
     5
 10
549.99999815841807
 20
724.99999618530273
 30
0.0
 11
-550.00000039463032
 21
724.99999618530455
 31
0.0
  0
LINE
  5
CB
  8
DETAIL
  6
CONTINUOUS
 62
     5
 10
692.63264540887883
 20
-199.49999895030669
 30
0.0
 11
692.63264540887883
 21
-224.49999881876531
 31
0.0
  0
LINE
  5
CC
  8
DETAIL
  6
CONTINUOUS
 62
     5
 10
724.99999723762926
 20
-219.8052588434534
 30
0.0
 11
724.99999723762926
 21
-204.19473892559921
 31
0.0
  0
LINE
  5
CD
  8
DETAIL
  6
CONTINUOUS
 62
     5
 10
724.99999723762926
 20
-219.8052588434534
 30
0.0
 11
724.99999723762926
 21
-204.19473892559921
 31
0.0
  0
LINE
  5
CE
  8
DETAIL
  6
CONTINUOUS
 62
     5
 10
704.43999734581246
 20
-220.95286747696341
 30
0.0
 11
704.43999734581246
 21
-203.04713029210731
 31
0.0
  0
LINE
  5
CF
  8
DETAIL
  6
CONTINUOUS
 62
     5
 10
714.99999729024535
 20
-220.7988169407073
 30
0.0
 11
714.99999729024535
 21
-203.20118082836319
 31
0.0
  0
LINE
  5
D0
  8
DETAIL
  6
CONTINUOUS
 62
     5
 10
708.27999732560875
 20
-220.7988169407073
 30
0.0
 11
708.27999732560875
 21
-203.20118082836319
 31
0.0
  0
LINE
  5
D1
  8
DETAIL
  6
CONTINUOUS
 62
     5
 10
624.99999776379389
 20
-513.49999721132633
 30
0.0
 11
649.99999763225185
 21
-513.49999721132633
 31
0.0
  0
LINE
  5
D2
  8
DETAIL
  6
CONTINUOUS
 62
     5
 10
624.99999776379389
 20
-366.49999815842438
 30
0.0
 11
649.99999763225185
 21
-366.49999815842438
 31
0.0
  0
LINE
  5
D3
  8
DETAIL
  6
CONTINUOUS
 62
     5
 10
624.99999776379389
 20
-333.49999815842438
 30
0.0
 11
649.99999763225185
 21
-333.49999815842438
 31
0.0
  0
LINE
  5
D4
  8
DETAIL
  6
CONTINUOUS
 62
     5
 10
624.99999776379389
 20
-224.4999988187555
 30
0.0
 11
692.63264540887883
 21
-224.4999988187555
 31
0.0
  0
LINE
  5
D5
  8
DETAIL
  6
CONTINUOUS
 62
     5
 10
649.99999763225185
 20
-366.49999815842438
 30
0.0
 11
649.99999763225185
 21
-333.49999815842438
 31
0.0
  0
LINE
  5
D6
  8
DETAIL
  6
CONTINUOUS
 62
     5
 10
702.43999735633895
 20
-222.10756800926151
 30
0.0
 11
692.63264540887883
 21
-222.10756800926151
 31
0.0
  0
LINE
  5
D7
  8
DETAIL
  6
CONTINUOUS
 62
     5
 10
714.99999729024535
 20
-220.11775884180949
 30
0.0
 11
724.99999723762926
 21
-219.8052588434534
 31
0.0
  0
LINE
  5
D8
  8
DETAIL
  6
CONTINUOUS
 62
     5
 10
713.99999729550245
 20
-222.5308677391624
 30
0.0
 11
714.99999729024535
 21
-220.7988169407073
 31
0.0
  0
LINE
  5
D9
  8
DETAIL
  6
CONTINUOUS
 62
     5
 10
702.43999735633895
 20
-222.10756800926151
 30
0.0
 11
704.43999734581246
 21
-220.95286747696341
 31
0.0
  0
LINE
  5
DA
  8
DETAIL
  6
CONTINUOUS
 62
     5
 10
708.27999732560875
 20
-220.11775884180949
 30
0.0
 11
704.43999734581246
 21
-219.99775884244329
 31
0.0
  0
LINE
  5
DB
  8
DETAIL
  6
CONTINUOUS
 62
     5
 10
713.99999729550245
 20
-222.5308677391624
 30
0.0
 11
709.27999732034152
 21
-222.5308677391624
 31
0.0
  0
LINE
  5
DC
  8
DETAIL
  6
CONTINUOUS
 62
     5
 10
709.27999732034152
 20
-222.5308677391624
 30
0.0
 11
708.27999732560875
 21
-220.7988169407073
 31
0.0
  0
LINE
  5
DD
  8
DETAIL
  6
CONTINUOUS
 62
     5
 10
624.99999776379389
 20
-192.8260161280613
 30
0.0
 11
657.99999759016032
 21
-192.24999898844951
 31
0.0
  0
LINE
  5
DE
  8
DETAIL
  6
CONTINUOUS
 62
     5
 10
624.99999776379389
 20
-199.49999895029711
 30
0.0
 11
692.63264540887883
 21
-199.49999895029711
 31
0.0
  0
LINE
  5
DF
  8
DETAIL
  6
CONTINUOUS
 62
     5
 10
649.99999763225185
 20
-120.4999993659703
 30
0.0
 11
624.99999776379389
 21
-120.4999993659703
 31
0.0
  0
LINE
  5
E0
  8
DETAIL
  6
CONTINUOUS
 62
     5
 10
624.99999776379389
 20
-159.17398201984221
 30
0.0
 11
657.99999759016032
 21
-159.74999915945361
 31
0.0
  0
LINE
  5
E1
  8
DETAIL
  6
CONTINUOUS
 62
     5
 10
649.99999763225185
 20
-71.499999623796157
 30
0.0
 11
624.99999776379389
 21
-71.499999623796157
 31
0.0
  0
LINE
  5
E2
  8
DETAIL
  6
CONTINUOUS
 62
     5
 10
702.43999735633895
 20
-201.8924297598104
 30
0.0
 11
692.63264540887883
 21
-201.8924297598104
 31
0.0
  0
LINE
  5
E3
  8
DETAIL
  6
CONTINUOUS
 62
     5
 10
714.99999729024535
 20
-203.88223892725361
 30
0.0
 11
724.99999723762926
 21
-204.19473892559921
 31
0.0
  0
LINE
  5
E4
  8
DETAIL
  6
CONTINUOUS
 62
     5
 10
713.99999729550245
 20
-201.4691300298995
 30
0.0
 11
714.99999729024535
 21
-203.20118082836319
 31
0.0
  0
LINE
  5
E5
  8
DETAIL
  6
CONTINUOUS
 62
     5
 10
702.43999735633895
 20
-201.8924297598104
 30
0.0
 11
704.43999734581246
 21
-203.04713029210731
 31
0.0
  0
LINE
  5
E6
  8
DETAIL
  6
CONTINUOUS
 62
     5
 10
708.27999732560875
 20
-203.88223892725361
 30
0.0
 11
704.43999734581246
 21
-204.00223892661811
 31
0.0
  0
LINE
  5
E7
  8
DETAIL
  6
CONTINUOUS
 62
     5
 10
709.27999732035028
 20
-201.4691300298995
 30
0.0
 11
713.99999729550245
 21
-201.4691300298995
 31
0.0
  0
LINE
  5
E8
  8
DETAIL
  6
CONTINUOUS
 62
     5
 10
709.27999732035028
 20
-201.4691300298995
 30
0.0
 11
708.27999732560875
 21
-203.20118082836319
 31
0.0
  0
LINE
  5
E9
  8
DETAIL
  6
CONTINUOUS
 62
     5
 10
682.99999745862033
 20
-159.99999915813339
 30
0.0
 11
682.99999745862033
 21
-191.9999989897596
 31
0.0
  0
LINE
  5
EA
  8
DETAIL
  6
CONTINUOUS
 62
     5
 10
657.99999759016032
 20
-159.74999915945361
 30
0.0
 11
657.99999759016032
 21
-192.24999898844951
 31
0.0
  0
LINE
  5
EB
  8
DETAIL
  6
CONTINUOUS
 62
     5
 10
657.99999759016032
 20
-191.9999989897596
 30
0.0
 11
682.99999745862033
 21
-191.9999989897596
 31
0.0
  0
LINE
  5
EC
  8
DETAIL
  6
CONTINUOUS
 62
     5
 10
657.99999759016032
 20
-159.99999915813339
 30
0.0
 11
682.99999745862033
 21
-159.99999915813339
 31
0.0
  0
LINE
  5
ED
  8
DETAIL
  6
CONTINUOUS
 62
     5
 10
649.99999763225185
 20
-105.52500000000001
 30
0.0
 11
705.74892223782047
 21
-105.52500000000001
 31
0.0
  0
LINE
  5
EE
  8
DETAIL
  6
CONTINUOUS
 62
     5
 10
649.99999763225185
 20
-86.474999999999994
 30
0.0
 11
705.74892223782047
 21
-86.474999999999994
 31
0.0
  0
LINE
  5
EF
  8
DETAIL
  6
CONTINUOUS
 62
     5
 10
709.52449750405265
 20
-90.239828891265446
 30
0.0
 11
705.74892223782047
 21
-86.474999999999994
 31
0.0
  0
LINE
  5
F0
  8
DETAIL
  6
CONTINUOUS
 62
     5
 10
705.74892223782047
 20
-105.52500000000001
 30
0.0
 11
705.74892223782047
 21
-86.474999999999994
 31
0.0
  0
LINE
  5
F1
  8
DETAIL
  6
CONTINUOUS
 62
     5
 10
724.99999723762926
 20
-102.0799995047191
 30
0.0
 11
710.07845828513882
 21
-102.0799995047191
 31
0.0
  0
LINE
  5
F2
  8
DETAIL
  6
CONTINUOUS
 62
     5
 10
724.99999723762926
 20
-89.919999485149205
 30
0.0
 11
710.07845828513882
 21
-89.919999485149205
 31
0.0
  0
LINE
  5
F3
  8
DETAIL
  6
CONTINUOUS
 62
     5
 10
710.07845828513882
 20
-102.0799995047191
 30
0.0
 11
709.52449750405265
 21
-101.7601700986024
 31
0.0
  0
LINE
  5
F4
  8
DETAIL
  6
CONTINUOUS
 62
     5
 10
724.99999723762926
 20
-102.0799995047191
 30
0.0
 11
724.99999723762926
 21
-89.919999485149205
 31
0.0
  0
LINE
  5
F5
  8
DETAIL
  6
CONTINUOUS
 62
     5
 10
709.52449750405265
 20
-101.7601700986024
 30
0.0
 11
709.52449750405265
 21
-90.239828891265446
 31
0.0
  0
LINE
  5
F6
  8
DETAIL
  6
CONTINUOUS
 62
     5
 10
709.52449750405265
 20
-101.7601700986024
 30
0.0
 11
705.74892223782047
 21
-105.52500000000001
 31
0.0
  0
LINE
  5
F7
  8
DETAIL
  6
CONTINUOUS
 62
     5
 10
710.07845828513882
 20
-89.919999485149205
 30
0.0
 11
709.52449750405265
 21
-90.239828891265446
 31
0.0
  0
LINE
  5
F8
  8
DETAIL
  6
CONTINUOUS
 62
     5
 10
649.99999763225185
 20
-120.4995711400706
 30
0.0
 11
649.99999763225185
 21
-71.500427849787215
 31
0.0
  0
LINE
  5
F9
  8
DETAIL
  6
CONTINUOUS
 62
     5
 10
624.99999776379389
 20
-17.99999990529022
 30
0.0
 11
649.99999763225185
 21
-17.99999990529022
 31
0.0
  0
LINE
  5
FA
  8
DETAIL
  6
CONTINUOUS
 62
     5
 10
624.99999776379389
 20
17.9999999052934
 30
0.0
 11
649.99999763225185
 21
17.9999999052934
 31
0.0
  0
LINE
  5
FB
  8
DETAIL
  6
CONTINUOUS
 62
     5
 10
649.99999763225185
 20
-4.7599999749586441
 30
0.0
 11
713.96004780201963
 21
-4.7599999749586441
 31
0.0
  0
LINE
  5
FC
  8
DETAIL
  6
CONTINUOUS
 62
     5
 10
649.99999763225185
 20
4.7599999749527342
 30
0.0
 11
713.96004780201963
 21
4.7599999749527342
 31
0.0
  0
LINE
  5
FD
  8
DETAIL
  6
CONTINUOUS
 62
     5
 10
724.99999723762926
 20
-5.5095616672083452
 30
0.0
 11
724.99999723762926
 21
5.5095616671105727
 31
0.0
  0
LINE
  5
FE
  8
DETAIL
  6
CONTINUOUS
 62
     5
 10
713.96004780201963
 20
-4.7599999749586441
 30
0.0
 11
713.96004780201963
 21
4.7599999749527342
 31
0.0
  0
LINE
  5
FF
  8
DETAIL
  6
CONTINUOUS
 62
     5
 10
724.99999723762926
 20
-5.5099999710105294
 30
0.0
 11
714.71004779807231
 21
-5.5099999710105294
 31
0.0
  0
LINE
  5
100
  8
DETAIL
  6
CONTINUOUS
 62
     5
 10
714.71004779807231
 20
-5.5099999710105294
 30
0.0
 11
713.96004780201963
 21
-4.7599999749586441
 31
0.0
  0
LINE
  5
101
  8
DETAIL
  6
CONTINUOUS
 62
     5
 10
724.99999723762926
 20
5.5099999710037082
 30
0.0
 11
714.71004779807231
 21
5.5099999710037082
 31
0.0
  0
LINE
  5
102
  8
DETAIL
  6
CONTINUOUS
 62
     5
 10
714.71004779807231
 20
5.5099999710037082
 30
0.0
 11
713.96004780201963
 21
4.7599999749527342
 31
0.0
  0
LINE
  5
103
  8
DETAIL
  6
CONTINUOUS
 62
     5
 10
649.99999763225185
 20
17.9999999052934
 30
0.0
 11
649.99999763225185
 21
-17.99999990529022
 31
0.0
  0
LINE
  5
104
  8
DETAIL
  6
CONTINUOUS
 62
     5
 10
699.999997763794
 20
635.79999665464209
 30
0.0
 11
699.999997763794
 21
247.9999986951147
 31
0.0
  0
LINE
  5
105
  8
DETAIL
  6
CONTINUOUS
 62
     5
 10
610.99999783746125
 20
270.7999985751452
 30
0.0
 11
610.99999783746125
 21
290.99999846885572
 31
0.0
  0
LINE
  5
106
  8
DETAIL
  6
CONTINUOUS
 62
     5
 10
699.999997763794
 20
247.9999986951147
 30
0.0
 11
624.99999776379389
 21
247.9999986951147
 31
0.0
  0
LINE
  5
108
  8
DETAIL
  6
CONTINUOUS
 62
     5
 10
685.19999744704671
 20
662.99999651152882
 30
0.0
 11
685.19999744704671
 21
593.99999687457625
 31
0.0
  0
LINE
  5
109
  8
DETAIL
  6
CONTINUOUS
 62
     5
 10
685.19999744704671
 20
593.99999687457625
 30
0.0
 11
624.99999776379389
 21
593.99999687457625
 31
0.0
  0
LINE
  5
10A
  8
DETAIL
  6
CONTINUOUS
 62
     5
 10
624.99999776379389
 20
698.99999632210245
 30
0.0
 11
685.19999744704671
 21
698.99999632210245
 31
0.0
  0
LINE
  5
10B
  8
DETAIL
  6
CONTINUOUS
 62
     5
 10
685.19999744704671
 20
698.99999632210245
 30
0.0
 11
685.19999744704671
 21
674.99999644838545
 31
0.0
  0
LINE
  5
10C
  8
DETAIL
  6
CONTINUOUS
 62
     5
 10
685.19999744704671
 20
635.79999665464209
 30
0.0
 11
699.999997763794
 21
635.79999665464209
 31
0.0
  0
LINE
  5
10D
  8
DETAIL
  6
CONTINUOUS
 62
     5
 10
669.19999753122966
 20
660.9999965220436
 30
0.0
 11
669.19999753122966
 21
662.99999651152882
 31
0.0
  0
LINE
  5
10E
  8
DETAIL
  6
CONTINUOUS
 62
     5
 10
669.19999753122966
 20
674.99999644838545
 30
0.0
 11
669.19999753122966
 21
676.99999643786066
 31
0.0
  0
LINE
  5
10F
  8
DETAIL
  6
CONTINUOUS
 62
     5
 10
655.19999760489679
 20
676.99999643786066
 30
0.0
 11
655.19999760489679
 21
660.9999965220436
 31
0.0
  0
LINE
  5
110
  8
DETAIL
  6
CONTINUOUS
 62
     5
 10
685.19999744704671
 20
662.99999651152882
 30
0.0
 11
669.19999753122966
 21
662.99999651152882
 31
0.0
  0
LINE
  5
111
  8
DETAIL
  6
CONTINUOUS
 62
     5
 10
685.19999744704671
 20
674.99999644838545
 30
0.0
 11
669.19999753122966
 21
674.99999644838545
 31
0.0
  0
ARC
  5
112
  8
DETAIL
  6
CONTINUOUS
 62
     5
 10
662.19999756806396
 20
676.99999643786066
 30
0.0
 40
6.9999999631684604
 50
0.0
 51
180.0
  0
ARC
  5
113
  8
DETAIL
  6
CONTINUOUS
 62
     5
 10
662.19999756806396
 20
660.9999965220436
 30
0.0
 40
6.999999963168392
 50
180.0
 51
0.0
  0
LINE
  5
114
  8
DETAIL
  6
CONTINUOUS
 62
     5
 10
549.99999815841807
 20
699.99999631684432
 30
0.0
 11
549.99999815841807
 21
724.9999961853041
 31
0.0
  0
LINE
  5
115
  8
NOTE
  6
CONTINUOUS
 62
     4
 10
393.54999898159917
 20
714.99999623791962
 30
0.0
 11
406.44999891373232
 21
714.99999623791962
 31
0.0
  0
LINE
  5
116
  8
NOTE
  6
CONTINUOUS
 62
     4
 10
499.99999842150032
 20
721.44999620397755
 30
0.0
 11
499.99999842150032
 21
708.54999627185362
 31
0.0
  0
LINE
  5
117
  8
NOTE
  6
CONTINUOUS
 62
     4
 10
493.54999845543472
 20
714.99999623791962
 30
0.0
 11
506.4499983875678
 21
714.99999623791962
 31
0.0
  0
CIRCLE
  5
118
  8
DETAIL
  6
CONTINUOUS
 62
     5
 10
499.99999842150032
 20
714.99999623791962
 30
0.0
 40
1.7
  0
LINE
  5
119
  8
NOTE
  6
CONTINUOUS
 62
     4
 10
399.99999894766489
 20
721.44999620397755
 30
0.0
 11
399.99999894766489
 21
708.54999627185362
 31
0.0
  0
CIRCLE
  5
11A
  8
DETAIL
  6
CONTINUOUS
 62
     5
 10
399.99999894766489
 20
714.99999623791962
 30
0.0
 40
1.7
  0
LINE
  5
11B
  8
NOTE
  6
CONTINUOUS
 62
     4
 10
299.99999947383122
 20
721.44999620397755
 30
0.0
 11
299.99999947383122
 21
708.54999627185362
 31
0.0
  0
LINE
  5
11C
  8
NOTE
  6
CONTINUOUS
 62
     4
 10
293.54999950776369
 20
714.99999623791962
 30
0.0
 11
306.4499994398987
 21
714.99999623791962
 31
0.0
  0
CIRCLE
  5
11D
  8
DETAIL
  6
CONTINUOUS
 62
     5
 10
299.99999947383287
 20
714.99999623791962
 30
0.0
 40
1.7
  0
LINE
  5
11E
  8
NOTE
  6
CONTINUOUS
 62
     4
 10
-0.0000000000023092
 20
721.44999620397755
 30
0.0
 11
-0.0000000000023092
 21
708.54999627185362
 31
0.0
  0
LINE
  5
11F
  8
NOTE
  6
CONTINUOUS
 62
     4
 10
-6.4499999660697904
 20
714.99999623791962
 30
0.0
 11
6.449999966063352
 21
714.99999623791962
 31
0.0
  0
CIRCLE
  5
120
  8
DETAIL
  6
CONTINUOUS
 62
     5
 10
-0.0000000000023092
 20
714.99999623791962
 30
0.0
 40
1.7
  0
LINE
  5
121
  8
NOTE
  6
CONTINUOUS
 62
     4
 10
-300.0000017100437
 20
721.44999620397755
 30
0.0
 11
-300.0000017100437
 21
708.54999627185362
 31
0.0
  0
LINE
  5
122
  8
NOTE
  6
CONTINUOUS
 62
     4
 10
-306.45000167610903
 20
714.99999623791962
 30
0.0
 11
-293.55000174397782
 21
714.99999623791962
 31
0.0
  0
CIRCLE
  5
123
  8
DETAIL
  6
CONTINUOUS
 62
     5
 10
-300.0000017100437
 20
714.99999623791962
 30
0.0
 40
1.7
  0
LINE
  5
124
  8
DETAIL
  6
CONTINUOUS
 62
     5
 10
-625.00000000000614
 20
-699.99999631684079
 30
0.0
 11
-625.00000000000614
 21
699.99999631684545
 31
0.0
  0
LINE
  5
125
  8
DETAIL
  6
CONTINUOUS
 62
     5
 10
-611.00000007367316
 20
270.79999857514628
 30
0.0
 11
-611.00000007367316
 21
290.99999846885652
 31
0.0
  0
LINE
  5
127
  8
NOTE
  6
CONTINUOUS
 62
     4
 10
-406.45000114994463
 20
714.99999623791962
 30
0.0
 11
-393.55000121781143
 21
714.99999623791962
 31
0.0
  0
CIRCLE
  5
128
  8
DETAIL
  6
CONTINUOUS
 62
     5
 10
-400.00000118387879
 20
714.99999623791962
 30
0.0
 40
1.7
  0
LINE
  5
129
  8
NOTE
  6
CONTINUOUS
 62
     4
 10
-400.00000118387879
 20
721.44999620397903
 30
0.0
 11
-400.00000118387879
 21
708.54999627185475
 31
0.0
  0
LINE
  5
12A
  8
NOTE
  6
CONTINUOUS
 62
     4
 10
-500.00000065771252
 20
721.44999620397903
 30
0.0
 11
-500.00000065771252
 21
708.54999627185475
 31
0.0
  0
LINE
  5
12B
  8
NOTE
  6
CONTINUOUS
 62
     4
 10
-506.45000062378023
 20
714.99999623791962
 30
0.0
 11
-493.55000069164521
 21
714.99999623791962
 31
0.0
  0
CIRCLE
  5
12C
  8
DETAIL
  6
CONTINUOUS
 62
     5
 10
-500.00000065771081
 20
714.99999623791962
 30
0.0
 40
1.7
  0
LINE
  5
12D
  8
DETAIL
  6
CONTINUOUS
 62
     5
 10
-550.00000039463032
 20
724.99999618530455
 30
0.0
 11
-550.00000039463032
 21
699.99999631684545
 31
0.0
  0
LINE
  5
12E
  8
DETAIL
  6
CONTINUOUS
 62
     5
 10
-685.00000447241155
 20
593.99999687457716
 30
0.0
 11
-685.00000447241155
 21
662.99999651152882
 31
0.0
  0
LINE
  5
12F
  8
DETAIL
  6
CONTINUOUS
 62
     5
 10
-685.00000447241155
 20
593.99999687457716
 30
0.0
 11
-625.00000000000614
 21
593.99999687457716
 31
0.0
  0
LINE
  5
130
  8
DETAIL
  6
CONTINUOUS
 62
     5
 10
-685.00000447241155
 20
674.99999644838681
 30
0.0
 11
-685.00000447241155
 21
698.99999632210245
 31
0.0
  0
LINE
  5
131
  8
DETAIL
  6
CONTINUOUS
 62
     5
 10
-685.00000447241155
 20
662.99999651152882
 30
0.0
 11
-669.80000463131034
 21
662.99999651152882
 31
0.0
  0
LINE
  5
132
  8
DETAIL
  6
CONTINUOUS
 62
     5
 10
-685.00000447241155
 20
674.99999644838681
 30
0.0
 11
-669.80000463131034
 21
674.99999644838681
 31
0.0
  0
LINE
  5
133
  8
DETAIL
  6
CONTINUOUS
 62
     5
 10
-655.80000470497612
 20
660.99999652204451
 30
0.0
 11
-655.80000470497612
 21
676.99999643786123
 31
0.0
  0
LINE
  5
134
  8
DETAIL
  6
CONTINUOUS
 62
     5
 10
-669.80000463131034
 20
676.99999643786123
 30
0.0
 11
-669.80000463131034
 21
674.99999644838681
 31
0.0
  0
LINE
  5
135
  8
DETAIL
  6
CONTINUOUS
 62
     5
 10
-669.80000463131034
 20
662.99999651152882
 30
0.0
 11
-669.80000463131034
 21
660.99999652204451
 31
0.0
  0
ARC
  5
136
  8
DETAIL
  6
CONTINUOUS
 62
     5
 10
-662.80000466814136
 20
660.9999965220436
 30
0.0
 40
6.9999999631684604
 50
180.0
 51
0.0
  0
ARC
  5
137
  8
DETAIL
  6
CONTINUOUS
 62
     5
 10
-662.80000466814136
 20
676.99999643786066
 30
0.0
 40
6.9999999631684604
 50
0.0
 51
180.0
  0
LINE
  5
138
  8
DETAIL
  6
CONTINUOUS
 62
     5
 10
-685.00000447241155
 20
698.99999632210245
 30
0.0
 11
-625.00000000000614
 21
698.99999632210245
 31
0.0
  0
LINE
  5
139
  8
NOTE
  6
CONTINUOUS
 62
     4
 10
-63.186527999658921
 20
775.61846903616242
 30
0.0
 11
-77.054041386175228
 21
775.61846903616242
 31
0.0
  0
LINE
  5
13A
  8
NOTE
  6
CONTINUOUS
 62
     4
 10
-33.186528157509002
 20
805.61846887831371
 30
0.0
 11
-33.186528157509002
 21
775.61846903616242
 31
0.0
  0
LINE
  5
13B
  8
NOTE
  6
CONTINUOUS
 62
     4
 10
-63.186527999658921
 20
805.61846887831371
 30
0.0
 11
-63.186527999658921
 21
775.61846903616242
 31
0.0
  0
LINE
  5
13C
  8
NOTE
  6
CONTINUOUS
 62
     4
 10
-19.319014770994521
 20
775.61846903616242
 30
0.0
 11
-33.186528157509002
 21
775.61846903616242
 31
0.0
  0
LINE
  5
13D
  8
NOTE
  6
CONTINUOUS
 62
     4
 10
-63.186527999658921
 20
805.61846887831371
 30
0.0
 11
-33.186528157509002
 21
805.61846887831371
 31
0.0
  0
LINE
  5
13E
  8
NOTE
  6
CONTINUOUS
 62
     4
 10
-662.80000466814329
 20
-648.9999965851905
 30
0.0
 11
-662.80000466814329
 21
-688.99999637472445
 31
0.0
  0
LINE
  5
13F
  8
NOTE
  6
CONTINUOUS
 62
     4
 10
-682.80000456290952
 20
-668.99999647995753
 30
0.0
 11
-642.80000477337728
 21
-668.99999647995753
 31
0.0
  0
LINE
  5
140
  8
NOTE
  6
CONTINUOUS
 62
     4
 10
-662.80000466814329
 20
688.99999637472047
 30
0.0
 11
-662.80000466814329
 21
648.99999658518641
 31
0.0
  0
LINE
  5
141
  8
NOTE
  6
CONTINUOUS
 62
     4
 10
-682.80000456290952
 20
668.99999647995355
 30
0.0
 11
-642.80000477337728
 21
668.99999647995355
 31
0.0
  0
LINE
  5
142
  8
NOTE
  6
CONTINUOUS
 62
     4
 10
662.19999756806396
 20
688.99999637471944
 30
0.0
 11
662.19999756806396
 21
648.99999658518516
 31
0.0
  0
LINE
  5
143
  8
NOTE
  6
CONTINUOUS
 62
     4
 10
642.19999767329625
 20
668.99999647995196
 30
0.0
 11
682.19999746283031
 21
668.99999647995196
 31
0.0
  0
LINE
  5
144
  8
NOTE
  6
CONTINUOUS
 62
     4
 10
662.19999756806396
 20
-648.9999965851913
 30
0.0
 11
662.19999756806396
 21
-688.99999637472536
 31
0.0
  0
LINE
  5
145
  8
NOTE
  6
CONTINUOUS
 62
     4
 10
642.19999767329625
 20
-668.99999647995844
 30
0.0
 11
682.19999746283031
 21
-668.99999647995844
 31
0.0
  0
LINE
  5
146
  8
NOTE
  6
CONTINUOUS
 62
     4
 10
649.99999763225185
 20
-512.49999730340539
 30
0.0
 11
649.99999763225185
 21
-547.49999711924761
 31
0.0
  0
LINE
  5
147
  8
NOTE
  6
CONTINUOUS
 62
     4
 10
649.99999763225185
 20
-512.49999730340539
 30
0.0
 11
649.99999763225185
 21
-547.49999711924761
 31
0.0
  0
LINE
  5
148
  8
NOTE
  6
CONTINUOUS
 62
     4
 10
632.49999772433273
 20
-529.99999721132633
 30
0.0
 11
667.49999754017472
 21
-529.99999721132633
 31
0.0
  0
LINE
  5
149
  8
NOTE
  6
CONTINUOUS
 62
     4
 10
632.49999772433273
 20
-529.99999721132633
 30
0.0
 11
667.49999754017472
 21
-529.99999721132633
 31
0.0
  0
LINE
  5
14A
  8
NOTE
  6
CONTINUOUS
 62
     4
 10
649.99999763225185
 20
-332.49999825050321
 30
0.0
 11
649.99999763225185
 21
-367.49999806634548
 31
0.0
  0
LINE
  5
14B
  8
NOTE
  6
CONTINUOUS
 62
     4
 10
649.99999763225185
 20
-332.49999825050321
 30
0.0
 11
649.99999763225185
 21
-367.49999806634548
 31
0.0
  0
LINE
  5
14C
  8
NOTE
  6
CONTINUOUS
 62
     4
 10
632.49999772433273
 20
-349.99999815842438
 30
0.0
 11
667.49999754017472
 21
-349.99999815842438
 31
0.0
  0
LINE
  5
14D
  8
NOTE
  6
CONTINUOUS
 62
     4
 10
632.49999772433273
 20
-349.99999815842438
 30
0.0
 11
667.49999754017472
 21
-349.99999815842438
 31
0.0
  0
LINE
  5
14E
  8
NOTE
  6
CONTINUOUS
 62
     4
 10
724.99999723762926
 20
-194.4999989766051
 30
0.0
 11
724.99999723762926
 21
-229.49999879244629
 31
0.0
  0
LINE
  5
14F
  8
NOTE
  6
CONTINUOUS
 62
     4
 10
724.99999723762926
 20
-194.4999989766051
 30
0.0
 11
724.99999723762926
 21
-229.49999879244629
 31
0.0
  0
LINE
  5
150
  8
NOTE
  6
CONTINUOUS
 62
     4
 10
707.49999732970855
 20
-211.99999888452629
 30
0.0
 11
742.4999971455486
 21
-211.99999888452629
 31
0.0
  0
LINE
  5
151
  8
NOTE
  6
CONTINUOUS
 62
     4
 10
707.49999732970855
 20
-211.99999888452629
 30
0.0
 11
742.4999971455486
 21
-211.99999888452629
 31
0.0
  0
LINE
  5
152
  8
NOTE
  6
CONTINUOUS
 62
     4
 10
682.99999745862033
 20
-158.49999916603011
 30
0.0
 11
682.99999745862033
 21
-193.49999898187249
 31
0.0
  0
LINE
  5
153
  8
NOTE
  6
CONTINUOUS
 62
     4
 10
682.99999745862033
 20
-158.49999916603011
 30
0.0
 11
682.99999745862033
 21
-193.49999898187249
 31
0.0
  0
LINE
  5
154
  8
NOTE
  6
CONTINUOUS
 62
     4
 10
665.49999755069939
 20
-175.99999907395059
 30
0.0
 11
700.49999736654115
 21
-175.99999907395059
 31
0.0
  0
LINE
  5
155
  8
NOTE
  6
CONTINUOUS
 62
     4
 10
665.49999755069939
 20
-175.99999907395059
 30
0.0
 11
700.49999736654115
 21
-175.99999907395059
 31
0.0
  0
LINE
  5
156
  8
NOTE
  6
CONTINUOUS
 62
     4
 10
724.99999723762926
 20
-78.499999586962531
 30
0.0
 11
724.99999723762926
 21
-113.49999940280441
 31
0.0
  0
LINE
  5
157
  8
NOTE
  6
CONTINUOUS
 62
     4
 10
724.99999723762926
 20
-78.499999586962531
 30
0.0
 11
724.99999723762926
 21
-113.49999940280441
 31
0.0
  0
LINE
  5
158
  8
NOTE
  6
CONTINUOUS
 62
     4
 10
707.49999732970855
 20
-95.999999494883454
 30
0.0
 11
742.4999971455486
 21
-95.999999494883454
 31
0.0
  0
LINE
  5
159
  8
NOTE
  6
CONTINUOUS
 62
     4
 10
707.49999732970855
 20
-95.999999494883454
 30
0.0
 11
742.4999971455486
 21
-95.999999494883454
 31
0.0
  0
LINE
  5
15A
  8
NOTE
  6
CONTINUOUS
 62
     4
 10
724.99999723762926
 20
17.499999907872731
 30
0.0
 11
724.99999723762926
 21
-17.499999907969588
 31
0.0
  0
LINE
  5
15B
  8
NOTE
  6
CONTINUOUS
 62
     4
 10
724.99999723762926
 20
17.499999907872731
 30
0.0
 11
724.99999723762926
 21
-17.499999907969588
 31
0.0
  0
LINE
  5
15C
  8
NOTE
  6
CONTINUOUS
 62
     4
 10
707.49999732970855
 20
-0.000000000048658
 30
0.0
 11
742.4999971455486
 21
-0.000000000048658
 31
0.0
  0
LINE
  5
15D
  8
NOTE
  6
CONTINUOUS
 62
     4
 10
707.49999732970855
 20
-0.000000000048658
 30
0.0
 11
742.4999971455486
 21
-0.000000000048658
 31
0.0
  0
LINE
  5
15E
  8
SERVICESPACE
  6
DASHDOT
 62
     2
 10
624.99999776379389
 20
-749.99999631684148
 30
0.0
 11
1424.999997763794
 21
-749.99999631684148
 31
0.0
  0
LINE
  5
15F
  8
SERVICESPACE
  6
DASHDOT
 62
     2
 10
1424.999997763794
 20
-749.99999631684148
 30
0.0
 11
1424.999997763794
 21
700.00000394623646
 31
0.0
  0
LINE
  5
160
  8
SERVICESPACE
  6
DASHDOT
 62
     2
 10
1424.999997763794
 20
700.00000394623646
 30
0.0
 11
624.99999776379389
 21
700.00000394623646
 31
0.0
  0
LINE
  5
161
  8
SERVICESPACE
  6
DASHDOT
 62
     2
 10
624.99999776379389
 20
700.00000394623646
 30
0.0
 11
624.99999776379389
 21
-749.99999631684148
 31
0.0
  0
LINE
  5
162
  8
SERVICESPACE
  6
DASHDOT
 62
     2
 10
1424.999997763794
 20
-549.99999631684148
 30
0.0
 11
824.99999776379389
 21
-549.99999631684148
 31
0.0
  0
LINE
  5
163
  8
SERVICESPACE
  6
DASHDOT
 62
     2
 10
824.99999776379389
 20
-549.99999631684148
 30
0.0
 11
824.99999776379389
 21
550.0000036831583
 31
0.0
  0
LINE
  5
164
  8
SERVICESPACE
  6
DASHDOT
 62
     2
 10
824.99999776379389
 20
550.0000036831583
 30
0.0
 11
1424.999997763794
 21
550.0000036831583
 31
0.0
  0
LINE
  5
165
  8
SERVICESPACE
  6
DASHDOT
 62
     2
 10
1424.999997763794
 20
550.0000036831583
 30
0.0
 11
824.99999776379389
 21
-549.99999631684148
 31
0.0
  0
LINE
  5
166
  8
SERVICESPACE
  6
DASHDOT
 62
     2
 10
1424.999997763794
 20
-549.99999631684148
 30
0.0
 11
824.99999776379389
 21
550.0000036831583
 31
0.0
  0
LINE
  5
167
  8
SERVICESPACE
  6
DASHDOT
 62
     2
 10
674.99999776379389
 20
-749.99999631684148
 30
0.0
 11
-675.00000447241155
 21
-749.99999631684068
 31
0.0
  0
LINE
  5
168
  8
SERVICESPACE
  6
DASHDOT
 62
     2
 10
-675.00000447241155
 20
-749.99999631684068
 30
0.0
 11
-675.00000447241155
 21
320.00000368315932
 31
0.0
  0
LINE
  5
169
  8
SERVICESPACE
  6
DASHDOT
 62
     2
 10
-675.00000447241155
 20
320.00000368315932
 30
0.0
 11
674.99999776379389
 21
320.00000368315932
 31
0.0
  0
LINE
  5
16A
  8
SIZE
  6
CONTINUOUS
 62
    30
 10
624.99999776379389
 20
-679.99999631684136
 30
0.0
 11
624.99999776379389
 21
-450.18055337207028
 31
0.0
  0
LINE
  5
16B
  8
SIZE
  6
CONTINUOUS
 62
    30
 10
649.99999763225185
 20
-387.4999980663456
 30
0.0
 11
649.99999763225185
 21
-490.18055337207028
 31
0.0
  0
LINE
  5
16C
  8
SIZE
  6
CONTINUOUS
 62
    30
 10
624.99999776379389
 20
-470.18055337207028
 30
0.0
 11
599.99999776379389
 21
-470.18055337207028
 31
0.0
  0
LINE
  5
16D
  8
SIZE
  6
CONTINUOUS
 62
    30
 10
649.99999763225185
 20
-470.18055337207028
 30
0.0
 11
860.71428334653763
 21
-470.18055337207028
 31
0.0
  0
LINE
  5
16E
  8
SIZE
  6
CONTINUOUS
 62
    30
 10
624.99999776379389
 20
-470.18055337207028
 30
0.0
 11
649.99999763225185
 21
-470.18055337207028
 31
0.0
  0
CIRCLE
  5
16F
  8
SIZE
  6
CONTINUOUS
 62
    30
 10
624.99999776379389
 20
-470.18055337207028
 30
0.0
 40
6.25
  0
CIRCLE
  5
170
  8
SIZE
  6
CONTINUOUS
 62
    30
 10
649.99999763225185
 20
-470.18055337207028
 30
0.0
 40
6.25
  0
TEXT
  5
171
  8
SIZE
  6
CONTINUOUS
 62
    30
 10
714.99999763225185
 20
-442.0853152768322
 30
0.0
 40
50.0
  1
(25)
 41
0.9
 72
     1
 11
780.35714048939485
 21
-442.0853152768322
 31
0.0
  0
POINT
  5
172
  8
DEFPOINTS
  6
CONTINUOUS
 62
     7
 10
624.99999776379389
 20
-699.99999631684148
 30
0.0
  0
POINT
  5
173
  8
DEFPOINTS
  6
CONTINUOUS
 62
     7
 10
649.99999763225185
 20
-367.49999806634548
 30
0.0
  0
POINT
  5
174
  8
DEFPOINTS
  6
CONTINUOUS
 62
     7
 10
649.99999763225185
 20
-470.18055337207028
 30
0.0
  0
LINE
  5
175
  8
SIZE
  6
CONTINUOUS
 62
    30
 10
624.99999776379389
 20
-679.99999631684136
 30
0.0
 11
624.99999776379389
 21
141.17155980668161
 31
0.0
  0
LINE
  5
176
  8
SIZE
  6
CONTINUOUS
 62
    30
 10
724.99999723762926
 20
-174.49999897660521
 30
0.0
 11
724.99999723762926
 21
141.17155980668161
 31
0.0
  0
LINE
  5
177
  8
SIZE
  6
CONTINUOUS
 62
    30
 10
624.99999776379389
 20
121.1715598066816
 30
0.0
 11
724.99999723762926
 21
121.1715598066816
 31
0.0
  0
LINE
  5
178
  8
SIZE
  6
CONTINUOUS
 62
    30
 10
724.99999723762926
 20
121.1715598066816
 30
0.0
 11
944.9999972376296
 21
121.1715598066816
 31
0.0
  0
CIRCLE
  5
179
  8
SIZE
  6
CONTINUOUS
 62
    30
 10
624.99999776379389
 20
121.1715598066816
 30
0.0
 40
6.25
  0
CIRCLE
  5
17A
  8
SIZE
  6
CONTINUOUS
 62
    30
 10
724.99999723762926
 20
121.1715598066816
 30
0.0
 40
6.25
  0
TEXT
  5
17B
  8
SIZE
  6
CONTINUOUS
 62
    30
 10
764.99999723762971
 20
149.26679790191969
 30
0.0
 40
50.0
  1
(100)
 41
0.9
 72
     1
 11
847.49999723762971
 21
149.26679790191969
 31
0.0
  0
POINT
  5
17C
  8
DEFPOINTS
  6
CONTINUOUS
 62
     7
 10
624.99999776379389
 20
-699.99999631684148
 30
0.0
  0
POINT
  5
17D
  8
DEFPOINTS
  6
CONTINUOUS
 62
     7
 10
724.99999723762926
 20
-194.4999989766051
 30
0.0
  0
POINT
  5
17E
  8
DEFPOINTS
  6
CONTINUOUS
 62
     7
 10
724.99999723762926
 20
121.1715598066816
 30
0.0
  0
LINE
  5
17F
  8
SIZE
  6
CONTINUOUS
 62
    30
 10
644.99999776379366
 20
-699.99999631684148
 30
0.0
 11
986.38296289431787
 21
-699.99999631684148
 31
0.0
  0
LINE
  5
180
  8
SIZE
  6
CONTINUOUS
 62
    30
 10
687.49999754017472
 20
-349.99999815842438
 30
0.0
 11
986.38296289431787
 21
-349.99999815842438
 31
0.0
  0
LINE
  5
181
  8
SIZE
  6
CONTINUOUS
 62
    30
 10
966.38296289431787
 20
-699.99999631684148
 30
0.0
 11
966.38296289431787
 21
-349.99999815842438
 31
0.0
  0
CIRCLE
  5
182
  8
SIZE
  6
CONTINUOUS
 62
    30
 10
966.38296289431787
 20
-699.99999631684148
 30
0.0
 40
6.25
  0
CIRCLE
  5
183
  8
SIZE
  6
CONTINUOUS
 62
    30
 10
966.38296289431787
 20
-349.99999815842438
 30
0.0
 40
6.25
  0
TEXT
  5
184
  8
SIZE
  6
CONTINUOUS
 62
    30
 10
951.38296289431844
 20
-582.85714009477556
 30
0.0
 40
50.0
  1
350
 50
90.0
 41
0.9
 72
     1
 11
951.38296289431844
 21
-524.99999723763267
 31
0.0
  0
POINT
  5
185
  8
DEFPOINTS
  6
CONTINUOUS
 62
     7
 10
624.99999776379389
 20
-699.99999631684148
 30
0.0
  0
POINT
  5
186
  8
DEFPOINTS
  6
CONTINUOUS
 62
     7
 10
667.49999754017472
 20
-349.99999815842438
 30
0.0
  0
POINT
  5
187
  8
DEFPOINTS
  6
CONTINUOUS
 62
     7
 10
966.38296289431787
 20
-349.99999815842438
 30
0.0
  0
LINE
  5
188
  8
SIZE
  6
CONTINUOUS
 62
    30
 10
644.99999776379366
 20
-699.99999631684148
 30
0.0
 11
1083.091823345494
 21
-699.99999631684148
 31
0.0
  0
LINE
  5
189
  8
SIZE
  6
CONTINUOUS
 62
    30
 10
762.4999971455486
 20
-211.99999888452629
 30
0.0
 11
1083.091823345495
 21
-211.99999888452641
 31
0.0
  0
LINE
  5
18A
  8
SIZE
  6
CONTINUOUS
 62
    30
 10
1063.091823345494
 20
-699.99999631684148
 30
0.0
 11
1063.091823345494
 21
-211.99999888452641
 31
0.0
  0
CIRCLE
  5
18B
  8
SIZE
  6
CONTINUOUS
 62
    30
 10
1063.091823345494
 20
-699.99999631684148
 30
0.0
 40
6.25
  0
CIRCLE
  5
18C
  8
SIZE
  6
CONTINUOUS
 62
    30
 10
1063.091823345494
 20
-211.99999888452641
 30
0.0
 40
6.25
  0
TEXT
  5
18D
  8
SIZE
  6
CONTINUOUS
 62
    30
 10
1048.091823345495
 20
-513.85714045782674
 30
0.0
 40
50.0
  1
488
 50
90.0
 41
0.9
 72
     1
 11
1048.091823345495
 21
-455.99999760068403
 31
0.0
  0
POINT
  5
18E
  8
DEFPOINTS
  6
CONTINUOUS
 62
     7
 10
624.99999776379389
 20
-699.99999631684148
 30
0.0
  0
POINT
  5
18F
  8
DEFPOINTS
  6
CONTINUOUS
 62
     7
 10
742.4999971455486
 20
-211.99999888452629
 30
0.0
  0
POINT
  5
190
  8
DEFPOINTS
  6
CONTINUOUS
 62
     7
 10
1063.091823345494
 20
-211.99999888452641
 30
0.0
  0
LINE
  5
191
  8
SIZE
  6
CONTINUOUS
 62
    30
 10
644.99999776379366
 20
-699.99999631684148
 30
0.0
 11
1179.3835327456541
 21
-699.99999631684148
 31
0.0
  0
LINE
  5
192
  8
SIZE
  6
CONTINUOUS
 62
    30
 10
720.49999736654127
 20
-175.99999907395059
 30
0.0
 11
1179.383532745655
 21
-175.99999907395079
 31
0.0
  0
LINE
  5
193
  8
SIZE
  6
CONTINUOUS
 62
    30
 10
1159.3835327456541
 20
-699.99999631684148
 30
0.0
 11
1159.383532745655
 21
-175.99999907395079
 31
0.0
  0
CIRCLE
  5
194
  8
SIZE
  6
CONTINUOUS
 62
    30
 10
1159.3835327456541
 20
-699.99999631684148
 30
0.0
 40
6.25
  0
CIRCLE
  5
195
  8
SIZE
  6
CONTINUOUS
 62
    30
 10
1159.383532745655
 20
-175.99999907395079
 30
0.0
 40
6.25
  0
TEXT
  5
196
  8
SIZE
  6
CONTINUOUS
 62
    30
 10
1144.383532745655
 20
-496.92856912396741
 30
0.0
 40
50.0
  1
524
 50
90.0
 41
0.9
 72
     1
 11
1144.383532745655
 21
-437.99999769539602
 31
0.0
  0
POINT
  5
197
  8
DEFPOINTS
  6
CONTINUOUS
 62
     7
 10
624.99999776379389
 20
-699.99999631684148
 30
0.0
  0
POINT
  5
198
  8
DEFPOINTS
  6
CONTINUOUS
 62
     7
 10
700.49999736654115
 20
-175.99999907395059
 30
0.0
  0
POINT
  5
199
  8
DEFPOINTS
  6
CONTINUOUS
 62
     7
 10
1159.383532745655
 20
-175.99999907395079
 30
0.0
  0
LINE
  5
19A
  8
SIZE
  6
CONTINUOUS
 62
    30
 10
644.99999776379366
 20
-699.99999631684148
 30
0.0
 11
1277.624013177599
 21
-699.99999631684148
 31
0.0
  0
LINE
  5
19B
  8
SIZE
  6
CONTINUOUS
 62
    30
 10
762.4999971455486
 20
-95.999999494883454
 30
0.0
 11
1277.6240131776001
 21
-95.999999494883625
 31
0.0
  0
LINE
  5
19C
  8
SIZE
  6
CONTINUOUS
 62
    30
 10
1257.624013177599
 20
-699.99999631684148
 30
0.0
 11
1257.6240131776001
 21
-95.999999494883625
 31
0.0
  0
CIRCLE
  5
19D
  8
SIZE
  6
CONTINUOUS
 62
    30
 10
1257.624013177599
 20
-699.99999631684148
 30
0.0
 40
6.25
  0
CIRCLE
  5
19E
  8
SIZE
  6
CONTINUOUS
 62
    30
 10
1257.6240131776001
 20
-95.999999494883625
 30
0.0
 40
6.25
  0
TEXT
  5
19F
  8
SIZE
  6
CONTINUOUS
 62
    30
 10
1242.6240131776001
 20
-456.92856933443392
 30
0.0
 40
50.0
  1
604
 50
90.0
 41
0.9
 72
     1
 11
1242.6240131776001
 21
-397.99999790586247
 31
0.0
  0
POINT
  5
1A0
  8
DEFPOINTS
  6
CONTINUOUS
 62
     7
 10
624.99999776379389
 20
-699.99999631684148
 30
0.0
  0
POINT
  5
1A1
  8
DEFPOINTS
  6
CONTINUOUS
 62
     7
 10
742.4999971455486
 20
-95.999999494883454
 30
0.0
  0
POINT
  5
1A2
  8
DEFPOINTS
  6
CONTINUOUS
 62
     7
 10
1257.6240131776001
 20
-95.999999494883625
 30
0.0
  0
LINE
  5
1A3
  8
SIZE
  6
CONTINUOUS
 62
    30
 10
762.4999971455486
 20
-95.999999494883454
 30
0.0
 11
1277.6240131776001
 21
-95.999999494883625
 31
0.0
  0
LINE
  5
1A4
  8
SIZE
  6
CONTINUOUS
 62
    30
 10
762.4999971455486
 20
-0.0000000000486636
 30
0.0
 11
1277.6240131776001
 21
-0.0000000000488096
 31
0.0
  0
LINE
  5
1A5
  8
SIZE
  6
CONTINUOUS
 62
    30
 10
1257.6240131776001
 20
-95.999999494883625
 30
0.0
 11
1257.6240131776001
 21
-0.0000000000488039
 31
0.0
  0
LINE
  5
1A6
  8
SIZE
  6
CONTINUOUS
 62
    30
 10
1257.6240131776001
 20
-0.0000000000488039
 30
0.0
 11
1257.6240131776001
 21
125.71428571423679
 31
0.0
  0
CIRCLE
  5
1A7
  8
SIZE
  6
CONTINUOUS
 62
    30
 10
1257.6240131776001
 20
-95.999999494883625
 30
0.0
 40
6.25
  0
CIRCLE
  5
1A8
  8
SIZE
  6
CONTINUOUS
 62
    30
 10
1257.6240131776001
 20
-0.0000000000488039
 30
0.0
 40
6.25
  0
TEXT
  5
1A9
  8
SIZE
  6
CONTINUOUS
 62
    30
 10
1242.6240131776001
 20
39.99999999995142
 30
0.0
 40
50.0
  1
96
 50
90.0
 41
0.9
 72
     1
 11
1242.6240131776001
 21
75.357142857094274
 31
0.0
  0
POINT
  5
1AA
  8
DEFPOINTS
  6
CONTINUOUS
 62
     7
 10
742.4999971455486
 20
-95.999999494883454
 30
0.0
  0
POINT
  5
1AB
  8
DEFPOINTS
  6
CONTINUOUS
 62
     7
 10
742.4999971455486
 20
-0.000000000048658
 30
0.0
  0
POINT
  5
1AC
  8
DEFPOINTS
  6
CONTINUOUS
 62
     7
 10
1257.6240131776001
 20
-0.0000000000488039
 30
0.0
  0
LINE
  5
1AD
  8
SIZE
  6
CONTINUOUS
 62
    30
 10
-536.45000057116386
 20
-714.9999962379153
 30
0.0
 11
-783.76260550812435
 21
-714.99999623791507
 31
0.0
  0
LINE
  5
1AE
  8
SIZE
  6
CONTINUOUS
 62
    30
 10
-580.00000034201423
 20
-724.99999618529955
 30
0.0
 11
-783.76260550812435
 21
-724.99999618529932
 31
0.0
  0
LINE
  5
1AF
  8
SIZE
  6
CONTINUOUS
 62
    30
 10
-763.76260550812435
 20
-714.9999962379153
 30
0.0
 11
-763.76260550812435
 21
-689.9999962379153
 31
0.0
  0
LINE
  5
1B0
  8
SIZE
  6
CONTINUOUS
 62
    30
 10
-763.76260550812435
 20
-724.99999618529955
 30
0.0
 11
-763.76260550812435
 21
-869.28571047101411
 31
0.0
  0
LINE
  5
1B1
  8
SIZE
  6
CONTINUOUS
 62
    30
 10
-763.76260550812435
 20
-714.9999962379153
 30
0.0
 11
-763.76260550812435
 21
-724.99999618529955
 31
0.0
  0
CIRCLE
  5
1B2
  8
SIZE
  6
CONTINUOUS
 62
    30
 10
-763.76260550812435
 20
-714.9999962379153
 30
0.0
 40
6.25
  0
CIRCLE
  5
1B3
  8
SIZE
  6
CONTINUOUS
 62
    30
 10
-763.76260550812435
 20
-724.99999618529955
 30
0.0
 40
6.25
  0
TEXT
  5
1B4
  8
SIZE
  6
CONTINUOUS
 62
    30
 10
-778.76260550812412
 20
-854.28571047101366
 30
0.0
 40
50.0
  1
10
 50
90.0
 41
0.9
 72
     1
 11
-778.76260550812412
 21
-822.14285332815655
 31
0.0
  0
POINT
  5
1B5
  8
DEFPOINTS
  6
CONTINUOUS
 62
     7
 10
-516.45000057116408
 20
-714.9999962379153
 30
0.0
  0
POINT
  5
1B6
  8
DEFPOINTS
  6
CONTINUOUS
 62
     7
 10
-560.00000034201423
 20
-724.99999618529955
 30
0.0
  0
POINT
  5
1B7
  8
DEFPOINTS
  6
CONTINUOUS
 62
     7
 10
-763.76260550812435
 20
-724.99999618529955
 30
0.0
  0
LINE
  5
1B8
  8
SIZE
  6
CONTINUOUS
 62
    30
 10
-526.45000062378017
 20
714.99999623791962
 30
0.0
 11
-783.76260550812435
 21
714.99999623791985
 31
0.0
  0
LINE
  5
1B9
  8
SIZE
  6
CONTINUOUS
 62
    30
 10
-570.00000039463032
 20
724.99999618530455
 30
0.0
 11
-783.76260550812435
 21
724.99999618530455
 31
0.0
  0
LINE
  5
1BA
  8
SIZE
  6
CONTINUOUS
 62
    30
 10
-763.76260550812435
 20
714.99999623791962
 30
0.0
 11
-763.76260550812435
 21
689.99999623791962
 31
0.0
  0
LINE
  5
1BB
  8
SIZE
  6
CONTINUOUS
 62
    30
 10
-763.76260550812435
 20
724.99999618530455
 30
0.0
 11
-763.76260550812412
 21
869.285710471019
 31
0.0
  0
LINE
  5
1BC
  8
SIZE
  6
CONTINUOUS
 62
    30
 10
-763.76260550812435
 20
714.99999623791962
 30
0.0
 11
-763.76260550812435
 21
724.99999618530455
 31
0.0
  0
CIRCLE
  5
1BD
  8
SIZE
  6
CONTINUOUS
 62
    30
 10
-763.76260550812435
 20
714.99999623791962
 30
0.0
 40
6.25
  0
CIRCLE
  5
1BE
  8
SIZE
  6
CONTINUOUS
 62
    30
 10
-763.76260550812435
 20
724.99999618530455
 30
0.0
 40
6.25
  0
TEXT
  5
1BF
  8
SIZE
  6
CONTINUOUS
 62
    30
 10
-778.76260550812435
 20
789.99999618530433
 30
0.0
 40
50.0
  1
10
 50
90.0
 41
0.9
 72
     1
 11
-778.76260550812435
 21
822.14285332816132
 31
0.0
  0
POINT
  5
1C0
  8
DEFPOINTS
  6
CONTINUOUS
 62
     7
 10
-506.45000062378023
 20
714.99999623791962
 30
0.0
  0
POINT
  5
1C1
  8
DEFPOINTS
  6
CONTINUOUS
 62
     7
 10
-550.00000039463032
 20
724.99999618530455
 30
0.0
  0
POINT
  5
1C2
  8
DEFPOINTS
  6
CONTINUOUS
 62
     7
 10
-763.76260550812435
 20
724.99999618530455
 30
0.0
  0
LINE
  5
1C3
  8
SIZE
  6
CONTINUOUS
 62
    30
 10
-702.80000456290918
 20
-668.99999647995753
 30
0.0
 11
-1079.2603593344641
 21
-668.99999647995719
 31
0.0
  0
LINE
  5
1C4
  8
SIZE
  6
CONTINUOUS
 62
    30
 10
-705.00000447241155
 20
-698.99999632210734
 30
0.0
 11
-1079.2603593344641
 21
-698.99999632210722
 31
0.0
  0
LINE
  5
1C5
  8
SIZE
  6
CONTINUOUS
 62
    30
 10
-1059.260359334465
 20
-668.99999647995719
 30
0.0
 11
-1059.260359334465
 21
-643.99999647995719
 31
0.0
  0
LINE
  5
1C6
  8
SIZE
  6
CONTINUOUS
 62
    30
 10
-1059.260359334465
 20
-698.99999632210722
 30
0.0
 11
-1059.260359334465
 21
-851.85713917925
 31
0.0
  0
LINE
  5
1C7
  8
SIZE
  6
CONTINUOUS
 62
    30
 10
-1059.260359334465
 20
-668.99999647995719
 30
0.0
 11
-1059.260359334465
 21
-698.99999632210722
 31
0.0
  0
CIRCLE
  5
1C8
  8
SIZE
  6
CONTINUOUS
 62
    30
 10
-1059.260359334465
 20
-668.99999647995719
 30
0.0
 40
6.25
  0
CIRCLE
  5
1C9
  8
SIZE
  6
CONTINUOUS
 62
    30
 10
-1059.260359334465
 20
-698.99999632210722
 30
0.0
 40
6.25
  0
TEXT
  5
1CA
  8
SIZE
  6
CONTINUOUS
 62
    30
 10
-1074.2603593344641
 20
-836.85713917924988
 30
0.0
 40
50.0
  1
30
 50
90.0
 41
0.9
 72
     1
 11
-1074.2603593344641
 21
-800.42856775067855
 31
0.0
  0
POINT
  5
1CB
  8
DEFPOINTS
  6
CONTINUOUS
 62
     7
 10
-682.80000456290952
 20
-668.99999647995753
 30
0.0
  0
POINT
  5
1CC
  8
DEFPOINTS
  6
CONTINUOUS
 62
     7
 10
-685.00000447241155
 20
-698.99999632210734
 30
0.0
  0
POINT
  5
1CD
  8
DEFPOINTS
  6
CONTINUOUS
 62
     7
 10
-1059.260359334465
 20
-698.99999632210722
 30
0.0
  0
LINE
  5
1CE
  8
SIZE
  6
CONTINUOUS
 62
    30
 10
-702.80000456290918
 20
-668.99999647995753
 30
0.0
 11
-1079.260359334465
 21
-668.99999647995719
 31
0.0
  0
LINE
  5
1CF
  8
SIZE
  6
CONTINUOUS
 62
    30
 10
-702.80000456290918
 20
668.99999647995355
 30
0.0
 11
-1079.2603593344641
 21
668.99999647995355
 31
0.0
  0
LINE
  5
1D0
  8
SIZE
  6
CONTINUOUS
 62
    30
 10
-1059.260359334465
 20
-668.99999647995719
 30
0.0
 11
-1059.260359334465
 21
668.99999647995355
 31
0.0
  0
CIRCLE
  5
1D1
  8
SIZE
  6
CONTINUOUS
 62
    30
 10
-1059.260359334465
 20
-668.99999647995719
 30
0.0
 40
6.25
  0
CIRCLE
  5
1D2
  8
SIZE
  6
CONTINUOUS
 62
    30
 10
-1059.260359334465
 20
668.99999647995355
 30
0.0
 40
6.25
  0
TEXT
  5
1D3
  8
SIZE
  6
CONTINUOUS
 62
    30
 10
-1087.355597429703
 20
-333.42857142857349
 30
0.0
 40
50.0
  1
1338 (吊りボルトピッチ)
 50
90.0
 41
0.9
 72
     1
 11
-1087.355597429703
 21
-0.0000000000019765
 31
0.0
  0
POINT
  5
1D4
  8
DEFPOINTS
  6
CONTINUOUS
 62
     7
 10
-682.80000456290952
 20
-668.99999647995753
 30
0.0
  0
POINT
  5
1D5
  8
DEFPOINTS
  6
CONTINUOUS
 62
     7
 10
-682.80000456290952
 20
668.99999647995355
 30
0.0
  0
POINT
  5
1D6
  8
DEFPOINTS
  6
CONTINUOUS
 62
     7
 10
-1059.260359334465
 20
668.99999647995355
 30
0.0
  0
LINE
  5
1D7
  8
SIZE
  6
CONTINUOUS
 62
    30
 10
-645.00000000000614
 20
-699.99999631684079
 30
0.0
 11
-1210.713294185477
 21
-699.99999631684057
 31
0.0
  0
LINE
  5
1D8
  8
SIZE
  6
CONTINUOUS
 62
    30
 10
-645.00000000000614
 20
699.99999631684545
 30
0.0
 11
-1210.713294185477
 21
699.99999631684545
 31
0.0
  0
LINE
  5
1D9
  8
SIZE
  6
CONTINUOUS
 62
    30
 10
-1190.713294185477
 20
-699.99999631684057
 30
0.0
 11
-1190.713294185477
 21
699.99999631684545
 31
0.0
  0
CIRCLE
  5
1DA
  8
SIZE
  6
CONTINUOUS
 62
    30
 10
-1190.713294185477
 20
-699.99999631684057
 30
0.0
 40
6.25
  0
CIRCLE
  5
1DB
  8
SIZE
  6
CONTINUOUS
 62
    30
 10
-1190.713294185477
 20
699.99999631684545
 30
0.0
 40
6.25
  0
TEXT
  5
1DC
  8
SIZE
  6
CONTINUOUS
 62
    30
 10
-1218.8085322807151
 20
-171.42857142856889
 30
0.0
 40
50.0
  1
1400 (本体)
 50
90.0
 41
0.9
 72
     1
 11
-1218.8085322807151
 21
0.0000000000024653
 31
0.0
  0
POINT
  5
1DD
  8
DEFPOINTS
  6
CONTINUOUS
 62
     7
 10
-625.00000000000614
 20
-699.99999631684079
 30
0.0
  0
POINT
  5
1DE
  8
DEFPOINTS
  6
CONTINUOUS
 62
     7
 10
-625.00000000000614
 20
699.99999631684545
 30
0.0
  0
POINT
  5
1DF
  8
DEFPOINTS
  6
CONTINUOUS
 62
     7
 10
-1190.713294185477
 20
699.99999631684545
 30
0.0
  0
LINE
  5
1E0
  8
SIZE
  6
CONTINUOUS
 62
    30
 10
-645.00000000000614
 20
-699.99999631684079
 30
0.0
 11
-1210.713294185477
 21
-699.99999631684057
 31
0.0
  0
LINE
  5
1E1
  8
SIZE
  6
CONTINUOUS
 62
    30
 10
-580.00000034201423
 20
-724.99999618529955
 30
0.0
 11
-1210.713294185477
 21
-724.99999618529932
 31
0.0
  0
LINE
  5
1E2
  8
SIZE
  6
CONTINUOUS
 62
    30
 10
-1190.713294185477
 20
-699.99999631684057
 30
0.0
 11
-1190.713294185477
 21
-674.99999631684057
 31
0.0
  0
LINE
  5
1E3
  8
SIZE
  6
CONTINUOUS
 62
    30
 10
-1190.713294185477
 20
-724.99999618529932
 30
0.0
 11
-1190.713294185477
 21
-877.85713904244221
 31
0.0
  0
LINE
  5
1E4
  8
SIZE
  6
CONTINUOUS
 62
    30
 10
-1190.713294185477
 20
-699.99999631684057
 30
0.0
 11
-1190.713294185477
 21
-724.99999618529932
 31
0.0
  0
CIRCLE
  5
1E5
  8
SIZE
  6
CONTINUOUS
 62
    30
 10
-1190.713294185477
 20
-699.99999631684057
 30
0.0
 40
6.25
  0
CIRCLE
  5
1E6
  8
SIZE
  6
CONTINUOUS
 62
    30
 10
-1190.713294185477
 20
-724.99999618529932
 30
0.0
 40
6.25
  0
TEXT
  5
1E7
  8
SIZE
  6
CONTINUOUS
 62
    30
 10
-1205.7132941854759
 20
-862.85713904244244
 30
0.0
 40
50.0
  1
25
 50
90.0
 41
0.9
 72
     1
 11
-1205.7132941854759
 21
-826.428567613871
 31
0.0
  0
POINT
  5
1E8
  8
DEFPOINTS
  6
CONTINUOUS
 62
     7
 10
-625.00000000000614
 20
-699.99999631684079
 30
0.0
  0
POINT
  5
1E9
  8
DEFPOINTS
  6
CONTINUOUS
 62
     7
 10
-560.00000034201423
 20
-724.99999618529955
 30
0.0
  0
POINT
  5
1EA
  8
DEFPOINTS
  6
CONTINUOUS
 62
     7
 10
-1190.713294185477
 20
-724.99999618529932
 30
0.0
  0
LINE
  5
1EB
  8
SIZE
  6
CONTINUOUS
 62
    30
 10
-645.00000000000614
 20
699.99999631684545
 30
0.0
 11
-1210.713294185477
 21
699.99999631684545
 31
0.0
  0
LINE
  5
1EC
  8
SIZE
  6
CONTINUOUS
 62
    30
 10
-570.00000039463032
 20
724.99999618530455
 30
0.0
 11
-1210.713294185477
 21
724.99999618530455
 31
0.0
  0
LINE
  5
1ED
  8
SIZE
  6
CONTINUOUS
 62
    30
 10
-1190.713294185477
 20
699.99999631684545
 30
0.0
 11
-1190.713294185477
 21
674.99999631684557
 31
0.0
  0
LINE
  5
1EE
  8
SIZE
  6
CONTINUOUS
 62
    30
 10
-1190.713294185477
 20
724.99999618530455
 30
0.0
 11
-1190.713294185477
 21
877.85713904244722
 31
0.0
  0
LINE
  5
1EF
  8
SIZE
  6
CONTINUOUS
 62
    30
 10
-1190.713294185477
 20
699.99999631684545
 30
0.0
 11
-1190.713294185477
 21
724.99999618530455
 31
0.0
  0
CIRCLE
  5
1F0
  8
SIZE
  6
CONTINUOUS
 62
    30
 10
-1190.713294185477
 20
699.99999631684545
 30
0.0
 40
6.25
  0
CIRCLE
  5
1F1
  8
SIZE
  6
CONTINUOUS
 62
    30
 10
-1190.713294185477
 20
724.99999618530455
 30
0.0
 40
6.25
  0
TEXT
  5
1F2
  8
SIZE
  6
CONTINUOUS
 62
    30
 10
-1205.713294185477
 20
789.99999618530455
 30
0.0
 40
50.0
  1
25
 50
90.0
 41
0.9
 72
     1
 11
-1205.713294185477
 21
826.428567613876
 31
0.0
  0
POINT
  5
1F3
  8
DEFPOINTS
  6
CONTINUOUS
 62
     7
 10
-625.00000000000614
 20
699.99999631684545
 30
0.0
  0
POINT
  5
1F4
  8
DEFPOINTS
  6
CONTINUOUS
 62
     7
 10
-550.00000039463032
 20
724.99999618530455
 30
0.0
  0
POINT
  5
1F5
  8
DEFPOINTS
  6
CONTINUOUS
 62
     7
 10
-1190.713294185477
 20
724.99999618530455
 30
0.0
  0
LINE
  5
1F6
  8
SIZE
  6
CONTINUOUS
 62
    30
 10
-580.00000034201423
 20
-724.99999618529955
 30
0.0
 11
-1344.3496486929689
 21
-724.99999618529932
 31
0.0
  0
LINE
  5
1F7
  8
SIZE
  6
CONTINUOUS
 62
    30
 10
-570.00000039463032
 20
724.99999618530455
 30
0.0
 11
-1344.349648692968
 21
724.99999618530455
 31
0.0
  0
LINE
  5
1F8
  8
SIZE
  6
CONTINUOUS
 62
    30
 10
-1324.349648692968
 20
-724.99999618529932
 30
0.0
 11
-1324.349648692968
 21
724.99999618530455
 31
0.0
  0
CIRCLE
  5
1F9
  8
SIZE
  6
CONTINUOUS
 62
    30
 10
-1324.349648692968
 20
-724.99999618529932
 30
0.0
 40
6.25
  0
CIRCLE
  5
1FA
  8
SIZE
  6
CONTINUOUS
 62
    30
 10
-1324.349648692968
 20
724.99999618530455
 30
0.0
 40
6.25
  0
TEXT
  5
1FB
  8
SIZE
  6
CONTINUOUS
 62
    30
 10
-1339.3496486929689
 20
-74.999999999997499
 30
0.0
 40
50.0
  1
1450
 50
90.0
 41
0.9
 72
     1
 11
-1339.3496486929689
 21
0.0000000000024719
 31
0.0
  0
POINT
  5
1FC
  8
DEFPOINTS
  6
CONTINUOUS
 62
     7
 10
-560.00000034201423
 20
-724.99999618529955
 30
0.0
  0
POINT
  5
1FD
  8
DEFPOINTS
  6
CONTINUOUS
 62
     7
 10
-550.00000039463032
 20
724.99999618530455
 30
0.0
  0
POINT
  5
1FE
  8
DEFPOINTS
  6
CONTINUOUS
 62
     7
 10
-1324.349648692968
 20
724.99999618530455
 30
0.0
  0
LINE
  5
1FF
  8
SERVICESPACE
  6
DASHDOT
 62
     2
 10
674.99999776379389
 20
-749.99999631684148
 30
0.0
 11
674.99999776379389
 21
320.00000368315932
 31
0.0
  0
LINE
  5
200
  8
SIZE
  6
CONTINUOUS
 62
    30
 10
389.9999990002828
 20
-741.44999620398335
 30
0.0
 11
389.9999990002828
 21
-926.72256117456129
 31
0.0
  0
LINE
  5
201
  8
SIZE
  6
CONTINUOUS
 62
    30
 10
439.99999873720049
 20
-744.99999618530035
 30
0.0
 11
439.99999873720049
 21
-926.72256117456129
 31
0.0
  0
LINE
  5
202
  8
SIZE
  6
CONTINUOUS
 62
    30
 10
389.9999990002828
 20
-906.72256117456141
 30
0.0
 11
439.99999873720049
 21
-906.72256117456141
 31
0.0
  0
LINE
  5
203
  8
SIZE
  6
CONTINUOUS
 62
    30
 10
439.99999873720049
 20
-906.72256117456141
 30
0.0
 11
567.85714159434337
 21
-906.72256117456141
 31
0.0
  0
CIRCLE
  5
204
  8
SIZE
  6
CONTINUOUS
 62
    30
 10
389.9999990002828
 20
-906.72256117456141
 30
0.0
 40
6.25
  0
CIRCLE
  5
205
  8
SIZE
  6
CONTINUOUS
 62
    30
 10
439.99999873720049
 20
-906.72256117456141
 30
0.0
 40
6.25
  0
TEXT
  5
206
  8
SIZE
  6
CONTINUOUS
 62
    30
 10
479.9999987372006
 20
-891.72256117456141
 30
0.0
 40
50.0
  1
50
 41
0.9
 72
     1
 11
516.42857016577204
 21
-891.72256117456141
 31
0.0
  0
POINT
  5
207
  8
DEFPOINTS
  6
CONTINUOUS
 62
     7
 10
389.9999990002828
 20
-721.44999620398335
 30
0.0
  0
POINT
  5
208
  8
DEFPOINTS
  6
CONTINUOUS
 62
     7
 10
439.99999873720049
 20
-724.99999618530046
 30
0.0
  0
POINT
  5
209
  8
DEFPOINTS
  6
CONTINUOUS
 62
     7
 10
439.99999873720049
 20
-906.72256117456141
 30
0.0
  0
LINE
  5
20A
  8
SIZE
  6
CONTINUOUS
 62
    30
 10
389.9999990002828
 20
-741.44999620398335
 30
0.0
 11
389.9999990002828
 21
-926.72256117456129
 31
0.0
  0
LINE
  5
20B
  8
SIZE
  6
CONTINUOUS
 62
    30
 10
-510.0000006050966
 20
-741.44999620398335
 30
0.0
 11
-510.0000006050966
 21
-926.72256117456129
 31
0.0
  0
LINE
  5
20C
  8
SIZE
  6
CONTINUOUS
 62
    30
 10
389.9999990002828
 20
-906.72256117456141
 30
0.0
 11
-510.0000006050966
 21
-906.72256117456141
 31
0.0
  0
CIRCLE
  5
20D
  8
SIZE
  6
CONTINUOUS
 62
    30
 10
389.9999990002828
 20
-906.72256117456141
 30
0.0
 40
6.25
  0
CIRCLE
  5
20E
  8
SIZE
  6
CONTINUOUS
 62
    30
 10
-510.0000006050966
 20
-906.72256117456141
 30
0.0
 40
6.25
  0
TEXT
  5
20F
  8
SIZE
  6
CONTINUOUS
 62
    30
 10
-254.1428579452639
 20
-891.72256117456141
 30
0.0
 40
50.0
  1
100×9=900
 41
0.9
 72
     1
 11
-60.000000802406852
 21
-891.72256117456141
 31
0.0
  0
POINT
  5
210
  8
DEFPOINTS
  6
CONTINUOUS
 62
     7
 10
389.9999990002828
 20
-721.44999620398335
 30
0.0
  0
POINT
  5
211
  8
DEFPOINTS
  6
CONTINUOUS
 62
     7
 10
-510.0000006050966
 20
-721.44999620398335
 30
0.0
  0
POINT
  5
212
  8
DEFPOINTS
  6
CONTINUOUS
 62
     7
 10
-510.0000006050966
 20
-906.72256117456141
 30
0.0
  0
LINE
  5
213
  8
SIZE
  6
CONTINUOUS
 62
    30
 10
439.99999873720049
 20
-744.99999618530035
 30
0.0
 11
439.99999873720049
 21
-1059.906572635331
 31
0.0
  0
LINE
  5
214
  8
SIZE
  6
CONTINUOUS
 62
    30
 10
624.99999776379389
 20
-719.99999631684159
 30
0.0
 11
624.99999776379389
 21
-1059.906572635331
 31
0.0
  0
LINE
  5
215
  8
SIZE
  6
CONTINUOUS
 62
    30
 10
439.99999873720049
 20
-1039.906572635331
 30
0.0
 11
624.99999776379389
 21
-1039.906572635331
 31
0.0
  0
CIRCLE
  5
216
  8
SIZE
  6
CONTINUOUS
 62
    30
 10
439.99999873720049
 20
-1039.906572635331
 30
0.0
 40
6.25
  0
CIRCLE
  5
217
  8
SIZE
  6
CONTINUOUS
 62
    30
 10
624.99999776379389
 20
-1039.906572635331
 30
0.0
 40
6.25
  0
TEXT
  5
218
  8
SIZE
  6
CONTINUOUS
 62
    30
 10
478.92856967906857
 20
-1024.906572635331
 30
0.0
 40
50.0
  1
185
 41
0.9
 72
     1
 11
532.49999825049724
 21
-1024.906572635331
 31
0.0
  0
POINT
  5
219
  8
DEFPOINTS
  6
CONTINUOUS
 62
     7
 10
439.99999873720049
 20
-724.99999618530046
 30
0.0
  0
POINT
  5
21A
  8
DEFPOINTS
  6
CONTINUOUS
 62
     7
 10
624.99999776379389
 20
-699.99999631684148
 30
0.0
  0
POINT
  5
21B
  8
DEFPOINTS
  6
CONTINUOUS
 62
     7
 10
624.99999776379389
 20
-1039.906572635331
 30
0.0
  0
LINE
  5
21C
  8
SIZE
  6
CONTINUOUS
 62
    30
 10
439.99999873720049
 20
-744.99999618530035
 30
0.0
 11
439.99999873720049
 21
-1059.9065726353299
 31
0.0
  0
LINE
  5
21D
  8
SIZE
  6
CONTINUOUS
 62
    30
 10
-560.00000034201423
 20
-744.99999618529955
 30
0.0
 11
-560.00000034201423
 21
-1059.9065726353299
 31
0.0
  0
LINE
  5
21E
  8
SIZE
  6
CONTINUOUS
 62
    30
 10
439.99999873720049
 20
-1039.9065726353299
 30
0.0
 11
-560.00000034201423
 21
-1039.9065726353299
 31
0.0
  0
CIRCLE
  5
21F
  8
SIZE
  6
CONTINUOUS
 62
    30
 10
439.99999873720049
 20
-1039.9065726353299
 30
0.0
 40
6.25
  0
CIRCLE
  5
220
  8
SIZE
  6
CONTINUOUS
 62
    30
 10
-560.00000034201423
 20
-1039.9065726353299
 30
0.0
 40
6.25
  0
TEXT
  5
221
  8
SIZE
  6
CONTINUOUS
 62
    30
 10
-312.4285722309782
 20
-1011.811334540092
 30
0.0
 40
50.0
  1
1000 (ダクト寸法)
 41
0.9
 72
     1
 11
-60.00000080240676
 21
-1011.811334540092
 31
0.0
  0
POINT
  5
222
  8
DEFPOINTS
  6
CONTINUOUS
 62
     7
 10
439.99999873720049
 20
-724.99999618530046
 30
0.0
  0
POINT
  5
223
  8
DEFPOINTS
  6
CONTINUOUS
 62
     7
 10
-560.00000034201423
 20
-724.99999618529955
 30
0.0
  0
POINT
  5
224
  8
DEFPOINTS
  6
CONTINUOUS
 62
     7
 10
-560.00000034201423
 20
-1039.9065726353299
 30
0.0
  0
LINE
  5
225
  8
SIZE
  6
CONTINUOUS
 62
    30
 10
499.99999842150032
 20
741.44999620397755
 30
0.0
 11
499.99999842150032
 21
1031.961432541895
 31
0.0
  0
LINE
  5
226
  8
SIZE
  6
CONTINUOUS
 62
    30
 10
549.99999815841807
 20
744.99999618530387
 30
0.0
 11
549.99999815841807
 21
1031.961432541895
 31
0.0
  0
LINE
  5
227
  8
SIZE
  6
CONTINUOUS
 62
    30
 10
499.99999842150032
 20
1011.961432541895
 30
0.0
 11
549.99999815841807
 21
1011.961432541895
 31
0.0
  0
LINE
  5
228
  8
SIZE
  6
CONTINUOUS
 62
    30
 10
549.99999815841807
 20
1011.961432541895
 30
0.0
 11
804.08383235439055
 21
1011.961432541895
 31
0.0
  0
CIRCLE
  5
229
  8
SIZE
  6
CONTINUOUS
 62
    30
 10
499.99999842150032
 20
1011.961432541895
 30
0.0
 40
6.25
  0
CIRCLE
  5
22A
  8
SIZE
  6
CONTINUOUS
 62
    30
 10
549.99999815841807
 20
1011.961432541895
 30
0.0
 40
6.25
  0
TEXT
  5
22B
  8
SIZE
  6
CONTINUOUS
 62
    30
 10
716.22668949724789
 20
1026.961432541895
 30
0.0
 40
50.0
  1
50
 41
0.9
 72
     1
 11
752.65526092581945
 21
1026.961432541895
 31
0.0
  0
POINT
  5
22C
  8
DEFPOINTS
  6
CONTINUOUS
 62
     7
 10
499.99999842150032
 20
721.44999620397755
 30
0.0
  0
POINT
  5
22D
  8
DEFPOINTS
  6
CONTINUOUS
 62
     7
 10
549.99999815841807
 20
724.9999961853041
 30
0.0
  0
POINT
  5
22E
  8
DEFPOINTS
  6
CONTINUOUS
 62
     7
 10
549.99999815841807
 20
1011.961432541895
 30
0.0
  0
LINE
  5
22F
  8
SIZE
  6
CONTINUOUS
 62
    30
 10
499.99999842150032
 20
741.44999620397755
 30
0.0
 11
499.99999842150032
 21
1031.9614325418941
 31
0.0
  0
LINE
  5
230
  8
SIZE
  6
CONTINUOUS
 62
    30
 10
-500.00000065771252
 20
741.44999620397903
 30
0.0
 11
-500.00000065771252
 21
1031.9614325418941
 31
0.0
  0
LINE
  5
231
  8
SIZE
  6
CONTINUOUS
 62
    30
 10
499.99999842150032
 20
1011.9614325418941
 30
0.0
 11
-500.00000065771252
 21
1011.9614325418941
 31
0.0
  0
CIRCLE
  5
232
  8
SIZE
  6
CONTINUOUS
 62
    30
 10
499.99999842150032
 20
1011.9614325418941
 30
0.0
 40
6.25
  0
CIRCLE
  5
233
  8
SIZE
  6
CONTINUOUS
 62
    30
 10
-500.00000065771252
 20
1011.9614325418941
 30
0.0
 40
6.25
  0
TEXT
  5
234
  8
SIZE
  6
CONTINUOUS
 62
    30
 10
-228.4285725466776
 20
1026.9614325418941
 30
0.0
 40
50.0
  1
100×10=1000
 41
0.9
 72
     1
 11
-0.0000011181061268
 21
1026.9614325418941
 31
0.0
  0
POINT
  5
235
  8
DEFPOINTS
  6
CONTINUOUS
 62
     7
 10
499.99999842150032
 20
721.44999620397755
 30
0.0
  0
POINT
  5
236
  8
DEFPOINTS
  6
CONTINUOUS
 62
     7
 10
-500.00000065771252
 20
721.44999620397903
 30
0.0
  0
POINT
  5
237
  8
DEFPOINTS
  6
CONTINUOUS
 62
     7
 10
-500.00000065771252
 20
1011.9614325418941
 30
0.0
  0
LINE
  5
238
  8
SIZE
  6
CONTINUOUS
 62
    30
 10
549.99999815841807
 20
744.99999618530387
 30
0.0
 11
549.99999815841807
 21
1136.3036632234021
 31
0.0
  0
LINE
  5
239
  8
SIZE
  6
CONTINUOUS
 62
    30
 10
624.99999776379389
 20
719.99999631684432
 30
0.0
 11
624.99999776379389
 21
1136.3036632234021
 31
0.0
  0
LINE
  5
23A
  8
SIZE
  6
CONTINUOUS
 62
    30
 10
549.99999815841807
 20
1116.3036632234021
 30
0.0
 11
624.99999776379389
 21
1116.3036632234021
 31
0.0
  0
LINE
  5
23B
  8
SIZE
  6
CONTINUOUS
 62
    30
 10
624.99999776379389
 20
1116.3036632234021
 30
0.0
 11
803.54078472833135
 21
1116.3036632234021
 31
0.0
  0
CIRCLE
  5
23C
  8
SIZE
  6
CONTINUOUS
 62
    30
 10
549.99999815841807
 20
1116.3036632234021
 30
0.0
 40
6.25
  0
CIRCLE
  5
23D
  8
SIZE
  6
CONTINUOUS
 62
    30
 10
624.99999776379389
 20
1116.3036632234021
 30
0.0
 40
6.25
  0
TEXT
  5
23E
  8
SIZE
  6
CONTINUOUS
 62
    30
 10
715.68364187118857
 20
1131.3036632234021
 30
0.0
 40
50.0
  1
75
 41
0.9
 72
     1
 11
752.11221329976013
 21
1131.3036632234021
 31
0.0
  0
POINT
  5
23F
  8
DEFPOINTS
  6
CONTINUOUS
 62
     7
 10
549.99999815841807
 20
724.9999961853041
 30
0.0
  0
POINT
  5
240
  8
DEFPOINTS
  6
CONTINUOUS
 62
     7
 10
624.99999776379389
 20
699.99999631684432
 30
0.0
  0
POINT
  5
241
  8
DEFPOINTS
  6
CONTINUOUS
 62
     7
 10
624.99999776379389
 20
1116.3036632234021
 30
0.0
  0
LINE
  5
242
  8
SIZE
  6
CONTINUOUS
 62
    30
 10
549.99999815841807
 20
744.99999618530387
 30
0.0
 11
549.99999815841807
 21
1136.3036632234021
 31
0.0
  0
LINE
  5
243
  8
SIZE
  6
CONTINUOUS
 62
    30
 10
-550.00000039463032
 20
744.99999618530455
 30
0.0
 11
-550.00000039463032
 21
1136.3036632234021
 31
0.0
  0
LINE
  5
244
  8
SIZE
  6
CONTINUOUS
 62
    30
 10
549.99999815841807
 20
1116.3036632234021
 30
0.0
 11
-550.00000039463032
 21
1116.3036632234021
 31
0.0
  0
CIRCLE
  5
245
  8
SIZE
  6
CONTINUOUS
 62
    30
 10
549.99999815841807
 20
1116.3036632234021
 30
0.0
 40
6.25
  0
CIRCLE
  5
246
  8
SIZE
  6
CONTINUOUS
 62
    30
 10
-550.00000039463032
 20
1116.3036632234021
 30
0.0
 40
6.25
  0
TEXT
  5
247
  8
SIZE
  6
CONTINUOUS
 62
    30
 10
-248.14285826096321
 20
1144.3989013186399
 30
0.0
 40
50.0
  1
1100 (ダクト寸法)
 41
0.9
 72
     1
 11
-0.00000111810607
 21
1144.3989013186399
 31
0.0
  0
POINT
  5
248
  8
DEFPOINTS
  6
CONTINUOUS
 62
     7
 10
549.99999815841807
 20
724.9999961853041
 30
0.0
  0
POINT
  5
249
  8
DEFPOINTS
  6
CONTINUOUS
 62
     7
 10
-550.00000039463032
 20
724.99999618530455
 30
0.0
  0
POINT
  5
24A
  8
DEFPOINTS
  6
CONTINUOUS
 62
     7
 10
-550.00000039463032
 20
1116.3036632234021
 30
0.0
  0
LINE
  5
24B
  8
SIZE
  6
CONTINUOUS
 62
    30
 10
624.99999776379389
 20
719.99999631684432
 30
0.0
 11
624.99999776379389
 21
900.87028194402842
 31
0.0
  0
LINE
  5
24C
  8
SIZE
  6
CONTINUOUS
 62
    30
 10
699.999997763794
 20
655.79999665464231
 30
0.0
 11
699.999997763794
 21
900.87028194402842
 31
0.0
  0
LINE
  5
24D
  8
SIZE
  6
CONTINUOUS
 62
    30
 10
624.99999776379389
 20
880.87028194402865
 30
0.0
 11
699.999997763794
 21
880.87028194402865
 31
0.0
  0
LINE
  5
24E
  8
SIZE
  6
CONTINUOUS
 62
    30
 10
699.999997763794
 20
880.87028194402865
 30
0.0
 11
827.85714062093655
 21
880.87028194402865
 31
0.0
  0
CIRCLE
  5
24F
  8
SIZE
  6
CONTINUOUS
 62
    30
 10
624.99999776379389
 20
880.87028194402865
 30
0.0
 40
6.25
  0
CIRCLE
  5
250
  8
SIZE
  6
CONTINUOUS
 62
    30
 10
699.999997763794
 20
880.87028194402865
 30
0.0
 40
6.25
  0
TEXT
  5
251
  8
SIZE
  6
CONTINUOUS
 62
    30
 10
739.99999776379366
 20
895.87028194402865
 30
0.0
 40
50.0
  1
75
 41
0.9
 72
     1
 11
776.42856919236522
 21
895.87028194402865
 31
0.0
  0
POINT
  5
252
  8
DEFPOINTS
  6
CONTINUOUS
 62
     7
 10
624.99999776379389
 20
699.99999631684432
 30
0.0
  0
POINT
  5
253
  8
DEFPOINTS
  6
CONTINUOUS
 62
     7
 10
699.999997763794
 20
635.79999665464209
 30
0.0
  0
POINT
  5
254
  8
DEFPOINTS
  6
CONTINUOUS
 62
     7
 10
699.999997763794
 20
880.87028194402865
 30
0.0
  0
LINE
  5
255
  8
SIZE
  6
CONTINUOUS
 62
    30
 10
624.99999776379389
 20
-719.99999631684159
 30
0.0
 11
624.99999776379389
 21
-878.70082582012151
 31
0.0
  0
LINE
  5
256
  8
SIZE
  6
CONTINUOUS
 62
    30
 10
674.99999776379389
 20
-769.99999631684159
 30
0.0
 11
674.99999776379389
 21
-878.70082582012151
 31
0.0
  0
LINE
  5
257
  8
SIZE
  6
CONTINUOUS
 62
    30
 10
624.99999776379389
 20
-858.70082582012151
 30
0.0
 11
674.99999776379389
 21
-858.70082582012151
 31
0.0
  0
LINE
  5
258
  8
SIZE
  6
CONTINUOUS
 62
    30
 10
674.99999776379389
 20
-858.70082582012151
 30
0.0
 11
802.85714062093643
 21
-858.70082582012151
 31
0.0
  0
CIRCLE
  5
259
  8
SIZE
  6
CONTINUOUS
 62
    30
 10
624.99999776379389
 20
-858.70082582012151
 30
0.0
 40
6.25
  0
CIRCLE
  5
25A
  8
SIZE
  6
CONTINUOUS
 62
    30
 10
674.99999776379389
 20
-858.70082582012151
 30
0.0
 40
6.25
  0
TEXT
  5
25B
  8
SIZE
  6
CONTINUOUS
 62
    30
 10
714.99999776379366
 20
-843.70082582012151
 30
0.0
 40
50.0
  1
50
 41
0.9
 72
     1
 11
751.42856919236522
 21
-843.70082582012151
 31
0.0
  0
POINT
  5
25C
  8
DEFPOINTS
  6
CONTINUOUS
 62
     7
 10
624.99999776379389
 20
-699.99999631684148
 30
0.0
  0
POINT
  5
25D
  8
DEFPOINTS
  6
CONTINUOUS
 62
     7
 10
674.99999776379389
 20
-749.99999631684148
 30
0.0
  0
POINT
  5
25E
  8
DEFPOINTS
  6
CONTINUOUS
 62
     7
 10
674.99999776379389
 20
-858.70082582012151
 30
0.0
  0
LINE
  5
25F
  8
SIZE
  6
CONTINUOUS
 62
    30
 10
-695.00000447241166
 20
-749.99999631684068
 30
0.0
 11
-977.28104352608796
 21
-749.99999631684057
 31
0.0
  0
LINE
  5
260
  8
SIZE
  6
CONTINUOUS
 62
    30
 10
-695.00000447241166
 20
320.00000368315932
 30
0.0
 11
-977.28104352608796
 21
320.00000368315932
 31
0.0
  0
LINE
  5
261
  8
SIZE
  6
CONTINUOUS
 62
    30
 10
-957.28104352608796
 20
-749.99999631684057
 30
0.0
 11
-957.28104352608796
 21
320.00000368315932
 31
0.0
  0
CIRCLE
  5
262
  8
SIZE
  6
CONTINUOUS
 62
    30
 10
-957.28104352608796
 20
-749.99999631684057
 30
0.0
 40
6.25
  0
CIRCLE
  5
263
  8
SIZE
  6
CONTINUOUS
 62
    30
 10
-957.28104352608796
 20
320.00000368315932
 30
0.0
 40
6.25
  0
TEXT
  5
264
  8
SIZE
  6
CONTINUOUS
 62
    30
 10
-972.28104352608796
 20
-289.99999631684068
 30
0.0
 40
50.0
  1
1070
 50
90.0
 41
0.9
 72
     1
 11
-972.28104352608796
 21
-214.99999631684071
 31
0.0
  0
POINT
  5
265
  8
DEFPOINTS
  6
CONTINUOUS
 62
     7
 10
-675.00000447241155
 20
-749.99999631684068
 30
0.0
  0
POINT
  5
266
  8
DEFPOINTS
  6
CONTINUOUS
 62
     7
 10
-675.00000447241155
 20
320.00000368315932
 30
0.0
  0
POINT
  5
267
  8
DEFPOINTS
  6
CONTINUOUS
 62
     7
 10
-957.28104352608796
 20
320.00000368315932
 30
0.0
  0
CIRCLE
  5
268
  8
FIX
  6
CONTINUOUS
 62
    11
 10
-662.80000466814136
 20
668.99999647995196
 30
0.0
 40
16.155115914013201
  0
CIRCLE
  5
269
  8
FIX
  6
CONTINUOUS
 62
    11
 10
-662.80000466814329
 20
-668.99999647995844
 30
0.0
 40
16.155115914013201
  0
CIRCLE
  5
26A
  8
FIX
  6
CONTINUOUS
 62
    11
 10
662.19999756806237
 20
-668.99999647995844
 30
0.0
 40
16.155115914013201
  0
CIRCLE
  5
26B
  8
FIX
  6
CONTINUOUS
 62
    11
 10
662.19999756806396
 20
668.99999647995196
 30
0.0
 40
16.155115914013201
  0
TEXT
  5
26C
  8
NOTE
  6
CONTINUOUS
 62
     4
 10
1409.15644353068
 20
-66.097239144488412
 30
0.0
 40
50.0
  1
点検口
 50
90.000002504416585
 41
0.7031250221965211
  7
STANDARD1
  0
TEXT
  5
26D
  8
NOTE
  6
CONTINUOUS
 62
     4
 10
-623.99360521696212
 20
-373.84773168915831
 30
0.0
 40
50.0
  1
サービススペース
 50
90.000002504416585
 41
0.7031250221965211
  7
STANDARD1
  0
TEXT
  5
26E
  8
NOTE
  6
CONTINUOUS
 62
     4
 10
319.86949303025278
 20
123.6806470405545
 30
0.0
 40
50.0
  1
RL %%C9.52
 50
0.0000025044165941
 41
0.7
  7
STANDARD1
  0
LINE
  5
26F
  8
NOTE
  6
CONTINUOUS
 62
     4
 10
588.14077130263604
 20
110.0033106167957
 30
0.0
 11
310.61317524648371
 21
110.0033106167957
 31
0.0
  0
TEXT
  5
270
  8
NOTE
  6
CONTINUOUS
 62
     4
 10
294.57626853350058
 20
-118.1480603654463
 30
0.0
 40
50.0
  1
RG %%C19.05
 50
0.0000025044165941
 41
0.7
  7
STANDARD1
  0
LINE
  5
271
  8
NOTE
  6
CONTINUOUS
 62
     4
 10
596.09549462107805
 20
-131.82539678920639
 30
0.0
 11
288.94665715953789
 21
-131.82539678920639
 31
0.0
  0
TEXT
  5
272
  8
NOTE
  6
CONTINUOUS
 62
     4
 10
509.07935377802391
 20
-219.47245426469721
 30
0.0
 40
50.0
  1
D2
 50
0.0000025044165941
 41
0.7
  7
STANDARD1
  0
LINE
  5
273
  8
NOTE
  6
CONTINUOUS
 62
     4
 10
578.42962993593517
 20
-233.14979068845739
 30
0.0
 11
501.28303636269021
 21
-233.14979068845739
 31
0.0
  0
TEXT
  5
274
  8
NOTE
  6
CONTINUOUS
 62
     4
 10
119.83121733940909
 20
-311.75030990803452
 30
0.0
 40
50.0
  1
加湿器給水口(1/2B)
 50
0.0000025044165941
 41
0.7
  7
STANDARD1
  0
LINE
  5
275
  8
NOTE
  6
CONTINUOUS
 62
     4
 10
565.46774897755085
 20
-325.42764633179428
 30
0.0
 11
113.49584389529019
 21
-325.42764633179428
 31
0.0
  0
TEXT
  5
276
  8
NOTE
  6
CONTINUOUS
 62
     4
 10
500.71323133300137
 20
-415.85609329750412
 30
0.0
 40
50.0
  1
D1
 50
0.0000025044165941
 41
0.7
  7
STANDARD1
  0
LINE
  5
277
  8
NOTE
  6
CONTINUOUS
 62
     4
 10
565.01730486974111
 20
-429.53342972126433
 30
0.0
 11
491.87853348771512
 21
-429.53342972126433
 31
0.0
  0
LINE
  5
278
  8
NOTE
  6
CONTINUOUS
 62
     4
 10
724.99999723762926
 20
-0.000000000048658
 30
0.0
 11
588.14077130263604
 21
110.0033106167957
 31
0.0
  0
LINE
  5
279
  8
NOTE
  6
CONTINUOUS
 62
     4
 10
724.99999723762926
 20
-95.9999994949344
 30
0.0
 11
596.09549462107805
 21
-131.82539678920639
 31
0.0
  0
LINE
  5
27A
  8
NOTE
  6
CONTINUOUS
 62
     4
 10
682.99999745862033
 20
-175.99999907395059
 30
0.0
 11
578.42962993593517
 21
-233.14979068845739
 31
0.0
  0
LINE
  5
27B
  8
NOTE
  6
CONTINUOUS
 62
     4
 10
724.99999723762926
 20
-211.99999888452629
 30
0.0
 11
724.99999723762926
 21
-211.99999888452629
 31
0.0
  0
LINE
  5
27C
  8
NOTE
  6
CONTINUOUS
 62
     4
 10
724.99999723762926
 20
-211.99999888452629
 30
0.0
 11
565.46774897755085
 21
-325.42764633179428
 31
0.0
  0
LINE
  5
27D
  8
NOTE
  6
CONTINUOUS
 62
     4
 10
649.99999763225185
 20
-349.99999815842438
 30
0.0
 11
565.01730486974111
 21
-429.53342972126433
 31
0.0
  0
TEXT
  5
27E
  8
NOTE
  6
CONTINUOUS
 62
     4
 10
211.87133750161709
 20
591.97350728815479
 30
0.0
 40
50.0
  1
11-%%C3.4
 50
0.0000025044165941
 41
0.7
  7
STANDARD1
  0
LINE
  5
27F
  8
NOTE
  6
CONTINUOUS
 62
     4
 10
451.31863045690727
 20
578.29617086439407
 30
0.0
 11
211.65697942217719
 21
578.29617086439407
 31
0.0
  0
TEXT
  5
280
  8
NOTE
  6
CONTINUOUS
 62
     4
 10
103.62354963474471
 20
-621.08657880482042
 30
0.0
 40
50.0
  1
10-%%C3.4
 50
0.0000025044165941
 41
0.7
  7
STANDARD1
  0
LINE
  5
281
  8
NOTE
  6
CONTINUOUS
 62
     4
 10
343.00466271598037
 20
-634.76391522858034
 30
0.0
 11
103.83821583311619
 21
-634.76391522858034
 31
0.0
  0
LINE
  5
282
  8
NOTE
  6
CONTINUOUS
 62
     4
 10
343.00466271598037
 20
-634.76391522858034
 30
0.0
 11
389.9999990002828
 21
-714.99999623791643
 31
0.0
  0
LINE
  5
283
  8
NOTE
  6
CONTINUOUS
 62
     4
 10
451.31863045690727
 20
578.29617086439407
 30
0.0
 11
499.99999842150032
 21
714.99999623791962
 31
0.0
  0
LINE
  5
284
  8
NOTE
  6
CONTINUOUS
 62
     4
 10
499.9999984214985
 20
714.99999623791723
 30
0.0
 11
480.56590291658119
 21
686.63336792406062
 31
0.0
  0
LINE
  5
285
  8
NOTE
  6
CONTINUOUS
 62
     4
 10
499.9999984214985
 20
714.99999623791723
 30
0.0
 11
497.35289267109812
 21
680.71672770740452
 31
0.0
  0
LINE
  5
286
  8
NOTE
  6
CONTINUOUS
 62
     4
 10
724.99999723762005
 20
-0.0000000000472937
 30
0.0
 11
705.40657957840938
 21
28.256816070107561
 31
0.0
  0
LINE
  5
287
  8
NOTE
  6
CONTINUOUS
 62
     4
 10
724.99999723762005
 20
-0.0000000000472937
 30
0.0
 11
693.90319154892973
 21
14.674411264079479
 31
0.0
  0
LINE
  5
288
  8
NOTE
  6
CONTINUOUS
 62
     4
 10
724.99999723765472
 20
-95.999999494848467
 30
0.0
 11
690.61546053336394
 21
-96.230879598230317
 31
0.0
  0
LINE
  5
289
  8
NOTE
  6
CONTINUOUS
 62
     4
 10
724.99999723765472
 20
-95.999999494848467
 30
0.0
 11
695.33755525949664
 21
-113.39221631390861
 31
0.0
  0
LINE
  5
28A
  8
NOTE
  6
CONTINUOUS
 62
     4
 10
682.9999974586184
 20
-175.99999907395059
 30
0.0
 11
649.18652693939043
 21
-182.2449075149155
 31
0.0
  0
LINE
  5
28B
  8
NOTE
  6
CONTINUOUS
 62
     4
 10
682.9999974586184
 20
-175.99999907395059
 30
0.0
 11
656.83912754447681
 21
-198.31498406888841
 31
0.0
  0
LINE
  5
28C
  8
NOTE
  6
CONTINUOUS
 62
     4
 10
724.99999723762926
 20
-211.99999888452629
 30
0.0
 11
692.83008414146877
 21
-224.14274821802951
 31
0.0
  0
LINE
  5
28D
  8
NOTE
  6
CONTINUOUS
 62
     4
 10
724.99999723762926
 20
-211.99999888452629
 30
0.0
 11
703.2114103131529
 21
-238.60088514464061
 31
0.0
  0
LINE
  5
28E
  8
NOTE
  6
CONTINUOUS
 62
     4
 10
649.99999763225185
 20
-349.99999815842438
 30
0.0
 11
619.96006692871856
 21
-366.73177132560329
 31
0.0
  0
LINE
  5
28F
  8
NOTE
  6
CONTINUOUS
 62
     4
 10
649.99999763225185
 20
-349.99999815842438
 30
0.0
 11
632.35054152862472
 21
-379.51010438045131
 31
0.0
  0
LINE
  5
290
  8
NOTE
  6
CONTINUOUS
 62
     4
 10
389.9999990002882
 20
-714.99999623792235
 30
0.0
 11
380.68013793237259
 21
-681.90181109635125
 31
0.0
  0
LINE
  5
291
  8
NOTE
  6
CONTINUOUS
 62
     4
 10
389.9999990002882
 20
-714.99999623792235
 30
0.0
 11
365.37966963523399
 21
-690.99605797884806
 31
0.0
  0
LINE
  5
292
  8
BASIS
  6
DASHDOT
 62
     6
 10
-0.0000000000041282
 20
-785.5182054102612
 30
0.0
 11
-0.0000000000041282
 21
785.51820541026655
 31
0.0
  0
LINE
  5
293
  8
BASIS
  6
DASHDOT
 62
     6
 10
731.66136227766742
 20
-0.0000000000004547
 30
0.0
 11
-731.66136227766754
 21
0.0000000000004547
 31
0.0
  0
LINE
  5
294
  8
SIZE
  6
CONTINUOUS
 62
    30
 10
-645.00000000000614
 20
-699.99999631684079
 30
0.0
 11
-880.65257083673043
 21
-699.99999631684057
 31
0.0
  0
LINE
  5
295
  8
SIZE
  6
CONTINUOUS
 62
    30
 10
-695.00000447241166
 20
-749.99999631684068
 30
0.0
 11
-880.65257083673043
 21
-749.99999631684057
 31
0.0
  0
LINE
  5
296
  8
SIZE
  6
CONTINUOUS
 62
    30
 10
-860.65257083673055
 20
-699.99999631684057
 30
0.0
 11
-860.65257083673055
 21
-749.99999631684057
 31
0.0
  0
LINE
  5
297
  8
SIZE
  6
CONTINUOUS
 62
    30
 10
-860.65257083673055
 20
-749.99999631684057
 30
0.0
 11
-860.65257083673055
 21
-877.85713917398323
 31
0.0
  0
CIRCLE
  5
298
  8
SIZE
  6
CONTINUOUS
 62
    30
 10
-860.65257083673055
 20
-699.99999631684057
 30
0.0
 40
6.25
  0
CIRCLE
  5
299
  8
SIZE
  6
CONTINUOUS
 62
    30
 10
-860.65257083673055
 20
-749.99999631684057
 30
0.0
 40
6.25
  0
TEXT
  5
29A
  8
SIZE
  6
CONTINUOUS
 62
    30
 10
-875.65257083673055
 20
-862.85713917398357
 30
0.0
 40
50.0
  1
50
 50
90.0
 41
0.9
 72
     1
 11
-875.65257083673055
 21
-826.42856774541224
 31
0.0
  0
POINT
  5
29B
  8
DEFPOINTS
  6
CONTINUOUS
 62
     7
 10
-625.00000000000614
 20
-699.99999631684079
 30
0.0
  0
POINT
  5
29C
  8
DEFPOINTS
  6
CONTINUOUS
 62
     7
 10
-675.00000447241155
 20
-749.99999631684068
 30
0.0
  0
POINT
  5
29D
  8
DEFPOINTS
  6
CONTINUOUS
 62
     7
 10
-860.65257083673055
 20
-749.99999631684057
 30
0.0
  0
CIRCLE
  5
29E
  8
ARRANGE
  6
CONTINUOUS
 62
     1
 10
-0.0000000000041282
 20
0.0000000000027285
 30
0.0
 40
50.0
  0
LINE
  5
29F
  8
ARRANGE
  6
CONTINUOUS
 62
     1
 10
-50.037350031333112
 20
-49.52235315032339
 30
0.0
 11
50.037350031324841
 21
49.52235315032749
 31
0.0
  0
LINE
  5
2A0
  8
ARRANGE
  6
CONTINUOUS
 62
     1
 10
-49.963763310505357
 20
49.596594797987557
 30
0.0
 11
49.9637633104971
 21
-49.596594797979378
 31
0.0
  0
TEXT
  5
2A1
  8
ETC
  6
CONTINUOUS
 62
    61
 10
892.258290283924
 20
1331.171341571405
 30
0.0
 40
60.0
  1
GE-P1680M-E1_1
 50
0.0000029998804485
 41
0.8
  0
LINE
  5
2A2
  8
OUTLINE
  6
CONTINUOUS
 62
     3
 10
-625.00000000000591
 20
699.99999631684545
 30
0.0
 11
624.99999999999409
 21
699.99999631684432
 31
0.0
  0
LINE
  5
2A3
  8
OUTLINE
  6
CONTINUOUS
 62
     3
 10
624.99999776379389
 20
699.99999631684432
 30
0.0
 11
624.99999776379389
 21
-699.99999631684148
 31
0.0
  0
LINE
  5
2A4
  8
OUTLINE
  6
CONTINUOUS
 62
     3
 10
624.99999999999409
 20
-699.99999631684148
 30
0.0
 11
-625.00000000000591
 21
-699.99999631684079
 31
0.0
  0
LINE
  5
2A5
  8
OUTLINE
  6
CONTINUOUS
 62
     3
 10
-625.00000000000614
 20
-699.99999631684079
 30
0.0
 11
-625.00000000000432
 21
699.99999631684545
 31
0.0
  0
LINE
  5
2A6
  8
SIZE
  6
CONTINUOUS
 62
    30
 10
644.99999776379366
 20
-699.99999631684148
 30
0.0
 11
1560.2616513236469
 21
-699.99999631684193
 31
0.0
  0
LINE
  5
2A7
  8
SIZE
  6
CONTINUOUS
 62
    30
 10
1444.999997763794
 20
-749.99999631684148
 30
0.0
 11
1560.2616513236469
 21
-749.99999631684148
 31
0.0
  0
LINE
  5
2A8
  8
SIZE
  6
CONTINUOUS
 62
    30
 10
1540.2616513236469
 20
-699.99999631684159
 30
0.0
 11
1540.2616513236469
 21
-749.99999631684148
 31
0.0
  0
LINE
  5
2A9
  8
SIZE
  6
CONTINUOUS
 62
    30
 10
1540.2616513236469
 20
-749.99999631684148
 30
0.0
 11
1540.2616513236469
 21
-877.85713917398402
 31
0.0
  0
CIRCLE
  5
2AA
  8
SIZE
  6
CONTINUOUS
 62
    30
 10
1540.2616513236469
 20
-699.99999631684159
 30
0.0
 40
6.25
  0
CIRCLE
  5
2AB
  8
SIZE
  6
CONTINUOUS
 62
    30
 10
1540.2616513236469
 20
-749.99999631684148
 30
0.0
 40
6.25
  0
TEXT
  5
2AC
  8
SIZE
  6
CONTINUOUS
 62
    30
 10
1525.2616513236469
 20
-862.85713917398425
 30
0.0
 40
50.0
  1
50
 50
90.0
 41
0.9
 72
     1
 11
1525.2616513236469
 21
-826.42856774541269
 31
0.0
  0
POINT
  5
2AD
  8
DEFPOINTS
  6
CONTINUOUS
 62
     7
 10
624.99999776379389
 20
-699.99999631684148
 30
0.0
  0
POINT
  5
2AE
  8
DEFPOINTS
  6
CONTINUOUS
 62
     7
 10
1424.999997763794
 20
-749.99999631684148
 30
0.0
  0
POINT
  5
2AF
  8
DEFPOINTS
  6
CONTINUOUS
 62
     7
 10
1540.2616513236469
 20
-749.99999631684148
 30
0.0
  0
LINE
  5
2B0
  8
SIZE
  6
CONTINUOUS
 62
    30
 10
644.99999776379366
 20
-699.99999631684148
 30
0.0
 11
1560.2616513236469
 21
-699.99999631684193
 31
0.0
  0
LINE
  5
2B1
  8
SIZE
  6
CONTINUOUS
 62
    30
 10
1444.999997763794
 20
-549.99999631684148
 30
0.0
 11
1560.2616513236469
 21
-549.99999631684148
 31
0.0
  0
LINE
  5
2B2
  8
SIZE
  6
CONTINUOUS
 62
    30
 10
1540.2616513236469
 20
-699.99999631684159
 30
0.0
 11
1540.2616513236469
 21
-549.99999631684148
 31
0.0
  0
CIRCLE
  5
2B3
  8
SIZE
  6
CONTINUOUS
 62
    30
 10
1540.2616513236469
 20
-699.99999631684159
 30
0.0
 40
6.25
  0
CIRCLE
  5
2B4
  8
SIZE
  6
CONTINUOUS
 62
    30
 10
1540.2616513236469
 20
-549.99999631684148
 30
0.0
 40
6.25
  0
TEXT
  5
2B5
  8
SIZE
  6
CONTINUOUS
 62
    30
 10
1525.2616513236469
 20
-678.57142488827003
 30
0.0
 40
50.0
  1
150
 50
90.0
 41
0.9
 72
     1
 11
1525.2616513236469
 21
-624.99999631684148
 31
0.0
  0
POINT
  5
2B6
  8
DEFPOINTS
  6
CONTINUOUS
 62
     7
 10
624.99999776379389
 20
-699.99999631684148
 30
0.0
  0
POINT
  5
2B7
  8
DEFPOINTS
  6
CONTINUOUS
 62
     7
 10
1424.999997763794
 20
-549.99999631684148
 30
0.0
  0
POINT
  5
2B8
  8
DEFPOINTS
  6
CONTINUOUS
 62
     7
 10
1540.2616513236469
 20
-549.99999631684148
 30
0.0
  0
LINE
  5
2B9
  8
SIZE
  6
CONTINUOUS
 62
    30
 10
1444.999997763794
 20
-549.99999631684148
 30
0.0
 11
1560.261651323646
 21
-549.99999631684148
 31
0.0
  0
LINE
  5
2BA
  8
SIZE
  6
CONTINUOUS
 62
    30
 10
1444.999997763794
 20
550.0000036831583
 30
0.0
 11
1560.2616513236469
 21
550.0000036831583
 31
0.0
  0
LINE
  5
2BB
  8
SIZE
  6
CONTINUOUS
 62
    30
 10
1540.261651323646
 20
-549.99999631684148
 30
0.0
 11
1540.2616513236469
 21
550.0000036831583
 31
0.0
  0
CIRCLE
  5
2BC
  8
SIZE
  6
CONTINUOUS
 62
    30
 10
1540.261651323646
 20
-549.99999631684148
 30
0.0
 40
6.25
  0
CIRCLE
  5
2BD
  8
SIZE
  6
CONTINUOUS
 62
    30
 10
1540.2616513236469
 20
550.0000036831583
 30
0.0
 40
6.25
  0
TEXT
  5
2BE
  8
SIZE
  6
CONTINUOUS
 62
    30
 10
1525.2616513236469
 20
-70.714282031127041
 30
0.0
 40
50.0
  1
1100
 50
90.0
 41
0.9
 72
     1
 11
1525.2616513236469
 21
0.0000036831586613
 31
0.0
  0
POINT
  5
2BF
  8
DEFPOINTS
  6
CONTINUOUS
 62
     7
 10
1424.999997763794
 20
-549.99999631684148
 30
0.0
  0
POINT
  5
2C0
  8
DEFPOINTS
  6
CONTINUOUS
 62
     7
 10
1424.999997763794
 20
550.0000036831583
 30
0.0
  0
POINT
  5
2C1
  8
DEFPOINTS
  6
CONTINUOUS
 62
     7
 10
1540.2616513236469
 20
550.0000036831583
 30
0.0
  0
TEXT
  5
2C2
  8
NOTE
  6
CONTINUOUS
 62
     4
 10
782.55830825326063
 20
755.40607740388464
 30
0.0
 40
50.0
  1
AH 4-14×30長穴 (M10)
 50
0.0000025044165917
 41
0.7
  7
STANDARD1
  0
LINE
  5
2C3
  8
NOTE
  6
CONTINUOUS
 62
     4
 10
1386.1590007101579
 20
741.72874098012403
 30
0.0
 11
772.88654775524583
 21
741.72874098012403
 31
0.0
  0
LINE
  5
2C4
  8
NOTE
  6
CONTINUOUS
 62
     4
 10
772.88654775524583
 20
741.72874098012403
 30
0.0
 11
662.19999756806317
 21
668.99999647995196
 31
0.0
  0
LINE
  5
2C5
  8
NOTE
  6
CONTINUOUS
 62
     4
 10
662.19999756806317
 20
668.99999647994571
 30
0.0
 11
694.64080280292353
 21
680.3992870589567
 31
0.0
  0
LINE
  5
2C6
  8
NOTE
  6
CONTINUOUS
 62
     4
 10
662.19999756806317
 20
668.99999647994571
 30
0.0
 11
684.59491335099005
 21
695.09247465018871
 31
0.0
  0
LINE
  5
2C7
  8
SIZE
  6
CONTINUOUS
 62
    30
 10
699.999997763794
 20
655.79999665464231
 30
0.0
 11
699.999997763794
 21
1265.599247625179
 31
0.0
  0
LINE
  5
2C8
  8
SIZE
  6
CONTINUOUS
 62
    30
 10
-625.00000000000432
 20
719.99999631684727
 30
0.0
 11
-625.00000000000432
 21
1265.599247625179
 31
0.0
  0
LINE
  5
2C9
  8
SIZE
  6
CONTINUOUS
 62
    30
 10
699.999997763794
 20
1245.599247625179
 30
0.0
 11
-625.00000000000432
 21
1245.599247625179
 31
0.0
  0
CIRCLE
  5
2CA
  8
SIZE
  6
CONTINUOUS
 62
    30
 10
699.999997763794
 20
1245.599247625179
 30
0.0
 40
6.25
  0
CIRCLE
  5
2CB
  8
SIZE
  6
CONTINUOUS
 62
    30
 10
-625.00000000000432
 20
1245.599247625179
 30
0.0
 40
6.25
  0
TEXT
  5
2CC
  8
SIZE
  6
CONTINUOUS
 62
    30
 10
-37.500001118105189
 20
1260.599247625179
 30
0.0
 40
50.0
  1
1325
 41
0.9
 72
     1
 11
37.499998881894783
 21
1260.599247625179
 31
0.0
  0
POINT
  5
2CD
  8
DEFPOINTS
  6
CONTINUOUS
 62
     7
 10
699.999997763794
 20
635.79999665464209
 30
0.0
  0
POINT
  5
2CE
  8
DEFPOINTS
  6
CONTINUOUS
 62
     7
 10
-625.00000000000432
 20
699.9999963168475
 30
0.0
  0
POINT
  5
2CF
  8
DEFPOINTS
  6
CONTINUOUS
 62
     7
 10
-625.00000000000432
 20
1245.599247625179
 30
0.0
  0
LINE
  5
2D0
  8
SIZE
  6
CONTINUOUS
 62
    30
 10
699.999997763794
 20
655.79999665464345
 30
0.0
 11
699.999997763794
 21
1359.792596476663
 31
0.0
  0
LINE
  5
2D1
  8
SIZE
  6
CONTINUOUS
 62
    30
 10
-685.00000447241155
 20
718.99999632210245
 30
0.0
 11
-685.00000447241155
 21
1359.792596476663
 31
0.0
  0
LINE
  5
2D2
  8
SIZE
  6
CONTINUOUS
 62
    30
 10
699.999997763794
 20
1339.792596476663
 30
0.0
 11
-685.00000447241155
 21
1339.792596476663
 31
0.0
  0
CIRCLE
  5
2D3
  8
SIZE
  6
CONTINUOUS
 62
    30
 10
699.999997763794
 20
1339.792596476663
 30
0.0
 40
6.25
  0
CIRCLE
  5
2D4
  8
SIZE
  6
CONTINUOUS
 62
    30
 10
-685.00000447241155
 20
1339.792596476663
 30
0.0
 40
6.25
  0
TEXT
  5
2D5
  8
SIZE
  6
CONTINUOUS
 62
    30
 10
-67.500003354308873
 20
1354.792596476663
 30
0.0
 40
50.0
  1
1385
 41
0.9
 72
     1
 11
7.4999966456911107
 21
1354.792596476663
 31
0.0
  0
POINT
  5
2D6
  8
DEFPOINTS
  6
CONTINUOUS
 62
     7
 10
699.999997763794
 20
635.79999665464368
 30
0.0
  0
POINT
  5
2D7
  8
DEFPOINTS
  6
CONTINUOUS
 62
     7
 10
-685.00000447241155
 20
698.99999632210245
 30
0.0
  0
POINT
  5
2D8
  8
DEFPOINTS
  6
CONTINUOUS
 62
     7
 10
-685.00000447241155
 20
1339.792596476663
 30
0.0
  0
LINE
  5
2D9
  8
SIZE
  6
CONTINUOUS
 62
    30
 10
662.19999756806396
 20
-708.99999637472547
 30
0.0
 11
662.19999756806396
 21
-1325.6782217166451
 31
0.0
  0
LINE
  5
2DA
  8
SIZE
  6
CONTINUOUS
 62
    30
 10
685.19999744704671
 20
-718.99999632210825
 30
0.0
 11
685.19999744704671
 21
-1325.6782217166451
 31
0.0
  0
LINE
  5
2DB
  8
SIZE
  6
CONTINUOUS
 62
    30
 10
662.19999756806396
 20
-1305.6782217166451
 30
0.0
 11
637.19999756806396
 21
-1305.6782217166451
 31
0.0
  0
LINE
  5
2DC
  8
SIZE
  6
CONTINUOUS
 62
    30
 10
685.19999744704671
 20
-1305.6782217166451
 30
0.0
 11
838.0571403041896
 21
-1305.6782217166451
 31
0.0
  0
LINE
  5
2DD
  8
SIZE
  6
CONTINUOUS
 62
    30
 10
662.19999756806396
 20
-1305.6782217166451
 30
0.0
 11
685.19999744704671
 21
-1305.6782217166451
 31
0.0
  0
CIRCLE
  5
2DE
  8
SIZE
  6
CONTINUOUS
 62
    30
 10
662.19999756806396
 20
-1305.6782217166451
 30
0.0
 40
6.25
  0
CIRCLE
  5
2DF
  8
SIZE
  6
CONTINUOUS
 62
    30
 10
685.19999744704671
 20
-1305.6782217166451
 30
0.0
 40
6.25
  0
TEXT
  5
2E0
  8
SIZE
  6
CONTINUOUS
 62
    30
 10
750.19999744704683
 20
-1290.6782217166451
 30
0.0
 40
50.0
  1
23
 41
0.9
 72
     1
 11
786.62856887561827
 21
-1290.6782217166451
 31
0.0
  0
POINT
  5
2E1
  8
DEFPOINTS
  6
CONTINUOUS
 62
     7
 10
662.19999756806396
 20
-688.99999637472536
 30
0.0
  0
POINT
  5
2E2
  8
DEFPOINTS
  6
CONTINUOUS
 62
     7
 10
685.19999744704671
 20
-698.99999632210847
 30
0.0
  0
POINT
  5
2E3
  8
DEFPOINTS
  6
CONTINUOUS
 62
     7
 10
685.19999744704671
 20
-1305.6782217166451
 30
0.0
  0
LINE
  5
2E4
  8
SIZE
  6
CONTINUOUS
 62
    30
 10
662.19999756806396
 20
-708.99999637472547
 30
0.0
 11
662.19999756806396
 21
-1325.6782217166431
 31
0.0
  0
LINE
  5
2E5
  8
SIZE
  6
CONTINUOUS
 62
    30
 10
-662.80000466814329
 20
-708.99999637472445
 30
0.0
 11
-662.80000466814329
 21
-1325.6782217166431
 31
0.0
  0
LINE
  5
2E6
  8
SIZE
  6
CONTINUOUS
 62
    30
 10
662.19999756806396
 20
-1305.6782217166431
 30
0.0
 11
-662.80000466814329
 21
-1305.6782217166431
 31
0.0
  0
CIRCLE
  5
2E7
  8
SIZE
  6
CONTINUOUS
 62
    30
 10
662.19999756806396
 20
-1305.6782217166431
 30
0.0
 40
6.25
  0
CIRCLE
  5
2E8
  8
SIZE
  6
CONTINUOUS
 62
    30
 10
-662.80000466814329
 20
-1305.6782217166431
 30
0.0
 40
6.25
  0
TEXT
  5
2E9
  8
SIZE
  6
CONTINUOUS
 62
    30
 10
-333.72857497861111
 20
-1277.582983621405
 30
0.0
 40
50.0
  1
1325 (吊りボルトピッチ)
 41
0.9
 72
     1
 11
-0.3000035500396052
 21
-1277.582983621405
 31
0.0
  0
POINT
  5
2EA
  8
DEFPOINTS
  6
CONTINUOUS
 62
     7
 10
662.19999756806396
 20
-688.99999637472536
 30
0.0
  0
POINT
  5
2EB
  8
DEFPOINTS
  6
CONTINUOUS
 62
     7
 10
-662.80000466814329
 20
-688.99999637472445
 30
0.0
  0
POINT
  5
2EC
  8
DEFPOINTS
  6
CONTINUOUS
 62
     7
 10
-662.80000466814329
 20
-1305.6782217166431
 30
0.0
  0
LINE
  5
2ED
  8
SIZE
  6
CONTINUOUS
 62
    30
 10
1424.999997763791
 20
-769.99999631684159
 30
0.0
 11
1424.999997763791
 21
-973.12900651260145
 31
0.0
  0
LINE
  5
2EE
  8
SIZE
  6
CONTINUOUS
 62
    30
 10
824.99999776379389
 20
-569.9999963168417
 30
0.0
 11
824.99999776379389
 21
-973.12900651260145
 31
0.0
  0
LINE
  5
2EF
  8
SIZE
  6
CONTINUOUS
 62
    30
 10
1424.999997763791
 20
-953.12900651260134
 30
0.0
 11
824.99999776379389
 21
-953.12900651260134
 31
0.0
  0
CIRCLE
  5
2F0
  8
SIZE
  6
CONTINUOUS
 62
    30
 10
1424.999997763791
 20
-953.12900651260134
 30
0.0
 40
6.25
  0
CIRCLE
  5
2F1
  8
SIZE
  6
CONTINUOUS
 62
    30
 10
824.99999776379389
 20
-953.12900651260134
 30
0.0
 40
6.25
  0
TEXT
  5
2F2
  8
SIZE
  6
CONTINUOUS
 62
    30
 10
1067.1428549066491
 20
-938.12900651260122
 30
0.0
 40
50.0
  1
600
 41
0.9
 72
     1
 11
1124.999997763792
 21
-938.12900651260122
 31
0.0
  0
POINT
  5
2F3
  8
DEFPOINTS
  6
CONTINUOUS
 62
     7
 10
1424.999997763791
 20
-749.99999631684148
 30
0.0
  0
POINT
  5
2F4
  8
DEFPOINTS
  6
CONTINUOUS
 62
     7
 10
824.99999776379389
 20
-549.99999631684148
 30
0.0
  0
POINT
  5
2F5
  8
DEFPOINTS
  6
CONTINUOUS
 62
     7
 10
824.99999776379389
 20
-953.12900651260134
 30
0.0
  0
LINE
  5
2F6
  8
SIZE
  6
CONTINUOUS
 62
    30
 10
674.99999776379389
 20
-769.99999631684159
 30
0.0
 11
674.99999776379389
 21
-1420.4692238433261
 31
0.0
  0
LINE
  5
2F7
  8
SIZE
  6
CONTINUOUS
 62
    30
 10
-675.00000447241155
 20
-769.99999631684068
 30
0.0
 11
-675.00000447241155
 21
-1420.4692238433261
 31
0.0
  0
LINE
  5
2F8
  8
SIZE
  6
CONTINUOUS
 62
    30
 10
674.99999776379389
 20
-1400.4692238433261
 30
0.0
 11
-675.00000447241155
 21
-1400.4692238433261
 31
0.0
  0
CIRCLE
  5
2F9
  8
SIZE
  6
CONTINUOUS
 62
    30
 10
674.99999776379389
 20
-1400.4692238433261
 30
0.0
 40
6.25
  0
CIRCLE
  5
2FA
  8
SIZE
  6
CONTINUOUS
 62
    30
 10
-675.00000447241155
 20
-1400.4692238433261
 30
0.0
 40
6.25
  0
TEXT
  5
2FB
  8
SIZE
  6
CONTINUOUS
 62
    30
 10
-75.00000335430893
 20
-1385.4692238433261
 30
0.0
 40
50.0
  1
1350
 41
0.9
 72
     1
 11
-0.0000033543089444
 21
-1385.4692238433261
 31
0.0
  0
POINT
  5
2FC
  8
DEFPOINTS
  6
CONTINUOUS
 62
     7
 10
674.99999776379389
 20
-749.99999631684148
 30
0.0
  0
POINT
  5
2FD
  8
DEFPOINTS
  6
CONTINUOUS
 62
     7
 10
-675.00000447241155
 20
-749.99999631684068
 30
0.0
  0
POINT
  5
2FE
  8
DEFPOINTS
  6
CONTINUOUS
 62
     7
 10
-675.00000447241155
 20
-1400.4692238433261
 30
0.0
  0
LINE
  5
2FF
  8
SIZE
  6
CONTINUOUS
 62
    30
 10
624.99999776379116
 20
-719.99999631684159
 30
0.0
 11
624.99999776379116
 21
-1191.1203961164499
 31
0.0
  0
LINE
  5
300
  8
SIZE
  6
CONTINUOUS
 62
    30
 10
1424.999997763794
 20
-769.99999631684159
 30
0.0
 11
1424.999997763794
 21
-1191.1203961164499
 31
0.0
  0
LINE
  5
301
  8
SIZE
  6
CONTINUOUS
 62
    30
 10
624.99999776379116
 20
-1171.1203961164499
 30
0.0
 11
1424.999997763794
 21
-1171.1203961164499
 31
0.0
  0
CIRCLE
  5
302
  8
SIZE
  6
CONTINUOUS
 62
    30
 10
624.99999776379116
 20
-1171.1203961164499
 30
0.0
 40
6.25
  0
CIRCLE
  5
303
  8
SIZE
  6
CONTINUOUS
 62
    30
 10
1424.999997763794
 20
-1171.1203961164499
 30
0.0
 40
6.25
  0
TEXT
  5
304
  8
SIZE
  6
CONTINUOUS
 62
    30
 10
912.71428347807773
 20
-1156.1203961164499
 30
0.0
 40
50.0
  1
800以上
 41
0.9
 72
     1
 11
1024.999997763792
 21
-1156.1203961164499
 31
0.0
  0
POINT
  5
305
  8
DEFPOINTS
  6
CONTINUOUS
 62
     7
 10
624.99999776379116
 20
-699.99999631684148
 30
0.0
  0
POINT
  5
306
  8
DEFPOINTS
  6
CONTINUOUS
 62
     7
 10
1424.999997763794
 20
-749.99999631684148
 30
0.0
  0
POINT
  5
307
  8
DEFPOINTS
  6
CONTINUOUS
 62
     7
 10
1424.999997763794
 20
-1171.1203961164499
 30
0.0
  0
LINE
  5
308
  8
SIZE
  6
CONTINUOUS
 62
    30
 10
-625.00000000000591
 20
-719.99999631684079
 30
0.0
 11
-625.00000000000591
 21
-1191.1203961164499
 31
0.0
  0
LINE
  5
309
  8
SIZE
  6
CONTINUOUS
 62
    30
 10
624.99999999999409
 20
-719.99999631684159
 30
0.0
 11
624.99999999999409
 21
-1191.1203961164499
 31
0.0
  0
LINE
  5
30A
  8
SIZE
  6
CONTINUOUS
 62
    30
 10
-625.00000000000591
 20
-1171.1203961164499
 30
0.0
 11
624.99999999999409
 21
-1171.1203961164499
 31
0.0
  0
CIRCLE
  5
30B
  8
SIZE
  6
CONTINUOUS
 62
    30
 10
-625.00000000000591
 20
-1171.1203961164499
 30
0.0
 40
6.25
  0
CIRCLE
  5
30C
  8
SIZE
  6
CONTINUOUS
 62
    30
 10
624.99999999999409
 20
-1171.1203961164499
 30
0.0
 40
6.25
  0
TEXT
  5
30D
  8
SIZE
  6
CONTINUOUS
 62
    30
 10
-171.4285714285773
 20
-1143.0251580212121
 30
0.0
 40
50.0
  1
1250 (本体)
 41
0.9
 72
     1
 11
-0.0000000000059117
 21
-1143.0251580212121
 31
0.0
  0
POINT
  5
30E
  8
DEFPOINTS
  6
CONTINUOUS
 62
     7
 10
-625.00000000000591
 20
-699.99999631684079
 30
0.0
  0
POINT
  5
30F
  8
DEFPOINTS
  6
CONTINUOUS
 62
     7
 10
624.99999999999409
 20
-699.99999631684148
 30
0.0
  0
POINT
  5
310
  8
DEFPOINTS
  6
CONTINUOUS
 62
     7
 10
624.99999999999409
 20
-1171.1203961164499
 30
0.0
  0
LINE
  5
311
  8
NOTE
  6
CONTINUOUS
 62
     4
 10
-106.44999943990339
 20
714.99999623792485
 30
0.0
 11
-93.549999507770309
 21
714.99999623792485
 31
0.0
  0
CIRCLE
  5
312
  8
DETAIL
  6
CONTINUOUS
 62
     5
 10
-99.999999473837789
 20
714.99999623792326
 30
0.0
 40
1.7
  0
LINE
  5
313
  8
NOTE
  6
CONTINUOUS
 62
     4
 10
-99.999999473837789
 20
721.44999620398255
 30
0.0
 11
-99.999999473837789
 21
708.5499962718585
 31
0.0
  0
LINE
  5
314
  8
NOTE
  6
CONTINUOUS
 62
     4
 10
-199.9999989476714
 20
721.44999620398255
 30
0.0
 11
-199.9999989476714
 21
708.5499962718585
 31
0.0
  0
LINE
  5
315
  8
NOTE
  6
CONTINUOUS
 62
     4
 10
-206.4499989137388
 20
714.99999623792485
 30
0.0
 11
-193.54999898160389
 21
714.99999623792485
 31
0.0
  0
CIRCLE
  5
316
  8
DETAIL
  6
CONTINUOUS
 62
     5
 10
-199.9999989476695
 20
714.99999623792326
 30
0.0
 40
1.7
  0
LINE
  5
317
  8
NOTE
  6
CONTINUOUS
 62
     4
 10
93.549999507765691
 20
714.99999623792326
 30
0.0
 11
106.4499994398987
 21
714.99999623792326
 31
0.0
  0
LINE
  5
318
  8
NOTE
  6
CONTINUOUS
 62
     4
 10
199.99999894766671
 20
721.4499962039813
 30
0.0
 11
199.99999894766671
 21
708.54999627185759
 31
0.0
  0
LINE
  5
319
  8
NOTE
  6
CONTINUOUS
 62
     4
 10
193.54999898160111
 20
714.99999623792326
 30
0.0
 11
206.44999891373411
 21
714.99999623792326
 31
0.0
  0
CIRCLE
  5
31A
  8
DETAIL
  6
CONTINUOUS
 62
     5
 10
199.99999894766671
 20
714.99999623792326
 30
0.0
 40
1.7
  0
LINE
  5
31B
  8
NOTE
  6
CONTINUOUS
 62
     4
 10
99.99999947383138
 20
721.4499962039813
 30
0.0
 11
99.99999947383138
 21
708.54999627185759
 31
0.0
  0
CIRCLE
  5
31C
  8
DETAIL
  6
CONTINUOUS
 62
     5
 10
99.99999947383138
 20
714.99999623792326
 30
0.0
 40
1.7
  0
LINE
  5
31D
  8
NOTE
  6
CONTINUOUS
 62
     4
 10
183.5500000865409
 20
-714.99999623791643
 30
0.0
 11
196.45000001867399
 21
-714.99999623791643
 31
0.0
  0
CIRCLE
  5
31E
  8
DETAIL
  6
CONTINUOUS
 62
     5
 10
190.00000005260651
 20
-714.99999623791643
 30
0.0
 40
1.7
  0
LINE
  5
31F
  8
NOTE
  6
CONTINUOUS
 62
     4
 10
190.00000005260841
 20
-708.54999627185941
 30
0.0
 11
190.00000005260841
 21
-721.44999620398335
 31
0.0
  0
LINE
  5
320
  8
NOTE
  6
CONTINUOUS
 62
     4
 10
83.550000612700245
 20
-714.9999962379045
 30
0.0
 11
96.450000544833429
 21
-714.9999962379045
 31
0.0
  0
CIRCLE
  5
321
  8
DETAIL
  6
CONTINUOUS
 62
     5
 10
90.000000578765949
 20
-714.9999962379045
 30
0.0
 40
1.7
  0
LINE
  5
322
  8
NOTE
  6
CONTINUOUS
 62
     4
 10
90.000000578767782
 20
-708.54999627184634
 30
0.0
 11
90.000000578767782
 21
-721.44999620397243
 31
0.0
  0
LINE
  5
323
  8
NOTE
  6
CONTINUOUS
 62
     4
 10
-116.4499993872943
 20
-714.9999962379045
 30
0.0
 11
-103.5499994551612
 21
-714.9999962379045
 31
0.0
  0
CIRCLE
  5
324
  8
DETAIL
  6
CONTINUOUS
 62
     5
 10
-109.99999942122869
 20
-714.9999962379045
 30
0.0
 40
1.7
  0
LINE
  5
325
  8
NOTE
  6
CONTINUOUS
 62
     4
 10
-109.9999994212268
 20
-708.54999627184634
 30
0.0
 11
-109.9999994212268
 21
-721.44999620397243
 31
0.0
  0
LINE
  5
326
  8
NOTE
  6
CONTINUOUS
 62
     4
 10
-216.44999886113681
 20
-714.99999623789245
 30
0.0
 11
-203.54999892900369
 21
-714.99999623789245
 31
0.0
  0
CIRCLE
  5
327
  8
DETAIL
  6
CONTINUOUS
 62
     5
 10
-209.9999988950712
 20
-714.99999623789245
 30
0.0
 40
1.7
  0
LINE
  5
328
  8
NOTE
  6
CONTINUOUS
 62
     4
 10
-209.99999889506941
 20
-708.54999627183452
 30
0.0
 11
-209.99999889506941
 21
-721.44999620395924
 31
0.0
  0
ENDSEC
  0
EOF
