  0
SECTION
  2
HEADER
  9
$ACADVER
  1
AC1009
  9
$INSBASE
 10
0.0
 20
0.0
 30
0.0
  9
$EXTMIN
 10
-1341.308903022039
 20
-1323.331426888898
 30
0.0
  9
$EXTMAX
 10
1464.5488671636549
 20
660.2796068545224
 30
0.0
  9
$LIMMIN
 10
-4267.1522210604826
 20
-2696.083210198412
  9
$LIMMAX
 10
7190.7174225864646
 20
5141.155363923066
  9
$ORTHOMODE
 70
     0
  9
$REGENMODE
 70
     1
  9
$FILLMODE
 70
     1
  9
$QTEXTMODE
 70
     0
  9
$MIRRTEXT
 70
     0
  9
$DRAGMODE
 70
     2
  9
$LTSCALE
 40
20.0
  9
$OSMODE
 70
  3071
  9
$ATTMODE
 70
     1
  9
$TEXTSIZE
 40
64.0
  9
$TRACEWID
 40
0.05
  9
$TEXTSTYLE
  7
NOTE
  9
$CLAYER
  8
SIZE
  9
$CELTYPE
  6
CONTINUOUS
  9
$CECOLOR
 62
     7
  9
$DIMSCALE
 40
1.0
  9
$DIMASZ
 40
25.0
  9
$DIMEXO
 40
20.0
  9
$DIMDLI
 40
80.0
  9
$DIMRND
 40
0.0
  9
$DIMDLE
 40
0.0
  9
$DIMEXE
 40
20.0
  9
$DIMTP
 40
0.0
  9
$DIMTM
 40
0.0
  9
$DIMTXT
 40
50.0
  9
$DIMCEN
 40
0.09
  9
$DIMTSZ
 40
0.0
  9
$DIMTOL
 70
     0
  9
$DIMLIM
 70
     0
  9
$DIMTIH
 70
     0
  9
$DIMTOH
 70
     0
  9
$DIMSE1
 70
     0
  9
$DIMSE2
 70
     0
  9
$DIMTAD
 70
     1
  9
$DIMZIN
 70
     8
  9
$DIMBLK
  1
SMALL
  9
$DIMASO
 70
     1
  9
$DIMSHO
 70
     0
  9
$DIMPOST
  1

  9
$DIMAPOST
  1

  9
$DIMALT
 70
     0
  9
$DIMALTD
 70
     2
  9
$DIMALTF
 40
25.399999999999999
  9
$DIMLFAC
 40
1.0
  9
$DIMTOFL
 70
     1
  9
$DIMTVP
 40
0.0
  9
$DIMTIX
 70
     0
  9
$DIMSOXD
 70
     0
  9
$DIMSAH
 70
     0
  9
$DIMBLK1
  1

  9
$DIMBLK2
  1

  9
$DIMSTYLE
  2
STANDARD
  9
$DIMCLRD
 70
     0
  9
$DIMCLRE
 70
     0
  9
$DIMCLRT
 70
     0
  9
$DIMTFAC
 40
1.0
  9
$DIMGAP
 40
0.09
  9
$LUNITS
 70
     2
  9
$LUPREC
 70
     4
  9
$SKETCHINC
 40
0.1
  9
$FILLETRAD
 40
30.0
  9
$AUNITS
 70
     1
  9
$AUPREC
 70
     3
  9
$MENU
  1
ACAD
  9
$ELEVATION
 40
0.0
  9
$PELEVATION
 40
0.0
  9
$THICKNESS
 40
0.0
  9
$LIMCHECK
 70
     0
  9
$BLIPMODE
 70
     0
  9
$CHAMFERA
 40
0.0
  9
$CHAMFERB
 40
0.0
  9
$SKPOLY
 70
     0
  9
$TDCREATE
 40
2450330.4399309959
  9
$TDUPDATE
 40
2454959.4152259729
  9
$TDINDWG
 40
4.0687831480999996
  9
$TDUSRTIMER
 40
4.0687820718000003
  9
$USRTIMER
 70
     1
  9
$ANGBASE
 50
0.0
  9
$ANGDIR
 70
     0
  9
$PDMODE
 70
     3
  9
$PDSIZE
 40
-2.0
  9
$PLINEWID
 40
0.0
  9
$COORDS
 70
     0
  9
$SPLFRAME
 70
     0
  9
$SPLINETYPE
 70
     6
  9
$SPLINESEGS
 70
     8
  9
$ATTDIA
 70
     0
  9
$ATTREQ
 70
     1
  9
$HANDLING
 70
     1
  9
$HANDSEED
  5
300
  9
$SURFTAB1
 70
     6
  9
$SURFTAB2
 70
     6
  9
$SURFTYPE
 70
     6
  9
$SURFU
 70
     6
  9
$SURFV
 70
     6
  9
$UCSNAME
  2

  9
$UCSORG
 10
0.0
 20
0.0
 30
0.0
  9
$UCSXDIR
 10
1.0
 20
0.0
 30
0.0
  9
$UCSYDIR
 10
0.0
 20
1.0
 30
0.0
  9
$PUCSNAME
  2

  9
$PUCSORG
 10
0.0
 20
0.0
 30
0.0
  9
$PUCSXDIR
 10
1.0
 20
0.0
 30
0.0
  9
$PUCSYDIR
 10
0.0
 20
1.0
 30
0.0
  9
$USERI1
 70
     0
  9
$USERI2
 70
     0
  9
$USERI3
 70
     0
  9
$USERI4
 70
     0
  9
$USERI5
 70
     0
  9
$USERR1
 40
20.0
  9
$USERR2
 40
0.0
  9
$USERR3
 40
0.0
  9
$USERR4
 40
0.0
  9
$USERR5
 40
0.0
  9
$WORLDVIEW
 70
     1
  9
$SHADEDGE
 70
     3
  9
$SHADEDIF
 70
    70
  9
$TILEMODE
 70
     1
  9
$MAXACTVP
 70
    64
  9
$PLIMCHECK
 70
     0
  9
$PEXTMIN
 10
1.0000000000000000E+020
 20
1.0000000000000000E+020
 30
1.0000000000000000E+020
  9
$PEXTMAX
 10
-1.0000000000000000E+020
 20
-1.0000000000000000E+020
 30
-1.0000000000000000E+020
  9
$PLIMMIN
 10
0.0
 20
0.0
  9
$PLIMMAX
 10
12.0
 20
9.0
  9
$UNITMODE
 70
     0
  9
$VISRETAIN
 70
     1
  9
$PLINEGEN
 70
     0
  9
$PSLTSCALE
 70
     1
  0
ENDSEC
  0
SECTION
  2
TABLES
  0
TABLE
  2
VPORT
 70
     1
  0
VPORT
  2
*ACTIVE
 70
     0
 10
0.0
 20
0.0
 11
1.0
 21
1.0
 12
1461.782600762991
 22
1222.536076862327
 13
0.0
 23
0.0
 14
50.0
 24
50.0
 15
100.0
 25
100.0
 16
0.0
 26
0.0
 36
1.0
 17
0.0
 27
0.0
 37
0.0
 40
7898.62686582478
 41
1.533333333333333
 42
50.0
 43
0.0
 44
0.0
 50
0.0
 51
0.0
 71
     0
 72
  1000
 73
     1
 74
     0
 75
     0
 76
     0
 77
     0
 78
     0
  0
ENDTAB
  0
TABLE
  2
LTYPE
 70
     3
  0
LTYPE
  2
CONTINUOUS
 70
     0
  3
実線
 72
    65
 73
     0
 40
0.0
  0
LTYPE
  2
DASHDOT
 70
     0
  3
____ _ ____ _ ____ _ ____ _ ____ _ ____ _ ____
 72
    65
 73
     4
 40
5.5
 49
4.0
 49
-0.6
 49
0.3
 49
-0.6
  0
ENDTAB
  0
TABLE
  2
LAYER
 70
    12
  0
LAYER
  2
0
 70
     0
 62
     7
  6
CONTINUOUS
  0
LAYER
  2
SIZE
 70
     0
 62
    30
  6
CONTINUOUS
  0
LAYER
  2
OUTLINE
 70
     0
 62
     3
  6
CONTINUOUS
  0
LAYER
  2
DETAIL
 70
     0
 62
     5
  6
CONTINUOUS
  0
LAYER
  2
BASIS
 70
     0
 62
     6
  6
DASHDOT
  0
LAYER
  2
NOTE
 70
     0
 62
     4
  6
CONTINUOUS
  0
LAYER
  2
ARRANGE
 70
     0
 62
     1
  6
CONTINUOUS
  0
LAYER
  2
FIX
 70
     0
 62
    11
  6
CONTINUOUS
  0
LAYER
  2
SERVICESPACE
 70
     0
 62
     2
  6
DASHDOT
  0
LAYER
  2
ETC
 70
     0
 62
    61
  6
CONTINUOUS
  0
LAYER
  2
SYMBOLLINE
 70
     0
 62
    15
  6
CONTINUOUS
  0
LAYER
  2
DEFPOINTS
 70
     0
 62
     7
  6
CONTINUOUS
  0
ENDTAB
  0
TABLE
  2
STYLE
 70
     4
  0
STYLE
  2
STANDARD
 70
     0
 40
0.0
 41
0.9
 50
0.0
 71
     0
 42
64.0
  3
SIMPLEX
  4
BIGFONT
  0
STYLE
  2
ANNOTATIVE
 70
     0
 40
0.0
 41
1.0
 50
0.0
 71
     0
 42
0.2
  3
txt
  4

  0
STYLE
  2
NOTE
 70
     0
 40
0.0
 41
0.7
 50
0.0
 71
     0
 42
64.0
  3
SIMPLEX.shx
  4
BIGFONT.shx
  0
STYLE
  2
STANDARD1
 70
     0
 40
0.0
 41
1.0
 50
0.0
 71
     0
 42
64.0
  3
MONOTXT
  4
BIGFONT
  0
ENDTAB
  0
TABLE
  2
VIEW
 70
     7
  0
VIEW
  2
ALL
 70
     0
 40
9000.0
 10
241.50664699999999
 20
0.0
 41
12483.01
 11
0.0
 21
0.0
 31
1.0
 12
0.0
 22
0.0
 32
0.0
 42
50.0
 43
0.0
 44
0.0
 50
0.0
 71
     0
  0
ENDTAB
  0
TABLE
  2
UCS
 70
     0
  0
ENDTAB
  0
TABLE
  2
APPID
 70
     3
  0
APPID
  2
ACAD
 70
     0
  0
APPID
  2
ACADANNOTATIVE
 70
     0
  0
APPID
  2
ACAD_MLEADERVER
 70
     0
  0
ENDTAB
  0
TABLE
  2
DIMSTYLE
 70
     3
  0
DIMSTYLE
  2
STANDARD
 70
     0
  3

  4

  5

  6

  7

 40
1.0
 41
0.18
 42
0.0625
 43
0.38
 44
0.18
 45
0.0
 46
0.0
 47
0.0
 48
0.0
140
0.18
141
0.09
142
0.0
143
25.399999999999999
144
1.0
145
0.0
146
1.0
147
0.09
 71
     0
 72
     0
 73
     1
 74
     1
 75
     0
 76
     0
 77
     0
 78
     0
170
     0
171
     2
172
     0
173
     0
174
     0
175
     0
176
     0
177
     0
178
     0
  0
DIMSTYLE
  2
ANNOTATIVE
 70
     0
  3

  4

  5

  6

  7

 40
1.0
 41
0.18
 42
0.0625
 43
0.38
 44
0.18
 45
0.0
 46
0.0
 47
0.0
 48
0.0
140
0.18
141
0.09
142
0.0
143
25.399999999999999
144
1.0
145
0.0
146
1.0
147
0.09
 71
     0
 72
     0
 73
     1
 74
     1
 75
     0
 76
     0
 77
     0
 78
     0
170
     0
171
     2
172
     0
173
     0
174
     0
175
     0
176
     0
177
     0
178
     0
  0
ENDTAB
  0
ENDSEC
  0
SECTION
  2
BLOCKS
  0
BLOCK
  8
0
  2
$MODEL_SPACE
 70
     0
 10
0.0
 20
0.0
 30
0.0
  3
$MODEL_SPACE
  1

  0
ENDBLK
  5
76
  8
0
  0
BLOCK
 67
     1
  8
0
  2
$PAPER_SPACE
 70
     0
 10
0.0
 20
0.0
 30
0.0
  3
$PAPER_SPACE
  1

  0
ENDBLK
  5
72
 67
     1
  8
0
  0
BLOCK
  8
0
  2
_SMALL
 70
     0
 10
0.0
 20
0.0
 30
0.0
  3
_SMALL
  1

  0
CIRCLE
  5
8D
  8
0
  6
CONTINUOUS
 62
     7
 10
0.0
 20
0.0
 30
0.0
 40
0.25
  0
ENDBLK
  5
8E
  8
0
  0
ENDSEC
  0
SECTION
  2
ENTITIES
  0
LINE
  5
8F
  8
DETAIL
  6
CONTINUOUS
 62
     5
 10
624.99999776379957
 20
-0.000000000001819
 30
0.0
 11
-625.0
 21
-0.000000000001819
 31
0.0
  0
LINE
  5
90
  8
DETAIL
  6
CONTINUOUS
 62
     5
 10
-625.0
 20
-469.99999647469531
 30
0.0
 11
624.99999776379957
 21
-469.99999647469531
 31
0.0
  0
LINE
  5
91
  8
DETAIL
  6
CONTINUOUS
 62
     5
 10
699.99998211039167
 20
-439.99999663254511
 30
0.0
 11
699.99998211039167
 21
-324.52499999999998
 31
0.0
  0
LINE
  5
92
  8
DETAIL
  6
CONTINUOUS
 62
     5
 10
624.99999776379957
 20
-0.000000000001819
 30
0.0
 11
624.99999776379957
 21
-469.99999647469531
 31
0.0
  0
LINE
  5
93
  8
DETAIL
  6
CONTINUOUS
 62
     5
 10
624.99999776379957
 20
-19.999998842439251
 30
0.0
 11
685.19999744705274
 21
-19.999998842439251
 31
0.0
  0
LINE
  5
94
  8
DETAIL
  6
CONTINUOUS
 62
     5
 10
656.69999759701579
 20
-59.999998631973092
 30
0.0
 11
624.99999776379957
 21
-59.999998631973092
 31
0.0
  0
LINE
  5
95
  8
DETAIL
  6
CONTINUOUS
 62
     5
 10
659.14285365590513
 20
-57.599999696923533
 30
0.0
 11
699.99998211039167
 21
-57.599999696923533
 31
0.0
  0
LINE
  5
96
  8
DETAIL
  6
CONTINUOUS
 62
     5
 10
685.19999744705274
 20
-31.999998779296671
 30
0.0
 11
656.69999759701579
 21
-59.999998631973092
 31
0.0
  0
LINE
  5
97
  8
DETAIL
  6
CONTINUOUS
 62
     5
 10
685.19999744705274
 20
-19.999998842439251
 30
0.0
 11
685.19999744705274
 21
-31.999998779296671
 31
0.0
  0
LINE
  5
98
  8
DETAIL
  6
CONTINUOUS
 62
     5
 10
724.99998197884997
 20
-269.48999752970519
 30
0.0
 11
724.99998197884997
 21
-280.50999747171983
 31
0.0
  0
LINE
  5
99
  8
DETAIL
  6
CONTINUOUS
 62
     5
 10
713.96003254323273
 20
-270.23999752575611
 30
0.0
 11
713.96003254323273
 21
-279.75999747566891
 31
0.0
  0
LINE
  5
9A
  8
DETAIL
  6
CONTINUOUS
 62
     5
 10
724.99998197884997
 20
-269.48999752970519
 30
0.0
 11
714.71003253928393
 21
-269.48999752970519
 31
0.0
  0
LINE
  5
9B
  8
DETAIL
  6
CONTINUOUS
 62
     5
 10
724.99998197884997
 20
-280.50999747171983
 30
0.0
 11
714.71003253928393
 21
-280.50999747171983
 31
0.0
  0
LINE
  5
9C
  8
DETAIL
  6
CONTINUOUS
 62
     5
 10
714.71003253928393
 20
-269.48999752970519
 30
0.0
 11
713.96003254323273
 21
-270.23999752575611
 31
0.0
  0
LINE
  5
9D
  8
DETAIL
  6
CONTINUOUS
 62
     5
 10
714.71003253928393
 20
-280.50999747171983
 30
0.0
 11
713.96003254323273
 21
-279.75999747566891
 31
0.0
  0
LINE
  5
9E
  8
DETAIL
  6
CONTINUOUS
 62
     5
 10
699.99998211039167
 20
-439.99999663254511
 30
0.0
 11
649.99998237347233
 21
-439.99999663254511
 31
0.0
  0
LINE
  5
9F
  8
DETAIL
  6
CONTINUOUS
 62
     5
 10
649.99998237347233
 20
-444.99999660623718
 30
0.0
 11
674.49998224456044
 21
-444.99999660623718
 31
0.0
  0
LINE
  5
A0
  8
DETAIL
  6
CONTINUOUS
 62
     5
 10
634.19998245660815
 20
-451.49999762436511
 30
0.0
 11
649.99998237347233
 21
-451.49999762436511
 31
0.0
  0
ARC
  5
A1
  8
DETAIL
  6
CONTINUOUS
 62
     5
 10
674.49998224456249
 20
-442.99999661676202
 30
0.0
 40
1.999999989476724
 50
270.0
 51
0.000000000000007
  0
LINE
  5
A2
  8
DETAIL
  6
CONTINUOUS
 62
     5
 10
676.49998223403577
 20
-442.99999661676202
 30
0.0
 11
676.49998223403577
 21
-439.99999663254511
 31
0.0
  0
LINE
  5
A3
  8
DETAIL
  6
CONTINUOUS
 62
     5
 10
649.99998237347233
 20
-426.5000131405352
 30
0.0
 11
649.99998237347233
 21
-451.49999762436511
 31
0.0
  0
LINE
  5
A4
  8
DETAIL
  6
CONTINUOUS
 62
     5
 10
634.19998245660815
 20
-454.99999655361921
 30
0.0
 11
634.19998245660815
 21
-430.00001206978948
 31
0.0
  0
LINE
  5
A5
  8
DETAIL
  6
CONTINUOUS
 62
     5
 10
624.99999776379957
 20
-454.99999655361921
 30
0.0
 11
634.19998245660815
 21
-454.99999655361921
 31
0.0
  0
LINE
  5
A6
  8
DETAIL
  6
CONTINUOUS
 62
     5
 10
-625.0
 20
-0.000000000001819
 30
0.0
 11
-625.0
 21
-469.99999647469531
 31
0.0
  0
LINE
  5
A7
  8
DETAIL
  6
CONTINUOUS
 62
     5
 10
-685.0000044724037
 20
-19.999998842439251
 30
0.0
 11
-625.0
 21
-19.999998842439251
 31
0.0
  0
LINE
  5
A8
  8
DETAIL
  6
CONTINUOUS
 62
     5
 10
-625.0
 20
-59.999998631973092
 30
0.0
 11
-656.50000462235562
 21
-59.999998631973092
 31
0.0
  0
LINE
  5
A9
  8
DETAIL
  6
CONTINUOUS
 62
     5
 10
-656.50000462235562
 20
-59.999998631973092
 30
0.0
 11
-685.0000044724037
 21
-31.999998779296671
 31
0.0
  0
LINE
  5
AA
  8
DETAIL
  6
CONTINUOUS
 62
     5
 10
-685.0000044724037
 20
-31.999998779296671
 30
0.0
 11
-685.0000044724037
 21
-19.999998842439251
 31
0.0
  0
LINE
  5
AB
  8
NOTE
  6
CONTINUOUS
 62
     4
 10
649.99998237347233
 20
-452.4999976191034
 30
0.0
 11
649.99998237347233
 21
-417.49999780326141
 31
0.0
  0
LINE
  5
AC
  8
NOTE
  6
CONTINUOUS
 62
     4
 10
632.49998246555333
 20
-434.99999771118229
 30
0.0
 11
667.49998228139498
 21
-434.99999771118229
 31
0.0
  0
LINE
  5
AD
  8
DETAIL
  6
CONTINUOUS
 62
     5
 10
709.52448224527325
 20
-320.76016894619931
 30
0.0
 11
705.74890697904073
 21
-324.52499999999998
 31
0.0
  0
LINE
  5
AE
  8
DETAIL
  6
CONTINUOUS
 62
     5
 10
705.74890697904073
 20
-305.47500000000002
 30
0.0
 11
705.74890697904073
 21
-324.52499999999998
 31
0.0
  0
LINE
  5
AF
  8
DETAIL
  6
CONTINUOUS
 62
     5
 10
724.99998197884997
 20
-308.91999833274491
 30
0.0
 11
710.07844302635931
 21
-308.91999833274491
 31
0.0
  0
LINE
  5
B0
  8
DETAIL
  6
CONTINUOUS
 62
     5
 10
724.99998197884997
 20
-321.0799983523151
 30
0.0
 11
710.07844302635931
 21
-321.0799983523151
 31
0.0
  0
LINE
  5
B1
  8
DETAIL
  6
CONTINUOUS
 62
     5
 10
710.07844302635931
 20
-308.91999833274491
 30
0.0
 11
709.52448224527325
 21
-309.23982773886138
 31
0.0
  0
LINE
  5
B2
  8
DETAIL
  6
CONTINUOUS
 62
     5
 10
724.99998197884997
 20
-308.91999833274491
 30
0.0
 11
724.99998197884997
 21
-321.0799983523151
 31
0.0
  0
LINE
  5
B3
  8
DETAIL
  6
CONTINUOUS
 62
     5
 10
709.52448224527325
 20
-309.23982773886138
 30
0.0
 11
709.52448224527325
 21
-320.76016894619931
 31
0.0
  0
LINE
  5
B4
  8
DETAIL
  6
CONTINUOUS
 62
     5
 10
709.52448224527325
 20
-309.23982773886138
 30
0.0
 11
705.74890697904073
 21
-305.47500000000002
 31
0.0
  0
LINE
  5
B5
  8
DETAIL
  6
CONTINUOUS
 62
     5
 10
710.07844302635931
 20
-321.0799983523151
 30
0.0
 11
709.52448224527325
 21
-320.76016894619931
 31
0.0
  0
LINE
  5
B6
  8
NOTE
  6
CONTINUOUS
 62
     4
 10
724.99998197884997
 20
-332.49999825050168
 30
0.0
 11
724.99998197884997
 21
-297.49999843465991
 31
0.0
  0
LINE
  5
B7
  8
NOTE
  6
CONTINUOUS
 62
     4
 10
724.99998197884997
 20
-332.49999825050168
 30
0.0
 11
724.99998197884997
 21
-297.49999843465991
 31
0.0
  0
LINE
  5
B8
  8
NOTE
  6
CONTINUOUS
 62
     4
 10
707.49998207092881
 20
-314.9999983425808
 30
0.0
 11
742.49998188677091
 21
-314.9999983425808
 31
0.0
  0
LINE
  5
B9
  8
NOTE
  6
CONTINUOUS
 62
     4
 10
707.49998207092881
 20
-314.9999983425808
 30
0.0
 11
742.49998188677091
 21
-314.9999983425808
 31
0.0
  0
LINE
  5
BA
  8
NOTE
  6
CONTINUOUS
 62
     4
 10
724.99998197884997
 20
-292.49999740863359
 30
0.0
 11
724.99998197884997
 21
-257.4999975927916
 31
0.0
  0
LINE
  5
BB
  8
NOTE
  6
CONTINUOUS
 62
     4
 10
707.49998207092881
 20
-274.9999975007126
 30
0.0
 11
742.49998188677091
 21
-274.9999975007126
 31
0.0
  0
LINE
  5
BC
  8
DETAIL
  6
CONTINUOUS
 62
     5
 10
724.99998197884997
 20
-182.19473904136009
 30
0.0
 11
724.99998197884997
 21
-197.8052589592138
 31
0.0
  0
LINE
  5
BD
  8
DETAIL
  6
CONTINUOUS
 62
     5
 10
724.99998197884997
 20
-182.19473904136009
 30
0.0
 11
724.99998197884997
 21
-197.8052589592138
 31
0.0
  0
LINE
  5
BE
  8
DETAIL
  6
CONTINUOUS
 62
     5
 10
704.43998208703294
 20
-181.04713040784949
 30
0.0
 11
704.43998208703294
 21
-198.9528675927061
 31
0.0
  0
LINE
  5
BF
  8
DETAIL
  6
CONTINUOUS
 62
     5
 10
714.99998203146595
 20
-181.20118094410589
 30
0.0
 11
714.99998203146595
 21
-198.79881705644971
 31
0.0
  0
LINE
  5
C0
  8
DETAIL
  6
CONTINUOUS
 62
     5
 10
708.27998206682969
 20
-181.20118094410589
 30
0.0
 11
708.27998206682969
 21
-198.79881705644971
 31
0.0
  0
LINE
  5
C1
  8
DETAIL
  6
CONTINUOUS
 62
     5
 10
714.99998203146595
 20
-181.8822390430044
 30
0.0
 11
724.99998197884997
 21
-182.19473904136009
 31
0.0
  0
LINE
  5
C2
  8
DETAIL
  6
CONTINUOUS
 62
     5
 10
713.99998203672271
 20
-179.46913014565081
 30
0.0
 11
714.99998203146595
 21
-181.20118094410589
 31
0.0
  0
LINE
  5
C3
  8
DETAIL
  6
CONTINUOUS
 62
     5
 10
702.43998209755955
 20
-179.8924298755523
 30
0.0
 11
704.43998208703294
 21
-181.04713040784949
 31
0.0
  0
LINE
  5
C4
  8
DETAIL
  6
CONTINUOUS
 62
     5
 10
708.27998206682969
 20
-181.8822390430044
 30
0.0
 11
704.43998208703294
 21
-182.00223904237041
 31
0.0
  0
LINE
  5
C5
  8
DETAIL
  6
CONTINUOUS
 62
     5
 10
713.99998203672271
 20
-179.46913014565081
 30
0.0
 11
709.2799820615619
 21
-179.46913014565081
 31
0.0
  0
LINE
  5
C6
  8
DETAIL
  6
CONTINUOUS
 62
     5
 10
709.2799820615619
 20
-179.46913014565081
 30
0.0
 11
708.27998206682969
 21
-181.20118094410589
 31
0.0
  0
LINE
  5
C7
  8
DETAIL
  6
CONTINUOUS
 62
     5
 10
714.99998203146595
 20
-198.1177589575604
 30
0.0
 11
724.99998197884997
 21
-197.8052589592138
 31
0.0
  0
LINE
  5
C8
  8
DETAIL
  6
CONTINUOUS
 62
     5
 10
713.99998203672271
 20
-200.53086785491399
 30
0.0
 11
714.99998203146595
 21
-198.79881705644971
 31
0.0
  0
LINE
  5
C9
  8
DETAIL
  6
CONTINUOUS
 62
     5
 10
702.43998209755955
 20
-200.1075681250035
 30
0.0
 11
704.43998208703294
 21
-198.9528675927061
 31
0.0
  0
LINE
  5
CA
  8
DETAIL
  6
CONTINUOUS
 62
     5
 10
708.27998206682969
 20
-198.1177589575604
 30
0.0
 11
704.43998208703294
 21
-197.99775895819531
 31
0.0
  0
LINE
  5
CB
  8
DETAIL
  6
CONTINUOUS
 62
     5
 10
709.27998206157088
 20
-200.53086785491399
 30
0.0
 11
713.99998203672271
 21
-200.53086785491399
 31
0.0
  0
LINE
  5
CC
  8
DETAIL
  6
CONTINUOUS
 62
     5
 10
709.27998206157088
 20
-200.53086785491399
 30
0.0
 11
708.27998206682969
 21
-198.79881705644971
 31
0.0
  0
LINE
  5
CD
  8
NOTE
  6
CONTINUOUS
 62
     4
 10
724.99998197884997
 20
-207.49999890820831
 30
0.0
 11
724.99998197884997
 21
-172.49999909236649
 31
0.0
  0
LINE
  5
CE
  8
NOTE
  6
CONTINUOUS
 62
     4
 10
707.49998207092881
 20
-189.99999900028749
 30
0.0
 11
742.49998188677091
 21
-189.99999900028749
 31
0.0
  0
LINE
  5
CF
  8
NOTE
  6
CONTINUOUS
 62
     4
 10
724.99998197884997
 20
-189.99999900028661
 30
0.0
 11
724.99998197884997
 21
-189.99999900028661
 31
0.0
  0
LINE
  5
D0
  8
SERVICESPACE
  6
DASHDOT
 62
     2
 10
1424.9999977637999
 20
19.999999999998181
 30
0.0
 11
1424.9999977637999
 21
-489.999997527022
 31
0.0
  0
LINE
  5
D1
  8
SERVICESPACE
  6
DASHDOT
 62
     2
 10
624.99999776379957
 20
-0.000000000001819
 30
0.0
 11
-675.00000447240359
 21
-0.0000000000018048
 31
0.0
  0
LINE
  5
D2
  8
SERVICESPACE
  6
DASHDOT
 62
     2
 10
-675.00000447240359
 20
-0.000000000001819
 30
0.0
 11
-675.00000447240359
 21
19.999999999998181
 31
0.0
  0
LINE
  5
D3
  8
SERVICESPACE
  6
DASHDOT
 62
     2
 10
-675.00000447240359
 20
19.999999999998192
 30
0.0
 11
1424.9999977637999
 21
19.999999999998192
 31
0.0
  0
LINE
  5
D4
  8
SERVICESPACE
  6
DASHDOT
 62
     2
 10
1424.9999977637999
 20
-489.999997527022
 30
0.0
 11
-675.00000447240359
 21
-489.999997527022
 31
0.0
  0
LINE
  5
D5
  8
SERVICESPACE
  6
DASHDOT
 62
     2
 10
-675.00000447240359
 20
-489.999997527022
 30
0.0
 11
-675.00000447240359
 21
-469.99999752702212
 31
0.0
  0
LINE
  5
D6
  8
SERVICESPACE
  6
DASHDOT
 62
     2
 10
-675.00000447240359
 20
-469.99999752702212
 30
0.0
 11
1424.9999977637999
 21
-469.99999752702212
 31
0.0
  0
LINE
  5
D7
  8
SERVICESPACE
  6
DASHDOT
 62
     2
 10
824.99999776379991
 20
-469.99999752702212
 30
0.0
 11
824.99999776379991
 21
-489.999997527022
 31
0.0
  0
LINE
  5
D8
  8
SERVICESPACE
  6
DASHDOT
 62
     2
 10
824.99999776379991
 20
-489.999997527022
 30
0.0
 11
1424.9999977637999
 21
-469.99999752702212
 31
0.0
  0
LINE
  5
D9
  8
SERVICESPACE
  6
DASHDOT
 62
     2
 10
1424.9999977637999
 20
-489.999997527022
 30
0.0
 11
824.99999776379991
 21
-469.99999752702212
 31
0.0
  0
TEXT
  5
DA
  8
NOTE
  6
CONTINUOUS
 62
     4
 10
1068.3479992742671
 20
-549.48272556178836
 30
0.0
 40
50.0
  1
点検口
 50
359.99999749558327
 41
0.7031250221965211
  7
STANDARD1
  0
TEXT
  5
DB
  8
NOTE
  6
CONTINUOUS
 62
     4
 10
58.851925650549681
 20
24.789119647663931
 30
0.0
 40
50.0
  1
サービススペース
 50
359.99999749558327
 41
0.7031250221965211
  7
STANDARD1
  0
LINE
  5
DC
  8
NOTE
  6
CONTINUOUS
 62
     4
 10
-662.80000466813522
 20
-39.999998737207527
 30
0.0
 11
-662.80000466813522
 21
0.0000010523262972
 31
0.0
  0
LINE
  5
DD
  8
NOTE
  6
CONTINUOUS
 62
     4
 10
-682.80000456290111
 20
-19.999998842440611
 30
0.0
 11
-642.80000477336921
 21
-19.999998842440611
 31
0.0
  0
LINE
  5
DE
  8
NOTE
  6
CONTINUOUS
 62
     4
 10
662.1999975680701
 20
-39.99999873720661
 30
0.0
 11
662.1999975680701
 21
0.0000010523272067
 31
0.0
  0
LINE
  5
DF
  8
NOTE
  6
CONTINUOUS
 62
     4
 10
642.19999767330216
 20
-19.999998842439702
 30
0.0
 11
682.19999746283611
 21
-19.999998842439702
 31
0.0
  0
CIRCLE
  5
E0
  8
FIX
  6
CONTINUOUS
 62
    11
 10
-662.80000466813362
 20
-19.999998842439702
 30
0.0
 40
16.155115914013201
  0
CIRCLE
  5
E1
  8
FIX
  6
CONTINUOUS
 62
    11
 10
662.1999975680701
 20
-19.999998842439702
 30
0.0
 40
16.155115914013201
  0
LINE
  5
E2
  8
SIZE
  6
CONTINUOUS
 62
    30
 10
-586.45000030806841
 20
-305.00001951452532
 30
0.0
 11
-738.98537783398206
 21
-305.00001951452521
 31
0.0
  0
LINE
  5
E3
  8
SIZE
  6
CONTINUOUS
 62
    30
 10
-580.0000003420007
 20
-355.00001912854202
 30
0.0
 11
-738.98537783398206
 21
-355.00001912854202
 31
0.0
  0
LINE
  5
E4
  8
SIZE
  6
CONTINUOUS
 62
    30
 10
-718.98537783398228
 20
-305.00001951452521
 30
0.0
 11
-718.98537783398228
 21
-355.00001912854202
 31
0.0
  0
LINE
  5
E5
  8
SIZE
  6
CONTINUOUS
 62
    30
 10
-718.98537783398228
 20
-355.00001912854202
 30
0.0
 11
-718.98537783398228
 21
-586.06127579681981
 31
0.0
  0
CIRCLE
  5
E6
  8
SIZE
  6
CONTINUOUS
 62
    30
 10
-718.98537783398228
 20
-305.00001951452521
 30
0.0
 40
6.25
  0
CIRCLE
  5
E7
  8
SIZE
  6
CONTINUOUS
 62
    30
 10
-718.98537783398228
 20
-355.00001912854202
 30
0.0
 40
6.25
  0
TEXT
  5
E8
  8
SIZE
  6
CONTINUOUS
 62
    30
 10
-733.98537783398194
 20
-571.06127579681981
 30
0.0
 40
50.0
  1
50
 50
90.0
 41
0.9
 72
     1
 11
-733.98537783398194
 21
-534.63270436824826
 31
0.0
  0
POINT
  5
E9
  8
DEFPOINTS
  6
CONTINUOUS
 62
     7
 10
-566.45000030806841
 20
-305.00001951452532
 30
0.0
  0
POINT
  5
EA
  8
DEFPOINTS
  6
CONTINUOUS
 62
     7
 10
-560.00000034200093
 20
-355.00001912854202
 30
0.0
  0
POINT
  5
EB
  8
DEFPOINTS
  6
CONTINUOUS
 62
     7
 10
-718.98537783398228
 20
-355.00001912854202
 30
0.0
  0
LINE
  5
EC
  8
SIZE
  6
CONTINUOUS
 62
    30
 10
-586.45000030806841
 20
-305.00001951452532
 30
0.0
 11
-738.98537783398206
 21
-305.00001951452521
 31
0.0
  0
LINE
  5
ED
  8
SIZE
  6
CONTINUOUS
 62
    30
 10
-586.45000030806841
 20
-105.00002022129711
 30
0.0
 11
-738.98537783398194
 21
-105.00002022129711
 31
0.0
  0
LINE
  5
EE
  8
SIZE
  6
CONTINUOUS
 62
    30
 10
-718.98537783398228
 20
-305.00001951452521
 30
0.0
 11
-718.98537783398194
 21
-105.00002022129711
 31
0.0
  0
CIRCLE
  5
EF
  8
SIZE
  6
CONTINUOUS
 62
    30
 10
-718.98537783398228
 20
-305.00001951452521
 30
0.0
 40
6.25
  0
CIRCLE
  5
F0
  8
SIZE
  6
CONTINUOUS
 62
    30
 10
-718.98537783398194
 20
-105.00002022129711
 30
0.0
 40
6.25
  0
TEXT
  5
F1
  8
SIZE
  6
CONTINUOUS
 62
    30
 10
-733.98537783398194
 20
-262.85716272505402
 30
0.0
 40
50.0
  1
200
 50
90.0
 41
0.9
 72
     1
 11
-733.98537783398194
 21
-205.00001986791119
 31
0.0
  0
POINT
  5
F2
  8
DEFPOINTS
  6
CONTINUOUS
 62
     7
 10
-566.45000030806841
 20
-305.00001951452532
 30
0.0
  0
POINT
  5
F3
  8
DEFPOINTS
  6
CONTINUOUS
 62
     7
 10
-566.45000030806841
 20
-105.00002022129711
 30
0.0
  0
POINT
  5
F4
  8
DEFPOINTS
  6
CONTINUOUS
 62
     7
 10
-718.98537783398194
 20
-105.00002022129711
 30
0.0
  0
TEXT
  5
F5
  8
SIZE
  6
CONTINUOUS
 62
    30
 10
-793.18887311692015
 20
-312.75109802771772
 30
0.0
 40
50.0
  1
100×2=
 50
89.999997495583386
 41
0.7031250221965211
  7
STANDARD1
  0
LINE
  5
F6
  8
SIZE
  6
CONTINUOUS
 62
    30
 10
-580.0000003420007
 20
-355.00001912854202
 30
0.0
 11
-977.25982299193117
 21
-355.00001912854202
 31
0.0
  0
LINE
  5
F7
  8
SIZE
  6
CONTINUOUS
 62
    30
 10
-580.0000003420007
 20
-55.000020811934959
 30
0.0
 11
-977.25982299193117
 21
-55.000020811934853
 31
0.0
  0
LINE
  5
F8
  8
SIZE
  6
CONTINUOUS
 62
    30
 10
-957.25982299193129
 20
-355.00001912854202
 30
0.0
 11
-957.25982299193129
 21
-55.000020811934853
 31
0.0
  0
CIRCLE
  5
F9
  8
SIZE
  6
CONTINUOUS
 62
    30
 10
-957.25982299193129
 20
-355.00001912854202
 30
0.0
 40
6.25
  0
CIRCLE
  5
FA
  8
SIZE
  6
CONTINUOUS
 62
    30
 10
-957.25982299193129
 20
-55.000020811934853
 30
0.0
 40
6.25
  0
TEXT
  5
FB
  8
SIZE
  6
CONTINUOUS
 62
    30
 10
-972.25982299193129
 20
-262.85716282738139
 30
0.0
 40
50.0
  1
300
 50
90.0
 41
0.9
 72
     1
 11
-972.25982299193129
 21
-205.00001997023861
 31
0.0
  0
POINT
  5
FC
  8
DEFPOINTS
  6
CONTINUOUS
 62
     7
 10
-560.00000034200093
 20
-355.00001912854202
 30
0.0
  0
POINT
  5
FD
  8
DEFPOINTS
  6
CONTINUOUS
 62
     7
 10
-560.00000034200093
 20
-55.000020811934959
 30
0.0
  0
POINT
  5
FE
  8
DEFPOINTS
  6
CONTINUOUS
 62
     7
 10
-957.25982299193129
 20
-55.000020811934853
 30
0.0
  0
LINE
  5
FF
  8
SIZE
  6
CONTINUOUS
 62
    30
 10
-580.0000003420007
 20
-355.00001912854202
 30
0.0
 11
-977.25982299193117
 21
-355.00001912854202
 31
0.0
  0
LINE
  5
100
  8
SIZE
  6
CONTINUOUS
 62
    30
 10
-645.0
 20
-469.99999647469508
 30
0.0
 11
-977.25982299193117
 21
-469.99999647469508
 31
0.0
  0
LINE
  5
101
  8
SIZE
  6
CONTINUOUS
 62
    30
 10
-957.25982299193129
 20
-355.00001912854202
 30
0.0
 11
-957.25982299193129
 21
-469.99999647469508
 31
0.0
  0
LINE
  5
102
  8
SIZE
  6
CONTINUOUS
 62
    30
 10
-957.25982299193129
 20
-469.99999647469508
 30
0.0
 11
-957.25982299193129
 21
-623.57142504612375
 31
0.0
  0
CIRCLE
  5
103
  8
SIZE
  6
CONTINUOUS
 62
    30
 10
-957.25982299193129
 20
-355.00001912854202
 30
0.0
 40
6.25
  0
CIRCLE
  5
104
  8
SIZE
  6
CONTINUOUS
 62
    30
 10
-957.25982299193129
 20
-469.99999647469508
 30
0.0
 40
6.25
  0
TEXT
  5
105
  8
SIZE
  6
CONTINUOUS
 62
    30
 10
-972.25982299193129
 20
-608.57142504612409
 30
0.0
 40
50.0
  1
115
 50
90.0
 41
0.9
 72
     1
 11
-972.25982299193129
 21
-559.28571076040976
 31
0.0
  0
POINT
  5
106
  8
DEFPOINTS
  6
CONTINUOUS
 62
     7
 10
-560.00000034200093
 20
-355.00001912854202
 30
0.0
  0
POINT
  5
107
  8
DEFPOINTS
  6
CONTINUOUS
 62
     7
 10
-625.0
 20
-469.99999647469531
 30
0.0
  0
POINT
  5
108
  8
DEFPOINTS
  6
CONTINUOUS
 62
     7
 10
-957.25982299193129
 20
-469.99999647469508
 30
0.0
  0
LINE
  5
109
  8
SIZE
  6
CONTINUOUS
 62
    30
 10
-645.0
 20
-469.99999647469508
 30
0.0
 11
-1082.0000672025631
 21
-469.99999647469508
 31
0.0
  0
LINE
  5
10A
  8
SIZE
  6
CONTINUOUS
 62
    30
 10
-645.0
 20
-0.0000000000017991
 30
0.0
 11
-1082.0000672025631
 21
-0.0000000000016753
 31
0.0
  0
LINE
  5
10B
  8
SIZE
  6
CONTINUOUS
 62
    30
 10
-1062.0000672025631
 20
-469.99999647469508
 30
0.0
 11
-1062.0000672025631
 21
-0.000000000001681
 31
0.0
  0
CIRCLE
  5
10C
  8
SIZE
  6
CONTINUOUS
 62
    30
 10
-1062.0000672025631
 20
-469.99999647469508
 30
0.0
 40
6.25
  0
CIRCLE
  5
10D
  8
SIZE
  6
CONTINUOUS
 62
    30
 10
-1062.0000672025631
 20
-0.000000000001681
 30
0.0
 40
6.25
  0
TEXT
  5
10E
  8
SIZE
  6
CONTINUOUS
 62
    30
 10
-1077.0000672025631
 20
-292.8571410944914
 30
0.0
 40
50.0
  1
470
 50
90.0
 41
0.9
 72
     1
 11
-1077.0000672025631
 21
-234.99999823734859
 31
0.0
  0
POINT
  5
10F
  8
DEFPOINTS
  6
CONTINUOUS
 62
     7
 10
-625.0
 20
-469.99999647469531
 30
0.0
  0
POINT
  5
110
  8
DEFPOINTS
  6
CONTINUOUS
 62
     7
 10
-625.0
 20
-0.0000000000018048
 30
0.0
  0
POINT
  5
111
  8
DEFPOINTS
  6
CONTINUOUS
 62
     7
 10
-1062.0000672025631
 20
-0.000000000001681
 30
0.0
  0
LINE
  5
112
  8
SIZE
  6
CONTINUOUS
 62
    30
 10
687.49998228139509
 20
-434.99999771118229
 30
0.0
 11
821.25294684466292
 21
-434.99999771118229
 31
0.0
  0
LINE
  5
113
  8
SIZE
  6
CONTINUOUS
 62
    30
 10
644.99999776379991
 20
-469.99999647469531
 30
0.0
 11
821.25294684466292
 21
-469.99999647469531
 31
0.0
  0
LINE
  5
114
  8
SIZE
  6
CONTINUOUS
 62
    30
 10
801.25294684466269
 20
-434.99999771118229
 30
0.0
 11
801.25294684466269
 21
-469.99999647469531
 31
0.0
  0
LINE
  5
115
  8
SIZE
  6
CONTINUOUS
 62
    30
 10
801.25294684466269
 20
-469.99999647469531
 30
0.0
 11
801.25294684466269
 21
-597.85713933183808
 31
0.0
  0
CIRCLE
  5
116
  8
SIZE
  6
CONTINUOUS
 62
    30
 10
801.25294684466269
 20
-434.99999771118229
 30
0.0
 40
6.25
  0
CIRCLE
  5
117
  8
SIZE
  6
CONTINUOUS
 62
    30
 10
801.25294684466269
 20
-469.99999647469531
 30
0.0
 40
6.25
  0
TEXT
  5
118
  8
SIZE
  6
CONTINUOUS
 62
    30
 10
786.25294684466292
 20
-582.85713933183786
 30
0.0
 40
50.0
  1
35
 50
90.0
 41
0.9
 72
     1
 11
786.25294684466292
 21
-546.42856790326653
 31
0.0
  0
POINT
  5
119
  8
DEFPOINTS
  6
CONTINUOUS
 62
     7
 10
667.49998228139498
 20
-434.99999771118229
 30
0.0
  0
POINT
  5
11A
  8
DEFPOINTS
  6
CONTINUOUS
 62
     7
 10
624.99999776379957
 20
-469.99999647469531
 30
0.0
  0
POINT
  5
11B
  8
DEFPOINTS
  6
CONTINUOUS
 62
     7
 10
801.25294684466269
 20
-469.99999647469531
 30
0.0
  0
LINE
  5
11C
  8
SIZE
  6
CONTINUOUS
 62
    30
 10
644.99999776379991
 20
-469.99999647469531
 30
0.0
 11
953.66906694149986
 21
-469.99999647469531
 31
0.0
  0
LINE
  5
11D
  8
SIZE
  6
CONTINUOUS
 62
    30
 10
762.49998188677091
 20
-314.9999983425808
 30
0.0
 11
953.66906694149986
 21
-314.99999834258091
 31
0.0
  0
LINE
  5
11E
  8
SIZE
  6
CONTINUOUS
 62
    30
 10
933.6690669415002
 20
-469.99999647469531
 30
0.0
 11
933.6690669415002
 21
-314.99999834258091
 31
0.0
  0
CIRCLE
  5
11F
  8
SIZE
  6
CONTINUOUS
 62
    30
 10
933.6690669415002
 20
-469.99999647469531
 30
0.0
 40
6.25
  0
CIRCLE
  5
120
  8
SIZE
  6
CONTINUOUS
 62
    30
 10
933.6690669415002
 20
-314.99999834258091
 30
0.0
 40
6.25
  0
TEXT
  5
121
  8
SIZE
  6
CONTINUOUS
 62
    30
 10
918.6690669415002
 20
-446.07142598006658
 30
0.0
 40
50.0
  1
155
 50
90.0
 41
0.9
 72
     1
 11
918.6690669415002
 21
-392.49999740863808
 31
0.0
  0
POINT
  5
122
  8
DEFPOINTS
  6
CONTINUOUS
 62
     7
 10
624.99999776379957
 20
-469.99999647469531
 30
0.0
  0
POINT
  5
123
  8
DEFPOINTS
  6
CONTINUOUS
 62
     7
 10
742.49998188677091
 20
-314.9999983425808
 30
0.0
  0
POINT
  5
124
  8
DEFPOINTS
  6
CONTINUOUS
 62
     7
 10
933.6690669415002
 20
-314.99999834258091
 30
0.0
  0
LINE
  5
125
  8
SIZE
  6
CONTINUOUS
 62
    30
 10
762.49998188677091
 20
-314.9999983425808
 30
0.0
 11
953.66906694149986
 21
-314.99999834258091
 31
0.0
  0
LINE
  5
126
  8
SIZE
  6
CONTINUOUS
 62
    30
 10
762.49998188677091
 20
-274.9999975007126
 30
0.0
 11
953.66906694149986
 21
-274.99999750071271
 31
0.0
  0
LINE
  5
127
  8
SIZE
  6
CONTINUOUS
 62
    30
 10
933.66906694149998
 20
-314.99999834258091
 30
0.0
 11
933.66906694149998
 21
-274.99999750071271
 31
0.0
  0
LINE
  5
128
  8
SIZE
  6
CONTINUOUS
 62
    30
 10
933.66906694149998
 20
-274.99999750071271
 30
0.0
 11
933.6690669415002
 21
-67.999170290817617
 31
0.0
  0
CIRCLE
  5
129
  8
SIZE
  6
CONTINUOUS
 62
    30
 10
933.66906694149998
 20
-314.99999834258091
 30
0.0
 40
6.25
  0
CIRCLE
  5
12A
  8
SIZE
  6
CONTINUOUS
 62
    30
 10
933.66906694149998
 20
-274.99999750071271
 30
0.0
 40
6.25
  0
TEXT
  5
12B
  8
SIZE
  6
CONTINUOUS
 62
    30
 10
918.6690669415002
 20
-155.85631314796029
 30
0.0
 40
50.0
  1
40
 50
90.0
 41
0.9
 72
     1
 11
918.6690669415002
 21
-119.42774171938891
 31
0.0
  0
POINT
  5
12C
  8
DEFPOINTS
  6
CONTINUOUS
 62
     7
 10
742.49998188677091
 20
-314.9999983425808
 30
0.0
  0
POINT
  5
12D
  8
DEFPOINTS
  6
CONTINUOUS
 62
     7
 10
742.49998188677091
 20
-274.9999975007126
 30
0.0
  0
POINT
  5
12E
  8
DEFPOINTS
  6
CONTINUOUS
 62
     7
 10
933.66906694149998
 20
-274.99999750071271
 30
0.0
  0
LINE
  5
12F
  8
SIZE
  6
CONTINUOUS
 62
    30
 10
644.99999776379991
 20
-469.99999647469531
 30
0.0
 11
1050.509795146095
 21
-469.99999647469531
 31
0.0
  0
LINE
  5
130
  8
SIZE
  6
CONTINUOUS
 62
    30
 10
762.49998188677091
 20
-189.99999900028749
 30
0.0
 11
1050.509795146095
 21
-189.9999990002876
 31
0.0
  0
LINE
  5
131
  8
SIZE
  6
CONTINUOUS
 62
    30
 10
1030.509795146095
 20
-469.99999647469531
 30
0.0
 11
1030.509795146095
 21
-189.9999990002876
 31
0.0
  0
CIRCLE
  5
132
  8
SIZE
  6
CONTINUOUS
 62
    30
 10
1030.509795146095
 20
-469.99999647469531
 30
0.0
 40
6.25
  0
CIRCLE
  5
133
  8
SIZE
  6
CONTINUOUS
 62
    30
 10
1030.509795146095
 20
-189.9999990002876
 30
0.0
 40
6.25
  0
TEXT
  5
134
  8
SIZE
  6
CONTINUOUS
 62
    30
 10
1015.509795146095
 20
-387.85714059463419
 30
0.0
 40
50.0
  1
280
 50
90.0
 41
0.9
 72
     1
 11
1015.509795146095
 21
-329.9999977374913
 31
0.0
  0
POINT
  5
135
  8
DEFPOINTS
  6
CONTINUOUS
 62
     7
 10
624.99999776379957
 20
-469.99999647469531
 30
0.0
  0
POINT
  5
136
  8
DEFPOINTS
  6
CONTINUOUS
 62
     7
 10
742.49998188677091
 20
-189.99999900028749
 30
0.0
  0
POINT
  5
137
  8
DEFPOINTS
  6
CONTINUOUS
 62
     7
 10
1030.509795146095
 20
-189.9999990002876
 30
0.0
  0
LINE
  5
138
  8
SIZE
  6
CONTINUOUS
 62
    30
 10
-645.0
 20
-469.999997527022
 30
0.0
 11
-1082.0000672025631
 21
-469.99999752702172
 31
0.0
  0
LINE
  5
139
  8
SIZE
  6
CONTINUOUS
 62
    30
 10
-695.0000044724037
 20
-489.999997527022
 30
0.0
 11
-1082.0000672025631
 21
-489.999997527022
 31
0.0
  0
LINE
  5
13A
  8
SIZE
  6
CONTINUOUS
 62
    30
 10
-1062.0000672025631
 20
-469.99999752702172
 30
0.0
 11
-1062.0000672025631
 21
-444.99999752702172
 31
0.0
  0
LINE
  5
13B
  8
SIZE
  6
CONTINUOUS
 62
    30
 10
-1062.0000672025631
 20
-489.999997527022
 30
0.0
 11
-1062.0000672025631
 21
-763.71428324130773
 31
0.0
  0
LINE
  5
13C
  8
SIZE
  6
CONTINUOUS
 62
    30
 10
-1062.0000672025631
 20
-469.99999752702172
 30
0.0
 11
-1062.0000672025631
 21
-489.999997527022
 31
0.0
  0
CIRCLE
  5
13D
  8
SIZE
  6
CONTINUOUS
 62
    30
 10
-1062.0000672025631
 20
-469.99999752702172
 30
0.0
 40
6.25
  0
CIRCLE
  5
13E
  8
SIZE
  6
CONTINUOUS
 62
    30
 10
-1062.0000672025631
 20
-489.999997527022
 30
0.0
 40
6.25
  0
TEXT
  5
13F
  8
SIZE
  6
CONTINUOUS
 62
    30
 10
-1077.0000672025631
 20
-742.71428324130784
 30
0.0
 40
50.0
  1
20以上
 50
90.0
 41
0.9
 72
     1
 11
-1077.0000672025631
 21
-651.85714038416495
 31
0.0
  0
POINT
  5
140
  8
DEFPOINTS
  6
CONTINUOUS
 62
     7
 10
-625.0
 20
-469.99999752702212
 30
0.0
  0
POINT
  5
141
  8
DEFPOINTS
  6
CONTINUOUS
 62
     7
 10
-675.00000447240359
 20
-489.999997527022
 30
0.0
  0
POINT
  5
142
  8
DEFPOINTS
  6
CONTINUOUS
 62
     7
 10
-1062.0000672025631
 20
-489.999997527022
 30
0.0
  0
LINE
  5
143
  8
SIZE
  6
CONTINUOUS
 62
    30
 10
-645.0
 20
-0.0000000000017991
 30
0.0
 11
-1082.0000672025631
 21
-0.0000000000016753
 31
0.0
  0
LINE
  5
144
  8
SIZE
  6
CONTINUOUS
 62
    30
 10
-695.0000044724037
 20
19.999999999998192
 30
0.0
 11
-1082.0000672025631
 21
19.999999999998309
 31
0.0
  0
LINE
  5
145
  8
SIZE
  6
CONTINUOUS
 62
    30
 10
-1062.0000672025631
 20
-0.000000000001681
 30
0.0
 11
-1062.0000672025631
 21
-25.00000000000167
 31
0.0
  0
LINE
  5
146
  8
SIZE
  6
CONTINUOUS
 62
    30
 10
-1062.0000672025631
 20
19.999999999998298
 30
0.0
 11
-1062.0000672025631
 21
293.7142857142839
 31
0.0
  0
LINE
  5
147
  8
SIZE
  6
CONTINUOUS
 62
    30
 10
-1062.0000672025631
 20
-0.000000000001681
 30
0.0
 11
-1062.0000672025631
 21
19.999999999998298
 31
0.0
  0
CIRCLE
  5
148
  8
SIZE
  6
CONTINUOUS
 62
    30
 10
-1062.0000672025631
 20
-0.000000000001681
 30
0.0
 40
6.25
  0
CIRCLE
  5
149
  8
SIZE
  6
CONTINUOUS
 62
    30
 10
-1062.0000672025631
 20
19.999999999998298
 30
0.0
 40
6.25
  0
TEXT
  5
14A
  8
SIZE
  6
CONTINUOUS
 62
    30
 10
-1077.0000672025631
 20
90.999999999998067
 30
0.0
 40
50.0
  1
20以上
 50
90.0
 41
0.9
 72
     1
 11
-1077.0000672025631
 21
181.8571428571409
 31
0.0
  0
POINT
  5
14B
  8
DEFPOINTS
  6
CONTINUOUS
 62
     7
 10
-625.0
 20
-0.0000000000018048
 30
0.0
  0
POINT
  5
14C
  8
DEFPOINTS
  6
CONTINUOUS
 62
     7
 10
-675.00000447240359
 20
19.999999999998192
 30
0.0
  0
POINT
  5
14D
  8
DEFPOINTS
  6
CONTINUOUS
 62
     7
 10
-1062.0000672025631
 20
19.999999999998298
 30
0.0
  0
LINE
  5
14E
  8
SIZE
  6
CONTINUOUS
 62
    30
 10
624.99999776379957
 20
-489.99999647469508
 30
0.0
 11
624.99999776379957
 21
-790.77234093299739
 31
0.0
  0
LINE
  5
14F
  8
SIZE
  6
CONTINUOUS
 62
    30
 10
649.99998237347233
 20
-472.4999976191034
 30
0.0
 11
649.99998237347233
 21
-790.77234093299739
 31
0.0
  0
LINE
  5
150
  8
SIZE
  6
CONTINUOUS
 62
    30
 10
624.99999776379957
 20
-770.77234093299739
 30
0.0
 11
599.99999776379957
 21
-770.77234093299739
 31
0.0
  0
LINE
  5
151
  8
SIZE
  6
CONTINUOUS
 62
    30
 10
649.99998237347233
 20
-770.77234093299739
 30
0.0
 11
860.71426808775834
 21
-770.77234093299739
 31
0.0
  0
LINE
  5
152
  8
SIZE
  6
CONTINUOUS
 62
    30
 10
624.99999776379957
 20
-770.77234093299739
 30
0.0
 11
649.99998237347233
 21
-770.77234093299739
 31
0.0
  0
CIRCLE
  5
153
  8
SIZE
  6
CONTINUOUS
 62
    30
 10
624.99999776379957
 20
-770.77234093299739
 30
0.0
 40
6.25
  0
CIRCLE
  5
154
  8
SIZE
  6
CONTINUOUS
 62
    30
 10
649.99998237347233
 20
-770.77234093299739
 30
0.0
 40
6.25
  0
TEXT
  5
155
  8
SIZE
  6
CONTINUOUS
 62
    30
 10
714.99998237347233
 20
-742.67710283775921
 30
0.0
 40
50.0
  1
(25)
 41
0.9
 72
     1
 11
780.35712523061522
 21
-742.67710283775921
 31
0.0
  0
POINT
  5
156
  8
DEFPOINTS
  6
CONTINUOUS
 62
     7
 10
624.99999776379957
 20
-469.99999647469531
 30
0.0
  0
POINT
  5
157
  8
DEFPOINTS
  6
CONTINUOUS
 62
     7
 10
649.99998237347233
 20
-452.4999976191034
 30
0.0
  0
POINT
  5
158
  8
DEFPOINTS
  6
CONTINUOUS
 62
     7
 10
649.99998237347233
 20
-770.77234093299739
 30
0.0
  0
LINE
  5
159
  8
SIZE
  6
CONTINUOUS
 62
    30
 10
624.99999776379957
 20
19.999999999998192
 30
0.0
 11
624.99999776379957
 21
162.1893961516634
 31
0.0
  0
LINE
  5
15A
  8
SIZE
  6
CONTINUOUS
 62
    30
 10
724.99998197884997
 20
-277.49999843465991
 30
0.0
 11
724.99998197884997
 21
162.1893961516634
 31
0.0
  0
LINE
  5
15B
  8
SIZE
  6
CONTINUOUS
 62
    30
 10
624.99999776379957
 20
142.18939615166329
 30
0.0
 11
724.99998197884997
 21
142.18939615166329
 31
0.0
  0
LINE
  5
15C
  8
SIZE
  6
CONTINUOUS
 62
    30
 10
724.99998197884997
 20
142.18939615166329
 30
0.0
 11
944.99998197884997
 21
142.18939615166329
 31
0.0
  0
CIRCLE
  5
15D
  8
SIZE
  6
CONTINUOUS
 62
    30
 10
624.99999776379957
 20
142.18939615166329
 30
0.0
 40
6.25
  0
CIRCLE
  5
15E
  8
SIZE
  6
CONTINUOUS
 62
    30
 10
724.99998197884997
 20
142.18939615166329
 30
0.0
 40
6.25
  0
TEXT
  5
15F
  8
SIZE
  6
CONTINUOUS
 62
    30
 10
764.99998197884986
 20
170.2846342469015
 30
0.0
 40
50.0
  1
(100)
 41
0.9
 72
     1
 11
847.49998197884997
 21
170.2846342469015
 31
0.0
  0
POINT
  5
160
  8
DEFPOINTS
  6
CONTINUOUS
 62
     7
 10
624.99999776379957
 20
-0.0000000000018048
 30
0.0
  0
POINT
  5
161
  8
DEFPOINTS
  6
CONTINUOUS
 62
     7
 10
724.99998197884997
 20
-297.49999843465991
 30
0.0
  0
POINT
  5
162
  8
DEFPOINTS
  6
CONTINUOUS
 62
     7
 10
724.99998197884997
 20
142.18939615166329
 30
0.0
  0
LINE
  5
163
  8
SIZE
  6
CONTINUOUS
 62
    30
 10
624.99999776379957
 20
-489.99999647469508
 30
0.0
 11
624.99999776379957
 21
-1000.72656435496
 31
0.0
  0
LINE
  5
164
  8
SIZE
  6
CONTINUOUS
 62
    30
 10
699.99998211039167
 20
-459.99999663254522
 30
0.0
 11
699.99998211039167
 21
-1000.72656435496
 31
0.0
  0
LINE
  5
165
  8
SIZE
  6
CONTINUOUS
 62
    30
 10
624.99999776379957
 20
-980.72656435495958
 30
0.0
 11
699.99998211039167
 21
-980.72656435495958
 31
0.0
  0
LINE
  5
166
  8
SIZE
  6
CONTINUOUS
 62
    30
 10
699.99998211039167
 20
-980.72656435495958
 30
0.0
 11
827.85712496753479
 21
-980.72656435495958
 31
0.0
  0
CIRCLE
  5
167
  8
SIZE
  6
CONTINUOUS
 62
    30
 10
624.99999776379957
 20
-980.72656435495958
 30
0.0
 40
6.25
  0
CIRCLE
  5
168
  8
SIZE
  6
CONTINUOUS
 62
    30
 10
699.99998211039167
 20
-980.72656435495958
 30
0.0
 40
6.25
  0
TEXT
  5
169
  8
SIZE
  6
CONTINUOUS
 62
    30
 10
739.9999821103919
 20
-965.72656435496003
 30
0.0
 40
50.0
  1
75
 41
0.9
 72
     1
 11
776.42855353896334
 21
-965.72656435496003
 31
0.0
  0
POINT
  5
16A
  8
DEFPOINTS
  6
CONTINUOUS
 62
     7
 10
624.99999776379957
 20
-469.99999647469531
 30
0.0
  0
POINT
  5
16B
  8
DEFPOINTS
  6
CONTINUOUS
 62
     7
 10
699.99998211039167
 20
-439.99999663254511
 30
0.0
  0
POINT
  5
16C
  8
DEFPOINTS
  6
CONTINUOUS
 62
     7
 10
699.99998211039167
 20
-980.72656435495958
 30
0.0
  0
LINE
  5
16D
  8
SIZE
  6
CONTINUOUS
 62
    30
 10
624.99999776379957
 20
-489.999997527022
 30
0.0
 11
624.99999776379957
 21
-1126.589835816882
 31
0.0
  0
LINE
  5
16E
  8
SIZE
  6
CONTINUOUS
 62
    30
 10
-625.0
 20
-489.99999752702212
 30
0.0
 11
-625.0
 21
-1126.589835816882
 31
0.0
  0
LINE
  5
16F
  8
SIZE
  6
CONTINUOUS
 62
    30
 10
624.99999776379957
 20
-1106.589835816882
 30
0.0
 11
-625.0
 21
-1106.589835816882
 31
0.0
  0
CIRCLE
  5
170
  8
SIZE
  6
CONTINUOUS
 62
    30
 10
624.99999776379957
 20
-1106.589835816882
 30
0.0
 40
6.25
  0
CIRCLE
  5
171
  8
SIZE
  6
CONTINUOUS
 62
    30
 10
-625.0
 20
-1106.589835816882
 30
0.0
 40
6.25
  0
TEXT
  5
172
  8
SIZE
  6
CONTINUOUS
 62
    30
 10
-171.42857254667149
 20
-1078.4945977216439
 30
0.0
 40
50.0
  1
1250 (本体)
 41
0.9
 72
     1
 11
-0.0000011181000446
 21
-1078.4945977216439
 31
0.0
  0
POINT
  5
173
  8
DEFPOINTS
  6
CONTINUOUS
 62
     7
 10
624.99999776379957
 20
-469.99999752702212
 30
0.0
  0
POINT
  5
174
  8
DEFPOINTS
  6
CONTINUOUS
 62
     7
 10
-625.0
 20
-469.99999752702212
 30
0.0
  0
POINT
  5
175
  8
DEFPOINTS
  6
CONTINUOUS
 62
     7
 10
-625.0
 20
-1106.589835816882
 30
0.0
  0
LINE
  5
176
  8
SIZE
  6
CONTINUOUS
 62
    30
 10
624.99999776379957
 20
-489.999997527022
 30
0.0
 11
624.99999776379957
 21
-1126.589835816882
 31
0.0
  0
LINE
  5
177
  8
SIZE
  6
CONTINUOUS
 62
    30
 10
1424.9999977637999
 20
-509.999997527022
 30
0.0
 11
1424.9999977637999
 21
-1126.589835816882
 31
0.0
  0
LINE
  5
178
  8
SIZE
  6
CONTINUOUS
 62
    30
 10
624.99999776379957
 20
-1106.589835816882
 30
0.0
 11
1424.9999977637999
 21
-1106.589835816882
 31
0.0
  0
CIRCLE
  5
179
  8
SIZE
  6
CONTINUOUS
 62
    30
 10
624.99999776379957
 20
-1106.589835816882
 30
0.0
 40
6.25
  0
CIRCLE
  5
17A
  8
SIZE
  6
CONTINUOUS
 62
    30
 10
1424.9999977637999
 20
-1106.589835816882
 30
0.0
 40
6.25
  0
TEXT
  5
17B
  8
SIZE
  6
CONTINUOUS
 62
    30
 10
912.7142834780858
 20
-1091.589835816882
 30
0.0
 40
50.0
  1
800以上
 41
0.9
 72
     1
 11
1024.9999977637999
 21
-1091.589835816882
 31
0.0
  0
POINT
  5
17C
  8
DEFPOINTS
  6
CONTINUOUS
 62
     7
 10
624.99999776379957
 20
-469.99999752702212
 30
0.0
  0
POINT
  5
17D
  8
DEFPOINTS
  6
CONTINUOUS
 62
     7
 10
1424.9999977637999
 20
-489.999997527022
 30
0.0
  0
POINT
  5
17E
  8
DEFPOINTS
  6
CONTINUOUS
 62
     7
 10
1424.9999977637999
 20
-1106.589835816882
 30
0.0
  0
LINE
  5
17F
  8
SIZE
  6
CONTINUOUS
 62
    30
 10
1424.9999977637999
 20
-509.999997527022
 30
0.0
 11
1424.9999977637999
 21
-661.30248928595176
 31
0.0
  0
LINE
  5
180
  8
SIZE
  6
CONTINUOUS
 62
    30
 10
824.99999776379991
 20
-509.999997527022
 30
0.0
 11
824.99999776379991
 21
-661.30248928595176
 31
0.0
  0
LINE
  5
181
  8
SIZE
  6
CONTINUOUS
 62
    30
 10
1424.9999977637999
 20
-641.30248928595211
 30
0.0
 11
824.99999776379991
 21
-641.30248928595211
 31
0.0
  0
CIRCLE
  5
182
  8
SIZE
  6
CONTINUOUS
 62
    30
 10
1424.9999977637999
 20
-641.30248928595211
 30
0.0
 40
6.25
  0
CIRCLE
  5
183
  8
SIZE
  6
CONTINUOUS
 62
    30
 10
824.99999776379991
 20
-641.30248928595211
 30
0.0
 40
6.25
  0
TEXT
  5
184
  8
SIZE
  6
CONTINUOUS
 62
    30
 10
1067.142854906657
 20
-626.30248928595211
 30
0.0
 40
50.0
  1
600
 41
0.9
 72
     1
 11
1124.9999977637999
 21
-626.30248928595211
 31
0.0
  0
POINT
  5
185
  8
DEFPOINTS
  6
CONTINUOUS
 62
     7
 10
1424.9999977637999
 20
-489.999997527022
 30
0.0
  0
POINT
  5
186
  8
DEFPOINTS
  6
CONTINUOUS
 62
     7
 10
824.99999776379991
 20
-489.999997527022
 30
0.0
  0
POINT
  5
187
  8
DEFPOINTS
  6
CONTINUOUS
 62
     7
 10
824.99999776379991
 20
-641.30248928595211
 30
0.0
  0
LINE
  5
188
  8
SIZE
  6
CONTINUOUS
 62
    30
 10
-625.0
 20
-489.999997527022
 30
0.0
 11
-625.0
 21
-1225.1757906101029
 31
0.0
  0
LINE
  5
189
  8
SIZE
  6
CONTINUOUS
 62
    30
 10
699.99998211039167
 20
-459.99999663254522
 30
0.0
 11
699.99998211039167
 21
-1225.1757906101029
 31
0.0
  0
LINE
  5
18A
  8
SIZE
  6
CONTINUOUS
 62
    30
 10
-625.0
 20
-1205.1757906101029
 30
0.0
 11
699.99998211039167
 21
-1205.1757906101029
 31
0.0
  0
CIRCLE
  5
18B
  8
SIZE
  6
CONTINUOUS
 62
    30
 10
-625.0
 20
-1205.1757906101029
 30
0.0
 40
6.25
  0
CIRCLE
  5
18C
  8
SIZE
  6
CONTINUOUS
 62
    30
 10
699.99998211039167
 20
-1205.1757906101029
 30
0.0
 40
6.25
  0
TEXT
  5
18D
  8
SIZE
  6
CONTINUOUS
 62
    30
 10
-37.500008944803973
 20
-1190.175790610102
 30
0.0
 40
50.0
  1
1325
 41
0.9
 72
     1
 11
37.499991055195999
 21
-1190.175790610102
 31
0.0
  0
POINT
  5
18E
  8
DEFPOINTS
  6
CONTINUOUS
 62
     7
 10
-625.0
 20
-469.99999752702212
 30
0.0
  0
POINT
  5
18F
  8
DEFPOINTS
  6
CONTINUOUS
 62
     7
 10
699.99998211039167
 20
-439.99999663254511
 30
0.0
  0
POINT
  5
190
  8
DEFPOINTS
  6
CONTINUOUS
 62
     7
 10
699.99998211039167
 20
-1205.1757906101029
 30
0.0
  0
LINE
  5
191
  8
SERVICESPACE
  6
DASHDOT
 62
     2
 10
624.99999776379957
 20
-0.000000000001819
 30
0.0
 11
624.99999776379957
 21
-469.99999752702212
 31
0.0
  0
LINE
  5
192
  8
SERVICESPACE
  6
DASHDOT
 62
     2
 10
674.99999776379957
 20
-469.99999647469531
 30
0.0
 11
674.99999776379957
 21
-489.999997527022
 31
0.0
  0
LINE
  5
193
  8
SIZE
  6
CONTINUOUS
 62
    30
 10
-675.00000447240359
 20
-509.999997527022
 30
0.0
 11
-675.00000447240359
 21
-1323.331426888898
 31
0.0
  0
LINE
  5
194
  8
SIZE
  6
CONTINUOUS
 62
    30
 10
674.99999776379957
 20
-509.999997527022
 30
0.0
 11
674.99999776379957
 21
-1323.331426888898
 31
0.0
  0
LINE
  5
195
  8
SIZE
  6
CONTINUOUS
 62
    30
 10
-675.00000447240359
 20
-1303.331426888898
 30
0.0
 11
674.99999776379957
 21
-1303.331426888898
 31
0.0
  0
CIRCLE
  5
196
  8
SIZE
  6
CONTINUOUS
 62
    30
 10
-675.00000447240359
 20
-1303.331426888898
 30
0.0
 40
6.25
  0
CIRCLE
  5
197
  8
SIZE
  6
CONTINUOUS
 62
    30
 10
674.99999776379957
 20
-1303.331426888898
 30
0.0
 40
6.25
  0
TEXT
  5
198
  8
SIZE
  6
CONTINUOUS
 62
    30
 10
-75.000003354301924
 20
-1288.3314268888989
 30
0.0
 40
50.0
  1
1350
 41
0.9
 72
     1
 11
-0.0000033543019526
 21
-1288.3314268888989
 31
0.0
  0
POINT
  5
199
  8
DEFPOINTS
  6
CONTINUOUS
 62
     7
 10
-675.00000447240359
 20
-489.999997527022
 30
0.0
  0
POINT
  5
19A
  8
DEFPOINTS
  6
CONTINUOUS
 62
     7
 10
674.99999776379957
 20
-489.999997527022
 30
0.0
  0
POINT
  5
19B
  8
DEFPOINTS
  6
CONTINUOUS
 62
     7
 10
674.99999776379957
 20
-1303.331426888898
 30
0.0
  0
LINE
  5
19C
  8
SIZE
  6
CONTINUOUS
 62
    30
 10
624.99999776379957
 20
-489.999997527022
 30
0.0
 11
624.99999776379957
 21
-879.7222635103517
 31
0.0
  0
LINE
  5
19D
  8
SIZE
  6
CONTINUOUS
 62
    30
 10
674.99999776379957
 20
-509.999997527022
 30
0.0
 11
674.99999776379957
 21
-879.7222635103517
 31
0.0
  0
LINE
  5
19E
  8
SIZE
  6
CONTINUOUS
 62
    30
 10
624.99999776379957
 20
-859.72226351035158
 30
0.0
 11
674.99999776379957
 21
-859.72226351035158
 31
0.0
  0
LINE
  5
19F
  8
SIZE
  6
CONTINUOUS
 62
    30
 10
674.99999776379957
 20
-859.72226351035158
 30
0.0
 11
802.85714062094257
 21
-859.72226351035158
 31
0.0
  0
CIRCLE
  5
1A0
  8
SIZE
  6
CONTINUOUS
 62
    30
 10
624.99999776379957
 20
-859.72226351035158
 30
0.0
 40
6.25
  0
CIRCLE
  5
1A1
  8
SIZE
  6
CONTINUOUS
 62
    30
 10
674.99999776379957
 20
-859.72226351035158
 30
0.0
 40
6.25
  0
TEXT
  5
1A2
  8
SIZE
  6
CONTINUOUS
 62
    30
 10
714.9999977637998
 20
-844.72226351035158
 30
0.0
 40
50.0
  1
50
 41
0.9
 72
     1
 11
751.42856919237124
 21
-844.72226351035158
 31
0.0
  0
POINT
  5
1A3
  8
DEFPOINTS
  6
CONTINUOUS
 62
     7
 10
624.99999776379957
 20
-469.99999752702212
 30
0.0
  0
POINT
  5
1A4
  8
DEFPOINTS
  6
CONTINUOUS
 62
     7
 10
674.99999776379957
 20
-489.999997527022
 30
0.0
  0
POINT
  5
1A5
  8
DEFPOINTS
  6
CONTINUOUS
 62
     7
 10
674.99999776379957
 20
-859.72226351035158
 30
0.0
  0
LINE
  5
1A6
  8
SIZE
  6
CONTINUOUS
 62
    30
 10
389.99999900029252
 20
-28.550020845872009
 30
0.0
 11
389.99999900029252
 21
222.04765873403639
 31
0.0
  0
LINE
  5
1A7
  8
SIZE
  6
CONTINUOUS
 62
    30
 10
439.99999873720998
 20
-35.000020811934959
 30
0.0
 11
439.99999873720998
 21
222.04765873403639
 31
0.0
  0
LINE
  5
1A8
  8
SIZE
  6
CONTINUOUS
 62
    30
 10
389.99999900029252
 20
202.0476587340361
 30
0.0
 11
439.99999873720998
 21
202.0476587340361
 31
0.0
  0
LINE
  5
1A9
  8
SIZE
  6
CONTINUOUS
 62
    30
 10
439.99999873720998
 20
202.0476587340361
 30
0.0
 11
567.85714159435315
 21
202.0476587340361
 31
0.0
  0
CIRCLE
  5
1AA
  8
SIZE
  6
CONTINUOUS
 62
    30
 10
389.99999900029252
 20
202.0476587340361
 30
0.0
 40
6.25
  0
CIRCLE
  5
1AB
  8
SIZE
  6
CONTINUOUS
 62
    30
 10
439.99999873720998
 20
202.0476587340361
 30
0.0
 40
6.25
  0
TEXT
  5
1AC
  8
SIZE
  6
CONTINUOUS
 62
    30
 10
479.99999873720998
 20
217.0476587340363
 30
0.0
 40
50.0
  1
50
 41
0.9
 72
     1
 11
516.42857016578137
 21
217.0476587340363
 31
0.0
  0
POINT
  5
1AD
  8
DEFPOINTS
  6
CONTINUOUS
 62
     7
 10
389.99999900029252
 20
-48.550020845872012
 30
0.0
  0
POINT
  5
1AE
  8
DEFPOINTS
  6
CONTINUOUS
 62
     7
 10
439.99999873720998
 20
-55.000020811934959
 30
0.0
  0
POINT
  5
1AF
  8
DEFPOINTS
  6
CONTINUOUS
 62
     7
 10
439.99999873720998
 20
202.0476587340361
 30
0.0
  0
LINE
  5
1B0
  8
SIZE
  6
CONTINUOUS
 62
    30
 10
389.99999900029252
 20
-28.550020845872009
 30
0.0
 11
389.99999900029252
 21
222.04765873403639
 31
0.0
  0
LINE
  5
1B1
  8
SIZE
  6
CONTINUOUS
 62
    30
 10
-510.00000060508489
 20
-28.550020845872041
 30
0.0
 11
-510.00000060508489
 21
222.04765873403639
 31
0.0
  0
LINE
  5
1B2
  8
SIZE
  6
CONTINUOUS
 62
    30
 10
389.99999900029252
 20
202.0476587340361
 30
0.0
 11
-510.00000060508489
 21
202.0476587340361
 31
0.0
  0
CIRCLE
  5
1B3
  8
SIZE
  6
CONTINUOUS
 62
    30
 10
389.99999900029252
 20
202.0476587340361
 30
0.0
 40
6.25
  0
CIRCLE
  5
1B4
  8
SIZE
  6
CONTINUOUS
 62
    30
 10
-510.00000060508489
 20
202.0476587340361
 30
0.0
 40
6.25
  0
TEXT
  5
1B5
  8
SIZE
  6
CONTINUOUS
 62
    30
 10
-254.1428579452533
 20
217.0476587340363
 30
0.0
 40
50.0
  1
100×9=900
 41
0.9
 72
     1
 11
-60.000000802396222
 21
217.0476587340363
 31
0.0
  0
POINT
  5
1B6
  8
DEFPOINTS
  6
CONTINUOUS
 62
     7
 10
389.99999900029252
 20
-48.550020845872012
 30
0.0
  0
POINT
  5
1B7
  8
DEFPOINTS
  6
CONTINUOUS
 62
     7
 10
-510.00000060508489
 20
-48.550020845872041
 30
0.0
  0
POINT
  5
1B8
  8
DEFPOINTS
  6
CONTINUOUS
 62
     7
 10
-510.00000060508489
 20
202.0476587340361
 30
0.0
  0
LINE
  5
1B9
  8
SIZE
  6
CONTINUOUS
 62
    30
 10
439.99999873720998
 20
-35.000020811934959
 30
0.0
 11
439.99999873720998
 21
317.49247953971081
 31
0.0
  0
LINE
  5
1BA
  8
SIZE
  6
CONTINUOUS
 62
    30
 10
624.99999776379957
 20
19.999999999998192
 30
0.0
 11
624.99999776379957
 21
317.49247953971081
 31
0.0
  0
LINE
  5
1BB
  8
SIZE
  6
CONTINUOUS
 62
    30
 10
439.99999873720998
 20
297.49247953971081
 30
0.0
 11
624.99999776379957
 21
297.49247953971081
 31
0.0
  0
CIRCLE
  5
1BC
  8
SIZE
  6
CONTINUOUS
 62
    30
 10
439.99999873720998
 20
297.49247953971081
 30
0.0
 40
6.25
  0
CIRCLE
  5
1BD
  8
SIZE
  6
CONTINUOUS
 62
    30
 10
624.99999776379957
 20
297.49247953971081
 30
0.0
 40
6.25
  0
TEXT
  5
1BE
  8
SIZE
  6
CONTINUOUS
 62
    30
 10
478.9285696790763
 20
312.49247953971081
 30
0.0
 40
50.0
  1
185
 41
0.9
 72
     1
 11
532.49999825050475
 21
312.49247953971081
 31
0.0
  0
POINT
  5
1BF
  8
DEFPOINTS
  6
CONTINUOUS
 62
     7
 10
439.99999873720998
 20
-55.000020811934959
 30
0.0
  0
POINT
  5
1C0
  8
DEFPOINTS
  6
CONTINUOUS
 62
     7
 10
624.99999776379957
 20
-0.0000000000018048
 30
0.0
  0
POINT
  5
1C1
  8
DEFPOINTS
  6
CONTINUOUS
 62
     7
 10
624.99999776379957
 20
297.49247953971081
 30
0.0
  0
LINE
  5
1C2
  8
SIZE
  6
CONTINUOUS
 62
    30
 10
439.99999873720998
 20
-35.000020811934959
 30
0.0
 11
439.99999873720998
 21
317.49247953971081
 31
0.0
  0
LINE
  5
1C3
  8
SIZE
  6
CONTINUOUS
 62
    30
 10
-560.00000034200093
 20
-35.000020811934959
 30
0.0
 11
-560.00000034200093
 21
317.49247953971081
 31
0.0
  0
LINE
  5
1C4
  8
SIZE
  6
CONTINUOUS
 62
    30
 10
439.99999873720998
 20
297.49247953971081
 30
0.0
 11
-560.00000034200093
 21
297.49247953971081
 31
0.0
  0
CIRCLE
  5
1C5
  8
SIZE
  6
CONTINUOUS
 62
    30
 10
439.99999873720998
 20
297.49247953971081
 30
0.0
 40
6.25
  0
CIRCLE
  5
1C6
  8
SIZE
  6
CONTINUOUS
 62
    30
 10
-560.00000034200093
 20
297.49247953971081
 30
0.0
 40
6.25
  0
TEXT
  5
1C7
  8
SIZE
  6
CONTINUOUS
 62
    30
 10
-312.42857223096678
 20
325.587717634949
 30
0.0
 40
50.0
  1
1000 (ダクト寸法)
 41
0.9
 72
     1
 11
-60.000000802395327
 21
325.587717634949
 31
0.0
  0
POINT
  5
1C8
  8
DEFPOINTS
  6
CONTINUOUS
 62
     7
 10
439.99999873720998
 20
-55.000020811934959
 30
0.0
  0
POINT
  5
1C9
  8
DEFPOINTS
  6
CONTINUOUS
 62
     7
 10
-560.00000034200093
 20
-55.000020811934959
 30
0.0
  0
POINT
  5
1CA
  8
DEFPOINTS
  6
CONTINUOUS
 62
     7
 10
-560.00000034200093
 20
297.49247953971081
 30
0.0
  0
LINE
  5
1CB
  8
SIZE
  6
CONTINUOUS
 62
    30
 10
662.1999975680701
 20
20.00000105232721
 30
0.0
 11
662.1999975680701
 21
437.3414662853047
 31
0.0
  0
LINE
  5
1CC
  8
SIZE
  6
CONTINUOUS
 62
    30
 10
685.19999744705274
 20
0.0000011575607601
 30
0.0
 11
685.19999744705274
 21
437.3414662853047
 31
0.0
  0
LINE
  5
1CD
  8
SIZE
  6
CONTINUOUS
 62
    30
 10
662.1999975680701
 20
417.3414662853047
 30
0.0
 11
637.1999975680701
 21
417.3414662853047
 31
0.0
  0
LINE
  5
1CE
  8
SIZE
  6
CONTINUOUS
 62
    30
 10
685.19999744705274
 20
417.3414662853047
 30
0.0
 11
838.05714030419551
 21
417.3414662853047
 31
0.0
  0
LINE
  5
1CF
  8
SIZE
  6
CONTINUOUS
 62
    30
 10
662.1999975680701
 20
417.3414662853047
 30
0.0
 11
685.19999744705274
 21
417.3414662853047
 31
0.0
  0
CIRCLE
  5
1D0
  8
SIZE
  6
CONTINUOUS
 62
    30
 10
662.1999975680701
 20
417.3414662853047
 30
0.0
 40
6.25
  0
CIRCLE
  5
1D1
  8
SIZE
  6
CONTINUOUS
 62
    30
 10
685.19999744705274
 20
417.3414662853047
 30
0.0
 40
6.25
  0
TEXT
  5
1D2
  8
SIZE
  6
CONTINUOUS
 62
    30
 10
750.19999744705251
 20
432.34146628530448
 30
0.0
 40
50.0
  1
23
 41
0.9
 72
     1
 11
786.62856887562396
 21
432.34146628530448
 31
0.0
  0
POINT
  5
1D3
  8
DEFPOINTS
  6
CONTINUOUS
 62
     7
 10
662.1999975680701
 20
0.0000010523272209
 30
0.0
  0
POINT
  5
1D4
  8
DEFPOINTS
  6
CONTINUOUS
 62
     7
 10
685.19999744705274
 20
-19.99999884243924
 30
0.0
  0
POINT
  5
1D5
  8
DEFPOINTS
  6
CONTINUOUS
 62
     7
 10
685.19999744705274
 20
417.3414662853047
 30
0.0
  0
LINE
  5
1D6
  8
SIZE
  6
CONTINUOUS
 62
    30
 10
662.1999975680701
 20
20.000001052327178
 30
0.0
 11
662.1999975680701
 21
437.3414662853047
 31
0.0
  0
LINE
  5
1D7
  8
SIZE
  6
CONTINUOUS
 62
    30
 10
-662.80000466813522
 20
20.000001052327669
 30
0.0
 11
-662.80000466813522
 21
437.3414662853047
 31
0.0
  0
LINE
  5
1D8
  8
SIZE
  6
CONTINUOUS
 62
    30
 10
662.1999975680701
 20
417.3414662853047
 30
0.0
 11
-662.80000466813522
 21
417.3414662853047
 31
0.0
  0
CIRCLE
  5
1D9
  8
SIZE
  6
CONTINUOUS
 62
    30
 10
662.1999975680701
 20
417.3414662853047
 30
0.0
 40
6.25
  0
CIRCLE
  5
1DA
  8
SIZE
  6
CONTINUOUS
 62
    30
 10
-662.80000466813522
 20
417.3414662853047
 30
0.0
 40
6.25
  0
TEXT
  5
1DB
  8
SIZE
  6
CONTINUOUS
 62
    30
 10
-333.72857497860417
 20
445.43670438054278
 30
0.0
 40
50.0
  1
1325 (吊りボルトピッチ)
 41
0.9
 72
     1
 11
-0.3000035500326703
 21
445.43670438054278
 31
0.0
  0
POINT
  5
1DC
  8
DEFPOINTS
  6
CONTINUOUS
 62
     7
 10
662.1999975680701
 20
0.0000010523272067
 30
0.0
  0
POINT
  5
1DD
  8
DEFPOINTS
  6
CONTINUOUS
 62
     7
 10
-662.80000466813522
 20
0.0000010523276757
 30
0.0
  0
POINT
  5
1DE
  8
DEFPOINTS
  6
CONTINUOUS
 62
     7
 10
-662.80000466813522
 20
417.3414662853047
 30
0.0
  0
TEXT
  5
1DF
  8
NOTE
  6
CONTINUOUS
 62
     4
 10
438.22921739776388
 20
-684.91305589373587
 30
0.0
 40
50.0
  1
D1
 50
359.99999749558327
 41
0.7
  7
STANDARD1
  0
LINE
  5
1E0
  8
NOTE
  6
CONTINUOUS
 62
     4
 10
428.4620548525416
 20
-698.59040751411533
 30
0.0
 11
508.10521611953271
 21
-698.59040751411533
 31
0.0
  0
LINE
  5
1E1
  8
NOTE
  6
CONTINUOUS
 62
     4
 10
508.10521611953271
 20
-698.59040751411533
 30
0.0
 11
649.99998237347233
 21
-434.99999771118229
 31
0.0
  0
TEXT
  5
1E2
  8
NOTE
  6
CONTINUOUS
 62
     4
 10
-442.58619331091722
 20
-586.58199772691455
 30
0.0
 40
50.0
  1
26-%%C3.4
 50
359.99999749558327
 41
0.7
  7
STANDARD1
  0
LINE
  5
1E3
  8
NOTE
  6
CONTINUOUS
 62
     4
 10
-450.45890105864959
 20
-600.25934434974795
 30
0.0
 11
-199.58109947956831
 21
-600.25934434974795
 31
0.0
  0
LINE
  5
1E4
  8
NOTE
  6
CONTINUOUS
 62
     4
 10
-450.45890105864959
 20
-600.25934434974795
 30
0.0
 11
-510.00000060507591
 21
-355.00001912857391
 31
0.0
  0
TEXT
  5
1E5
  8
NOTE
  6
CONTINUOUS
 62
     4
 10
1165.241968241507
 20
-170.651270695991
 30
0.0
 40
50.0
  1
RG %%C19.05
 50
359.99999749558327
 41
0.7
  7
STANDARD1
  0
LINE
  5
1E6
  8
NOTE
  6
CONTINUOUS
 62
     4
 10
1158.139899691882
 20
-184.32862354025909
 30
0.0
 11
1464.5488671636549
 21
-184.32862354025909
 31
0.0
  0
TEXT
  5
1E7
  8
NOTE
  6
CONTINUOUS
 62
     4
 10
1167.4243624061471
 20
-71.328087551519275
 30
0.0
 40
50.0
  1
RL %%C9.52
 50
359.99999749558327
 41
0.7
  7
STANDARD1
  0
LINE
  5
1E8
  8
NOTE
  6
CONTINUOUS
 62
     4
 10
1158.570241671717
 20
-85.005438865926408
 30
0.0
 11
1432.4672278018829
 21
-85.005438865926408
 31
0.0
  0
TEXT
  5
1E9
  8
NOTE
  6
CONTINUOUS
 62
     4
 10
992.05425906153505
 20
63.266523443493497
 30
0.0
 40
50.0
  1
加湿器給水口(1/2B)
 50
359.99999749558327
 41
0.7
  7
STANDARD1
  0
LINE
  5
1EA
  8
NOTE
  6
CONTINUOUS
 62
     4
 10
985.54291331642867
 20
49.589162337975722
 30
0.0
 11
1436.6622306864369
 21
49.589162337975722
 31
0.0
  0
LINE
  5
1EB
  8
NOTE
  6
CONTINUOUS
 62
     4
 10
1158.139899691882
 20
-184.32862354025909
 30
0.0
 11
724.99998197884997
 21
-314.99999834252992
 31
0.0
  0
LINE
  5
1EC
  8
NOTE
  6
CONTINUOUS
 62
     4
 10
1158.570241671717
 20
-85.005438865926408
 30
0.0
 11
724.99998197884997
 21
-274.9999975007126
 31
0.0
  0
LINE
  5
1ED
  8
NOTE
  6
CONTINUOUS
 62
     4
 10
985.54291331642867
 20
49.589162337975722
 30
0.0
 11
724.99998197884997
 21
-189.99999900028749
 31
0.0
  0
TEXT
  5
1EE
  8
NOTE
  6
CONTINUOUS
 62
     4
 10
-1337.3748772318079
 20
333.16287324966822
 30
0.0
 40
50.0
  1
AH 4-14×30長穴 (M10)
 50
359.99999749558327
 41
0.7
  7
STANDARD1
  0
LINE
  5
1EF
  8
NOTE
  6
CONTINUOUS
 62
     4
 10
-1341.308903022039
 20
319.48551061428952
 30
0.0
 11
-728.03645006712725
 21
319.48551061428952
 31
0.0
  0
LINE
  5
1F0
  8
NOTE
  6
CONTINUOUS
 62
     4
 10
-728.03645006712725
 20
319.48551061428952
 30
0.0
 11
-662.80000466813522
 21
-19.999998842440611
 31
0.0
  0
LINE
  5
1F1
  8
NOTE
  6
CONTINUOUS
 62
     4
 10
-510.00000060507591
 20
-355.00001912855703
 30
0.0
 11
-491.59994778470508
 21
-384.04804360869002
 31
0.0
  0
LINE
  5
1F2
  8
NOTE
  6
CONTINUOUS
 62
     4
 10
-510.00000060507591
 20
-355.00001912855703
 30
0.0
 11
-508.58910017229198
 21
-389.3563726888197
 31
0.0
  0
LINE
  5
1F3
  8
NOTE
  6
CONTINUOUS
 62
     4
 10
649.99998237347882
 20
-434.99999771118257
 30
0.0
 11
641.78549490089961
 21
-468.38969470821678
 31
0.0
  0
LINE
  5
1F4
  8
NOTE
  6
CONTINUOUS
 62
     4
 10
649.99998237347882
 20
-434.99999771118257
 30
0.0
 11
626.19117868319586
 21
-459.80907945208071
 31
0.0
  0
LINE
  5
1F5
  8
NOTE
  6
CONTINUOUS
 62
     4
 10
724.99998197919535
 20
-314.99999834218062
 30
0.0
 11
754.07291635368335
 21
-296.6393295948983
 31
0.0
  0
LINE
  5
1F6
  8
NOTE
  6
CONTINUOUS
 62
     4
 10
724.99998197919535
 20
-314.99999834218062
 30
0.0
 11
759.3582161035539
 21
-313.63566046440019
 31
0.0
  0
LINE
  5
1F7
  8
NOTE
  6
CONTINUOUS
 62
     4
 10
724.99998197884997
 20
-274.9999975007126
 30
0.0
 11
751.26100926971014
 21
-252.80296806838481
 31
0.0
  0
LINE
  5
1F8
  8
NOTE
  6
CONTINUOUS
 62
     4
 10
724.99998197884997
 20
-274.9999975007126
 30
0.0
 11
758.84121354711715
 21
-268.90732026225839
 31
0.0
  0
LINE
  5
1F9
  8
NOTE
  6
CONTINUOUS
 62
     4
 10
724.99998197884997
 20
-189.999999000287
 30
0.0
 11
743.62707798017789
 21
-161.0970412874812
 31
0.0
  0
LINE
  5
1FA
  8
NOTE
  6
CONTINUOUS
 62
     4
 10
724.99998197884997
 20
-189.999999000287
 30
0.0
 11
755.58299940010511
 21
-174.28285182275141
 31
0.0
  0
LINE
  5
1FB
  8
NOTE
  6
CONTINUOUS
 62
     4
 10
-662.80000466813522
 20
-19.999998842440611
 30
0.0
 11
-677.72544001465565
 21
10.977106408174221
 31
0.0
  0
LINE
  5
1FC
  8
NOTE
  6
CONTINUOUS
 62
     4
 10
-662.80000466813522
 20
-19.999998842440611
 30
0.0
 11
-660.2372577158676
 21
14.28967887619182
 31
0.0
  0
LINE
  5
1FD
  8
BASIS
  6
DASHDOT
 62
     6
 10
0.0
 20
53.422722220282139
 30
0.0
 11
0.0
 21
-533.40208320662646
 31
0.0
  0
CIRCLE
  5
1FE
  8
ARRANGE
  6
CONTINUOUS
 62
     1
 10
-0.000000000001819
 20
-0.0000000000018048
 30
0.0
 40
50.0
  0
LINE
  5
1FF
  8
ARRANGE
  6
CONTINUOUS
 62
     1
 10
-50.037350031330789
 20
-49.522353150327021
 30
0.0
 11
50.037350031327151
 21
49.522353150323411
 31
0.0
  0
LINE
  5
200
  8
ARRANGE
  6
CONTINUOUS
 62
     1
 10
-49.963763310503047
 20
49.59659479798394
 30
0.0
 11
49.963763310499402
 21
-49.59659479798389
 31
0.0
  0
LINE
  5
201
  8
DETAIL
  6
CONTINUOUS
 62
     5
 10
439.99999873720998
 20
-355.00001912854202
 30
0.0
 11
-560.00000034200093
 21
-355.00001912854202
 31
0.0
  0
LINE
  5
202
  8
DETAIL
  6
CONTINUOUS
 62
     5
 10
-560.00000034200093
 20
-329.6004360847628
 30
0.0
 11
439.99999873721038
 21
-329.6004360847628
 31
0.0
  0
LINE
  5
203
  8
DETAIL
  6
CONTINUOUS
 62
     5
 10
413.81283172308213
 20
-312.8642767148267
 30
0.0
 11
-533.81283332783653
 21
-312.8642767148267
 31
0.0
  0
LINE
  5
204
  8
DETAIL
  6
CONTINUOUS
 62
     5
 10
413.81283172308213
 20
-113.08433862523169
 30
0.0
 11
-533.81283332783653
 21
-113.08433862523169
 31
0.0
  0
LINE
  5
205
  8
DETAIL
  6
CONTINUOUS
 62
     5
 10
413.81283172308213
 20
-102.2550590329232
 30
0.0
 11
-533.81283332783653
 21
-102.2550590329232
 31
0.0
  0
LINE
  5
206
  8
DETAIL
  6
CONTINUOUS
 62
     5
 10
439.99999873720998
 20
-80.399603855714744
 30
0.0
 11
-560.00000034200093
 21
-80.399603855714744
 31
0.0
  0
LINE
  5
207
  8
DETAIL
  6
CONTINUOUS
 62
     5
 10
439.99999873720998
 20
-55.000020811934959
 30
0.0
 11
-560.00000034200093
 21
-55.000020811934959
 31
0.0
  0
LINE
  5
208
  8
DETAIL
  6
CONTINUOUS
 62
     5
 10
-533.81283332783642
 20
-80.399603855714744
 30
0.0
 11
-533.81283332783642
 21
-329.6004360847628
 31
0.0
  0
LINE
  5
209
  8
DETAIL
  6
CONTINUOUS
 62
     5
 10
-560.00000034200093
 20
-355.00001912854202
 30
0.0
 11
-560.00000034200093
 21
-55.000020811934959
 31
0.0
  0
LINE
  5
20A
  8
DETAIL
  6
CONTINUOUS
 62
     5
 10
439.99999873720998
 20
-55.000020811934959
 30
0.0
 11
439.99999873720998
 21
-355.00001912854202
 31
0.0
  0
LINE
  5
20B
  8
DETAIL
  6
CONTINUOUS
 62
     5
 10
413.81283172308213
 20
-329.6004360847628
 30
0.0
 11
413.81283172308213
 21
-80.399603855714744
 31
0.0
  0
LINE
  5
20C
  8
DETAIL
  6
CONTINUOUS
 62
     5
 10
378.96224103513123
 20
-185.5744730136721
 30
0.0
 11
378.96224103513123
 21
-211.17095205003889
 31
0.0
  0
ARC
  5
20D
  8
DETAIL
  6
CONTINUOUS
 62
     5
 10
381.91568092393572
 20
-211.17095205003889
 30
0.0
 40
2.9534398888117872
 50
180.0
 51
270.0
  0
LINE
  5
20E
  8
DETAIL
  6
CONTINUOUS
 62
     5
 10
413.81283172308213
 20
-214.12439193885251
 30
0.0
 11
381.91568092393572
 21
-214.12439193885251
 31
0.0
  0
LINE
  5
20F
  8
DETAIL
  6
CONTINUOUS
 62
     5
 10
378.96224103513123
 20
-185.5744730136721
 30
0.0
 11
413.81283172308213
 21
-185.5744730136721
 31
0.0
  0
LINE
  5
210
  8
NOTE
  6
CONTINUOUS
 62
     4
 10
-516.45000057115237
 20
-55.000020811929531
 30
0.0
 11
-503.55000063901917
 21
-55.000020811929531
 31
0.0
  0
LINE
  5
211
  8
NOTE
  6
CONTINUOUS
 62
     4
 10
-510.00000060508489
 20
-48.550020845872041
 30
0.0
 11
-510.00000060508489
 21
-61.450020777996983
 31
0.0
  0
LINE
  5
212
  8
NOTE
  6
CONTINUOUS
 62
     4
 10
-416.45000109731882
 20
-55.000020811929531
 30
0.0
 11
-403.55000116518568
 21
-55.000020811929531
 31
0.0
  0
LINE
  5
213
  8
NOTE
  6
CONTINUOUS
 62
     4
 10
-410.00000113125122
 20
-48.550020845872041
 30
0.0
 11
-410.00000113125122
 21
-61.450020777996983
 31
0.0
  0
LINE
  5
214
  8
NOTE
  6
CONTINUOUS
 62
     4
 10
-316.45000162348322
 20
-55.000020811929531
 30
0.0
 11
-303.55000169135019
 21
-55.000020811929531
 31
0.0
  0
LINE
  5
215
  8
NOTE
  6
CONTINUOUS
 62
     4
 10
-310.00000165741568
 20
-48.550020845872041
 30
0.0
 11
-310.00000165741568
 21
-61.450020777996983
 31
0.0
  0
LINE
  5
216
  8
NOTE
  6
CONTINUOUS
 62
     4
 10
-16.449999913447751
 20
-55.000020811929502
 30
0.0
 11
-3.5499999813146119
 21
-55.000020811929502
 31
0.0
  0
LINE
  5
217
  8
NOTE
  6
CONTINUOUS
 62
     4
 10
-9.9999999473802728
 20
-48.550020845872012
 30
0.0
 11
-9.9999999473802728
 21
-61.450020777996983
 31
0.0
  0
LINE
  5
218
  8
NOTE
  6
CONTINUOUS
 62
     4
 10
283.54999956039143
 20
-55.000020811929531
 30
0.0
 11
296.44999949252451
 21
-55.000020811929531
 31
0.0
  0
LINE
  5
219
  8
NOTE
  6
CONTINUOUS
 62
     4
 10
289.99999952645868
 20
-48.550020845872041
 30
0.0
 11
289.99999952645868
 21
-61.450020777996983
 31
0.0
  0
LINE
  5
21A
  8
NOTE
  6
CONTINUOUS
 62
     4
 10
383.54999903422492
 20
-55.000020811929531
 30
0.0
 11
396.44999896635801
 21
-55.000020811929531
 31
0.0
  0
LINE
  5
21B
  8
NOTE
  6
CONTINUOUS
 62
     4
 10
389.99999900029252
 20
-48.550020845872041
 30
0.0
 11
389.99999900029252
 21
-61.450020777996983
 31
0.0
  0
LINE
  5
21C
  8
NOTE
  6
CONTINUOUS
 62
     4
 10
-516.45000057115237
 20
-355.00001912853662
 30
0.0
 11
-503.55000063901917
 21
-355.00001912853662
 31
0.0
  0
LINE
  5
21D
  8
NOTE
  6
CONTINUOUS
 62
     4
 10
-510.00000060508489
 20
-348.55001916247909
 30
0.0
 11
-510.00000060508489
 21
-361.4500190946041
 31
0.0
  0
LINE
  5
21E
  8
NOTE
  6
CONTINUOUS
 62
     4
 10
-416.45000109731882
 20
-355.00001912853662
 30
0.0
 11
-403.55000116518568
 21
-355.00001912853662
 31
0.0
  0
LINE
  5
21F
  8
NOTE
  6
CONTINUOUS
 62
     4
 10
-410.00000113125122
 20
-348.55001916247909
 30
0.0
 11
-410.00000113125122
 21
-361.4500190946041
 31
0.0
  0
LINE
  5
220
  8
NOTE
  6
CONTINUOUS
 62
     4
 10
-316.45000162348322
 20
-355.00001912853662
 30
0.0
 11
-303.55000169135019
 21
-355.00001912853662
 31
0.0
  0
LINE
  5
221
  8
NOTE
  6
CONTINUOUS
 62
     4
 10
-310.00000165741568
 20
-348.55001916247909
 30
0.0
 11
-310.00000165741568
 21
-361.4500190946041
 31
0.0
  0
LINE
  5
222
  8
NOTE
  6
CONTINUOUS
 62
     4
 10
-16.449999913447751
 20
-355.00001912853662
 30
0.0
 11
-3.5499999813146119
 21
-355.00001912853662
 31
0.0
  0
LINE
  5
223
  8
NOTE
  6
CONTINUOUS
 62
     4
 10
-9.9999999473802728
 20
-348.55001916247909
 30
0.0
 11
-9.9999999473802728
 21
-361.4500190946041
 31
0.0
  0
LINE
  5
224
  8
NOTE
  6
CONTINUOUS
 62
     4
 10
283.54999956039143
 20
-355.00001912853662
 30
0.0
 11
296.44999949252451
 21
-355.00001912853662
 31
0.0
  0
LINE
  5
225
  8
NOTE
  6
CONTINUOUS
 62
     4
 10
289.99999952645868
 20
-348.55001916247909
 30
0.0
 11
289.99999952645868
 21
-361.4500190946041
 31
0.0
  0
LINE
  5
226
  8
NOTE
  6
CONTINUOUS
 62
     4
 10
383.54999903422492
 20
-355.00001912853662
 30
0.0
 11
396.44999896635801
 21
-355.00001912853662
 31
0.0
  0
LINE
  5
227
  8
NOTE
  6
CONTINUOUS
 62
     4
 10
389.99999900029252
 20
-348.55001916247909
 30
0.0
 11
389.99999900029252
 21
-361.4500190946041
 31
0.0
  0
LINE
  5
228
  8
NOTE
  6
CONTINUOUS
 62
     4
 10
-566.45000030806841
 20
-105.00002022129711
 30
0.0
 11
-553.55000037593516
 21
-105.00002022129711
 31
0.0
  0
LINE
  5
229
  8
NOTE
  6
CONTINUOUS
 62
     4
 10
-560.00000034200093
 20
-98.550020255239801
 30
0.0
 11
-560.00000034200093
 21
-111.4500201873647
 31
0.0
  0
LINE
  5
22A
  8
NOTE
  6
CONTINUOUS
 62
     4
 10
-566.45000030806841
 20
-205.0000200406906
 30
0.0
 11
-553.55000037593516
 21
-205.0000200406906
 31
0.0
  0
LINE
  5
22B
  8
NOTE
  6
CONTINUOUS
 62
     4
 10
-560.00000034200093
 20
-198.5500200746331
 30
0.0
 11
-560.00000034200093
 21
-211.45002000675819
 31
0.0
  0
LINE
  5
22C
  8
NOTE
  6
CONTINUOUS
 62
     4
 10
-566.45000030806841
 20
-305.00001951452532
 30
0.0
 11
-553.55000037593516
 21
-305.00001951452532
 31
0.0
  0
LINE
  5
22D
  8
NOTE
  6
CONTINUOUS
 62
     4
 10
-560.00000034200093
 20
-298.55001954846767
 30
0.0
 11
-560.00000034200093
 21
-311.45001948059257
 31
0.0
  0
LINE
  5
22E
  8
NOTE
  6
CONTINUOUS
 62
     4
 10
433.5499987711425
 20
-105.00002022129711
 30
0.0
 11
446.44999870327592
 21
-105.00002022129711
 31
0.0
  0
LINE
  5
22F
  8
NOTE
  6
CONTINUOUS
 62
     4
 10
439.99999873720998
 20
-98.550020255239801
 30
0.0
 11
439.99999873720998
 21
-111.4500201873647
 31
0.0
  0
LINE
  5
230
  8
NOTE
  6
CONTINUOUS
 62
     4
 10
433.5499987711425
 20
-205.0000200406906
 30
0.0
 11
446.44999870327592
 21
-205.0000200406906
 31
0.0
  0
LINE
  5
231
  8
NOTE
  6
CONTINUOUS
 62
     4
 10
439.99999873720998
 20
-198.5500200746331
 30
0.0
 11
439.99999873720998
 21
-211.45002000675819
 31
0.0
  0
LINE
  5
232
  8
NOTE
  6
CONTINUOUS
 62
     4
 10
433.5499987711425
 20
-305.00001951452532
 30
0.0
 11
446.44999870327592
 21
-305.00001951452532
 31
0.0
  0
LINE
  5
233
  8
NOTE
  6
CONTINUOUS
 62
     4
 10
439.99999873720998
 20
-298.55001954846767
 30
0.0
 11
439.99999873720998
 21
-311.45001948059257
 31
0.0
  0
LINE
  5
234
  8
DETAIL
  6
CONTINUOUS
 62
     5
 10
-625.0
 20
-452.27935714182308
 30
0.0
 11
624.99999776379957
 21
-452.27935714182308
 31
0.0
  0
LINE
  5
235
  8
DETAIL
  6
CONTINUOUS
 62
     5
 10
649.99998237487841
 20
-339.49999821317618
 30
0.0
 11
624.99998250642057
 21
-339.49999821317618
 31
0.0
  0
LINE
  5
236
  8
DETAIL
  6
CONTINUOUS
 62
     5
 10
649.99998237487841
 20
-290.49999847100162
 30
0.0
 11
624.99998250642057
 21
-290.49999847100162
 31
0.0
  0
LINE
  5
237
  8
DETAIL
  6
CONTINUOUS
 62
     5
 10
649.99998237347222
 20
-324.52499999999998
 30
0.0
 11
705.74890697904073
 21
-324.52499999999998
 31
0.0
  0
LINE
  5
238
  8
DETAIL
  6
CONTINUOUS
 62
     5
 10
649.99998237487841
 20
-305.47500000140218
 30
0.0
 11
705.74890698044692
 21
-305.47500000140218
 31
0.0
  0
LINE
  5
239
  8
DETAIL
  6
CONTINUOUS
 62
     5
 10
649.99998237487841
 20
-339.49956998727549
 30
0.0
 11
649.99998237487841
 21
-290.50042669699309
 31
0.0
  0
LINE
  5
23A
  8
DETAIL
  6
CONTINUOUS
 62
     5
 10
624.99998250500369
 20
-256.99999759536269
 30
0.0
 11
649.99998237346153
 21
-256.99999759536269
 31
0.0
  0
LINE
  5
23B
  8
DETAIL
  6
CONTINUOUS
 62
     5
 10
649.99998237346153
 20
-279.7599974756144
 30
0.0
 11
713.9600325432292
 21
-279.7599974756144
 31
0.0
  0
LINE
  5
23C
  8
DETAIL
  6
CONTINUOUS
 62
     5
 10
649.99998237346153
 20
-270.23999752570347
 30
0.0
 11
713.9600325432292
 21
-270.23999752570347
 31
0.0
  0
LINE
  5
23D
  8
DETAIL
  6
CONTINUOUS
 62
     5
 10
649.99998237346153
 20
-256.99999759536269
 30
0.0
 11
649.99998237346153
 21
-290.49999847100162
 31
0.0
  0
LINE
  5
23E
  8
DETAIL
  6
CONTINUOUS
 62
     5
 10
692.6326301500992
 20
-177.49999906606789
 30
0.0
 11
692.6326301500992
 21
-202.4999989345269
 31
0.0
  0
LINE
  5
23F
  8
DETAIL
  6
CONTINUOUS
 62
     5
 10
624.99998250501449
 20
-202.49999893451781
 30
0.0
 11
692.6326301500992
 21
-202.49999893451781
 31
0.0
  0
LINE
  5
240
  8
DETAIL
  6
CONTINUOUS
 62
     5
 10
702.43998209755955
 20
-200.10756812502299
 30
0.0
 11
692.6326301500992
 21
-200.10756812502299
 31
0.0
  0
LINE
  5
241
  8
DETAIL
  6
CONTINUOUS
 62
     5
 10
624.99998250501449
 20
-177.49999906605899
 30
0.0
 11
692.6326301500992
 21
-177.49999906605899
 31
0.0
  0
LINE
  5
242
  8
DETAIL
  6
CONTINUOUS
 62
     5
 10
702.43998209755955
 20
-179.89242987557191
 30
0.0
 11
692.6326301500992
 21
-179.89242987557191
 31
0.0
  0
LINE
  5
243
  8
DETAIL
  6
CONTINUOUS
 62
     5
 10
634.19998245660815
 20
-426.5000131405352
 30
0.0
 11
649.99998237347233
 21
-426.5000131405352
 31
0.0
  0
LINE
  5
244
  8
DETAIL
  6
CONTINUOUS
 62
     5
 10
649.99998237347233
 20
-393.50001331416979
 30
0.0
 11
649.99998237347233
 21
-426.5000131405352
 31
0.0
  0
LINE
  5
245
  8
DETAIL
  6
CONTINUOUS
 62
     5
 10
634.19998245660815
 20
-430.00001206978948
 30
0.0
 11
634.19998245660815
 21
-390.00001438491478
 31
0.0
  0
LINE
  5
246
  8
DETAIL
  6
CONTINUOUS
 62
     5
 10
624.99999776379957
 20
-430.00001206978948
 30
0.0
 11
634.19998245660815
 21
-430.00001206978948
 31
0.0
  0
LINE
  5
247
  8
NOTE
  6
CONTINUOUS
 62
     4
 10
649.99998237347233
 20
-427.50001313527349
 30
0.0
 11
649.99998237347233
 21
-392.50001331943162
 31
0.0
  0
LINE
  5
248
  8
NOTE
  6
CONTINUOUS
 62
     4
 10
632.49998246555333
 20
-410.0000132273525
 30
0.0
 11
667.49998228139498
 21
-410.0000132273525
 31
0.0
  0
LINE
  5
249
  8
DETAIL
  6
CONTINUOUS
 62
     5
 10
634.19998245660815
 20
-393.50001331416883
 30
0.0
 11
649.99998237347233
 21
-393.50001331416979
 31
0.0
  0
LINE
  5
24A
  8
DETAIL
  6
CONTINUOUS
 62
     5
 10
624.99999776379957
 20
-390.0000143849141
 30
0.0
 11
634.19998245660815
 21
-390.00001438491478
 31
0.0
  0
LINE
  5
24B
  8
DETAIL
  6
CONTINUOUS
 62
     5
 10
624.99999776380344
 20
-91.826021187989696
 30
0.0
 11
657.99999759016976
 21
-91.250004048378273
 31
0.0
  0
LINE
  5
24C
  8
DETAIL
  6
CONTINUOUS
 62
     5
 10
657.97279661172615
 20
-58.749529424537741
 30
0.0
 11
657.99999759016976
 21
-58.75000421938239
 31
0.0
  0
LINE
  5
24D
  8
DETAIL
  6
CONTINUOUS
 62
     5
 10
682.99999745862965
 20
-59.00000421806272
 30
0.0
 11
682.99999745862965
 21
-91.000004049687945
 31
0.0
  0
LINE
  5
24E
  8
DETAIL
  6
CONTINUOUS
 62
     5
 10
657.99999759016976
 20
-58.75000421938239
 30
0.0
 11
657.99999759016976
 21
-91.250004048378273
 31
0.0
  0
LINE
  5
24F
  8
DETAIL
  6
CONTINUOUS
 62
     5
 10
657.99999759016976
 20
-91.000004049687945
 30
0.0
 11
682.99999745862965
 21
-91.000004049687945
 31
0.0
  0
LINE
  5
250
  8
DETAIL
  6
CONTINUOUS
 62
     5
 10
657.99999759016976
 20
-59.00000421806272
 30
0.0
 11
682.99999745862965
 21
-59.00000421806272
 31
0.0
  0
LINE
  5
251
  8
NOTE
  6
CONTINUOUS
 62
     4
 10
682.99999745862965
 20
-57.500004225958961
 30
0.0
 11
682.99999745862965
 21
-92.500004041800835
 31
0.0
  0
LINE
  5
252
  8
NOTE
  6
CONTINUOUS
 62
     4
 10
682.99999745862965
 20
-57.500004225958961
 30
0.0
 11
682.99999745862965
 21
-92.500004041800835
 31
0.0
  0
LINE
  5
253
  8
NOTE
  6
CONTINUOUS
 62
     4
 10
665.49999755070883
 20
-75.000004133879855
 30
0.0
 11
700.4999973665507
 21
-75.000004133879855
 31
0.0
  0
LINE
  5
254
  8
NOTE
  6
CONTINUOUS
 62
     4
 10
665.49999755070883
 20
-75.000004133879855
 30
0.0
 11
700.4999973665507
 21
-75.000004133879855
 31
0.0
  0
LINE
  5
255
  8
DETAIL
  6
CONTINUOUS
 62
     5
 10
699.99998211039167
 20
-305.47500000140218
 30
0.0
 11
699.99998211039167
 21
-279.7599974756144
 31
0.0
  0
LINE
  5
256
  8
DETAIL
  6
CONTINUOUS
 62
     5
 10
699.99998211039167
 20
-270.23999752570347
 30
0.0
 11
699.99998211039167
 21
-200.10756812502299
 31
0.0
  0
LINE
  5
257
  8
DETAIL
  6
CONTINUOUS
 62
     5
 10
699.99998211039167
 20
-179.89242987557191
 30
0.0
 11
699.99998211039167
 21
-57.599999696923533
 31
0.0
  0
TEXT
  5
258
  8
SIZE
  6
CONTINUOUS
 62
    30
 10
-895.74310831307548
 20
-334.58915849489892
 30
0.0
 40
50.0
  1
(ダクト寸法)
 50
90.000002504416585
 41
0.7031250221965211
  7
STANDARD1
  0
TEXT
  5
259
  8
NOTE
  6
CONTINUOUS
 62
     4
 10
1014.794296445639
 20
162.026787197727
 30
0.0
 40
50.0
  1
D2
 50
359.9999958189112
 41
0.7
  7
STANDARD1
  0
LINE
  5
25A
  8
NOTE
  6
CONTINUOUS
 62
     4
 10
1004.074889773278
 20
148.349427046747
 30
0.0
 11
1087.256392298485
 21
148.34942461258041
 31
0.0
  0
LINE
  5
25B
  8
SIZE
  6
CONTINUOUS
 62
    30
 10
644.99999776379991
 20
-469.99999647469531
 30
0.0
 11
1146.8511620065799
 21
-469.99999647469542
 31
0.0
  0
LINE
  5
25C
  8
SIZE
  6
CONTINUOUS
 62
    30
 10
720.4999973665507
 20
-75.000004133879855
 30
0.0
 11
1146.8511620065799
 21
-75.000004133880012
 31
0.0
  0
LINE
  5
25D
  8
SIZE
  6
CONTINUOUS
 62
    30
 10
1126.8511620065799
 20
-469.99999647469542
 30
0.0
 11
1126.8511620065799
 21
-75.000004133880012
 31
0.0
  0
CIRCLE
  5
25E
  8
SIZE
  6
CONTINUOUS
 62
    30
 10
1126.8511620065799
 20
-469.99999647469542
 30
0.0
 40
6.25
  0
CIRCLE
  5
25F
  8
SIZE
  6
CONTINUOUS
 62
    30
 10
1126.8511620065799
 20
-75.000004133880012
 30
0.0
 40
6.25
  0
TEXT
  5
260
  8
SIZE
  6
CONTINUOUS
 62
    30
 10
1111.8511620065799
 20
-330.35714316143032
 30
0.0
 40
50.0
  1
395
 50
90.0
 41
0.9
 72
     1
 11
1111.8511620065799
 21
-272.50000030428743
 31
0.0
  0
POINT
  5
261
  8
DEFPOINTS
  6
CONTINUOUS
 62
     7
 10
624.99999776379957
 20
-469.99999647469531
 30
0.0
  0
POINT
  5
262
  8
DEFPOINTS
  6
CONTINUOUS
 62
     7
 10
700.4999973665507
 20
-75.000004133879855
 30
0.0
  0
POINT
  5
263
  8
DEFPOINTS
  6
CONTINUOUS
 62
     7
 10
1126.8511620065799
 20
-75.000004133880012
 30
0.0
  0
LINE
  5
264
  8
NOTE
  6
CONTINUOUS
 62
     4
 10
1004.074889773278
 20
148.349427046747
 30
0.0
 11
682.99999745862965
 21
-75.000004133875336
 31
0.0
  0
LINE
  5
265
  8
NOTE
  6
CONTINUOUS
 62
     4
 10
682.99999745862965
 20
-75.000004133876203
 30
0.0
 11
704.47210320108195
 21
-48.143006070506999
 31
0.0
  0
LINE
  5
266
  8
NOTE
  6
CONTINUOUS
 62
     4
 10
682.99999745862965
 20
-75.000004133876203
 30
0.0
 11
715.02388571845381
 21
-62.477214879423641
 31
0.0
  0
TEXT
  5
267
  8
ETC
  6
CONTINUOUS
 62
    61
 10
791.40866144413314
 20
600.27957322586099
 30
0.0
 40
60.0
  1
GE-P1680M-E1_2
 50
0.0000029998804485
 41
0.8
  0
LINE
  5
268
  8
OUTLINE
  6
CONTINUOUS
 62
     3
 10
-625.0
 20
-0.000000000001819
 30
0.0
 11
-625.0
 21
-469.99999647469531
 31
0.0
  0
LINE
  5
269
  8
OUTLINE
  6
CONTINUOUS
 62
     3
 10
-625.0
 20
-469.99999647469531
 30
0.0
 11
624.99999776379957
 21
-469.99999647469531
 31
0.0
  0
LINE
  5
26A
  8
OUTLINE
  6
CONTINUOUS
 62
     3
 10
624.99999776379957
 20
-469.99999647469531
 30
0.0
 11
624.99999776379957
 21
-0.000000000001819
 31
0.0
  0
LINE
  5
26B
  8
OUTLINE
  6
CONTINUOUS
 62
     3
 10
624.99999776379957
 20
-0.000000000001819
 30
0.0
 11
-625.0
 21
-0.000000000001819
 31
0.0
  0
LINE
  5
26C
  8
SIZE
  6
CONTINUOUS
 62
    30
 10
699.99998211039167
 20
-37.59999969692354
 30
0.0
 11
699.99998211039167
 21
557.92068893255544
 31
0.0
  0
LINE
  5
26D
  8
SIZE
  6
CONTINUOUS
 62
    30
 10
-685.0000044724037
 20
0.0000011575607459
 30
0.0
 11
-685.0000044724037
 21
557.92068893255544
 31
0.0
  0
LINE
  5
26E
  8
SIZE
  6
CONTINUOUS
 62
    30
 10
699.99998211039167
 20
537.92068893255544
 30
0.0
 11
-685.0000044724037
 21
537.92068893255544
 31
0.0
  0
CIRCLE
  5
26F
  8
SIZE
  6
CONTINUOUS
 62
    30
 10
699.99998211039167
 20
537.92068893255544
 30
0.0
 40
6.25
  0
CIRCLE
  5
270
  8
SIZE
  6
CONTINUOUS
 62
    30
 10
-685.0000044724037
 20
537.92068893255544
 30
0.0
 40
6.25
  0
TEXT
  5
271
  8
SIZE
  6
CONTINUOUS
 62
    30
 10
-67.500011181005888
 20
552.92068893255544
 30
0.0
 40
50.0
  1
1385
 41
0.9
 72
     1
 11
7.4999888189940966
 21
552.92068893255544
 31
0.0
  0
POINT
  5
272
  8
DEFPOINTS
  6
CONTINUOUS
 62
     7
 10
699.99998211039167
 20
-57.599999696923533
 30
0.0
  0
POINT
  5
273
  8
DEFPOINTS
  6
CONTINUOUS
 62
     7
 10
-685.0000044724037
 20
-19.999998842439251
 30
0.0
  0
POINT
  5
274
  8
DEFPOINTS
  6
CONTINUOUS
 62
     7
 10
-685.0000044724037
 20
537.92068893255544
 30
0.0
  0
LINE
  5
275
  8
SIZE
  6
CONTINUOUS
 62
    30
 10
-702.80000456290134
 20
-19.999998842440601
 30
0.0
 11
-768.0276718335773
 21
-19.999998842440569
 31
0.0
  0
LINE
  5
276
  8
SIZE
  6
CONTINUOUS
 62
    30
 10
-645.0
 20
-0.0000000000017991
 30
0.0
 11
-768.0276718335773
 21
-0.0000000000017643
 31
0.0
  0
LINE
  5
277
  8
SIZE
  6
CONTINUOUS
 62
    30
 10
-748.0276718335773
 20
-19.999998842440569
 30
0.0
 11
-748.0276718335773
 21
-44.999998842440597
 31
0.0
  0
LINE
  5
278
  8
SIZE
  6
CONTINUOUS
 62
    30
 10
-748.0276718335773
 20
-0.0000000000017699
 30
0.0
 11
-748.0276718335773
 21
152.8571428571409
 31
0.0
  0
LINE
  5
279
  8
SIZE
  6
CONTINUOUS
 62
    30
 10
-748.0276718335773
 20
-19.999998842440569
 30
0.0
 11
-748.0276718335773
 21
-0.0000000000017699
 31
0.0
  0
CIRCLE
  5
27A
  8
SIZE
  6
CONTINUOUS
 62
    30
 10
-748.0276718335773
 20
-19.999998842440569
 30
0.0
 40
6.25
  0
CIRCLE
  5
27B
  8
SIZE
  6
CONTINUOUS
 62
    30
 10
-748.0276718335773
 20
-0.0000000000017699
 30
0.0
 40
6.25
  0
TEXT
  5
27C
  8
SIZE
  6
CONTINUOUS
 62
    30
 10
-763.0276718335773
 20
64.999999999998096
 30
0.0
 40
50.0
  1
20
 50
90.0
 41
0.9
 72
     1
 11
-763.0276718335773
 21
101.4285714285695
 31
0.0
  0
POINT
  5
27D
  8
DEFPOINTS
  6
CONTINUOUS
 62
     7
 10
-682.80000456290111
 20
-19.999998842440601
 30
0.0
  0
POINT
  5
27E
  8
DEFPOINTS
  6
CONTINUOUS
 62
     7
 10
-625.0
 20
-0.0000000000018048
 30
0.0
  0
POINT
  5
27F
  8
DEFPOINTS
  6
CONTINUOUS
 62
     7
 10
-748.0276718335773
 20
-0.0000000000017699
 30
0.0
  0
LINE
  5
280
  8
DETAIL
  6
CONTINUOUS
 62
     5
 10
-59.65948575397487
 20
-113.08433862523169
 30
0.0
 11
-59.65948575397487
 21
-312.8642767148267
 31
0.0
  0
LINE
  5
281
  8
DETAIL
  6
CONTINUOUS
 62
     5
 10
-79.34908501272001
 20
-312.8642767148267
 30
0.0
 11
-79.34908501272001
 21
-113.08433862523169
 31
0.0
  0
LINE
  5
282
  8
NOTE
  6
CONTINUOUS
 62
     4
 10
-216.45000214964779
 20
-55.000020811929531
 30
0.0
 11
-203.55000221751459
 21
-55.000020811929531
 31
0.0
  0
LINE
  5
283
  8
NOTE
  6
CONTINUOUS
 62
     4
 10
-210.00000218358031
 20
-48.550020845872041
 30
0.0
 11
-210.00000218358031
 21
-61.450020777996983
 31
0.0
  0
LINE
  5
284
  8
NOTE
  6
CONTINUOUS
 62
     4
 10
-116.4500026758122
 20
-55.000020811934959
 30
0.0
 11
-103.5500027436792
 21
-55.000020811934959
 31
0.0
  0
LINE
  5
285
  8
NOTE
  6
CONTINUOUS
 62
     4
 10
-110.00000270974471
 20
-48.550020845877491
 30
0.0
 11
-110.00000270974471
 21
-61.450020778002433
 31
0.0
  0
LINE
  5
286
  8
NOTE
  6
CONTINUOUS
 62
     4
 10
83.549999560387704
 20
-55.000020811934959
 30
0.0
 11
96.449999492520874
 21
-55.000020811934959
 31
0.0
  0
LINE
  5
287
  8
NOTE
  6
CONTINUOUS
 62
     4
 10
89.999999526455227
 20
-48.550020845877491
 30
0.0
 11
89.999999526455227
 21
-61.450020778002433
 31
0.0
  0
LINE
  5
288
  8
NOTE
  6
CONTINUOUS
 62
     4
 10
183.54999903422231
 20
-55.000020811934959
 30
0.0
 11
196.44999896635531
 21
-55.000020811934959
 31
0.0
  0
LINE
  5
289
  8
NOTE
  6
CONTINUOUS
 62
     4
 10
189.99999900028959
 20
-48.550020845877491
 30
0.0
 11
189.99999900028959
 21
-61.450020778002433
 31
0.0
  0
LINE
  5
28A
  8
NOTE
  6
CONTINUOUS
 62
     4
 10
-216.45000214964779
 20
-355.00001912854202
 30
0.0
 11
-203.55000221751459
 21
-355.00001912854202
 31
0.0
  0
LINE
  5
28B
  8
NOTE
  6
CONTINUOUS
 62
     4
 10
-210.00000218358031
 20
-348.5500191624846
 30
0.0
 11
-210.00000218358031
 21
-361.45001909460962
 31
0.0
  0
LINE
  5
28C
  8
NOTE
  6
CONTINUOUS
 62
     4
 10
-116.4500026758122
 20
-355.00001912854708
 30
0.0
 11
-103.5500027436792
 21
-355.00001912854708
 31
0.0
  0
LINE
  5
28D
  8
NOTE
  6
CONTINUOUS
 62
     4
 10
-110.00000270974471
 20
-348.55001916248949
 30
0.0
 11
-110.00000270974471
 21
-361.45001909461462
 31
0.0
  0
LINE
  5
28E
  8
NOTE
  6
CONTINUOUS
 62
     4
 10
83.549999560387704
 20
-355.00001912854708
 30
0.0
 11
96.449999492520874
 21
-355.00001912854708
 31
0.0
  0
LINE
  5
28F
  8
NOTE
  6
CONTINUOUS
 62
     4
 10
89.999999526455227
 20
-348.55001916248949
 30
0.0
 11
89.999999526455227
 21
-361.45001909461462
 31
0.0
  0
LINE
  5
290
  8
NOTE
  6
CONTINUOUS
 62
     4
 10
183.54999903422311
 20
-355.00001912855208
 30
0.0
 11
196.4499989663563
 21
-355.00001912855208
 31
0.0
  0
LINE
  5
291
  8
NOTE
  6
CONTINUOUS
 62
     4
 10
189.9999990002905
 20
-348.55001916249472
 30
0.0
 11
189.9999990002905
 21
-361.45001909461962
 31
0.0
  0
ENDSEC
  0
EOF
