  0
SECTION
  2
HEADER
  9
$ACADVER
  1
AC1006
  9
$INSBASE
 10
0.0
 20
0.0
 30
0.0
  9
$EXTMIN
 10
-1609.162808470679
 20
-1458.5992921184329
  9
$EXTMAX
 10
2172.4796446304208
 20
1818.0782070115929
  9
$LIMMIN
 10
-4267.1522210604817
 20
-2696.0832101984129
  9
$LIMMAX
 10
7190.7174225864646
 20
5141.155363923066
  9
$ORTHOMODE
 70
     0
  9
$REGENMODE
 70
     1
  9
$FILLMODE
 70
     1
  9
$QTEXTMODE
 70
     0
  9
$MIRRTEXT
 70
     0
  9
$LTSCALE
 40
20.0
  9
$ATTMODE
 70
     1
  9
$TEXTSIZE
 40
60.0
  9
$TRACEWID
 40
0.05
  9
$TEXTSTYLE
  7
STANDARD1
  9
$CLAYER
  8
NOTE
  9
$CELTYPE
  6
CONTINUOUS
  9
$CECOLOR
 62
     7
  9
$DIMSCALE
 40
1.0
  9
$DIMASZ
 40
30.0
  9
$DIMEXO
 40
20.0
  9
$DIMDLI
 40
80.0
  9
$DIMRND
 40
0.0
  9
$DIMDLE
 40
0.0
  9
$DIMEXE
 40
20.0
  9
$DIMTP
 40
0.0
  9
$DIMTM
 40
0.0
  9
$DIMTXT
 40
40.0
  9
$DIMCEN
 40
0.09
  9
$DIMTSZ
 40
0.0
  9
$DIMTOL
 70
     0
  9
$DIMLIM
 70
     0
  9
$DIMTIH
 70
     0
  9
$DIMTOH
 70
     0
  9
$DIMSE1
 70
     0
  9
$DIMSE2
 70
     0
  9
$DIMTAD
 70
     1
  9
$DIMZIN
 70
     8
  9
$DIMBLK
  1

  9
$DIMASO
 70
     1
  9
$DIMSHO
 70
     0
  9
$DIMPOST
  1

  9
$DIMAPOST
  1

  9
$DIMALT
 70
     0
  9
$DIMALTD
 70
     2
  9
$DIMALTF
 40
25.399999999999999
  9
$DIMLFAC
 40
1.0
  9
$DIMTOFL
 70
     1
  9
$DIMTVP
 40
0.0
  9
$DIMTIX
 70
     0
  9
$DIMSOXD
 70
     0
  9
$DIMSAH
 70
     0
  9
$DIMBLK1
  1

  9
$DIMBLK2
  1

  9
$LUNITS
 70
     2
  9
$LUPREC
 70
     4
  9
$SKETCHINC
 40
0.1
  9
$FILLETRAD
 40
0.0
  9
$AUNITS
 70
     1
  9
$AUPREC
 70
     3
  9
$MENU
  1
ACAD
  9
$ELEVATION
 40
0.0
  9
$THICKNESS
 40
0.0
  9
$LIMCHECK
 70
     0
  9
$CHAMFERA
 40
0.0
  9
$CHAMFERB
 40
0.0
  9
$SKPOLY
 70
     0
  9
$TDCREATE
 40
2455902.607164352
  9
$TDUPDATE
 40
2457751.361967593
  9
$TDINDWG
 40
1.6968386806
  9
$TDUSRTIMER
 40
1.6968350694
  9
$USRTIMER
 70
     1
  9
$ANGBASE
 50
0.0
  9
$ANGDIR
 70
     0
  9
$PDMODE
 70
     3
  9
$PDSIZE
 40
-2.0
  9
$PLINEWID
 40
0.0
  9
$SPLFRAME
 70
     0
  9
$SPLINETYPE
 70
     6
  9
$SPLINESEGS
 70
     8
  9
$SURFTAB1
 70
     6
  9
$SURFTAB2
 70
     6
  9
$SURFTYPE
 70
     6
  9
$SURFU
 70
     6
  9
$SURFV
 70
     6
  9
$UCSNAME
  2

  9
$UCSORG
 10
0.0
 20
0.0
 30
0.0
  9
$UCSXDIR
 10
1.0
 20
0.0
 30
0.0
  9
$UCSYDIR
 10
0.0
 20
1.0
 30
0.0
  9
$USERI1
 70
     0
  9
$USERI2
 70
     0
  9
$USERI3
 70
     0
  9
$USERI4
 70
     0
  9
$USERI5
 70
     0
  9
$USERR1
 40
20.0
  9
$USERR2
 40
0.0
  9
$USERR3
 40
0.0
  9
$USERR4
 40
0.0
  9
$USERR5
 40
0.0
  9
$WORLDVIEW
 70
     1
  9
$ATTDIA
 70
     0
  9
$ATTREQ
 70
     1
  9
$BLIPMODE
 70
     1
  9
$COORDS
 70
     1
  9
$DRAGMODE
 70
     2
  9
$OSMODE
 70
     0
  9
$HANDLING
 70
     0
  9
$HANDSEED
  5
909BC86
  0
ENDSEC
  0
SECTION
  2
TABLES
  0
TABLE
  2
LTYPE
 70
     2
  0
LTYPE
  2
CONTINUOUS
 70
     0
  3
実線
 72
    65
 73
     0
 40
0.0
  0
LTYPE
  2
DASHDOT
 70
     0
  3
____ _ ____ _ ____ _ ____ _ ____ _ ____ _ ____
 72
    65
 73
     4
 40
5.5
 49
4.0
 49
-0.6
 49
0.3
 49
-0.6
  0
ENDTAB
  0
TABLE
  2
LAYER
 70
    12
  0
LAYER
  2
0
 70
     0
 62
     7
  6
CONTINUOUS
  0
LAYER
  2
OUTLINE
 70
     0
 62
     3
  6
CONTINUOUS
  0
LAYER
  2
DETAIL
 70
     0
 62
     5
  6
CONTINUOUS
  0
LAYER
  2
BASIS
 70
     0
 62
     6
  6
DASHDOT
  0
LAYER
  2
SIZE
 70
     0
 62
    30
  6
CONTINUOUS
  0
LAYER
  2
NOTE
 70
     0
 62
     4
  6
CONTINUOUS
  0
LAYER
  2
ARRANGE
 70
     0
 62
     1
  6
CONTINUOUS
  0
LAYER
  2
FIX
 70
     0
 62
    11
  6
CONTINUOUS
  0
LAYER
  2
SERVICESPACE
 70
     0
 62
     2
  6
DASHDOT
  0
LAYER
  2
ETC
 70
     0
 62
    61
  6
CONTINUOUS
  0
LAYER
  2
SYMBOLLINE
 70
     0
 62
    15
  6
CONTINUOUS
  0
LAYER
  2
DEFPOINTS
 70
     0
 62
     7
  6
CONTINUOUS
  0
ENDTAB
  0
TABLE
  2
STYLE
 70
     2
  0
STYLE
  2
STANDARD
 70
     0
 40
0.0
 41
0.9
 50
0.0
 71
     0
 42
64.0
  3
SIMPLEX
  4
BIGFONT
  0
STYLE
  2
STANDARD1
 70
     0
 40
60.0
 41
0.7
 50
0.0
 71
     0
 42
60.0
  3
MONOTXT.shx
  4
BIGFONT.shx
  0
ENDTAB
  0
TABLE
  2
VIEW
 70
     1
  0
VIEW
  2
ALL
 70
     0
 40
9000.0
 10
241.50664699999999
 20
0.0
 41
12483.01
 11
0.0
 21
0.0
 31
1.0
 12
0.0
 22
0.0
 32
0.0
 42
50.0
 43
0.0
 44
0.0
 50
0.0
 71
     0
  0
ENDTAB
  0
TABLE
  2
UCS
 70
     0
  0
ENDTAB
  0
TABLE
  2
VPORT
 70
     1
  0
VPORT
  2
*ACTIVE
 70
     0
 10
0.0
 20
0.0
 11
1.0
 21
1.0
 12
281.6584180798713
 22
179.73945744657979
 13
0.0
 23
0.0
 14
50.0
 24
50.0
 15
100.0
 25
100.0
 16
0.0
 26
0.0
 36
1.0
 17
0.0
 27
0.0
 37
0.0
 40
3299.698652519699
 41
1.72801875732708
 42
50.0
 43
0.0
 44
0.0
 50
0.0
 51
0.0
 71
     0
 72
  1000
 73
     1
 74
     0
 75
     0
 76
     0
 77
     0
 78
     0
  0
ENDTAB
  0
TABLE
  2
DWGMGR
 70
     0
  0
ENDTAB
  0
ENDSEC
  0
SECTION
  2
BLOCKS
  0
ENDSEC
  0
SECTION
  2
ENTITIES
  0
LINE
  8
DETAIL
  6
CONTINUOUS
 62
     5
 10
606.80002354929093
 20
793.5
 30
0.0
 11
203.8000235492909
 21
793.5
 31
0.0
  0
LINE
  8
DETAIL
  6
CONTINUOUS
 62
     5
 10
203.8000235492909
 20
793.5
 30
0.0
 11
-596.19997645070907
 21
793.5
 31
0.0
  0
LINE
  8
DETAIL
  6
CONTINUOUS
 62
     5
 10
-596.19997645070907
 20
703.5
 30
0.0
 11
203.8000235492909
 21
703.5
 31
0.0
  0
LINE
  8
DETAIL
  6
CONTINUOUS
 62
     5
 10
203.8000235492909
 20
703.5
 30
0.0
 11
606.80002354929093
 21
703.5
 31
0.0
  0
LINE
  8
DETAIL
  6
CONTINUOUS
 62
     5
 10
606.80002354929093
 20
698.5
 30
0.0
 11
203.8000235492909
 21
698.5
 31
0.0
  0
LINE
  8
DETAIL
  6
CONTINUOUS
 62
     5
 10
203.8000235492909
 20
698.5
 30
0.0
 11
-596.19997645070907
 21
698.5
 31
0.0
  0
LINE
  8
DETAIL
  6
CONTINUOUS
 62
     5
 10
206.8000235492909
 20
608.60000000000025
 30
0.0
 11
203.8000235492909
 21
608.60000000000025
 31
0.0
  0
LINE
  8
DETAIL
  6
CONTINUOUS
 62
     5
 10
-596.19997645070907
 20
608.49999999999989
 30
0.0
 11
203.8000235492909
 21
608.49999999999989
 31
0.0
  0
LINE
  8
DETAIL
  6
CONTINUOUS
 62
     5
 10
206.8000235492909
 20
608.49999999999989
 30
0.0
 11
606.80002354929093
 21
608.49999999999989
 31
0.0
  0
LINE
  8
DETAIL
  6
CONTINUOUS
 62
     5
 10
606.80002354929093
 20
793.5
 30
0.0
 11
606.80002354929093
 21
703.5
 31
0.0
  0
LINE
  8
DETAIL
  6
CONTINUOUS
 62
     5
 10
606.80002354929093
 20
698.5
 30
0.0
 11
606.80002354929093
 21
608.49999999999989
 31
0.0
  0
LINE
  8
DETAIL
  6
CONTINUOUS
 62
     5
 10
-596.19997645070907
 20
608.49999999999989
 30
0.0
 11
-596.19997645070907
 21
698.5
 31
0.0
  0
LINE
  8
DETAIL
  6
CONTINUOUS
 62
     5
 10
-596.19997645070907
 20
703.5
 30
0.0
 11
-596.19997645070907
 21
793.5
 31
0.0
  0
LINE
  8
DETAIL
  6
CONTINUOUS
 62
     5
 10
-559.99997645070926
 20
-859.5
 30
0.0
 11
-556.99997645070926
 21
-862.5
 31
0.0
  0
LINE
  8
DETAIL
  6
CONTINUOUS
 62
     5
 10
440.00002354929069
 20
-862.5
 30
0.0
 11
437.00002354929069
 21
-862.5
 31
0.0
  0
LINE
  8
DETAIL
  6
CONTINUOUS
 62
     5
 10
437.00002354929069
 20
-862.5
 30
0.0
 11
-556.99997645070926
 21
-862.5
 31
0.0
  0
LINE
  8
DETAIL
  6
CONTINUOUS
 62
     5
 10
-556.99997645070926
 20
-862.5
 30
0.0
 11
-559.99997645070926
 21
-862.5
 31
0.0
  0
LINE
  8
DETAIL
  6
CONTINUOUS
 62
     5
 10
630.00002354929074
 20
-842.5
 30
0.0
 11
625.00002354929074
 21
-842.5
 31
0.0
  0
LINE
  8
DETAIL
  6
CONTINUOUS
 62
     5
 10
624.00002354929074
 20
-842.5
 30
0.0
 11
-623.99997645070926
 21
-842.5
 31
0.0
  0
LINE
  8
DETAIL
  6
CONTINUOUS
 62
     5
 10
-624.99997645070926
 20
-842.5
 30
0.0
 11
-629.99997645070926
 21
-842.5
 31
0.0
  0
LINE
  8
DETAIL
  6
CONTINUOUS
 62
     5
 10
634.20002354929045
 20
-841.69999999999891
 30
0.0
 11
630.00002354929074
 21
-841.69999999999891
 31
0.0
  0
LINE
  8
DETAIL
  6
CONTINUOUS
 62
     5
 10
625.00002354929074
 20
-841.69999999999891
 30
0.0
 11
624.00002354929074
 21
-841.69999999999891
 31
0.0
  0
LINE
  8
DETAIL
  6
CONTINUOUS
 62
     5
 10
-623.99997645070926
 20
-841.69999999999891
 30
0.0
 11
-624.99997645070926
 21
-841.69999999999891
 31
0.0
  0
LINE
  8
DETAIL
  6
CONTINUOUS
 62
     5
 10
-629.99997645070926
 20
-838.29999999999916
 30
0.0
 11
-630.99997645070926
 21
-838.29999999999916
 31
0.0
  0
LINE
  8
DETAIL
  6
CONTINUOUS
 62
     5
 10
-624.99997645070926
 20
-837.5
 30
0.0
 11
625.00002354929074
 21
-837.5
 31
0.0
  0
LINE
  8
DETAIL
  6
CONTINUOUS
 62
     5
 10
634.20002354929045
 20
-836.69999999999879
 30
0.0
 11
630.00002354929074
 21
-836.69999999999879
 31
0.0
  0
LINE
  8
DETAIL
  6
CONTINUOUS
 62
     5
 10
682.70002354929056
 20
-836.5
 30
0.0
 11
630.00002354929074
 21
-836.5
 31
0.0
  0
LINE
  8
DETAIL
  6
CONTINUOUS
 62
     5
 10
-629.99997645070926
 20
-836.5
 30
0.0
 11
-682.69997645070907
 21
-836.5
 31
0.0
  0
LINE
  8
DETAIL
  6
CONTINUOUS
 62
     5
 10
-684.99997645070926
 20
-834.0
 30
0.0
 11
-682.69997645070907
 21
-834.0
 31
0.0
  0
LINE
  8
DETAIL
  6
CONTINUOUS
 62
     5
 10
685.20002354929045
 20
-834.0
 30
0.0
 11
682.70002354929056
 21
-834.0
 31
0.0
  0
LINE
  8
DETAIL
  6
CONTINUOUS
 62
     5
 10
-684.99997645070926
 20
-812.5
 30
0.0
 11
-669.79997645070944
 21
-812.5
 31
0.0
  0
LINE
  8
DETAIL
  6
CONTINUOUS
 62
     5
 10
685.20002354929045
 20
-812.5
 30
0.0
 11
669.20002354929045
 21
-812.5
 31
0.0
  0
LINE
  8
DETAIL
  6
CONTINUOUS
 62
     5
 10
-684.99997645070926
 20
-800.5
 30
0.0
 11
-669.79997645070944
 21
-800.5
 31
0.0
  0
LINE
  8
DETAIL
  6
CONTINUOUS
 62
     5
 10
685.20002354929045
 20
-800.5
 30
0.0
 11
669.20002354929045
 21
-800.5
 31
0.0
  0
LINE
  8
DETAIL
  6
CONTINUOUS
 62
     5
 10
630.00002354929074
 20
-731.5
 30
0.0
 11
634.20002354929045
 21
-731.5
 31
0.0
  0
LINE
  8
DETAIL
  6
CONTINUOUS
 62
     5
 10
685.20002354929045
 20
-731.5
 30
0.0
 11
634.20002354929045
 21
-731.5
 31
0.0
  0
LINE
  8
DETAIL
  6
CONTINUOUS
 62
     5
 10
-629.99997645070926
 20
-731.5
 30
0.0
 11
-684.99997645070926
 21
-731.5
 31
0.0
  0
LINE
  8
DETAIL
  6
CONTINUOUS
 62
     5
 10
635.00002354929074
 20
-728.5
 30
0.0
 11
634.20002354929045
 21
-728.5
 31
0.0
  0
LINE
  8
DETAIL
  6
CONTINUOUS
 62
     5
 10
634.20002354929045
 20
-727.69999999999891
 30
0.0
 11
635.80002354929093
 21
-727.69999999999891
 31
0.0
  0
LINE
  8
DETAIL
  6
CONTINUOUS
 62
     5
 10
437.00002354929069
 20
-862.5
 30
0.0
 11
440.00002354929069
 21
-859.5
 31
0.0
  0
LINE
  8
DETAIL
  6
CONTINUOUS
 62
     5
 10
634.20002354929045
 20
-363.29999999999927
 30
0.0
 11
635.80002354929093
 21
-363.29999999999927
 31
0.0
  0
LINE
  8
DETAIL
  6
CONTINUOUS
 62
     5
 10
630.00002354929074
 20
-362.5
 30
0.0
 11
634.20002354929045
 21
-362.5
 31
0.0
  0
LINE
  8
DETAIL
  6
CONTINUOUS
 62
     5
 10
634.20002354929045
 20
-362.5
 30
0.0
 11
635.00002354929074
 21
-362.5
 31
0.0
  0
LINE
  8
DETAIL
  6
CONTINUOUS
 62
     5
 10
634.20002354929045
 20
-341.0
 30
0.0
 11
635.00002354929074
 21
-341.0
 31
0.0
  0
LINE
  8
DETAIL
  6
CONTINUOUS
 62
     5
 10
634.20002354929045
 20
-297.0
 30
0.0
 11
635.00002354929074
 21
-297.0
 31
0.0
  0
LINE
  8
DETAIL
  6
CONTINUOUS
 62
     5
 10
634.20002354929045
 20
-286.0
 30
0.0
 11
635.00002354929074
 21
-286.0
 31
0.0
  0
LINE
  8
DETAIL
  6
CONTINUOUS
 62
     5
 10
630.00002354929074
 20
-283.5
 30
0.0
 11
634.20002354929045
 21
-283.5
 31
0.0
  0
LINE
  8
DETAIL
  6
CONTINUOUS
 62
     5
 10
650.00002354929074
 20
-258.0
 30
0.0
 11
634.20002354929045
 21
-258.0
 31
0.0
  0
LINE
  8
DETAIL
  6
CONTINUOUS
 62
     5
 10
650.00002354929074
 20
-244.60000000000039
 30
0.0
 11
705.74894844819016
 21
-244.60000000000039
 31
0.0
  0
LINE
  8
DETAIL
  6
CONTINUOUS
 62
     5
 10
725.00002354929074
 20
-242.73999999999981
 30
0.0
 11
710.07848451829057
 21
-242.73999999999981
 31
0.0
  0
LINE
  8
DETAIL
  6
CONTINUOUS
 62
     5
 10
725.00002354929074
 20
-224.26000000000019
 30
0.0
 11
710.07848451829057
 21
-224.26000000000019
 31
0.0
  0
LINE
  8
DETAIL
  6
CONTINUOUS
 62
     5
 10
650.00002354929074
 20
-222.39999999999961
 30
0.0
 11
705.74894844819016
 21
-222.39999999999961
 31
0.0
  0
LINE
  8
DETAIL
  6
CONTINUOUS
 62
     5
 10
650.00002354929074
 20
-209.0
 30
0.0
 11
634.20002354929045
 21
-209.0
 31
0.0
  0
LINE
  8
DETAIL
  6
CONTINUOUS
 62
     5
 10
634.20002354929045
 20
-155.5
 30
0.0
 11
650.00002354929074
 21
-155.5
 31
0.0
  0
LINE
  8
DETAIL
  6
CONTINUOUS
 62
     5
 10
725.00002354929074
 20
-143.01000000000019
 30
0.0
 11
714.71007405559055
 21
-143.01000000000019
 31
0.0
  0
LINE
  8
DETAIL
  6
CONTINUOUS
 62
     5
 10
650.00002354929074
 20
-142.26000000000019
 30
0.0
 11
713.96007405559055
 21
-142.26000000000019
 31
0.0
  0
LINE
  8
DETAIL
  6
CONTINUOUS
 62
     5
 10
650.00002354929074
 20
-132.73999999999981
 30
0.0
 11
713.96007405559055
 21
-132.73999999999981
 31
0.0
  0
LINE
  8
DETAIL
  6
CONTINUOUS
 62
     5
 10
725.00002354929074
 20
-131.98999999999981
 30
0.0
 11
714.71007405559055
 21
-131.98999999999981
 31
0.0
  0
LINE
  8
DETAIL
  6
CONTINUOUS
 62
     5
 10
710.07848451829057
 20
-242.73999999999981
 30
0.0
 11
709.5245237342906
 21
-242.4201705921987
 31
0.0
  0
LINE
  8
DETAIL
  6
CONTINUOUS
 62
     5
 10
709.5245237342906
 20
-224.57982940779951
 30
0.0
 11
705.74894844819016
 21
-222.39999999999961
 31
0.0
  0
LINE
  8
DETAIL
  6
CONTINUOUS
 62
     5
 10
714.71007405559055
 20
-143.01000000000019
 30
0.0
 11
713.96007405559055
 21
-142.26000000000019
 31
0.0
  0
LINE
  8
DETAIL
  6
CONTINUOUS
 62
     5
 10
725.00002354929074
 20
-242.73958482600031
 30
0.0
 11
725.00002354929074
 21
-224.26041517399969
 31
0.0
  0
LINE
  8
DETAIL
  6
CONTINUOUS
 62
     5
 10
725.00002354929074
 20
-143.00956169619889
 30
0.0
 11
725.00002354929074
 21
-131.99043830379921
 31
0.0
  0
LINE
  8
DETAIL
  6
CONTINUOUS
 62
     5
 10
714.71007405559055
 20
-143.01000000000019
 30
0.0
 11
714.71007405559055
 21
-131.98999999999981
 31
0.0
  0
LINE
  8
DETAIL
  6
CONTINUOUS
 62
     5
 10
713.96007405559055
 20
-142.26000000000019
 30
0.0
 11
713.96007405559055
 21
-132.73999999999981
 31
0.0
  0
LINE
  8
DETAIL
  6
CONTINUOUS
 62
     5
 10
710.07848451829057
 20
-242.73999999999981
 30
0.0
 11
710.07848451829057
 21
-224.26000000000019
 31
0.0
  0
LINE
  8
DETAIL
  6
CONTINUOUS
 62
     5
 10
709.5245237342906
 20
-242.4201705921987
 30
0.0
 11
709.5245237342906
 21
-224.57982940779951
 31
0.0
  0
LINE
  8
DETAIL
  6
CONTINUOUS
 62
     5
 10
705.74894844819016
 20
-244.60000000000039
 30
0.0
 11
705.74894844819016
 21
-222.39999999999961
 31
0.0
  0
LINE
  8
DETAIL
  6
CONTINUOUS
 62
     5
 10
700.80002354929093
 20
466.5
 30
0.0
 11
700.80002354929093
 21
111.5
 31
0.0
  0
LINE
  8
DETAIL
  6
CONTINUOUS
 62
     5
 10
700.00002354929074
 20
496.49999999999989
 30
0.0
 11
700.00002354929074
 21
111.5
 31
0.0
  0
LINE
  8
DETAIL
  6
CONTINUOUS
 62
     5
 10
699.00002354929074
 20
497.5
 30
0.0
 11
699.00002354929074
 21
496.49999999999989
 31
0.0
  0
LINE
  8
DETAIL
  6
CONTINUOUS
 62
     5
 10
699.00002354929074
 20
109.7000000000007
 30
0.0
 11
699.00002354929074
 21
111.5
 31
0.0
  0
LINE
  8
DETAIL
  6
CONTINUOUS
 62
     5
 10
714.71007405559055
 20
-131.98999999999981
 30
0.0
 11
713.96007405559055
 21
-132.73999999999981
 31
0.0
  0
LINE
  8
DETAIL
  6
CONTINUOUS
 62
     5
 10
709.5245237342906
 20
-242.4201705921987
 30
0.0
 11
705.74894844819016
 21
-244.60000000000039
 31
0.0
  0
LINE
  8
DETAIL
  6
CONTINUOUS
 62
     5
 10
710.07848451829057
 20
-224.26000000000019
 30
0.0
 11
709.5245237342906
 21
-224.57982940779951
 31
0.0
  0
LINE
  8
DETAIL
  6
CONTINUOUS
 62
     5
 10
634.20002354929045
 20
-119.5
 30
0.0
 11
650.00002354929074
 21
-119.5
 31
0.0
  0
LINE
  8
DETAIL
  6
CONTINUOUS
 62
     5
 10
692.00002354929074
 20
498.30000000000109
 30
0.0
 11
692.00002354929074
 21
497.5
 31
0.0
  0
LINE
  8
DETAIL
  6
CONTINUOUS
 62
     5
 10
685.20002354929045
 20
559.0
 30
0.0
 11
685.20002354929045
 21
537.5
 31
0.0
  0
LINE
  8
DETAIL
  6
CONTINUOUS
 62
     5
 10
685.20002354929045
 20
525.49999999999989
 30
0.0
 11
685.20002354929045
 21
456.5
 31
0.0
  0
LINE
  8
DETAIL
  6
CONTINUOUS
 62
     5
 10
685.20002354929045
 20
-731.5
 30
0.0
 11
685.20002354929045
 21
-800.5
 31
0.0
  0
LINE
  8
DETAIL
  6
CONTINUOUS
 62
     5
 10
685.20002354929045
 20
-812.5
 30
0.0
 11
685.20002354929045
 21
-834.0
 31
0.0
  0
LINE
  8
DETAIL
  6
CONTINUOUS
 62
     5
 10
682.70002354929056
 20
561.5
 30
0.0
 11
682.70002354929056
 21
559.0
 31
0.0
  0
LINE
  8
DETAIL
  6
CONTINUOUS
 62
     5
 10
682.70002354929056
 20
-836.5
 30
0.0
 11
682.70002354929056
 21
-834.0
 31
0.0
  0
LINE
  8
DETAIL
  6
CONTINUOUS
 62
     5
 10
669.20002354929045
 20
-814.49999999999989
 30
0.0
 11
669.20002354929045
 21
-812.5
 31
0.0
  0
LINE
  8
DETAIL
  6
CONTINUOUS
 62
     5
 10
669.20002354929045
 20
-800.5
 30
0.0
 11
669.20002354929045
 21
-798.5
 31
0.0
  0
LINE
  8
DETAIL
  6
CONTINUOUS
 62
     5
 10
669.20002354929045
 20
523.5
 30
0.0
 11
669.20002354929045
 21
525.49999999999989
 31
0.0
  0
LINE
  8
DETAIL
  6
CONTINUOUS
 62
     5
 10
669.20002354929045
 20
537.5
 30
0.0
 11
669.20002354929045
 21
539.5
 31
0.0
  0
LINE
  8
DETAIL
  6
CONTINUOUS
 62
     5
 10
655.20002354929045
 20
539.5
 30
0.0
 11
655.20002354929045
 21
523.5
 31
0.0
  0
LINE
  8
DETAIL
  6
CONTINUOUS
 62
     5
 10
655.20002354929045
 20
-798.5
 30
0.0
 11
655.20002354929045
 21
-814.49999999999989
 31
0.0
  0
LINE
  8
DETAIL
  6
CONTINUOUS
 62
     5
 10
650.00002354929074
 20
-119.5
 30
0.0
 11
650.00002354929074
 21
-155.5
 31
0.0
  0
LINE
  8
DETAIL
  6
CONTINUOUS
 62
     5
 10
650.00002354929074
 20
-257.99957177410027
 30
0.0
 11
650.00002354929074
 21
-209.00042822599971
 31
0.0
  0
LINE
  8
DETAIL
  6
CONTINUOUS
 62
     5
 10
635.80002354929093
 20
814.70000000000073
 30
0.0
 11
635.80002354929093
 21
588.30000000000098
 31
0.0
  0
LINE
  8
DETAIL
  6
CONTINUOUS
 62
     5
 10
635.80002354929093
 20
-363.29999999999927
 30
0.0
 11
635.80002354929093
 21
-727.69999999999891
 31
0.0
  0
LINE
  8
DETAIL
  6
CONTINUOUS
 62
     5
 10
635.00002354929074
 20
815.49999999999989
 30
0.0
 11
635.00002354929074
 21
814.70000000000073
 31
0.0
  0
LINE
  8
DETAIL
  6
CONTINUOUS
 62
     5
 10
635.00002354929074
 20
588.30000000000098
 30
0.0
 11
635.00002354929074
 21
587.5
 31
0.0
  0
LINE
  8
DETAIL
  6
CONTINUOUS
 62
     5
 10
635.00002354929074
 20
-366.5
 30
0.0
 11
635.00002354929074
 21
-724.5
 31
0.0
  0
LINE
  8
DETAIL
  6
CONTINUOUS
 62
     5
 10
635.00002354929074
 20
-727.69999999999891
 30
0.0
 11
635.00002354929074
 21
-728.5
 31
0.0
  0
LINE
  8
DETAIL
  6
CONTINUOUS
 62
     5
 10
635.00002354929074
 20
-363.29999999999927
 30
0.0
 11
635.00002354929074
 21
-286.0
 31
0.0
  0
LINE
  8
DETAIL
  6
CONTINUOUS
 62
     5
 10
635.00002354929074
 20
591.5
 30
0.0
 11
635.00002354929074
 21
811.5
 31
0.0
  0
LINE
  8
DETAIL
  6
CONTINUOUS
 62
     5
 10
634.20002354929045
 20
132.5
 30
0.0
 11
634.20002354929045
 21
-731.5
 31
0.0
  0
LINE
  8
DETAIL
  6
CONTINUOUS
 62
     5
 10
634.20002354929045
 20
-836.5
 30
0.0
 11
634.20002354929045
 21
-841.69999999999891
 31
0.0
  0
LINE
  8
DETAIL
  6
CONTINUOUS
 62
     5
 10
634.00002354929074
 20
132.5
 30
0.0
 11
634.00002354929074
 21
456.5
 31
0.0
  0
LINE
  8
DETAIL
  6
CONTINUOUS
 62
     5
 10
630.00002354929074
 20
587.5
 30
0.0
 11
630.00002354929074
 21
563.30000000000098
 31
0.0
  0
LINE
  8
DETAIL
  6
CONTINUOUS
 62
     5
 10
630.00002354929074
 20
132.30000000000109
 30
0.0
 11
630.00002354929074
 21
-842.5
 31
0.0
  0
LINE
  8
DETAIL
  6
CONTINUOUS
 62
     5
 10
630.00002354929074
 20
815.49999999999989
 30
0.0
 11
630.00002354929074
 21
841.70000000000061
 31
0.0
  0
LINE
  8
DETAIL
  6
CONTINUOUS
 62
     5
 10
629.20002354929045
 20
561.70000000000073
 30
0.0
 11
629.20002354929045
 21
561.5
 31
0.0
  0
LINE
  8
DETAIL
  6
CONTINUOUS
 62
     5
 10
627.00002354929074
 20
132.5
 30
0.0
 11
627.00002354929074
 21
370.15938480390099
 31
0.0
  0
LINE
  8
DETAIL
  6
CONTINUOUS
 62
     5
 10
627.00002354929074
 20
372.0
 30
0.0
 11
627.00002354929074
 21
373.0
 31
0.0
  0
LINE
  8
DETAIL
  6
CONTINUOUS
 62
     5
 10
627.00002354929074
 20
374.84061519610083
 30
0.0
 11
627.00002354929074
 21
456.5
 31
0.0
  0
LINE
  8
DETAIL
  6
CONTINUOUS
 62
     5
 10
626.70002354929045
 20
561.5
 30
0.0
 11
626.70002354929045
 21
556.70000000000073
 31
0.0
  0
LINE
  8
DETAIL
  6
CONTINUOUS
 62
     5
 10
626.00002354929074
 20
563.30000000000098
 30
0.0
 11
626.00002354929074
 21
562.5
 31
0.0
  0
LINE
  8
DETAIL
  6
CONTINUOUS
 62
     5
 10
626.00002354929074
 20
562.5
 30
0.0
 11
626.00002354929074
 21
561.70000000000073
 31
0.0
  0
LINE
  8
DETAIL
  6
CONTINUOUS
 62
     5
 10
625.80002354929093
 20
814.70000000000073
 30
0.0
 11
625.80002354929093
 21
814.49999999999989
 31
0.0
  0
LINE
  8
DETAIL
  6
CONTINUOUS
 62
     5
 10
625.80002354929093
 20
588.49999999999989
 30
0.0
 11
625.80002354929093
 21
588.30000000000098
 31
0.0
  0
LINE
  8
DETAIL
  6
CONTINUOUS
 62
     5
 10
625.20002354929045
 20
561.70000000000073
 30
0.0
 11
625.20002354929045
 21
562.70000000000073
 31
0.0
  0
LINE
  8
DETAIL
  6
CONTINUOUS
 62
     5
 10
625.16574312389093
 20
367.75
 30
0.0
 11
625.16574312389093
 21
377.25
 31
0.0
  0
LINE
  8
DETAIL
  6
CONTINUOUS
 62
     5
 10
625.00002354929074
 20
-842.5
 30
0.0
 11
625.00002354929074
 21
562.5
 31
0.0
  0
LINE
  8
DETAIL
  6
CONTINUOUS
 62
     5
 10
625.00002354929074
 20
562.70000000000073
 30
0.0
 11
625.00002354929074
 21
836.70000000000073
 31
0.0
  0
LINE
  8
DETAIL
  6
CONTINUOUS
 62
     5
 10
624.20002354929056
 20
835.89999999999964
 30
0.0
 11
624.20002354929056
 21
835.70000000000084
 31
0.0
  0
LINE
  8
DETAIL
  6
CONTINUOUS
 62
     5
 10
624.20002354929056
 20
153.5
 30
0.0
 11
624.20002354929056
 21
133.30000000000109
 31
0.0
  0
LINE
  8
DETAIL
  6
CONTINUOUS
 62
     5
 10
624.20002354929056
 20
562.5
 30
0.0
 11
624.20002354929056
 21
563.32226130449988
 31
0.0
  0
LINE
  8
DETAIL
  6
CONTINUOUS
 62
     5
 10
624.20002354929056
 20
564.10000000000025
 30
0.0
 11
624.20002354929056
 21
564.30000000000109
 31
0.0
  0
LINE
  8
DETAIL
  6
CONTINUOUS
 62
     5
 10
624.00002354929074
 20
-837.5
 30
0.0
 11
624.00002354929074
 21
-842.5
 31
0.0
  0
LINE
  8
DETAIL
  6
CONTINUOUS
 62
     5
 10
624.00002354929074
 20
562.5
 30
0.0
 11
624.00002354929074
 21
572.5
 31
0.0
  0
LINE
  8
DETAIL
  6
CONTINUOUS
 62
     5
 10
624.00002354929074
 20
572.5
 30
0.0
 11
624.00002354929074
 21
582.5
 31
0.0
  0
LINE
  8
DETAIL
  6
CONTINUOUS
 62
     5
 10
624.00002354929074
 20
582.5
 30
0.0
 11
624.00002354929074
 21
817.5
 31
0.0
  0
LINE
  8
DETAIL
  6
CONTINUOUS
 62
     5
 10
624.00002354929074
 20
817.5
 30
0.0
 11
624.00002354929074
 21
827.5
 31
0.0
  0
LINE
  8
DETAIL
  6
CONTINUOUS
 62
     5
 10
624.00002354929074
 20
827.5
 30
0.0
 11
624.00002354929074
 21
842.5
 31
0.0
  0
LINE
  8
DETAIL
  6
CONTINUOUS
 62
     5
 10
614.20002354929045
 20
133.30000000000109
 30
0.0
 11
614.20002354929045
 21
153.5
 31
0.0
  0
LINE
  8
DETAIL
  6
CONTINUOUS
 62
     5
 10
612.60002354929009
 20
133.30000000000109
 30
0.0
 11
612.60002354929009
 21
153.5
 31
0.0
  0
LINE
  8
DETAIL
  6
CONTINUOUS
 62
     5
 10
611.00002354929074
 20
133.30000000000109
 30
0.0
 11
611.00002354929074
 21
151.7000000000007
 31
0.0
  0
LINE
  8
DETAIL
  6
CONTINUOUS
 62
     5
 10
611.00002354929074
 20
151.7000000000007
 30
0.0
 11
611.00002354929074
 21
153.5
 31
0.0
  0
LINE
  8
DETAIL
  6
CONTINUOUS
 62
     5
 10
630.00002354929074
 20
77.5
 30
0.0
 11
634.20002354929045
 21
77.5
 31
0.0
  0
LINE
  8
DETAIL
  6
CONTINUOUS
 62
     5
 10
699.00002354929074
 20
109.7000000000007
 30
0.0
 11
634.20002354929045
 21
109.7000000000007
 31
0.0
  0
LINE
  8
DETAIL
  6
CONTINUOUS
 62
     5
 10
700.80002354929093
 20
111.5
 30
0.0
 11
700.00002354929074
 21
111.5
 31
0.0
  0
LINE
  8
DETAIL
  6
CONTINUOUS
 62
     5
 10
700.00002354929074
 20
111.5
 30
0.0
 11
699.00002354929074
 21
111.5
 31
0.0
  0
LINE
  8
DETAIL
  6
CONTINUOUS
 62
     5
 10
-629.99997645070926
 20
111.5
 30
0.0
 11
-630.99997645070926
 21
111.5
 31
0.0
  0
LINE
  8
DETAIL
  6
CONTINUOUS
 62
     5
 10
630.00002354929074
 20
132.30000000000109
 30
0.0
 11
625.00002354929074
 21
132.30000000000109
 31
0.0
  0
LINE
  8
DETAIL
  6
CONTINUOUS
 62
     5
 10
-624.99997645070926
 20
132.30000000000109
 30
0.0
 11
-629.99997645070926
 21
132.30000000000109
 31
0.0
  0
LINE
  8
DETAIL
  6
CONTINUOUS
 62
     5
 10
625.00002354929074
 20
132.5
 30
0.0
 11
634.20002354929045
 21
132.5
 31
0.0
  0
LINE
  8
DETAIL
  6
CONTINUOUS
 62
     5
 10
-624.99997645070926
 20
132.5
 30
0.0
 11
-629.19997645070907
 21
132.5
 31
0.0
  0
LINE
  8
DETAIL
  6
CONTINUOUS
 62
     5
 10
625.00002354929074
 20
133.30000000000109
 30
0.0
 11
-624.99997645070926
 21
133.30000000000109
 31
0.0
  0
LINE
  8
DETAIL
  6
CONTINUOUS
 62
     5
 10
611.00002354929074
 20
151.7000000000007
 30
0.0
 11
-610.99997645070926
 21
151.7000000000007
 31
0.0
  0
LINE
  8
DETAIL
  6
CONTINUOUS
 62
     5
 10
611.00002354929074
 20
152.5
 30
0.0
 11
-610.99997645070926
 21
152.5
 31
0.0
  0
LINE
  8
DETAIL
  6
CONTINUOUS
 62
     5
 10
625.00002354929074
 20
153.5
 30
0.0
 11
-629.99997645070926
 21
153.5
 31
0.0
  0
LINE
  8
DETAIL
  6
CONTINUOUS
 62
     5
 10
440.00002354929069
 20
-859.5
 30
0.0
 11
440.00002354929069
 21
-842.5
 31
0.0
  0
LINE
  8
DETAIL
  6
CONTINUOUS
 62
     5
 10
440.00002354929069
 20
-859.5
 30
0.0
 11
440.00002354929069
 21
-862.5
 31
0.0
  0
LINE
  8
DETAIL
  6
CONTINUOUS
 62
     5
 10
625.16574312389093
 20
367.75
 30
0.0
 11
625.00002354929074
 21
367.75
 31
0.0
  0
LINE
  8
DETAIL
  6
CONTINUOUS
 62
     5
 10
626.97702034469046
 20
370.05000000000109
 30
0.0
 11
626.95415042708998
 21
370.05000000000109
 31
0.0
  0
LINE
  8
DETAIL
  6
CONTINUOUS
 62
     5
 10
627.45821119319044
 20
372.0
 30
0.0
 11
626.95415042708998
 21
372.0
 31
0.0
  0
LINE
  8
DETAIL
  6
CONTINUOUS
 62
     5
 10
626.95415042708998
 20
373.0
 30
0.0
 11
627.45821119319044
 21
373.0
 31
0.0
  0
LINE
  8
DETAIL
  6
CONTINUOUS
 62
     5
 10
626.95415042708998
 20
374.95000000000073
 30
0.0
 11
626.97702034469046
 21
374.95000000000073
 31
0.0
  0
LINE
  8
DETAIL
  6
CONTINUOUS
 62
     5
 10
625.16574312389093
 20
377.25
 30
0.0
 11
625.00002354929074
 21
377.25
 31
0.0
  0
LINE
  8
DETAIL
  6
CONTINUOUS
 62
     5
 10
627.00002354929074
 20
430.49999999999989
 30
0.0
 11
625.00002354929074
 21
430.49999999999989
 31
0.0
  0
LINE
  8
DETAIL
  6
CONTINUOUS
 62
     5
 10
-684.99997645070926
 20
456.5
 30
0.0
 11
-629.99997645070926
 21
456.5
 31
0.0
  0
LINE
  8
DETAIL
  6
CONTINUOUS
 62
     5
 10
685.20002354929045
 20
456.5
 30
0.0
 11
625.00002354929074
 21
456.5
 31
0.0
  0
LINE
  8
DETAIL
  6
CONTINUOUS
 62
     5
 10
700.80002354929093
 20
466.5
 30
0.0
 11
700.00002354929074
 21
466.5
 31
0.0
  0
LINE
  8
DETAIL
  6
CONTINUOUS
 62
     5
 10
700.00002354929074
 20
496.49999999999989
 30
0.0
 11
699.00002354929074
 21
496.49999999999989
 31
0.0
  0
LINE
  8
DETAIL
  6
CONTINUOUS
 62
     5
 10
685.20002354929045
 20
497.5
 30
0.0
 11
699.00002354929074
 21
497.5
 31
0.0
  0
LINE
  8
DETAIL
  6
CONTINUOUS
 62
     5
 10
685.80002354929093
 20
498.30000000000109
 30
0.0
 11
692.00002354929074
 21
498.30000000000109
 31
0.0
  0
LINE
  8
DETAIL
  6
CONTINUOUS
 62
     5
 10
-684.99997645070926
 20
525.49999999999989
 30
0.0
 11
-669.79997645070944
 21
525.49999999999989
 31
0.0
  0
LINE
  8
DETAIL
  6
CONTINUOUS
 62
     5
 10
685.20002354929045
 20
525.49999999999989
 30
0.0
 11
669.20002354929045
 21
525.49999999999989
 31
0.0
  0
LINE
  8
DETAIL
  6
CONTINUOUS
 62
     5
 10
-684.99997645070926
 20
537.5
 30
0.0
 11
-669.79997645070944
 21
537.5
 31
0.0
  0
LINE
  8
DETAIL
  6
CONTINUOUS
 62
     5
 10
685.20002354929045
 20
537.5
 30
0.0
 11
669.20002354929045
 21
537.5
 31
0.0
  0
LINE
  8
DETAIL
  6
CONTINUOUS
 62
     5
 10
625.00002354929074
 20
556.70000000000073
 30
0.0
 11
626.70002354929045
 21
556.70000000000073
 31
0.0
  0
LINE
  8
DETAIL
  6
CONTINUOUS
 62
     5
 10
-684.99997645070926
 20
559.0
 30
0.0
 11
-682.69997645070907
 21
559.0
 31
0.0
  0
LINE
  8
DETAIL
  6
CONTINUOUS
 62
     5
 10
685.20002354929045
 20
559.0
 30
0.0
 11
682.70002354929056
 21
559.0
 31
0.0
  0
LINE
  8
DETAIL
  6
CONTINUOUS
 62
     5
 10
-682.69997645070907
 20
561.5
 30
0.0
 11
-629.99997645070926
 21
561.5
 31
0.0
  0
LINE
  8
DETAIL
  6
CONTINUOUS
 62
     5
 10
626.70002354929045
 20
561.5
 30
0.0
 11
682.70002354929056
 21
561.5
 31
0.0
  0
LINE
  8
DETAIL
  6
CONTINUOUS
 62
     5
 10
625.00002354929074
 20
561.70000000000073
 30
0.0
 11
629.20002354929045
 21
561.70000000000073
 31
0.0
  0
LINE
  8
DETAIL
  6
CONTINUOUS
 62
     5
 10
625.20002354929045
 20
562.5
 30
0.0
 11
626.00002354929074
 21
562.5
 31
0.0
  0
LINE
  8
DETAIL
  6
CONTINUOUS
 62
     5
 10
625.00002354929074
 20
562.5
 30
0.0
 11
-624.99997645070926
 21
562.5
 31
0.0
  0
LINE
  8
DETAIL
  6
CONTINUOUS
 62
     5
 10
625.20002354929045
 20
562.70000000000073
 30
0.0
 11
624.20002354929056
 21
562.70000000000073
 31
0.0
  0
LINE
  8
DETAIL
  6
CONTINUOUS
 62
     5
 10
-624.19997645070907
 20
562.70000000000073
 30
0.0
 11
-624.99997645070926
 21
562.70000000000073
 31
0.0
  0
LINE
  8
DETAIL
  6
CONTINUOUS
 62
     5
 10
625.00002354929074
 20
563.30000000000098
 30
0.0
 11
630.00002354929074
 21
563.30000000000098
 31
0.0
  0
LINE
  8
DETAIL
  6
CONTINUOUS
 62
     5
 10
-624.99997645070926
 20
563.49999999999989
 30
0.0
 11
-624.59423611960926
 21
563.49999999999989
 31
0.0
  0
LINE
  8
DETAIL
  6
CONTINUOUS
 62
     5
 10
624.59428321809082
 20
563.49999999999989
 30
0.0
 11
625.00002354929074
 21
563.49999999999989
 31
0.0
  0
LINE
  8
DETAIL
  6
CONTINUOUS
 62
     5
 10
-624.19997645070907
 20
564.10000000000025
 30
0.0
 11
-623.99997645070926
 21
564.10000000000025
 31
0.0
  0
LINE
  8
DETAIL
  6
CONTINUOUS
 62
     5
 10
624.20002354929056
 20
564.10000000000025
 30
0.0
 11
624.00002354929074
 21
564.10000000000025
 31
0.0
  0
LINE
  8
DETAIL
  6
CONTINUOUS
 62
     5
 10
624.00002354929074
 20
564.30000000000109
 30
0.0
 11
625.00002354929074
 21
564.30000000000109
 31
0.0
  0
LINE
  8
DETAIL
  6
CONTINUOUS
 62
     5
 10
-623.99997645070926
 20
564.30000000000109
 30
0.0
 11
-624.99997645070926
 21
564.30000000000109
 31
0.0
  0
LINE
  8
DETAIL
  6
CONTINUOUS
 62
     5
 10
-623.99997645070926
 20
567.49999999999989
 30
0.0
 11
624.00002354929074
 21
567.49999999999989
 31
0.0
  0
LINE
  8
DETAIL
  6
CONTINUOUS
 62
     5
 10
-624.99997645070926
 20
567.49999999999989
 30
0.0
 11
-629.99997645070926
 21
567.49999999999989
 31
0.0
  0
LINE
  8
DETAIL
  6
CONTINUOUS
 62
     5
 10
-623.99997645070926
 20
572.5
 30
0.0
 11
-617.99997645070926
 21
572.5
 31
0.0
  0
LINE
  8
DETAIL
  6
CONTINUOUS
 62
     5
 10
624.00002354929074
 20
572.5
 30
0.0
 11
618.00002354929074
 21
572.5
 31
0.0
  0
LINE
  8
DETAIL
  6
CONTINUOUS
 62
     5
 10
-623.99997645070926
 20
582.5
 30
0.0
 11
-617.99997645070926
 21
582.5
 31
0.0
  0
LINE
  8
DETAIL
  6
CONTINUOUS
 62
     5
 10
624.00002354929074
 20
582.5
 30
0.0
 11
618.00002354929074
 21
582.5
 31
0.0
  0
LINE
  8
DETAIL
  6
CONTINUOUS
 62
     5
 10
635.00002354929074
 20
587.5
 30
0.0
 11
630.00002354929074
 21
587.5
 31
0.0
  0
LINE
  8
DETAIL
  6
CONTINUOUS
 62
     5
 10
630.00002354929074
 20
587.5
 30
0.0
 11
624.00002354929074
 21
587.5
 31
0.0
  0
LINE
  8
DETAIL
  6
CONTINUOUS
 62
     5
 10
635.80002354929093
 20
588.30000000000098
 30
0.0
 11
625.80002354929093
 21
588.30000000000098
 31
0.0
  0
LINE
  8
DETAIL
  6
CONTINUOUS
 62
     5
 10
632.00002354929074
 20
588.49999999999989
 30
0.0
 11
625.00002354929074
 21
588.49999999999989
 31
0.0
  0
LINE
  8
DETAIL
  6
CONTINUOUS
 62
     5
 10
625.00002354929074
 20
606.5
 30
0.0
 11
624.00002354929074
 21
606.5
 31
0.0
  0
LINE
  8
DETAIL
  6
CONTINUOUS
 62
     5
 10
-559.99997645070926
 20
-862.5
 30
0.0
 11
-559.99997645070926
 21
-859.5
 31
0.0
  0
LINE
  8
DETAIL
  6
CONTINUOUS
 62
     5
 10
-559.99997645070926
 20
-859.5
 30
0.0
 11
-559.99997645070926
 21
-842.5
 31
0.0
  0
LINE
  8
DETAIL
  6
CONTINUOUS
 62
     5
 10
624.00002354929074
 20
796.49999999999989
 30
0.0
 11
625.00002354929074
 21
796.49999999999989
 31
0.0
  0
LINE
  8
DETAIL
  6
CONTINUOUS
 62
     5
 10
632.00002354929074
 20
814.49999999999989
 30
0.0
 11
625.00002354929074
 21
814.49999999999989
 31
0.0
  0
LINE
  8
DETAIL
  6
CONTINUOUS
 62
     5
 10
635.80002354929093
 20
814.70000000000073
 30
0.0
 11
625.80002354929093
 21
814.70000000000073
 31
0.0
  0
LINE
  8
DETAIL
  6
CONTINUOUS
 62
     5
 10
624.00002354929074
 20
815.49999999999989
 30
0.0
 11
630.00002354929074
 21
815.49999999999989
 31
0.0
  0
LINE
  8
DETAIL
  6
CONTINUOUS
 62
     5
 10
635.00002354929074
 20
815.49999999999989
 30
0.0
 11
630.00002354929074
 21
815.49999999999989
 31
0.0
  0
LINE
  8
DETAIL
  6
CONTINUOUS
 62
     5
 10
-623.99997645070926
 20
817.5
 30
0.0
 11
-617.99997645070926
 21
817.5
 31
0.0
  0
LINE
  8
DETAIL
  6
CONTINUOUS
 62
     5
 10
624.00002354929074
 20
817.5
 30
0.0
 11
618.00002354929074
 21
817.5
 31
0.0
  0
LINE
  8
DETAIL
  6
CONTINUOUS
 62
     5
 10
-623.99997645070926
 20
827.5
 30
0.0
 11
-617.99997645070926
 21
827.5
 31
0.0
  0
LINE
  8
DETAIL
  6
CONTINUOUS
 62
     5
 10
624.00002354929074
 20
827.5
 30
0.0
 11
618.00002354929074
 21
827.5
 31
0.0
  0
LINE
  8
DETAIL
  6
CONTINUOUS
 62
     5
 10
624.00002354929074
 20
835.70000000000084
 30
0.0
 11
625.00002354929074
 21
835.70000000000084
 31
0.0
  0
LINE
  8
DETAIL
  6
CONTINUOUS
 62
     5
 10
-623.99997645070926
 20
835.70000000000084
 30
0.0
 11
-624.99997645070926
 21
835.70000000000084
 31
0.0
  0
LINE
  8
DETAIL
  6
CONTINUOUS
 62
     5
 10
-624.19997645070907
 20
835.89999999999964
 30
0.0
 11
-623.99997645070926
 21
835.89999999999964
 31
0.0
  0
LINE
  8
DETAIL
  6
CONTINUOUS
 62
     5
 10
624.20002354929056
 20
835.89999999999964
 30
0.0
 11
624.00002354929074
 21
835.89999999999964
 31
0.0
  0
LINE
  8
DETAIL
  6
CONTINUOUS
 62
     5
 10
624.00002354929074
 20
836.70000000000073
 30
0.0
 11
630.00002354929074
 21
836.70000000000073
 31
0.0
  0
LINE
  8
DETAIL
  6
CONTINUOUS
 62
     5
 10
-623.99997645070926
 20
836.70000000000073
 30
0.0
 11
-629.99997645070926
 21
836.70000000000073
 31
0.0
  0
LINE
  8
DETAIL
  6
CONTINUOUS
 62
     5
 10
-623.99997645070926
 20
837.5
 30
0.0
 11
624.00002354929074
 21
837.5
 31
0.0
  0
LINE
  8
DETAIL
  6
CONTINUOUS
 62
     5
 10
-629.99997645070926
 20
841.70000000000061
 30
0.0
 11
-623.99997645070926
 21
841.70000000000061
 31
0.0
  0
LINE
  8
DETAIL
  6
CONTINUOUS
 62
     5
 10
624.00002354929074
 20
841.70000000000061
 30
0.0
 11
630.00002354929074
 21
841.70000000000061
 31
0.0
  0
LINE
  8
DETAIL
  6
CONTINUOUS
 62
     5
 10
-623.99997645070926
 20
842.5
 30
0.0
 11
624.00002354929074
 21
842.5
 31
0.0
  0
LINE
  8
DETAIL
  6
CONTINUOUS
 62
     5
 10
-610.99997645070926
 20
133.30000000000109
 30
0.0
 11
-610.99997645070926
 21
151.7000000000007
 31
0.0
  0
LINE
  8
DETAIL
  6
CONTINUOUS
 62
     5
 10
-610.99997645070926
 20
151.7000000000007
 30
0.0
 11
-610.99997645070926
 21
153.5
 31
0.0
  0
LINE
  8
DETAIL
  6
CONTINUOUS
 62
     5
 10
-612.59997645070962
 20
153.5
 30
0.0
 11
-612.59997645070962
 21
133.30000000000109
 31
0.0
  0
LINE
  8
DETAIL
  6
CONTINUOUS
 62
     5
 10
-614.19997645070896
 20
133.30000000000109
 30
0.0
 11
-614.19997645070896
 21
153.5
 31
0.0
  0
LINE
  8
DETAIL
  6
CONTINUOUS
 62
     5
 10
-623.99997645070926
 20
842.5
 30
0.0
 11
-623.99997645070926
 21
827.5
 31
0.0
  0
LINE
  8
DETAIL
  6
CONTINUOUS
 62
     5
 10
-623.99997645070926
 20
817.5
 30
0.0
 11
-623.99997645070926
 21
582.5
 31
0.0
  0
LINE
  8
DETAIL
  6
CONTINUOUS
 62
     5
 10
-623.99997645070926
 20
572.5
 30
0.0
 11
-623.99997645070926
 21
562.5
 31
0.0
  0
LINE
  8
DETAIL
  6
CONTINUOUS
 62
     5
 10
-623.99997645070926
 20
-837.5
 30
0.0
 11
-623.99997645070926
 21
-842.5
 31
0.0
  0
LINE
  8
DETAIL
  6
CONTINUOUS
 62
     5
 10
-623.99997645070926
 20
572.5
 30
0.0
 11
-623.99997645070926
 21
582.5
 31
0.0
  0
LINE
  8
DETAIL
  6
CONTINUOUS
 62
     5
 10
-623.99997645070926
 20
817.5
 30
0.0
 11
-623.99997645070926
 21
827.5
 31
0.0
  0
LINE
  8
DETAIL
  6
CONTINUOUS
 62
     5
 10
-624.19997645070907
 20
835.89999999999964
 30
0.0
 11
-624.19997645070907
 21
835.70000000000084
 31
0.0
  0
LINE
  8
DETAIL
  6
CONTINUOUS
 62
     5
 10
-624.19997645070907
 20
564.30000000000109
 30
0.0
 11
-624.19997645070907
 21
564.10000000000025
 31
0.0
  0
LINE
  8
DETAIL
  6
CONTINUOUS
 62
     5
 10
-624.19997645070907
 20
133.30000000000109
 30
0.0
 11
-624.19997645070907
 21
153.5
 31
0.0
  0
LINE
  8
DETAIL
  6
CONTINUOUS
 62
     5
 10
-624.19997645070907
 20
562.5
 30
0.0
 11
-624.19997645070907
 21
563.32226130449988
 31
0.0
  0
LINE
  8
DETAIL
  6
CONTINUOUS
 62
     5
 10
-624.99997645070926
 20
-842.5
 30
0.0
 11
-624.99997645070926
 21
133.30000000000109
 31
0.0
  0
LINE
  8
DETAIL
  6
CONTINUOUS
 62
     5
 10
-624.99997645070926
 20
153.5
 30
0.0
 11
-624.99997645070926
 21
836.70000000000073
 31
0.0
  0
LINE
  8
DETAIL
  6
CONTINUOUS
 62
     5
 10
-629.19997645070907
 20
132.30000000000109
 30
0.0
 11
-629.19997645070907
 21
153.5
 31
0.0
  0
LINE
  8
DETAIL
  6
CONTINUOUS
 62
     5
 10
-629.99997645070926
 20
-842.5
 30
0.0
 11
-629.99997645070926
 21
132.30000000000109
 31
0.0
  0
LINE
  8
DETAIL
  6
CONTINUOUS
 62
     5
 10
-629.99997645070926
 20
153.5
 30
0.0
 11
-629.99997645070926
 21
841.70000000000061
 31
0.0
  0
LINE
  8
DETAIL
  6
CONTINUOUS
 62
     5
 10
-630.99997645070926
 20
-838.29999999999916
 30
0.0
 11
-630.99997645070926
 21
-836.5
 31
0.0
  0
LINE
  8
DETAIL
  6
CONTINUOUS
 62
     5
 10
-630.99997645070926
 20
-731.5
 30
0.0
 11
-630.99997645070926
 21
111.5
 31
0.0
  0
LINE
  8
DETAIL
  6
CONTINUOUS
 62
     5
 10
-655.79997645070944
 20
-814.49999999999989
 30
0.0
 11
-655.79997645070944
 21
-798.5
 31
0.0
  0
LINE
  8
DETAIL
  6
CONTINUOUS
 62
     5
 10
-655.79997645070944
 20
523.5
 30
0.0
 11
-655.79997645070944
 21
539.5
 31
0.0
  0
LINE
  8
DETAIL
  6
CONTINUOUS
 62
     5
 10
-669.79997645070944
 20
539.5
 30
0.0
 11
-669.79997645070944
 21
537.5
 31
0.0
  0
LINE
  8
DETAIL
  6
CONTINUOUS
 62
     5
 10
-669.79997645070944
 20
525.49999999999989
 30
0.0
 11
-669.79997645070944
 21
523.5
 31
0.0
  0
LINE
  8
DETAIL
  6
CONTINUOUS
 62
     5
 10
-669.79997645070944
 20
-798.5
 30
0.0
 11
-669.79997645070944
 21
-800.5
 31
0.0
  0
LINE
  8
DETAIL
  6
CONTINUOUS
 62
     5
 10
-669.79997645070944
 20
-812.5
 30
0.0
 11
-669.79997645070944
 21
-814.49999999999989
 31
0.0
  0
LINE
  8
DETAIL
  6
CONTINUOUS
 62
     5
 10
-682.69997645070907
 20
561.5
 30
0.0
 11
-682.69997645070907
 21
559.0
 31
0.0
  0
LINE
  8
DETAIL
  6
CONTINUOUS
 62
     5
 10
-682.69997645070907
 20
-836.5
 30
0.0
 11
-682.69997645070907
 21
-834.0
 31
0.0
  0
LINE
  8
DETAIL
  6
CONTINUOUS
 62
     5
 10
-684.99997645070926
 20
-834.0
 30
0.0
 11
-684.99997645070926
 21
-812.5
 31
0.0
  0
LINE
  8
DETAIL
  6
CONTINUOUS
 62
     5
 10
-684.99997645070926
 20
-800.5
 30
0.0
 11
-684.99997645070926
 21
-731.5
 31
0.0
  0
LINE
  8
DETAIL
  6
CONTINUOUS
 62
     5
 10
-684.99997645070926
 20
456.5
 30
0.0
 11
-684.99997645070926
 21
525.49999999999989
 31
0.0
  0
LINE
  8
DETAIL
  6
CONTINUOUS
 62
     5
 10
-684.99997645070926
 20
537.5
 30
0.0
 11
-684.99997645070926
 21
559.0
 31
0.0
  0
ARC
  8
DETAIL
  6
CONTINUOUS
 62
     5
 10
621.50002354929074
 20
372.5
 30
0.0
 40
5.9791303716003812
 50
335.81032961373012
 51
355.20308428928331
  0
ARC
  8
DETAIL
  6
CONTINUOUS
 62
     5
 10
621.50002354929074
 20
372.5
 30
0.0
 40
6.0000000000002149
 50
24.159550894019318
 51
52.341537993812658
  0
ARC
  8
DETAIL
  6
CONTINUOUS
 62
     5
 10
621.50002354929074
 20
372.5
 30
0.0
 40
5.4769973526001294
 50
354.7621242190362
 51
5.2378757809637566
  0
ARC
  8
DETAIL
  6
CONTINUOUS
 62
     5
 10
621.50002354929074
 20
372.5
 30
0.0
 40
5.9999999999998366
 50
307.65846200618728
 51
335.84044910598072
  0
ARC
  8
DETAIL
  6
CONTINUOUS
 62
     5
 10
621.50002354929074
 20
372.5
 30
0.0
 40
5.9791303716004167
 50
4.796915710716612
 51
24.189670386269938
  0
ARC
  8
DETAIL
  6
CONTINUOUS
 62
     5
 10
626.70002354929045
 20
556.70000000000073
 30
0.0
 40
0.2000000000000455
 50
90.0
 51
173.53121626158671
  0
ARC
  8
DETAIL
  6
CONTINUOUS
 62
     5
 10
624.00002354929074
 20
835.70000000000084
 30
0.0
 40
0.1999999999998181
 50
0.0
 51
90.0
  0
ARC
  8
DETAIL
  6
CONTINUOUS
 62
     5
 10
699.00002354929074
 20
111.5
 30
0.0
 40
0.2000000000000455
 50
270.0
 51
0.0
  0
ARC
  8
DETAIL
  6
CONTINUOUS
 62
     5
 10
699.00002354929074
 20
496.49999999999989
 30
0.0
 40
0.1999999999998181
 50
0.0
 51
90.0
  0
ARC
  8
DETAIL
  6
CONTINUOUS
 62
     5
 10
685.80002354929093
 20
497.5
 30
0.0
 40
0.7999999999999546
 50
90.0
 51
139.03299095134611
  0
ARC
  8
DETAIL
  6
CONTINUOUS
 62
     5
 10
-617.99997645070926
 20
822.49999999999989
 30
0.0
 40
5.0
 50
270.0
 51
90.0
  0
ARC
  8
DETAIL
  6
CONTINUOUS
 62
     5
 10
-617.99997645070926
 20
577.5
 30
0.0
 40
5.0
 50
270.0
 51
90.0
  0
ARC
  8
DETAIL
  6
CONTINUOUS
 62
     5
 10
618.00002354929074
 20
577.5
 30
0.0
 40
5.0
 50
90.0
 51
270.0
  0
ARC
  8
DETAIL
  6
CONTINUOUS
 62
     5
 10
618.00002354929074
 20
822.49999999999989
 30
0.0
 40
5.0
 50
90.0
 51
270.0
  0
ARC
  8
DETAIL
  6
CONTINUOUS
 62
     5
 10
632.00002354929074
 20
591.5
 30
0.0
 40
3.0
 50
270.0
 51
0.0
  0
ARC
  8
DETAIL
  6
CONTINUOUS
 62
     5
 10
632.00002354929074
 20
811.5
 30
0.0
 40
3.0
 50
0.0
 51
90.0
  0
ARC
  8
DETAIL
  6
CONTINUOUS
 62
     5
 10
626.00002354929074
 20
588.49999999999989
 30
0.0
 40
1.0
 50
180.0
 51
270.0
  0
ARC
  8
DETAIL
  6
CONTINUOUS
 62
     5
 10
626.00002354929074
 20
814.49999999999989
 30
0.0
 40
1.0
 50
90.0
 51
180.0
  0
ARC
  8
DETAIL
  6
CONTINUOUS
 62
     5
 10
632.00002354929074
 20
-366.5
 30
0.0
 40
3.0
 50
0.0
 51
42.683548058013592
  0
ARC
  8
DETAIL
  6
CONTINUOUS
 62
     5
 10
632.00002354929074
 20
-724.5
 30
0.0
 40
2.9999999999997682
 50
317.3167782061069
 51
0.0
  0
ARC
  8
DETAIL
  6
CONTINUOUS
 62
     5
 10
-662.79997645070944
 20
-814.49999999999989
 30
0.0
 40
7.0
 50
180.0
 51
0.0
  0
ARC
  8
DETAIL
  6
CONTINUOUS
 62
     5
 10
-662.79997645070944
 20
-798.5
 30
0.0
 40
7.0
 50
0.0
 51
180.0
  0
ARC
  8
DETAIL
  6
CONTINUOUS
 62
     5
 10
662.20002354929045
 20
-798.5
 30
0.0
 40
7.0
 50
0.0
 51
180.0
  0
ARC
  8
DETAIL
  6
CONTINUOUS
 62
     5
 10
662.20002354929045
 20
-814.49999999999989
 30
0.0
 40
7.0
 50
180.0
 51
0.0
  0
ARC
  8
DETAIL
  6
CONTINUOUS
 62
     5
 10
-662.79997645070944
 20
523.5
 30
0.0
 40
7.0
 50
180.0
 51
0.0
  0
ARC
  8
DETAIL
  6
CONTINUOUS
 62
     5
 10
-662.79997645070944
 20
539.5
 30
0.0
 40
7.0
 50
0.0
 51
180.0
  0
ARC
  8
DETAIL
  6
CONTINUOUS
 62
     5
 10
662.20002354929045
 20
539.5
 30
0.0
 40
7.0
 50
0.0
 51
180.0
  0
ARC
  8
DETAIL
  6
CONTINUOUS
 62
     5
 10
662.20002354929045
 20
523.5
 30
0.0
 40
7.0
 50
180.0
 51
0.0
  0
ARC
  8
DETAIL
  6
CONTINUOUS
 62
     5
 10
626.70002354929045
 20
556.70000000000073
 30
0.0
 40
2.5
 50
90.0
 51
133.15286463843881
  0
CIRCLE
  8
DETAIL
  6
CONTINUOUS
 62
     5
 10
-617.99997645070926
 20
822.49999999999989
 30
0.0
 40
1.449999999999988
  0
CIRCLE
  8
DETAIL
  6
CONTINUOUS
 62
     5
 10
-617.99997645070926
 20
577.5
 30
0.0
 40
1.450000000000002
  0
ARC
  8
DETAIL
  6
CONTINUOUS
 62
     5
 10
-623.99997645070926
 20
835.70000000000084
 30
0.0
 40
0.9999999999999953
 50
91.007374041381965
 51
180.0
  0
ARC
  8
DETAIL
  6
CONTINUOUS
 62
     5
 10
-623.99997645070926
 20
564.30000000000109
 30
0.0
 40
1.0
 50
180.0
 51
270.0
  0
CIRCLE
  8
DETAIL
  6
CONTINUOUS
 62
     5
 10
618.00002354929074
 20
577.5
 30
0.0
 40
1.450000000000002
  0
CIRCLE
  8
DETAIL
  6
CONTINUOUS
 62
     5
 10
618.00002354929074
 20
822.49999999999989
 30
0.0
 40
1.449999999999988
  0
ARC
  8
DETAIL
  6
CONTINUOUS
 62
     5
 10
624.00002354929074
 20
835.70000000000084
 30
0.0
 40
1.0
 50
0.0
 51
88.992625958512917
  0
ARC
  8
DETAIL
  6
CONTINUOUS
 62
     5
 10
624.00002354929074
 20
564.30000000000109
 30
0.0
 40
1.0
 50
270.0
 51
0.0
  0
ARC
  8
DETAIL
  6
CONTINUOUS
 62
     5
 10
699.00002354929074
 20
111.5
 30
0.0
 40
0.9999999999999539
 50
271.13200221667131
 51
0.0
  0
ARC
  8
DETAIL
  6
CONTINUOUS
 62
     5
 10
699.00002354929074
 20
496.49999999999989
 30
0.0
 40
1.0
 50
0.0
 51
90.0
  0
CIRCLE
  8
DETAIL
  6
CONTINUOUS
 62
     5
 10
618.00002354929074
 20
822.49999999999989
 30
0.0
 40
2.5
  0
CIRCLE
  8
DETAIL
  6
CONTINUOUS
 62
     5
 10
618.00002354929074
 20
577.5
 30
0.0
 40
2.5
  0
CIRCLE
  8
DETAIL
  6
CONTINUOUS
 62
     5
 10
-617.99997645070926
 20
822.49999999999989
 30
0.0
 40
2.5
  0
CIRCLE
  8
DETAIL
  6
CONTINUOUS
 62
     5
 10
-617.99997645070926
 20
577.5
 30
0.0
 40
2.5
  0
CIRCLE
  8
DETAIL
  6
CONTINUOUS
 62
     5
 10
-109.9999764507092
 20
-852.5
 30
0.0
 40
1.450000000000045
  0
CIRCLE
  8
DETAIL
  6
CONTINUOUS
 62
     5
 10
-9.999976450709255
 20
-852.5
 30
0.0
 40
1.450000000000045
  0
CIRCLE
  8
DETAIL
  6
CONTINUOUS
 62
     5
 10
90.000023549290745
 20
-852.5
 30
0.0
 40
1.450000000000045
  0
CIRCLE
  8
DETAIL
  6
CONTINUOUS
 62
     5
 10
190.00002354929069
 20
-852.5
 30
0.0
 40
1.450000000000045
  0
CIRCLE
  8
DETAIL
  6
CONTINUOUS
 62
     5
 10
290.00002354929069
 20
-852.5
 30
0.0
 40
1.450000000000045
  0
CIRCLE
  8
DETAIL
  6
CONTINUOUS
 62
     5
 10
390.0000235492908
 20
-852.5
 30
0.0
 40
1.450000000000045
  0
LINE
  8
DETAIL
  6
CONTINUOUS
 62
     5
 10
635.80002354929002
 20
-683.49999999999989
 30
0.0
 11
640.00002354929074
 21
-683.49999999999989
 31
0.0
  0
LINE
  8
DETAIL
  6
CONTINUOUS
 62
     5
 10
650.00002354929074
 20
-683.49999999999989
 30
0.0
 11
645.00002354929074
 21
-684.0
 31
0.0
  0
LINE
  8
DETAIL
  6
CONTINUOUS
 62
     5
 10
645.00002354929074
 20
-683.49999999999989
 30
0.0
 11
640.00002354929074
 21
-684.0
 31
0.0
  0
LINE
  8
DETAIL
  6
CONTINUOUS
 62
     5
 10
635.80002354929002
 20
-651.5
 30
0.0
 11
640.00002354929074
 21
-651.5
 31
0.0
  0
LINE
  8
DETAIL
  6
CONTINUOUS
 62
     5
 10
645.00002354929074
 20
-651.5
 30
0.0
 11
640.00002354929074
 21
-651.0
 31
0.0
  0
LINE
  8
DETAIL
  6
CONTINUOUS
 62
     5
 10
650.00002354929074
 20
-651.5
 30
0.0
 11
645.00002354929074
 21
-651.0
 31
0.0
  0
LINE
  8
DETAIL
  6
CONTINUOUS
 62
     5
 10
650.00002354929074
 20
-503.5
 30
0.0
 11
645.00002354929074
 21
-504.0
 31
0.0
  0
LINE
  8
DETAIL
  6
CONTINUOUS
 62
     5
 10
645.00002354929074
 20
-503.5
 30
0.0
 11
640.00002354929074
 21
-504.0
 31
0.0
  0
LINE
  8
DETAIL
  6
CONTINUOUS
 62
     5
 10
635.80002354929002
 20
-503.5
 30
0.0
 11
640.00002354929074
 21
-503.5
 31
0.0
  0
LINE
  8
DETAIL
  6
CONTINUOUS
 62
     5
 10
635.80002354929002
 20
-471.49999999999989
 30
0.0
 11
640.00002354929074
 21
-471.49999999999989
 31
0.0
  0
LINE
  8
DETAIL
  6
CONTINUOUS
 62
     5
 10
645.00002354929074
 20
-471.49999999999989
 30
0.0
 11
640.00002354929074
 21
-471.0
 31
0.0
  0
LINE
  8
DETAIL
  6
CONTINUOUS
 62
     5
 10
650.00002354929074
 20
-471.49999999999989
 30
0.0
 11
645.00002354929074
 21
-471.0
 31
0.0
  0
LINE
  8
DETAIL
  6
CONTINUOUS
 62
     5
 10
635.00002354929074
 20
-362.0
 30
0.0
 11
692.63267155023448
 21
-362.0
 31
0.0
  0
LINE
  8
DETAIL
  6
CONTINUOUS
 62
     5
 10
634.20002354929045
 20
-330.16543054529939
 30
0.0
 11
658.00002354929074
 21
-329.75
 31
0.0
  0
LINE
  8
DETAIL
  6
CONTINUOUS
 62
     5
 10
634.20002354929045
 20
-337.0
 30
0.0
 11
692.63267155023448
 21
-337.0
 31
0.0
  0
LINE
  8
DETAIL
  6
CONTINUOUS
 62
     5
 10
658.00002354929074
 20
-329.5
 30
0.0
 11
682.50002354929074
 21
-329.5
 31
0.0
  0
LINE
  8
DETAIL
  6
CONTINUOUS
 62
     5
 10
658.00002354929074
 20
-297.5
 30
0.0
 11
682.50002354929074
 21
-297.5
 31
0.0
  0
LINE
  8
DETAIL
  6
CONTINUOUS
 62
     5
 10
634.20002354929045
 20
-296.83456945469879
 30
0.0
 11
658.00002354929074
 21
-297.25
 31
0.0
  0
LINE
  8
DETAIL
  6
CONTINUOUS
 62
     5
 10
683.00002354929074
 20
-298.0
 30
0.0
 11
683.00002354929074
 21
-329.0
 31
0.0
  0
LINE
  8
DETAIL
  6
CONTINUOUS
 62
     5
 10
658.00002354929074
 20
-297.25
 30
0.0
 11
658.00002354929074
 21
-329.75
 31
0.0
  0
LINE
  8
DETAIL
  6
CONTINUOUS
 62
     5
 10
650.00002354929074
 20
-683.49999999999989
 30
0.0
 11
650.00002354929074
 21
-651.5
 31
0.0
  0
LINE
  8
DETAIL
  6
CONTINUOUS
 62
     5
 10
650.00002354929074
 20
-503.5
 30
0.0
 11
650.00002354929074
 21
-471.49999999999989
 31
0.0
  0
LINE
  8
DETAIL
  6
CONTINUOUS
 62
     5
 10
645.00002354929074
 20
-684.0
 30
0.0
 11
645.00002354929074
 21
-651.0
 31
0.0
  0
LINE
  8
DETAIL
  6
CONTINUOUS
 62
     5
 10
645.00002354929074
 20
-504.0
 30
0.0
 11
645.00002354929074
 21
-471.0
 31
0.0
  0
LINE
  8
DETAIL
  6
CONTINUOUS
 62
     5
 10
640.00002354929074
 20
-684.0
 30
0.0
 11
640.00002354929074
 21
-651.0
 31
0.0
  0
LINE
  8
DETAIL
  6
CONTINUOUS
 62
     5
 10
640.00002354929074
 20
-504.0
 30
0.0
 11
640.00002354929074
 21
-471.0
 31
0.0
  0
LINE
  8
DETAIL
  6
CONTINUOUS
 62
     5
 10
550.00002354929074
 20
842.5
 30
0.0
 11
550.00002354929074
 21
862.5
 31
0.0
  0
LINE
  8
DETAIL
  6
CONTINUOUS
 62
     5
 10
549.20002354929056
 20
862.5
 30
0.0
 11
549.20002354929056
 21
860.30000000000098
 31
0.0
  0
LINE
  8
DETAIL
  6
CONTINUOUS
 62
     5
 10
547.00002354929074
 20
862.5
 30
0.0
 11
550.00002354929074
 21
859.5
 31
0.0
  0
LINE
  8
DETAIL
  6
CONTINUOUS
 62
     5
 10
550.00002354929074
 20
862.5
 30
0.0
 11
-549.99997645070926
 21
862.5
 31
0.0
  0
LINE
  8
DETAIL
  6
CONTINUOUS
 62
     5
 10
-549.19997645070907
 20
860.30000000000098
 30
0.0
 11
-549.19997645070907
 21
862.5
 31
0.0
  0
LINE
  8
DETAIL
  6
CONTINUOUS
 62
     5
 10
-549.99997645070926
 20
862.5
 30
0.0
 11
-549.99997645070926
 21
842.5
 31
0.0
  0
LINE
  8
DETAIL
  6
CONTINUOUS
 62
     5
 10
-549.99997645070926
 20
859.5
 30
0.0
 11
-546.99997645070926
 21
862.5
 31
0.0
  0
ARC
  8
DETAIL
  6
CONTINUOUS
 62
     5
 10
682.50002354929074
 20
-298.0
 30
0.0
 40
0.5
 50
0.0
 51
90.0
  0
ARC
  8
DETAIL
  6
CONTINUOUS
 62
     5
 10
682.50002354929074
 20
-329.0
 30
0.0
 40
0.5
 50
270.0
 51
0.0
  0
CIRCLE
  8
DETAIL
  6
CONTINUOUS
 62
     5
 10
-99.999976450709255
 20
852.5
 30
0.0
 40
1.449999999999988
  0
CIRCLE
  8
DETAIL
  6
CONTINUOUS
 62
     5
 10
0.000023549290745
 20
852.5
 30
0.0
 40
1.449999999999988
  0
CIRCLE
  8
DETAIL
  6
CONTINUOUS
 62
     5
 10
100.0000235492907
 20
852.5
 30
0.0
 40
1.449999999999988
  0
CIRCLE
  8
DETAIL
  6
CONTINUOUS
 62
     5
 10
200.00002354929069
 20
852.5
 30
0.0
 40
1.449999999999988
  0
CIRCLE
  8
DETAIL
  6
CONTINUOUS
 62
     5
 10
300.00002354929069
 20
852.5
 30
0.0
 40
1.449999999999988
  0
CIRCLE
  8
DETAIL
  6
CONTINUOUS
 62
     5
 10
400.00002354929069
 20
852.5
 30
0.0
 40
1.449999999999988
  0
CIRCLE
  8
DETAIL
  6
CONTINUOUS
 62
     5
 10
500.00002354929069
 20
852.5
 30
0.0
 40
1.449999999999988
  0
CIRCLE
  8
DETAIL
  6
CONTINUOUS
 62
     5
 10
-109.9999764507092
 20
-852.5
 30
0.0
 40
1.450000000000045
  0
CIRCLE
  8
DETAIL
  6
CONTINUOUS
 62
     5
 10
-9.999976450709255
 20
-852.5
 30
0.0
 40
1.450000000000045
  0
CIRCLE
  8
DETAIL
  6
CONTINUOUS
 62
     5
 10
90.000023549290745
 20
-852.5
 30
0.0
 40
1.450000000000045
  0
CIRCLE
  8
DETAIL
  6
CONTINUOUS
 62
     5
 10
190.00002354929069
 20
-852.5
 30
0.0
 40
1.450000000000045
  0
CIRCLE
  8
DETAIL
  6
CONTINUOUS
 62
     5
 10
290.00002354929069
 20
-852.5
 30
0.0
 40
1.450000000000045
  0
CIRCLE
  8
DETAIL
  6
CONTINUOUS
 62
     5
 10
390.0000235492908
 20
-852.5
 30
0.0
 40
1.450000000000045
  0
LINE
  8
DETAIL
  6
CONTINUOUS
 62
     5
 10
708.28002354929322
 20
-358.29881810247213
 30
0.0
 11
708.28002354929129
 21
-340.7011818975389
 31
0.0
  0
LINE
  8
DETAIL
  6
CONTINUOUS
 62
     5
 10
709.28002354929959
 20
-338.9691310899579
 30
0.0
 11
708.28002354929129
 21
-340.7011818975389
 31
0.0
  0
LINE
  8
DETAIL
  6
CONTINUOUS
 62
     5
 10
709.28002354929959
 20
-338.9691310899579
 30
0.0
 11
714.00002354928245
 21
-338.9691310899579
 31
0.0
  0
ARC
  8
DETAIL
  6
CONTINUOUS
 62
     5
 10
712.24562354928912
 20
-341.60184831747392
 30
0.0
 40
3.9655999999962681
 50
161.59712971070601
 51
221.5971297106893
  0
ARC
  8
DETAIL
  6
CONTINUOUS
 62
     5
 10
722.64242354933322
 20
-349.50000000001643
 30
0.0
 40
14.36240000004091
 50
158.49315147402771
 51
201.5068485259722
  0
LINE
  8
DETAIL
  6
CONTINUOUS
 62
     5
 10
709.2800235492914
 20
-360.03086891004023
 30
0.0
 11
708.28002354929322
 21
-358.29881810247213
 31
0.0
  0
LINE
  8
DETAIL
  6
CONTINUOUS
 62
     5
 10
714.00002354929074
 20
-360.03086891004023
 30
0.0
 11
709.2800235492914
 21
-360.03086891004023
 31
0.0
  0
ARC
  8
DETAIL
  6
CONTINUOUS
 62
     5
 10
712.24562354928912
 20
-357.39815168253699
 30
0.0
 40
3.9655999999964582
 50
138.40287028931061
 51
198.4028702892939
  0
LINE
  8
DETAIL
  6
CONTINUOUS
 62
     5
 10
709.28002354931141
 20
-344.23456554499899
 30
0.0
 11
714.00002354927165
 21
-344.23456554499899
 31
0.0
  0
LINE
  8
DETAIL
  6
CONTINUOUS
 62
     5
 10
709.28002354929231
 20
-354.76543445503381
 30
0.0
 11
714.00002354929074
 21
-354.76543445503381
 31
0.0
  0
LINE
  8
DETAIL
  6
CONTINUOUS
 62
     5
 10
715.00002354928893
 20
-358.29881810247389
 30
0.0
 11
715.00002354929074
 21
-340.70118189754072
 31
0.0
  0
LINE
  8
DETAIL
  6
CONTINUOUS
 62
     5
 10
708.28002354929231
 20
-341.38224000000628
 30
0.0
 11
704.44002354929205
 21
-341.50224000000708
 31
0.0
  0
LINE
  8
DETAIL
  6
CONTINUOUS
 62
     5
 10
708.28002354929231
 20
-357.61775999999008
 30
0.0
 11
704.44002354929205
 21
-357.4977599999911
 31
0.0
  0
LINE
  8
DETAIL
  6
CONTINUOUS
 62
     5
 10
702.44002354929216
 20
-359.60756917791701
 30
0.0
 11
692.63267155023448
 21
-359.60756917791701
 31
0.0
  0
LINE
  8
DETAIL
  6
CONTINUOUS
 62
     5
 10
702.44002354929216
 20
-359.60756917791701
 30
0.0
 11
704.44002354929205
 21
-358.45286863953697
 31
0.0
  0
LINE
  8
DETAIL
  6
CONTINUOUS
 62
     5
 10
704.44002354929205
 20
-358.45286863953697
 30
0.0
 11
704.44002354929205
 21
-340.54713136047388
 31
0.0
  0
ARC
  8
DETAIL
  6
CONTINUOUS
 62
     5
 10
701.71255448199815
 20
-356.87859239717358
 30
0.0
 40
2.7274690672934878
 50
300.94544005001518
 51
74.530851746508986
  0
ARC
  8
DETAIL
  6
CONTINUOUS
 62
     5
 10
697.79956943787602
 20
-349.50000000000551
 30
0.0
 40
6.640454111416183
 50
314.33207081515548
 51
45.667929184844482
  0
ARC
  8
DETAIL
  6
CONTINUOUS
 62
     5
 10
701.71255448199815
 20
-342.12140760283728
 30
0.0
 40
2.7274690672933879
 50
285.46914825349103
 51
59.054559949984821
  0
LINE
  8
DETAIL
  6
CONTINUOUS
 62
     5
 10
702.44002354929216
 20
-339.39243082209401
 30
0.0
 11
704.44002354929205
 21
-340.54713136047388
 31
0.0
  0
LINE
  8
DETAIL
  6
CONTINUOUS
 62
     5
 10
702.44002354929216
 20
-339.39243082209401
 30
0.0
 11
692.63267155023448
 21
-339.39243082209401
 31
0.0
  0
LINE
  8
DETAIL
  6
CONTINUOUS
 62
     5
 10
702.44002354929216
 20
-344.75007195363833
 30
0.0
 11
692.63267155023448
 21
-344.75007195363833
 31
0.0
  0
LINE
  8
DETAIL
  6
CONTINUOUS
 62
     5
 10
702.44002354929216
 20
-354.24992804637259
 30
0.0
 11
692.63267155023448
 21
-354.24992804637259
 31
0.0
  0
LINE
  8
DETAIL
  6
CONTINUOUS
 62
     5
 10
692.63267155023448
 20
-337.00000000000551
 30
0.0
 11
692.63267155023448
 21
-362.00000000000551
 31
0.0
  0
LINE
  8
DETAIL
  6
CONTINUOUS
 62
     5
 10
714.00002354928245
 20
-338.9691310899579
 30
0.0
 11
715.00002354929074
 21
-340.70118189754072
 31
0.0
  0
ARC
  8
DETAIL
  6
CONTINUOUS
 62
     5
 10
711.03442354929393
 20
-341.60184831747392
 30
0.0
 40
3.9655999999964582
 50
318.40287028931073
 51
18.402870289293961
  0
ARC
  8
DETAIL
  6
CONTINUOUS
 62
     5
 10
700.63762354924893
 20
-349.50000000001643
 30
0.0
 40
14.36240000004091
 50
338.49315147402768
 51
21.506848525972298
  0
LINE
  8
DETAIL
  6
CONTINUOUS
 62
     5
 10
714.00002354929074
 20
-360.03086891004023
 30
0.0
 11
715.00002354928893
 21
-358.29881810247389
 31
0.0
  0
ARC
  8
DETAIL
  6
CONTINUOUS
 62
     5
 10
711.03442354929393
 20
-357.39815168253699
 30
0.0
 40
3.9655999999962712
 50
341.5971297107061
 51
41.59712971068933
  0
LINE
  8
DETAIL
  6
CONTINUOUS
 62
     5
 10
715.00002354928984
 20
-341.38224000000628
 30
0.0
 11
725.00002354929165
 21
-341.69474000000628
 31
0.0
  0
LINE
  8
DETAIL
  6
CONTINUOUS
 62
     5
 10
715.00002354928984
 20
-357.61775999999008
 30
0.0
 11
725.00002354928893
 21
-357.30525999999372
 31
0.0
  0
LINE
  8
DETAIL
  6
CONTINUOUS
 62
     5
 10
725.00002354928893
 20
-357.30525999999372
 30
0.0
 11
725.00002354929165
 21
-341.69474000000628
 31
0.0
  0
LINE
  8
DETAIL
  6
CONTINUOUS
 62
     5
 10
725.00002354928893
 20
-357.30525999999372
 30
0.0
 11
725.00002354929165
 21
-341.69474000000628
 31
0.0
  0
LINE
  8
NOTE
  6
CONTINUOUS
 62
     4
 10
650.20002354929045
 20
531.5
 30
0.0
 11
674.20002354929056
 21
531.5
 31
0.0
  0
LINE
  8
NOTE
  6
CONTINUOUS
 62
     4
 10
650.20002354929045
 20
-806.49999999999989
 30
0.0
 11
674.20002354929056
 21
-806.49999999999989
 31
0.0
  0
LINE
  8
NOTE
  6
CONTINUOUS
 62
     4
 10
-674.79997645070944
 20
-806.49999999999989
 30
0.0
 11
-650.79997645070944
 21
-806.49999999999989
 31
0.0
  0
LINE
  8
NOTE
  6
CONTINUOUS
 62
     4
 10
-674.79997645070944
 20
531.5
 30
0.0
 11
-650.79997645070944
 21
531.5
 31
0.0
  0
LINE
  8
NOTE
  6
CONTINUOUS
 62
     4
 10
662.20002354929045
 20
551.49999999999989
 30
0.0
 11
662.20002354929045
 21
511.5
 31
0.0
  0
LINE
  8
NOTE
  6
CONTINUOUS
 62
     4
 10
662.20002354929045
 20
-786.5
 30
0.0
 11
662.20002354929045
 21
-826.5
 31
0.0
  0
LINE
  8
NOTE
  6
CONTINUOUS
 62
     4
 10
-662.79997645070944
 20
-786.5
 30
0.0
 11
-662.79997645070944
 21
-826.5
 31
0.0
  0
LINE
  8
NOTE
  6
CONTINUOUS
 62
     4
 10
-662.79997645070944
 20
551.49999999999989
 30
0.0
 11
-662.79997645070944
 21
511.5
 31
0.0
  0
LINE
  8
SIZE
  6
CONTINUOUS
 62
    30
 10
685.20002354929147
 20
-854.0
 30
0.0
 11
685.20002354929147
 21
-1332.7258312009981
 31
0.0
  0
LINE
  8
SIZE
  6
CONTINUOUS
 62
    30
 10
662.20002354929045
 20
-846.49999999999989
 30
0.0
 11
662.20002354929045
 21
-1332.7258312009981
 31
0.0
  0
LINE
  8
SIZE
  6
CONTINUOUS
 62
    30
 10
662.20002354929045
 20
-1312.7258312009981
 30
0.0
 11
632.20002354929056
 21
-1312.7258312009981
 31
0.0
  0
LINE
  8
SIZE
  6
CONTINUOUS
 62
    30
 10
685.20002354929147
 20
-1312.7258312009981
 30
0.0
 11
843.48573783500592
 21
-1312.7258312009981
 31
0.0
  0
LINE
  8
SIZE
  6
CONTINUOUS
 62
    30
 10
662.20002354929045
 20
-1312.7258312009981
 30
0.0
 11
685.20002354929147
 21
-1312.7258312009981
 31
0.0
  0
CIRCLE
  8
SIZE
  6
CONTINUOUS
 62
    30
 10
662.20002354929045
 20
-1312.7258312009981
 30
0.0
 40
7.5
  0
CIRCLE
  8
SIZE
  6
CONTINUOUS
 62
    30
 10
685.20002354929147
 20
-1312.7258312009981
 30
0.0
 40
7.5
  0
TEXT
  8
SIZE
  6
CONTINUOUS
 62
    30
 10
760.86288069214879
 20
-1292.7258312009981
 30
0.0
 40
40.0
  1
23
 50
0.0
 41
0.9
 51
0.0
  7
STANDARD
 71
     0
 72
     1
 11
794.34288069214881
 21
-1292.7258312009981
 31
0.0
210
0.0
220
0.0
230
1.0
  0
POINT
  8
DEFPOINTS
  6
CONTINUOUS
 62
    30
 10
685.20002354929147
 20
-834.0
 30
0.0
  0
POINT
  8
DEFPOINTS
  6
CONTINUOUS
 62
    30
 10
662.20002354929045
 20
-826.5
 30
0.0
  0
POINT
  8
DEFPOINTS
  6
CONTINUOUS
 62
    30
 10
662.20002354929045
 20
-1312.7258312009981
 30
0.0
  0
LINE
  8
SIZE
  6
CONTINUOUS
 62
    30
 10
625.00002354929074
 20
582.5
 30
0.0
 11
625.00002354929074
 21
1262.3435698261419
 31
0.0
  0
LINE
  8
SIZE
  6
CONTINUOUS
 62
    30
 10
700.00002354929074
 20
516.5
 30
0.0
 11
700.00002354929074
 21
1262.3435698261419
 31
0.0
  0
LINE
  8
SIZE
  6
CONTINUOUS
 62
    30
 10
625.00002354929074
 20
1242.3435698261419
 30
0.0
 11
700.00002354929074
 21
1242.3435698261419
 31
0.0
  0
LINE
  8
SIZE
  6
CONTINUOUS
 62
    30
 10
700.00002354929074
 20
1242.3435698261419
 30
0.0
 11
828.28573783500508
 21
1242.3435698261419
 31
0.0
  0
CIRCLE
  8
SIZE
  6
CONTINUOUS
 62
    30
 10
625.00002354929074
 20
1242.3435698261419
 30
0.0
 40
7.5
  0
CIRCLE
  8
SIZE
  6
CONTINUOUS
 62
    30
 10
700.00002354929074
 20
1242.3435698261419
 30
0.0
 40
7.5
  0
TEXT
  8
SIZE
  6
CONTINUOUS
 62
    30
 10
745.66288069214806
 20
1262.3435698261419
 30
0.0
 40
40.0
  1
75
 50
0.0
 41
0.9
 51
0.0
  7
STANDARD
 71
     0
 72
     1
 11
779.14288069214808
 21
1262.3435698261419
 31
0.0
210
0.0
220
0.0
230
1.0
  0
POINT
  8
DEFPOINTS
  6
CONTINUOUS
 62
    30
 10
625.00002354929074
 20
562.5
 30
0.0
  0
POINT
  8
DEFPOINTS
  6
CONTINUOUS
 62
    30
 10
700.00002354929074
 20
496.49999999999989
 30
0.0
  0
POINT
  8
DEFPOINTS
  6
CONTINUOUS
 62
    30
 10
700.00002354929074
 20
1242.3435698261419
 30
0.0
  0
LINE
  8
SIZE
  6
CONTINUOUS
 62
    30
 10
625.00002354929074
 20
582.5
 30
0.0
 11
625.00002354929074
 21
1262.3435698261439
 31
0.0
  0
LINE
  8
SIZE
  6
CONTINUOUS
 62
    30
 10
-624.99997645070926
 20
582.5
 30
0.0
 11
-624.99997645070926
 21
1262.3435698261439
 31
0.0
  0
LINE
  8
SIZE
  6
CONTINUOUS
 62
    30
 10
625.00002354929074
 20
1242.3435698261439
 30
0.0
 11
-624.99997645070926
 21
1242.3435698261439
 31
0.0
  0
CIRCLE
  8
SIZE
  6
CONTINUOUS
 62
    30
 10
625.00002354929074
 20
1242.3435698261439
 30
0.0
 40
7.5
  0
CIRCLE
  8
SIZE
  6
CONTINUOUS
 62
    30
 10
-624.99997645070926
 20
1242.3435698261439
 30
0.0
 40
7.5
  0
TEXT
  8
SIZE
  6
CONTINUOUS
 62
    30
 10
-63.719976450709254
 20
1262.3435698261439
 30
0.0
 40
40.0
  1
1250
 50
0.0
 41
0.9
 51
0.0
  7
STANDARD
 71
     0
 72
     1
 11
0.000023549290745
 21
1262.3435698261439
 31
0.0
210
0.0
220
0.0
230
1.0
  0
POINT
  8
DEFPOINTS
  6
CONTINUOUS
 62
    30
 10
625.00002354929074
 20
562.5
 30
0.0
  0
POINT
  8
DEFPOINTS
  6
CONTINUOUS
 62
    30
 10
-624.99997645070926
 20
562.5
 30
0.0
  0
POINT
  8
DEFPOINTS
  6
CONTINUOUS
 62
    30
 10
-624.99997645070926
 20
1242.3435698261439
 30
0.0
  0
LINE
  8
SIZE
  6
CONTINUOUS
 62
    30
 10
700.00002354929074
 20
516.5
 30
0.0
 11
700.00002354929074
 21
1436.167560853062
 31
0.0
  0
LINE
  8
SIZE
  6
CONTINUOUS
 62
    30
 10
-684.99997645070926
 20
579.0
 30
0.0
 11
-684.99997645070926
 21
1436.167560853062
 31
0.0
  0
LINE
  8
SIZE
  6
CONTINUOUS
 62
    30
 10
700.00002354929074
 20
1416.167560853062
 30
0.0
 11
-684.99997645070926
 21
1416.167560853062
 31
0.0
  0
CIRCLE
  8
SIZE
  6
CONTINUOUS
 62
    30
 10
700.00002354929074
 20
1416.167560853062
 30
0.0
 40
7.5
  0
CIRCLE
  8
SIZE
  6
CONTINUOUS
 62
    30
 10
-684.99997645070926
 20
1416.167560853062
 30
0.0
 40
7.5
  0
TEXT
  8
SIZE
  6
CONTINUOUS
 62
    30
 10
-55.859976450709262
 20
1436.167560853062
 30
0.0
 40
40.0
  1
1385
 50
0.0
 41
0.9
 51
0.0
  7
STANDARD
 71
     0
 72
     1
 11
7.500023549290745
 21
1436.167560853062
 31
0.0
210
0.0
220
0.0
230
1.0
  0
POINT
  8
DEFPOINTS
  6
CONTINUOUS
 62
    30
 10
700.00002354929074
 20
496.49999999999989
 30
0.0
  0
POINT
  8
DEFPOINTS
  6
CONTINUOUS
 62
    30
 10
-684.99997645070926
 20
559.0
 30
0.0
  0
POINT
  8
DEFPOINTS
  6
CONTINUOUS
 62
    30
 10
-684.99997645070926
 20
1416.167560853062
 30
0.0
  0
LINE
  8
SIZE
  6
CONTINUOUS
 62
    30
 10
-662.79997645070944
 20
-846.49999999999989
 30
0.0
 11
-662.79997645070944
 21
-1332.725831200994
 31
0.0
  0
LINE
  8
SIZE
  6
CONTINUOUS
 62
    30
 10
662.20002354929045
 20
-846.49999999999989
 30
0.0
 11
662.20002354929045
 21
-1332.725831200994
 31
0.0
  0
LINE
  8
SIZE
  6
CONTINUOUS
 62
    30
 10
-662.79997645070944
 20
-1312.725831200994
 30
0.0
 11
662.20002354929045
 21
-1312.725831200994
 31
0.0
  0
CIRCLE
  8
SIZE
  6
CONTINUOUS
 62
    30
 10
-662.79997645070944
 20
-1312.725831200994
 30
0.0
 40
7.5
  0
CIRCLE
  8
SIZE
  6
CONTINUOUS
 62
    30
 10
662.20002354929045
 20
-1312.725831200994
 30
0.0
 40
7.5
  0
TEXT
  8
SIZE
  6
CONTINUOUS
 62
    30
 10
-63.659976450709443
 20
-1292.725831200994
 30
0.0
 40
40.0
  1
1325
 50
0.0
 41
0.9
 51
0.0
  7
STANDARD
 71
     0
 72
     1
 11
-0.2999764507094369
 21
-1292.725831200994
 31
0.0
210
0.0
220
0.0
230
1.0
  0
POINT
  8
DEFPOINTS
  6
CONTINUOUS
 62
    30
 10
-662.79997645070944
 20
-826.5
 30
0.0
  0
POINT
  8
DEFPOINTS
  6
CONTINUOUS
 62
    30
 10
662.20002354929045
 20
-826.5
 30
0.0
  0
POINT
  8
DEFPOINTS
  6
CONTINUOUS
 62
    30
 10
662.20002354929045
 20
-1312.725831200994
 30
0.0
  0
CIRCLE
  8
ARRANGE
  6
CONTINUOUS
 62
     1
 10
0.0
 20
0.0
 30
0.0
 40
40.0
  0
LINE
  8
ARRANGE
  6
CONTINUOUS
 62
     1
 10
36.845437407348982
 20
-36.845437407348072
 30
0.0
 11
-36.845437407348982
 21
36.845437407349891
 31
0.0
  0
LINE
  8
ARRANGE
  6
CONTINUOUS
 62
     1
 10
-36.845437407348982
 20
-36.845437407348072
 30
0.0
 11
36.845437407350801
 21
36.845437407349891
 31
0.0
  0
LINE
  8
SIZE
  6
CONTINUOUS
 62
    30
 10
694.20002354929045
 20
531.5
 30
0.0
 11
1819.2813080300321
 21
531.49999999999955
 31
0.0
  0
LINE
  8
SIZE
  6
CONTINUOUS
 62
    30
 10
694.20002354929045
 20
-806.49999999999989
 30
0.0
 11
1819.2813080300321
 21
-806.50000000000045
 31
0.0
  0
LINE
  8
SIZE
  6
CONTINUOUS
 62
    30
 10
1799.2813080300321
 20
531.49999999999955
 30
0.0
 11
1799.2813080300321
 21
-806.50000000000045
 31
0.0
  0
CIRCLE
  8
SIZE
  6
CONTINUOUS
 62
    30
 10
1799.2813080300321
 20
531.49999999999955
 30
0.0
 40
7.5
  0
CIRCLE
  8
SIZE
  6
CONTINUOUS
 62
    30
 10
1799.2813080300321
 20
-806.50000000000045
 30
0.0
 40
7.5
  0
TEXT
  8
SIZE
  6
CONTINUOUS
 62
    30
 10
1779.2813080300321
 20
-193.3599999999999
 30
0.0
 40
40.0
  1
1338
 50
90.0
 41
0.9
 51
0.0
  7
STANDARD
 71
     0
 72
     1
 11
1779.2813080300321
 21
-130.0
 31
0.0
210
0.0
220
0.0
230
1.0
  0
POINT
  8
DEFPOINTS
  6
CONTINUOUS
 62
    30
 10
674.20002354929056
 20
531.5
 30
0.0
  0
POINT
  8
DEFPOINTS
  6
CONTINUOUS
 62
    30
 10
674.20002354929056
 20
-806.49999999999989
 30
0.0
  0
POINT
  8
DEFPOINTS
  6
CONTINUOUS
 62
    30
 10
1799.2813080300321
 20
-806.50000000000045
 30
0.0
  0
LINE
  8
SIZE
  6
CONTINUOUS
 62
    30
 10
440.00002354929069
 20
-882.50000000000011
 30
0.0
 11
440.00002354929069
 21
-1225.472965030845
 31
0.0
  0
LINE
  8
SIZE
  6
CONTINUOUS
 62
    30
 10
-559.99997645070926
 20
-882.50000000000011
 30
0.0
 11
-559.99997645070926
 21
-1225.472965030845
 31
0.0
  0
LINE
  8
SIZE
  6
CONTINUOUS
 62
    30
 10
440.00002354929069
 20
-1205.472965030845
 30
0.0
 11
-559.99997645070926
 21
-1205.472965030845
 31
0.0
  0
CIRCLE
  8
SIZE
  6
CONTINUOUS
 62
    30
 10
440.00002354929069
 20
-1205.472965030845
 30
0.0
 40
7.5
  0
CIRCLE
  8
SIZE
  6
CONTINUOUS
 62
    30
 10
-559.99997645070926
 20
-1205.472965030845
 30
0.0
 40
7.5
  0
TEXT
  8
SIZE
  6
CONTINUOUS
 62
    30
 10
-124.43997645070925
 20
-1185.472965030845
 30
0.0
 40
40.0
  1
1000
 50
0.0
 41
0.9
 51
0.0
  7
STANDARD
 71
     0
 72
     1
 11
-59.999976450709255
 21
-1185.472965030845
 31
0.0
210
0.0
220
0.0
230
1.0
  0
POINT
  8
DEFPOINTS
  6
CONTINUOUS
 62
    30
 10
440.00002354929069
 20
-862.5
 30
0.0
  0
POINT
  8
DEFPOINTS
  6
CONTINUOUS
 62
    30
 10
-559.99997645070926
 20
-862.5
 30
0.0
  0
POINT
  8
DEFPOINTS
  6
CONTINUOUS
 62
    30
 10
-559.99997645070926
 20
-1205.472965030845
 30
0.0
  0
LINE
  8
SIZE
  6
CONTINUOUS
 62
    30
 10
751.45002354929056
 20
-233.5
 30
0.0
 11
1719.2813080300321
 21
-233.50000000000031
 31
0.0
  0
LINE
  8
SIZE
  6
CONTINUOUS
 62
    30
 10
751.45002354929056
 20
-137.5
 30
0.0
 11
1719.2813080300321
 21
-137.5000000000002
 31
0.0
  0
LINE
  8
SIZE
  6
CONTINUOUS
 62
    30
 10
1699.2813080300321
 20
-233.50000000000031
 30
0.0
 11
1699.2813080300321
 21
-137.5000000000002
 31
0.0
  0
LINE
  8
SIZE
  6
CONTINUOUS
 62
    30
 10
1699.2813080300321
 20
-137.5000000000002
 30
0.0
 11
1699.2813080300321
 21
37.112809248923689
 31
0.0
  0
CIRCLE
  8
SIZE
  6
CONTINUOUS
 62
    30
 10
1699.2813080300321
 20
-233.50000000000031
 30
0.0
 40
7.5
  0
CIRCLE
  8
SIZE
  6
CONTINUOUS
 62
    30
 10
1699.2813080300321
 20
-137.5000000000002
 30
0.0
 40
7.5
  0
TEXT
  8
SIZE
  6
CONTINUOUS
 62
    30
 10
1679.2813080300321
 20
-44.652905036790337
 30
0.0
 40
40.0
  1
96
 50
90.0
 41
0.9
 51
0.0
  7
STANDARD
 71
     0
 72
     1
 11
1679.2813080300321
 21
-11.172905036790322
 31
0.0
210
0.0
220
0.0
230
1.0
  0
POINT
  8
DEFPOINTS
  6
CONTINUOUS
 62
    30
 10
731.45002354929045
 20
-233.5
 30
0.0
  0
POINT
  8
DEFPOINTS
  6
CONTINUOUS
 62
    30
 10
731.45002354929045
 20
-137.5
 30
0.0
  0
POINT
  8
DEFPOINTS
  6
CONTINUOUS
 62
    30
 10
1699.2813080300321
 20
-137.5000000000002
 30
0.0
  0
LINE
  8
SIZE
  6
CONTINUOUS
 62
    30
 10
645.00002354929074
 20
-837.5
 30
0.0
 11
1719.2813080300321
 21
-837.50000000000034
 31
0.0
  0
LINE
  8
SIZE
  6
CONTINUOUS
 62
    30
 10
751.45002354929056
 20
-233.5
 30
0.0
 11
1719.2813080300321
 21
-233.50000000000031
 31
0.0
  0
LINE
  8
SIZE
  6
CONTINUOUS
 62
    30
 10
1699.2813080300321
 20
-837.50000000000034
 30
0.0
 11
1699.2813080300321
 21
-233.50000000000031
 31
0.0
  0
CIRCLE
  8
SIZE
  6
CONTINUOUS
 62
    30
 10
1699.2813080300321
 20
-837.50000000000034
 30
0.0
 40
7.5
  0
CIRCLE
  8
SIZE
  6
CONTINUOUS
 62
    30
 10
1699.2813080300321
 20
-233.50000000000031
 30
0.0
 40
7.5
  0
TEXT
  8
SIZE
  6
CONTINUOUS
 62
    30
 10
1679.2813080300321
 20
-588.60091408067581
 30
0.0
 40
40.0
  1
604
 50
90.0
 41
0.9
 51
0.0
  7
STANDARD
 71
     0
 72
     1
 11
1679.2813080300321
 21
-537.66091408067575
 31
0.0
210
0.0
220
0.0
230
1.0
  0
POINT
  8
DEFPOINTS
  6
CONTINUOUS
 62
    30
 10
625.00002354929074
 20
-837.5
 30
0.0
  0
POINT
  8
DEFPOINTS
  6
CONTINUOUS
 62
    30
 10
731.45002354929045
 20
-233.5
 30
0.0
  0
POINT
  8
DEFPOINTS
  6
CONTINUOUS
 62
    30
 10
1699.2813080300321
 20
-233.50000000000031
 30
0.0
  0
LINE
  8
SERVICESPACE
  6
DASHDOT
 62
     2
 10
1434.2000075104811
 20
-692.49999620231392
 30
0.0
 11
834.20000751048156
 21
407.50000379768602
 31
0.0
  0
LINE
  8
SERVICESPACE
  6
DASHDOT
 62
     2
 10
834.20000751048156
 20
-692.49999620231392
 30
0.0
 11
1434.2000075104811
 21
407.50000379768602
 31
0.0
  0
LINE
  8
SERVICESPACE
  6
DASHDOT
 62
     2
 10
834.20000751048156
 20
407.50000379768602
 30
0.0
 11
834.20000751048156
 21
-692.49999620231392
 31
0.0
  0
LINE
  8
SERVICESPACE
  6
DASHDOT
 62
     2
 10
834.20000751048156
 20
-692.49999620231392
 30
0.0
 11
1434.2000075104811
 21
-692.49999620231392
 31
0.0
  0
LINE
  8
SERVICESPACE
  6
DASHDOT
 62
     2
 10
834.20000751048156
 20
407.50000379768602
 30
0.0
 11
1434.2000075104811
 21
407.50000379768602
 31
0.0
  0
LINE
  8
SERVICESPACE
  6
DASHDOT
 62
     2
 10
634.20000857707225
 20
-892.50000046867717
 30
0.0
 11
1434.2000085770719
 21
-892.49999620231392
 31
0.0
  0
LINE
  8
SERVICESPACE
  6
DASHDOT
 62
     2
 10
634.20000882738066
 20
862.5
 30
0.0
 11
634.20000857707225
 21
-892.50000046867717
 31
0.0
  0
LINE
  8
SERVICESPACE
  6
DASHDOT
 62
     2
 10
1434.2000088171251
 20
862.5
 30
0.0
 11
1434.2000085770719
 21
-892.50000073171941
 31
0.0
  0
LINE
  8
SERVICESPACE
  6
DASHDOT
 62
     2
 10
-665.79997291064683
 20
177.4999910951137
 30
0.0
 11
684.2000135195758
 21
177.5
 31
0.0
  0
LINE
  8
SERVICESPACE
  6
DASHDOT
 62
     2
 10
-665.79997645070853
 20
-892.50001036332105
 30
0.0
 11
684.20002354929045
 21
-892.5
 31
0.0
  0
LINE
  8
SERVICESPACE
  6
DASHDOT
 62
     2
 10
684.20002708935317
 20
177.49999375129121
 30
0.0
 11
684.20002354929045
 21
-892.5
 31
0.0
  0
LINE
  8
SERVICESPACE
  6
DASHDOT
 62
     2
 10
-665.79997291064683
 20
177.4999968943375
 30
0.0
 11
-665.79997645070944
 21
-892.49999685695366
 31
0.0
  0
LINE
  8
SIZE
  6
CONTINUOUS
 62
    30
 10
1454.2000086044291
 20
-692.49999620231392
 30
0.0
 11
1619.2813080300321
 21
-692.49999620231392
 31
0.0
  0
LINE
  8
SIZE
  6
CONTINUOUS
 62
    30
 10
1454.2000087548879
 20
407.50000379768602
 30
0.0
 11
1619.2813080300321
 21
407.50000379768602
 31
0.0
  0
LINE
  8
SIZE
  6
CONTINUOUS
 62
    30
 10
1599.2813080300321
 20
-692.49999620231392
 30
0.0
 11
1599.2813080300321
 21
407.50000379768602
 31
0.0
  0
CIRCLE
  8
SIZE
  6
CONTINUOUS
 62
    30
 10
1599.2813080300321
 20
-692.49999620231392
 30
0.0
 40
7.5
  0
CIRCLE
  8
SIZE
  6
CONTINUOUS
 62
    30
 10
1599.2813080300321
 20
407.50000379768602
 30
0.0
 40
7.5
  0
TEXT
  8
SIZE
  6
CONTINUOUS
 62
    30
 10
1579.2813080300321
 20
-76.941093873604117
 30
0.0
 40
40.0
  1
1100
 50
90.0
 41
0.9
 51
0.0
  7
STANDARD
 71
     0
 72
     1
 11
1579.2813080300321
 21
-16.461093873604099
 31
0.0
210
0.0
220
0.0
230
1.0
  0
POINT
  8
DEFPOINTS
  6
CONTINUOUS
 62
    30
 10
1434.2000086044291
 20
-692.49999620231392
 30
0.0
  0
POINT
  8
DEFPOINTS
  6
CONTINUOUS
 62
    30
 10
1434.2000087548879
 20
407.50000379768602
 30
0.0
  0
POINT
  8
DEFPOINTS
  6
CONTINUOUS
 62
    30
 10
1599.2813080300321
 20
407.50000379768602
 30
0.0
  0
LINE
  8
SIZE
  6
CONTINUOUS
 62
    30
 10
834.20000751048156
 20
427.50000379768608
 30
0.0
 11
834.20000751048156
 21
1084.1534022720909
 31
0.0
  0
LINE
  8
SIZE
  6
CONTINUOUS
 62
    30
 10
1434.2000088171251
 20
882.50000000000011
 30
0.0
 11
1434.2000088171251
 21
1084.1534022720909
 31
0.0
  0
LINE
  8
SIZE
  6
CONTINUOUS
 62
    30
 10
834.20000751048156
 20
1064.1534022720909
 30
0.0
 11
1434.2000088171251
 21
1064.1534022720909
 31
0.0
  0
CIRCLE
  8
SIZE
  6
CONTINUOUS
 62
    30
 10
834.20000751048156
 20
1064.1534022720909
 30
0.0
 40
7.5
  0
CIRCLE
  8
SIZE
  6
CONTINUOUS
 62
    30
 10
1434.2000088171251
 20
1064.1534022720909
 30
0.0
 40
7.5
  0
TEXT
  8
SIZE
  6
CONTINUOUS
 62
    30
 10
1083.2600081638029
 20
1084.1534022720921
 30
0.0
 40
40.0
  1
600
 50
0.0
 41
0.9
 51
0.0
  7
STANDARD
 71
     0
 72
     1
 11
1134.200008163803
 21
1084.1534022720921
 31
0.0
210
0.0
220
0.0
230
1.0
  0
POINT
  8
DEFPOINTS
  6
CONTINUOUS
 62
    30
 10
834.20000751048156
 20
407.50000379768602
 30
0.0
  0
POINT
  8
DEFPOINTS
  6
CONTINUOUS
 62
    30
 10
1434.2000088171251
 20
862.5
 30
0.0
  0
POINT
  8
DEFPOINTS
  6
CONTINUOUS
 62
    30
 10
1434.2000088171251
 20
1064.1534022720909
 30
0.0
  0
LINE
  8
SIZE
  6
CONTINUOUS
 62
    30
 10
-685.79997645070944
 20
-892.49999685695366
 30
0.0
 11
-806.73662946929039
 21
-892.49999685695354
 31
0.0
  0
LINE
  8
SIZE
  6
CONTINUOUS
 62
    30
 10
-685.79997291064683
 20
177.4999910951137
 30
0.0
 11
-806.73662946929005
 21
177.4999910951137
 31
0.0
  0
LINE
  8
SIZE
  6
CONTINUOUS
 62
    30
 10
-786.73662946929039
 20
-892.49999685695354
 30
0.0
 11
-786.73662946929005
 21
177.4999910951137
 31
0.0
  0
CIRCLE
  8
SIZE
  6
CONTINUOUS
 62
    30
 10
-786.73662946929039
 20
-892.49999685695354
 30
0.0
 40
7.5
  0
CIRCLE
  8
SIZE
  6
CONTINUOUS
 62
    30
 10
-786.73662946929005
 20
177.4999910951137
 30
0.0
 40
7.5
  0
TEXT
  8
SIZE
  6
CONTINUOUS
 62
    30
 10
-806.73662946929016
 20
-421.58000288092006
 30
0.0
 40
40.0
  1
1070
 50
90.0
 41
0.9
 51
0.0
  7
STANDARD
 71
     0
 72
     1
 11
-806.73662946929016
 21
-357.50000288092002
 31
0.0
210
0.0
220
0.0
230
1.0
  0
POINT
  8
DEFPOINTS
  6
CONTINUOUS
 62
    30
 10
-665.79997645070944
 20
-892.49999685695366
 30
0.0
  0
POINT
  8
DEFPOINTS
  6
CONTINUOUS
 62
    30
 10
-665.79997291064683
 20
177.4999910951137
 30
0.0
  0
POINT
  8
DEFPOINTS
  6
CONTINUOUS
 62
    30
 10
-786.73662946929005
 20
177.4999910951137
 30
0.0
  0
LINE
  8
SIZE
  6
CONTINUOUS
 62
    30
 10
1434.2000088171251
 20
882.50000000000011
 30
0.0
 11
1434.2000088171251
 21
1180.474562059291
 31
0.0
  0
LINE
  8
SIZE
  6
CONTINUOUS
 62
    30
 10
634.20000882738066
 20
882.50000326966438
 30
0.0
 11
634.20000882738066
 21
1180.474562059291
 31
0.0
  0
LINE
  8
SIZE
  6
CONTINUOUS
 62
    30
 10
1434.2000088171251
 20
1160.474562059291
 30
0.0
 11
634.20000882738066
 21
1160.474562059291
 31
0.0
  0
CIRCLE
  8
SIZE
  6
CONTINUOUS
 62
    30
 10
1434.2000088171251
 20
1160.474562059291
 30
0.0
 40
7.5
  0
CIRCLE
  8
SIZE
  6
CONTINUOUS
 62
    30
 10
634.20000882738066
 20
1160.474562059291
 30
0.0
 40
7.5
  0
TEXT
  8
SIZE
  6
CONTINUOUS
 62
    30
 10
983.26000882225298
 20
1180.474562059291
 30
0.0
 40
40.0
  1
800
 50
0.0
 41
0.9
 51
0.0
  7
STANDARD
 71
     0
 72
     1
 11
1034.200008822253
 21
1180.474562059291
 31
0.0
210
0.0
220
0.0
230
1.0
  0
POINT
  8
DEFPOINTS
  6
CONTINUOUS
 62
    30
 10
1434.2000088171251
 20
862.5
 30
0.0
  0
POINT
  8
DEFPOINTS
  6
CONTINUOUS
 62
    30
 10
634.20000882738066
 20
862.50000326966426
 30
0.0
  0
POINT
  8
DEFPOINTS
  6
CONTINUOUS
 62
    30
 10
634.20000882738066
 20
1160.474562059291
 30
0.0
  0
LINE
  8
SIZE
  6
CONTINUOUS
 62
    30
 10
1454.200008583912
 20
-842.5
 30
0.0
 11
1619.2813080300321
 21
-842.5
 31
0.0
  0
LINE
  8
SIZE
  6
CONTINUOUS
 62
    30
 10
1454.2000075104811
 20
-692.49999620231392
 30
0.0
 11
1619.2813080300321
 21
-692.49999620231392
 31
0.0
  0
LINE
  8
SIZE
  6
CONTINUOUS
 62
    30
 10
1599.2813080300321
 20
-842.5
 30
0.0
 11
1599.2813080300321
 21
-692.49999620231392
 31
0.0
  0
CIRCLE
  8
SIZE
  6
CONTINUOUS
 62
    30
 10
1599.2813080300321
 20
-842.5
 30
0.0
 40
7.5
  0
CIRCLE
  8
SIZE
  6
CONTINUOUS
 62
    30
 10
1599.2813080300321
 20
-692.49999620231392
 30
0.0
 40
7.5
  0
TEXT
  8
SIZE
  6
CONTINUOUS
 62
    30
 10
1579.2813080300321
 20
-808.47999810115687
 30
0.0
 40
40.0
  1
150
 50
90.0
 41
0.9
 51
0.0
  7
STANDARD
 71
     0
 72
     1
 11
1579.2813080300321
 21
-761.49999810115685
 31
0.0
210
0.0
220
0.0
230
1.0
  0
POINT
  8
DEFPOINTS
  6
CONTINUOUS
 62
    30
 10
1434.200008583912
 20
-842.5
 30
0.0
  0
POINT
  8
DEFPOINTS
  6
CONTINUOUS
 62
    30
 10
1434.2000075104811
 20
-692.49999620231392
 30
0.0
  0
POINT
  8
DEFPOINTS
  6
CONTINUOUS
 62
    30
 10
1599.2813080300321
 20
-692.49999620231392
 30
0.0
  0
LINE
  8
SIZE
  6
CONTINUOUS
 62
    30
 10
-624.99997645070926
 20
558.95795911588357
 30
0.0
 11
-624.99997645070926
 21
1339.1517990160039
 31
0.0
  0
LINE
  8
SIZE
  6
CONTINUOUS
 62
    30
 10
700.00002354929074
 20
492.95795911588363
 30
0.0
 11
700.00002354929074
 21
1339.1517990160039
 31
0.0
  0
LINE
  8
SIZE
  6
CONTINUOUS
 62
    30
 10
-624.99997645070926
 20
1319.1517990160039
 30
0.0
 11
700.00002354929074
 21
1319.1517990160039
 31
0.0
  0
CIRCLE
  8
SIZE
  6
CONTINUOUS
 62
    30
 10
-624.99997645070926
 20
1319.1517990160039
 30
0.0
 40
7.5
  0
CIRCLE
  8
SIZE
  6
CONTINUOUS
 62
    30
 10
700.00002354929074
 20
1319.1517990160039
 30
0.0
 40
7.5
  0
TEXT
  8
SIZE
  6
CONTINUOUS
 62
    30
 10
-25.859976450709254
 20
1339.1517990160039
 30
0.0
 40
40.0
  1
1325
 50
0.0
 41
0.9
 51
0.0
  7
STANDARD
 71
     0
 72
     1
 11
37.500023549290752
 21
1339.1517990160039
 31
0.0
210
0.0
220
0.0
230
1.0
  0
POINT
  8
DEFPOINTS
  6
CONTINUOUS
 62
    30
 10
-624.99997645070926
 20
538.95795911588357
 30
0.0
  0
POINT
  8
DEFPOINTS
  6
CONTINUOUS
 62
    30
 10
700.00002354929074
 20
472.95795911588351
 30
0.0
  0
POINT
  8
DEFPOINTS
  6
CONTINUOUS
 62
    30
 10
700.00002354929074
 20
1319.1517990160039
 30
0.0
  0
LINE
  8
SIZE
  6
CONTINUOUS
 62
    30
 10
702.70002354929056
 20
-836.5
 30
0.0
 11
1819.2813080300321
 21
-836.50000000000045
 31
0.0
  0
LINE
  8
SIZE
  6
CONTINUOUS
 62
    30
 10
694.20002354929045
 20
-806.49999999999989
 30
0.0
 11
1819.2813080300321
 21
-806.50000000000045
 31
0.0
  0
LINE
  8
SIZE
  6
CONTINUOUS
 62
    30
 10
1799.2813080300321
 20
-806.50000000000045
 30
0.0
 11
1799.2813080300321
 21
-776.50000000000045
 31
0.0
  0
LINE
  8
SIZE
  6
CONTINUOUS
 62
    30
 10
1799.2813080300321
 20
-836.50000000000045
 30
0.0
 11
1799.2813080300321
 21
-1005.357395718302
 31
0.0
  0
LINE
  8
SIZE
  6
CONTINUOUS
 62
    30
 10
1799.2813080300321
 20
-806.50000000000045
 30
0.0
 11
1799.2813080300321
 21
-836.50000000000045
 31
0.0
  0
CIRCLE
  8
SIZE
  6
CONTINUOUS
 62
    30
 10
1799.2813080300321
 20
-806.50000000000045
 30
0.0
 40
7.5
  0
CIRCLE
  8
SIZE
  6
CONTINUOUS
 62
    30
 10
1799.2813080300321
 20
-836.50000000000045
 30
0.0
 40
7.5
  0
TEXT
  8
SIZE
  6
CONTINUOUS
 62
    30
 10
1779.2813080300321
 20
-990.05453857544467
 30
0.0
 40
40.0
  1
30
 50
90.0
 41
0.9
 51
0.0
  7
STANDARD
 71
     0
 72
     1
 11
1779.2813080300321
 21
-956.21453857544475
 31
0.0
210
0.0
220
0.0
230
1.0
  0
POINT
  8
DEFPOINTS
  6
CONTINUOUS
 62
    30
 10
682.70002354929056
 20
-836.5
 30
0.0
  0
POINT
  8
DEFPOINTS
  6
CONTINUOUS
 62
    30
 10
674.20002354929056
 20
-806.49999999999989
 30
0.0
  0
POINT
  8
DEFPOINTS
  6
CONTINUOUS
 62
    30
 10
1799.2813080300321
 20
-806.50000000000045
 30
0.0
  0
LINE
  8
SIZE
  6
CONTINUOUS
 62
    30
 10
684.20002354929136
 20
-912.49999999999818
 30
0.0
 11
684.20002354929136
 21
-1065.581296332635
 31
0.0
  0
LINE
  8
SIZE
  6
CONTINUOUS
 62
    30
 10
634.20000857707225
 20
-912.50000046867706
 30
0.0
 11
634.20000857707225
 21
-1065.581296332635
 31
0.0
  0
LINE
  8
SIZE
  6
CONTINUOUS
 62
    30
 10
634.20000857707225
 20
-1045.581296332635
 30
0.0
 11
684.20002354929136
 21
-1045.581296332635
 31
0.0
  0
LINE
  8
SIZE
  6
CONTINUOUS
 62
    30
 10
684.20002354929136
 20
-1045.581296332635
 30
0.0
 11
813.32277817286308
 21
-1045.581296332635
 31
0.0
  0
CIRCLE
  8
SIZE
  6
CONTINUOUS
 62
    30
 10
634.20000857707225
 20
-1045.581296332635
 30
0.0
 40
7.5
  0
CIRCLE
  8
SIZE
  6
CONTINUOUS
 62
    30
 10
684.20002354929136
 20
-1045.581296332635
 30
0.0
 40
7.5
  0
TEXT
  8
SIZE
  6
CONTINUOUS
 62
    30
 10
730.33992103000583
 20
-1025.581296332635
 30
0.0
 40
40.0
  1
50
 50
0.0
 41
0.9
 51
0.0
  7
STANDARD
 71
     0
 72
     1
 11
764.17992103000586
 21
-1025.581296332635
 31
0.0
210
0.0
220
0.0
230
1.0
  0
POINT
  8
DEFPOINTS
  6
CONTINUOUS
 62
    30
 10
684.20002354929136
 20
-892.49999999999807
 30
0.0
  0
POINT
  8
DEFPOINTS
  6
CONTINUOUS
 62
    30
 10
634.20000857707225
 20
-892.50000046867717
 30
0.0
  0
POINT
  8
DEFPOINTS
  6
CONTINUOUS
 62
    30
 10
634.20000857707225
 20
-1045.581296332635
 30
0.0
  0
TEXT
  8
NOTE
  6
CONTINUOUS
 62
     4
 10
1030.9370129532099
 20
-648.69009193062993
 30
0.0
 40
64.0
  1
点検口
 41
0.9
  0
LINE
  8
SERVICESPACE
  6
DASHDOT
 62
     2
 10
634.20000882738066
 20
862.5
 30
0.0
 11
1434.2000088171251
 21
862.5
 31
0.0
  0
LINE
  8
NOTE
  6
CONTINUOUS
 62
     4
 10
725.00002354928984
 20
-227.0499999999993
 30
0.0
 11
725.00002354928984
 21
-239.94999999999891
 31
0.0
  0
LINE
  8
NOTE
  6
CONTINUOUS
 62
     4
 10
718.55002354929002
 20
-233.5
 30
0.0
 11
731.45002354929045
 21
-233.5
 31
0.0
  0
LINE
  8
NOTE
  6
CONTINUOUS
 62
     4
 10
725.00002354928984
 20
-131.04999999999919
 30
0.0
 11
725.00002354928984
 21
-143.94999999999891
 31
0.0
  0
LINE
  8
NOTE
  6
CONTINUOUS
 62
     4
 10
718.55002354929002
 20
-137.5
 30
0.0
 11
731.45002354929045
 21
-137.5
 31
0.0
  0
LINE
  8
BASIS
  6
DASHDOT
 62
     6
 10
0.0000244445318458
 20
895.28847796933769
 30
0.0
 11
-0.0000242247751885
 21
-887.23982778018762
 31
0.0
  0
LINE
  8
BASIS
  6
DASHDOT
 62
     6
 10
673.08785334465847
 20
0.0
 30
0.0
 11
-658.61936440716181
 21
0.0
 31
0.0
  0
LINE
  8
SIZE
  6
CONTINUOUS
 62
    30
 10
440.00002354929069
 20
-882.50000000000011
 30
0.0
 11
440.00002354929069
 21
-1225.472965030847
 31
0.0
  0
LINE
  8
SIZE
  6
CONTINUOUS
 62
    30
 10
625.00002354929074
 20
-861.69999999999879
 30
0.0
 11
625.00002354929074
 21
-1225.472965030847
 31
0.0
  0
LINE
  8
SIZE
  6
CONTINUOUS
 62
    30
 10
440.00002354929069
 20
-1205.472965030847
 30
0.0
 11
625.00002354929074
 21
-1205.472965030847
 31
0.0
  0
TEXT
  8
SIZE
  6
CONTINUOUS
 62
    30
 10
485.88002354929074
 20
-1185.4729650308491
 30
0.0
 40
40.0
  1
185
 50
0.0
 41
0.9
 51
0.0
  7
STANDARD
 71
     0
 72
     1
 11
532.50002354929074
 21
-1185.4729650308491
 31
0.0
210
0.0
220
0.0
230
1.0
  0
CIRCLE
  8
SIZE
  6
CONTINUOUS
 62
    30
 10
440.00002354929069
 20
-1205.472965030847
 30
0.0
 40
7.5
  0
CIRCLE
  8
SIZE
  6
CONTINUOUS
 62
    30
 10
625.00002354929074
 20
-1205.472965030847
 30
0.0
 40
7.5
  0
POINT
  8
DEFPOINTS
  6
CONTINUOUS
 62
    30
 10
440.00002354929069
 20
-862.5
 30
0.0
  0
POINT
  8
DEFPOINTS
  6
CONTINUOUS
 62
    30
 10
625.00002354929074
 20
-841.69999999999891
 30
0.0
  0
POINT
  8
DEFPOINTS
  6
CONTINUOUS
 62
    30
 10
625.00002354929074
 20
-1205.472965030847
 30
0.0
  0
LINE
  8
SIZE
  6
CONTINUOUS
 62
    30
 10
723.89109662449016
 20
-892.50000009701751
 30
0.0
 11
1619.2813080300321
 21
-892.50000009701785
 31
0.0
  0
LINE
  8
SIZE
  6
CONTINUOUS
 62
    30
 10
650.00002354929074
 20
-842.5
 30
0.0
 11
1619.2813080300321
 21
-842.50000000000045
 31
0.0
  0
LINE
  8
SIZE
  6
CONTINUOUS
 62
    30
 10
1599.2813080300321
 20
-842.50000000000045
 30
0.0
 11
1599.2813080300321
 21
-892.50000009701785
 31
0.0
  0
LINE
  8
SIZE
  6
CONTINUOUS
 62
    30
 10
1599.2813080300321
 20
-892.50000009701785
 30
0.0
 11
1599.2813080300321
 21
-1020.785714382734
 31
0.0
  0
CIRCLE
  8
SIZE
  6
CONTINUOUS
 62
    30
 10
1599.2813080300321
 20
-842.50000000000045
 30
0.0
 40
7.5
  0
CIRCLE
  8
SIZE
  6
CONTINUOUS
 62
    30
 10
1599.2813080300321
 20
-892.50000009701785
 30
0.0
 40
7.5
  0
TEXT
  8
SIZE
  6
CONTINUOUS
 62
    30
 10
1579.2813080300321
 20
-1005.4828572398762
 30
0.0
 40
40.0
  1
50
 50
90.0
 41
0.9
 51
0.0
  7
STANDARD
 71
     0
 72
     1
 11
1579.2813080300321
 21
-971.64285723987632
 31
0.0
210
0.0
220
0.0
230
1.0
  0
POINT
  8
DEFPOINTS
  6
CONTINUOUS
 62
    30
 10
703.89109662449027
 20
-892.50000009701751
 30
0.0
  0
POINT
  8
DEFPOINTS
  6
CONTINUOUS
 62
    30
 10
630.00002354929074
 20
-842.5
 30
0.0
  0
POINT
  8
DEFPOINTS
  6
CONTINUOUS
 62
    30
 10
1599.2813080300321
 20
-842.50000000000045
 30
0.0
  0
LINE
  8
SIZE
  6
CONTINUOUS
 62
    30
 10
460.00002354929069
 20
-862.5
 30
0.0
 11
1919.2813080300321
 21
-862.50000000000045
 31
0.0
  0
LINE
  8
SIZE
  6
CONTINUOUS
 62
    30
 10
570.00002354929074
 20
862.5
 30
0.0
 11
1919.2813080300321
 21
862.49999999999955
 31
0.0
  0
LINE
  8
SIZE
  6
CONTINUOUS
 62
    30
 10
1899.2813080300321
 20
-862.50000000000045
 30
0.0
 11
1899.2813080300321
 21
862.49999999999955
 31
0.0
  0
CIRCLE
  8
SIZE
  6
CONTINUOUS
 62
    30
 10
1899.2813080300321
 20
-862.50000000000045
 30
0.0
 40
7.5
  0
CIRCLE
  8
SIZE
  6
CONTINUOUS
 62
    30
 10
1899.2813080300321
 20
862.49999999999955
 30
0.0
 40
7.5
  0
TEXT
  8
SIZE
  6
CONTINUOUS
 62
    30
 10
1879.2813080300321
 20
-63.359999999999893
 30
0.0
 40
40.0
  1
1725
 50
90.0
 41
0.9
 51
0.0
  7
STANDARD
 71
     0
 72
     1
 11
1879.2813080300321
 21
0.0000000000000037
 31
0.0
210
0.0
220
0.0
230
1.0
  0
POINT
  8
DEFPOINTS
  6
CONTINUOUS
 62
    30
 10
440.00002354929069
 20
-862.5
 30
0.0
  0
POINT
  8
DEFPOINTS
  6
CONTINUOUS
 62
    30
 10
550.00002354929074
 20
862.5
 30
0.0
  0
POINT
  8
DEFPOINTS
  6
CONTINUOUS
 62
    30
 10
1899.2813080300321
 20
862.49999999999955
 30
0.0
  0
TEXT
  8
ETC
  6
CONTINUOUS
 62
    61
 10
-761.89999191046161
 20
1753.8034148202059
 30
0.0
 40
64.0
  1
GE-P1680MG6_1
 41
0.9
  0
LINE
  8
SIZE
  6
CONTINUOUS
 62
    30
 10
-665.79997645070944
 20
-912.49999685695354
 30
0.0
 11
-665.79997645070944
 21
-1458.575544074529
 31
0.0
  0
LINE
  8
SIZE
  6
CONTINUOUS
 62
    30
 10
684.20002354929045
 20
-912.5
 30
0.0
 11
684.20002354929045
 21
-1458.575544074529
 31
0.0
  0
LINE
  8
SIZE
  6
CONTINUOUS
 62
    30
 10
-665.79997645070944
 20
-1438.575544074529
 30
0.0
 11
684.20002354929045
 21
-1438.575544074529
 31
0.0
  0
CIRCLE
  8
SIZE
  6
CONTINUOUS
 62
    30
 10
-665.79997645070944
 20
-1438.575544074529
 30
0.0
 40
7.5
  0
CIRCLE
  8
SIZE
  6
CONTINUOUS
 62
    30
 10
684.20002354929045
 20
-1438.575544074529
 30
0.0
 40
7.5
  0
TEXT
  8
SIZE
  6
CONTINUOUS
 62
    30
 10
-54.519976450709436
 20
-1418.575544074529
 30
0.0
 40
40.0
  1
1350
 50
0.0
 41
0.9
 51
0.0
  7
STANDARD
 71
     0
 72
     1
 11
9.2000235492905631
 21
-1418.575544074529
 31
0.0
210
0.0
220
0.0
230
1.0
  0
POINT
  8
DEFPOINTS
  6
CONTINUOUS
 62
    30
 10
-665.79997645070944
 20
-892.49999685695366
 30
0.0
  0
POINT
  8
DEFPOINTS
  6
CONTINUOUS
 62
    30
 10
684.20002354929045
 20
-892.5
 30
0.0
  0
POINT
  8
DEFPOINTS
  6
CONTINUOUS
 62
    30
 10
684.20002354929045
 20
-1438.575544074529
 30
0.0
  0
LINE
  8
SIZE
  6
CONTINUOUS
 62
    30
 10
725.00002354929074
 20
-262.73999999999978
 30
0.0
 11
725.00002354929074
 21
-310.1448205795204
 31
0.0
  0
LINE
  8
SIZE
  6
CONTINUOUS
 62
    30
 10
625.00002354929074
 20
-278.0
 30
0.0
 11
625.00002354929074
 21
-310.1448205795204
 31
0.0
  0
LINE
  8
SIZE
  6
CONTINUOUS
 62
    30
 10
725.00002354929074
 20
-290.14482057952051
 30
0.0
 11
625.00002354929074
 21
-290.14482057952051
 31
0.0
  0
LINE
  8
SIZE
  6
CONTINUOUS
 62
    30
 10
625.00002354929074
 20
-290.14482057952051
 30
0.0
 11
469.28573783500389
 21
-290.14482057952051
 31
0.0
  0
CIRCLE
  8
SIZE
  6
CONTINUOUS
 62
    30
 10
725.00002354929074
 20
-290.14482057952051
 30
0.0
 40
7.5
  0
CIRCLE
  8
SIZE
  6
CONTINUOUS
 62
    30
 10
625.00002354929074
 20
-290.14482057952051
 30
0.0
 40
7.5
  0
TEXT
  8
SIZE
  6
CONTINUOUS
 62
    30
 10
484.80288069214674
 20
-270.14482057952051
 30
0.0
 40
40.0
  1
100
 50
0.0
 41
0.9
 51
0.0
  7
STANDARD
 71
     0
 72
     1
 11
532.14288069214672
 21
-270.14482057952051
 31
0.0
210
0.0
220
0.0
230
1.0
  0
POINT
  8
DEFPOINTS
  6
CONTINUOUS
 62
    30
 10
725.00002354929074
 20
-242.73999999999981
 30
0.0
  0
POINT
  8
DEFPOINTS
  6
CONTINUOUS
 62
    30
 10
625.00002354929074
 20
-258.0
 30
0.0
  0
POINT
  8
DEFPOINTS
  6
CONTINUOUS
 62
    30
 10
625.00002354929074
 20
-290.14482057952051
 30
0.0
  0
LINE
  8
SIZE
  6
CONTINUOUS
 62
    30
 10
725.00002354928984
 20
-111.0499999999992
 30
0.0
 11
725.00002354928984
 21
-55.492770098098838
 31
0.0
  0
LINE
  8
SIZE
  6
CONTINUOUS
 62
    30
 10
625.00002354929074
 20
-238.0
 30
0.0
 11
625.00002354929074
 21
-55.492770098098838
 31
0.0
  0
LINE
  8
SIZE
  6
CONTINUOUS
 62
    30
 10
725.00002354928984
 20
-75.492770098098845
 30
0.0
 11
625.00002354929074
 21
-75.492770098098845
 31
0.0
  0
LINE
  8
SIZE
  6
CONTINUOUS
 62
    30
 10
625.00002354929074
 20
-75.492770098098845
 30
0.0
 11
457.59356104534731
 21
-75.492770098098845
 31
0.0
  0
CIRCLE
  8
SIZE
  6
CONTINUOUS
 62
    30
 10
725.00002354928984
 20
-75.492770098098845
 30
0.0
 40
7.5
  0
CIRCLE
  8
SIZE
  6
CONTINUOUS
 62
    30
 10
625.00002354929074
 20
-75.492770098098845
 30
0.0
 40
7.5
  0
TEXT
  8
SIZE
  6
CONTINUOUS
 62
    30
 10
473.11070390249012
 20
-55.492770098098838
 30
0.0
 40
40.0
  1
100
 50
0.0
 41
0.9
 51
0.0
  7
STANDARD
 71
     0
 72
     1
 11
520.45070390249009
 21
-55.492770098098838
 31
0.0
210
0.0
220
0.0
230
1.0
  0
POINT
  8
DEFPOINTS
  6
CONTINUOUS
 62
    30
 10
725.00002354928984
 20
-131.04999999999919
 30
0.0
  0
POINT
  8
DEFPOINTS
  6
CONTINUOUS
 62
    30
 10
625.00002354929074
 20
-258.0
 30
0.0
  0
POINT
  8
DEFPOINTS
  6
CONTINUOUS
 62
    30
 10
625.00002354929074
 20
-75.492770098098845
 30
0.0
  0
LINE
  8
SIZE
  6
CONTINUOUS
 62
    30
 10
725.00002354929074
 20
-377.30525999999372
 30
0.0
 11
725.00002354929074
 21
-439.95999944341378
 31
0.0
  0
LINE
  8
SIZE
  6
CONTINUOUS
 62
    30
 10
625.00002354929074
 20
-278.0
 30
0.0
 11
625.00002354929074
 21
-439.95999944341378
 31
0.0
  0
LINE
  8
SIZE
  6
CONTINUOUS
 62
    30
 10
725.00002354929074
 20
-419.95999944341378
 30
0.0
 11
625.00002354929074
 21
-419.95999944341378
 31
0.0
  0
LINE
  8
SIZE
  6
CONTINUOUS
 62
    30
 10
625.00002354929074
 20
-419.95999944341378
 30
0.0
 11
469.28573783500389
 21
-419.95999944341378
 31
0.0
  0
CIRCLE
  8
SIZE
  6
CONTINUOUS
 62
    30
 10
725.00002354929074
 20
-419.95999944341378
 30
0.0
 40
7.5
  0
CIRCLE
  8
SIZE
  6
CONTINUOUS
 62
    30
 10
625.00002354929074
 20
-419.95999944341378
 30
0.0
 40
7.5
  0
TEXT
  8
SIZE
  6
CONTINUOUS
 62
    30
 10
484.80288069214674
 20
-399.95999944341378
 30
0.0
 40
40.0
  1
100
 50
0.0
 41
0.9
 51
0.0
  7
STANDARD
 71
     0
 72
     1
 11
532.14288069214672
 21
-399.95999944341378
 31
0.0
210
0.0
220
0.0
230
1.0
  0
POINT
  8
DEFPOINTS
  6
CONTINUOUS
 62
    30
 10
725.00002354929074
 20
-357.30525999999372
 30
0.0
  0
POINT
  8
DEFPOINTS
  6
CONTINUOUS
 62
    30
 10
625.00002354929074
 20
-258.0
 30
0.0
  0
POINT
  8
DEFPOINTS
  6
CONTINUOUS
 62
    30
 10
625.00002354929074
 20
-419.95999944341378
 30
0.0
  0
LINE
  8
OUTLINE
  6
CONTINUOUS
 62
     3
 10
440.00002354929069
 20
-862.5
 30
0.0
 11
437.00002354929069
 21
-862.5
 31
0.0
  0
LINE
  8
OUTLINE
  6
CONTINUOUS
 62
     3
 10
437.00002354929069
 20
-862.5
 30
0.0
 11
-556.99997645070926
 21
-862.5
 31
0.0
  0
LINE
  8
OUTLINE
  6
CONTINUOUS
 62
     3
 10
-556.99997645070926
 20
-862.5
 30
0.0
 11
-559.99997645070926
 21
-862.5
 31
0.0
  0
LINE
  8
OUTLINE
  6
CONTINUOUS
 62
     3
 10
630.00002354929074
 20
-842.5
 30
0.0
 11
625.00002354929074
 21
-842.5
 31
0.0
  0
LINE
  8
OUTLINE
  6
CONTINUOUS
 62
     3
 10
624.00002354929074
 20
-842.5
 30
0.0
 11
440.00002354929069
 21
-842.5
 31
0.0
  0
LINE
  8
OUTLINE
  6
CONTINUOUS
 62
     3
 10
-559.99997645070926
 20
-842.5
 30
0.0
 11
-623.99997645070926
 21
-842.5
 31
0.0
  0
LINE
  8
OUTLINE
  6
CONTINUOUS
 62
     3
 10
-624.99997645070926
 20
-842.5
 30
0.0
 11
-629.99997645070926
 21
-842.5
 31
0.0
  0
LINE
  8
OUTLINE
  6
CONTINUOUS
 62
     3
 10
634.20002354929045
 20
-841.69999999999891
 30
0.0
 11
630.00002354929074
 21
-841.69999999999891
 31
0.0
  0
LINE
  8
OUTLINE
  6
CONTINUOUS
 62
     3
 10
625.00002354929074
 20
-841.69999999999891
 30
0.0
 11
624.00002354929074
 21
-841.69999999999891
 31
0.0
  0
LINE
  8
OUTLINE
  6
CONTINUOUS
 62
     3
 10
-623.99997645070926
 20
-841.69999999999891
 30
0.0
 11
-624.99997645070926
 21
-841.69999999999891
 31
0.0
  0
LINE
  8
OUTLINE
  6
CONTINUOUS
 62
     3
 10
-629.99997645070926
 20
-838.29999999999916
 30
0.0
 11
-630.99997645070926
 21
-838.29999999999916
 31
0.0
  0
LINE
  8
OUTLINE
  6
CONTINUOUS
 62
     3
 10
682.70002354929056
 20
-836.5
 30
0.0
 11
634.20002354929045
 21
-836.5
 31
0.0
  0
LINE
  8
OUTLINE
  6
CONTINUOUS
 62
     3
 10
-630.99997645070926
 20
-836.5
 30
0.0
 11
-682.69997645070907
 21
-836.5
 31
0.0
  0
LINE
  8
OUTLINE
  6
CONTINUOUS
 62
     3
 10
-684.99997645070926
 20
-834.0
 30
0.0
 11
-682.69997645070907
 21
-834.0
 31
0.0
  0
LINE
  8
OUTLINE
  6
CONTINUOUS
 62
     3
 10
685.20002354929045
 20
-834.0
 30
0.0
 11
682.70002354929056
 21
-834.0
 31
0.0
  0
LINE
  8
OUTLINE
  6
CONTINUOUS
 62
     3
 10
-684.99997645070926
 20
-812.5
 30
0.0
 11
-669.79997645070944
 21
-812.5
 31
0.0
  0
LINE
  8
OUTLINE
  6
CONTINUOUS
 62
     3
 10
685.20002354929045
 20
-812.5
 30
0.0
 11
669.20002354929045
 21
-812.5
 31
0.0
  0
LINE
  8
OUTLINE
  6
CONTINUOUS
 62
     3
 10
-684.99997645070926
 20
-800.5
 30
0.0
 11
-669.79997645070944
 21
-800.5
 31
0.0
  0
LINE
  8
OUTLINE
  6
CONTINUOUS
 62
     3
 10
685.20002354929045
 20
-800.5
 30
0.0
 11
669.20002354929045
 21
-800.5
 31
0.0
  0
LINE
  8
OUTLINE
  6
CONTINUOUS
 62
     3
 10
685.20002354929045
 20
-731.5
 30
0.0
 11
634.20002354929045
 21
-731.5
 31
0.0
  0
LINE
  8
OUTLINE
  6
CONTINUOUS
 62
     3
 10
-630.99997645070926
 20
-731.5
 30
0.0
 11
-684.99997645070926
 21
-731.5
 31
0.0
  0
LINE
  8
OUTLINE
  6
CONTINUOUS
 62
     3
 10
635.00002354929074
 20
-728.5
 30
0.0
 11
634.20002354929045
 21
-728.5
 31
0.0
  0
LINE
  8
OUTLINE
  6
CONTINUOUS
 62
     3
 10
635.00002354929074
 20
-727.69999999999891
 30
0.0
 11
635.80002354929093
 21
-727.69999999999891
 31
0.0
  0
LINE
  8
OUTLINE
  6
CONTINUOUS
 62
     3
 10
635.00002354929074
 20
-363.29999999999927
 30
0.0
 11
635.80002354929093
 21
-363.29999999999927
 31
0.0
  0
LINE
  8
OUTLINE
  6
CONTINUOUS
 62
     3
 10
634.20002354929045
 20
-286.0
 30
0.0
 11
635.00002354929074
 21
-286.0
 31
0.0
  0
LINE
  8
OUTLINE
  6
CONTINUOUS
 62
     3
 10
650.00002354929074
 20
-258.0
 30
0.0
 11
634.20002354929045
 21
-258.0
 31
0.0
  0
LINE
  8
OUTLINE
  6
CONTINUOUS
 62
     3
 10
650.00002354929074
 20
-244.60000000000039
 30
0.0
 11
705.74894844819016
 21
-244.60000000000039
 31
0.0
  0
LINE
  8
OUTLINE
  6
CONTINUOUS
 62
     3
 10
725.00002354929074
 20
-242.73999999999981
 30
0.0
 11
710.07848451829057
 21
-242.73999999999981
 31
0.0
  0
LINE
  8
OUTLINE
  6
CONTINUOUS
 62
     3
 10
725.00002354929074
 20
-224.26000000000019
 30
0.0
 11
710.07848451829057
 21
-224.26000000000019
 31
0.0
  0
LINE
  8
OUTLINE
  6
CONTINUOUS
 62
     3
 10
650.00002354929074
 20
-222.39999999999961
 30
0.0
 11
705.74894844819016
 21
-222.39999999999961
 31
0.0
  0
LINE
  8
OUTLINE
  6
CONTINUOUS
 62
     3
 10
650.00002354929074
 20
-209.0
 30
0.0
 11
634.20002354929045
 21
-209.0
 31
0.0
  0
LINE
  8
OUTLINE
  6
CONTINUOUS
 62
     3
 10
634.20002354929045
 20
-155.5
 30
0.0
 11
650.00002354929074
 21
-155.5
 31
0.0
  0
LINE
  8
OUTLINE
  6
CONTINUOUS
 62
     3
 10
725.00002354929074
 20
-143.01000000000019
 30
0.0
 11
714.71007405559055
 21
-143.01000000000019
 31
0.0
  0
LINE
  8
OUTLINE
  6
CONTINUOUS
 62
     3
 10
650.00002354929074
 20
-142.26000000000019
 30
0.0
 11
713.96007405559055
 21
-142.26000000000019
 31
0.0
  0
LINE
  8
OUTLINE
  6
CONTINUOUS
 62
     3
 10
650.00002354929074
 20
-132.73999999999981
 30
0.0
 11
713.96007405559055
 21
-132.73999999999981
 31
0.0
  0
LINE
  8
OUTLINE
  6
CONTINUOUS
 62
     3
 10
725.00002354929074
 20
-131.98999999999981
 30
0.0
 11
714.71007405559055
 21
-131.98999999999981
 31
0.0
  0
LINE
  8
OUTLINE
  6
CONTINUOUS
 62
     3
 10
710.07848451829057
 20
-242.73999999999981
 30
0.0
 11
709.5245237342906
 21
-242.4201705921987
 31
0.0
  0
LINE
  8
OUTLINE
  6
CONTINUOUS
 62
     3
 10
709.5245237342906
 20
-224.57982940779951
 30
0.0
 11
705.74894844819016
 21
-222.39999999999961
 31
0.0
  0
LINE
  8
OUTLINE
  6
CONTINUOUS
 62
     3
 10
714.71007405559055
 20
-143.01000000000019
 30
0.0
 11
713.96007405559055
 21
-142.26000000000019
 31
0.0
  0
LINE
  8
OUTLINE
  6
CONTINUOUS
 62
     3
 10
725.00002354929074
 20
-242.73958482600031
 30
0.0
 11
725.00002354929074
 21
-224.26041517399969
 31
0.0
  0
LINE
  8
OUTLINE
  6
CONTINUOUS
 62
     3
 10
725.00002354929074
 20
-143.00956169619889
 30
0.0
 11
725.00002354929074
 21
-131.99043830379921
 31
0.0
  0
LINE
  8
OUTLINE
  6
CONTINUOUS
 62
     3
 10
700.80002354929093
 20
466.5
 30
0.0
 11
700.80002354929093
 21
111.5
 31
0.0
  0
LINE
  8
OUTLINE
  6
CONTINUOUS
 62
     3
 10
700.00002354929074
 20
496.49999999999989
 30
0.0
 11
700.00002354929074
 21
466.5
 31
0.0
  0
LINE
  8
OUTLINE
  6
CONTINUOUS
 62
     3
 10
699.00002354929074
 20
109.7000000000007
 30
0.0
 11
699.00002354929074
 21
110.5
 31
0.0
  0
LINE
  8
OUTLINE
  6
CONTINUOUS
 62
     3
 10
714.71007405559055
 20
-131.98999999999981
 30
0.0
 11
713.96007405559055
 21
-132.73999999999981
 31
0.0
  0
LINE
  8
OUTLINE
  6
CONTINUOUS
 62
     3
 10
709.5245237342906
 20
-242.4201705921987
 30
0.0
 11
705.74894844819016
 21
-244.60000000000039
 31
0.0
  0
LINE
  8
OUTLINE
  6
CONTINUOUS
 62
     3
 10
710.07848451829057
 20
-224.26000000000019
 30
0.0
 11
709.5245237342906
 21
-224.57982940779951
 31
0.0
  0
LINE
  8
OUTLINE
  6
CONTINUOUS
 62
     3
 10
634.20002354929045
 20
-119.5
 30
0.0
 11
650.00002354929074
 21
-119.5
 31
0.0
  0
LINE
  8
OUTLINE
  6
CONTINUOUS
 62
     3
 10
692.00002354929074
 20
498.30000000000109
 30
0.0
 11
692.00002354929074
 21
497.5
 31
0.0
  0
LINE
  8
OUTLINE
  6
CONTINUOUS
 62
     3
 10
685.20002354929045
 20
559.0
 30
0.0
 11
685.20002354929045
 21
537.5
 31
0.0
  0
LINE
  8
OUTLINE
  6
CONTINUOUS
 62
     3
 10
685.20002354929045
 20
525.49999999999989
 30
0.0
 11
685.20002354929045
 21
498.02915026221302
 31
0.0
  0
LINE
  8
OUTLINE
  6
CONTINUOUS
 62
     3
 10
685.20002354929045
 20
-731.5
 30
0.0
 11
685.20002354929045
 21
-800.5
 31
0.0
  0
LINE
  8
OUTLINE
  6
CONTINUOUS
 62
     3
 10
685.20002354929045
 20
-812.5
 30
0.0
 11
685.20002354929045
 21
-834.0
 31
0.0
  0
LINE
  8
OUTLINE
  6
CONTINUOUS
 62
     3
 10
682.70002354929056
 20
561.5
 30
0.0
 11
682.70002354929056
 21
559.0
 31
0.0
  0
LINE
  8
OUTLINE
  6
CONTINUOUS
 62
     3
 10
682.70002354929056
 20
-836.5
 30
0.0
 11
682.70002354929056
 21
-834.0
 31
0.0
  0
LINE
  8
OUTLINE
  6
CONTINUOUS
 62
     3
 10
669.20002354929045
 20
-814.49999999999989
 30
0.0
 11
669.20002354929045
 21
-812.5
 31
0.0
  0
LINE
  8
OUTLINE
  6
CONTINUOUS
 62
     3
 10
669.20002354929045
 20
-800.5
 30
0.0
 11
669.20002354929045
 21
-798.5
 31
0.0
  0
LINE
  8
OUTLINE
  6
CONTINUOUS
 62
     3
 10
669.20002354929045
 20
523.5
 30
0.0
 11
669.20002354929045
 21
525.49999999999989
 31
0.0
  0
LINE
  8
OUTLINE
  6
CONTINUOUS
 62
     3
 10
669.20002354929045
 20
537.5
 30
0.0
 11
669.20002354929045
 21
539.5
 31
0.0
  0
LINE
  8
OUTLINE
  6
CONTINUOUS
 62
     3
 10
655.20002354929045
 20
539.5
 30
0.0
 11
655.20002354929045
 21
523.5
 31
0.0
  0
LINE
  8
OUTLINE
  6
CONTINUOUS
 62
     3
 10
655.20002354929045
 20
-798.5
 30
0.0
 11
655.20002354929045
 21
-814.49999999999989
 31
0.0
  0
LINE
  8
OUTLINE
  6
CONTINUOUS
 62
     3
 10
650.00002354929074
 20
-119.5
 30
0.0
 11
650.00002354929074
 21
-132.73999999999981
 31
0.0
  0
LINE
  8
OUTLINE
  6
CONTINUOUS
 62
     3
 10
650.00002354929074
 20
-142.26000000000019
 30
0.0
 11
650.00002354929074
 21
-155.5
 31
0.0
  0
LINE
  8
OUTLINE
  6
CONTINUOUS
 62
     3
 10
650.00002354929074
 20
-257.99957177410027
 30
0.0
 11
650.00002354929074
 21
-244.59999999999849
 31
0.0
  0
LINE
  8
OUTLINE
  6
CONTINUOUS
 62
     3
 10
650.00002354929074
 20
-222.39999999999961
 30
0.0
 11
650.00002354929074
 21
-209.00042822599971
 31
0.0
  0
LINE
  8
OUTLINE
  6
CONTINUOUS
 62
     3
 10
635.80002354929093
 20
814.70000000000073
 30
0.0
 11
635.80002354929093
 21
588.30000000000098
 31
0.0
  0
LINE
  8
OUTLINE
  6
CONTINUOUS
 62
     3
 10
635.80002354929093
 20
-363.29999999999927
 30
0.0
 11
635.80002354929093
 21
-471.49999999999989
 31
0.0
  0
LINE
  8
OUTLINE
  6
CONTINUOUS
 62
     3
 10
635.80002354929002
 20
-503.5
 30
0.0
 11
635.80002354929093
 21
-651.5
 31
0.0
  0
LINE
  8
OUTLINE
  6
CONTINUOUS
 62
     3
 10
635.80002354929093
 20
-683.49999999999989
 30
0.0
 11
635.80002354929093
 21
-727.69999999999891
 31
0.0
  0
LINE
  8
OUTLINE
  6
CONTINUOUS
 62
     3
 10
635.00002354929074
 20
815.49999999999989
 30
0.0
 11
635.00002354929074
 21
814.70000000000073
 31
0.0
  0
LINE
  8
OUTLINE
  6
CONTINUOUS
 62
     3
 10
635.00002354929074
 20
588.30000000000098
 30
0.0
 11
635.00002354929074
 21
587.5
 31
0.0
  0
LINE
  8
OUTLINE
  6
CONTINUOUS
 62
     3
 10
635.00002354929074
 20
-727.69999999999891
 30
0.0
 11
635.00002354929074
 21
-728.5
 31
0.0
  0
LINE
  8
OUTLINE
  6
CONTINUOUS
 62
     3
 10
635.00002354929074
 20
-363.29999999999927
 30
0.0
 11
635.00002354929074
 21
-362.0
 31
0.0
  0
LINE
  8
OUTLINE
  6
CONTINUOUS
 62
     3
 10
635.00002354929074
 20
-337.0
 30
0.0
 11
635.00002354929074
 21
-330.15146649335662
 31
0.0
  0
LINE
  8
OUTLINE
  6
CONTINUOUS
 62
     3
 10
635.00002354929074
 20
-296.84853350664162
 30
0.0
 11
635.00002354929074
 21
-286.0
 31
0.0
  0
LINE
  8
OUTLINE
  6
CONTINUOUS
 62
     3
 10
634.20002354929045
 20
109.7000000000007
 30
0.0
 11
634.20002354929045
 21
-119.5
 31
0.0
  0
LINE
  8
OUTLINE
  6
CONTINUOUS
 62
     3
 10
634.20002354929136
 20
-155.5
 30
0.0
 11
634.20002354929045
 21
-209.0
 31
0.0
  0
LINE
  8
OUTLINE
  6
CONTINUOUS
 62
     3
 10
634.20002354929045
 20
-258.0
 30
0.0
 11
634.20002354929045
 21
-286.0
 31
0.0
  0
LINE
  8
OUTLINE
  6
CONTINUOUS
 62
     3
 10
634.20002354929045
 20
-330.16543054529939
 30
0.0
 11
634.20002354929045
 21
-337.0
 31
0.0
  0
LINE
  8
OUTLINE
  6
CONTINUOUS
 62
     3
 10
634.20002354929045
 20
-728.5
 30
0.0
 11
634.20002354929045
 21
-731.5
 31
0.0
  0
LINE
  8
OUTLINE
  6
CONTINUOUS
 62
     3
 10
634.20002354929045
 20
-836.5
 30
0.0
 11
634.20002354929045
 21
-841.69999999999891
 31
0.0
  0
LINE
  8
OUTLINE
  6
CONTINUOUS
 62
     3
 10
630.00002354929074
 20
587.5
 30
0.0
 11
630.00002354929074
 21
563.30000000000098
 31
0.0
  0
LINE
  8
OUTLINE
  6
CONTINUOUS
 62
     3
 10
630.00002354929074
 20
-841.69999999999891
 30
0.0
 11
630.00002354929074
 21
-842.5
 31
0.0
  0
LINE
  8
OUTLINE
  6
CONTINUOUS
 62
     3
 10
630.00002354929074
 20
815.49999999999989
 30
0.0
 11
630.00002354929074
 21
841.70000000000061
 31
0.0
  0
LINE
  8
OUTLINE
  6
CONTINUOUS
 62
     3
 10
629.20002354929045
 20
561.70000000000073
 30
0.0
 11
629.20002354929045
 21
561.5
 31
0.0
  0
LINE
  8
OUTLINE
  6
CONTINUOUS
 62
     3
 10
626.00002354929074
 20
563.30000000000098
 30
0.0
 11
626.00002354929074
 21
562.5
 31
0.0
  0
LINE
  8
OUTLINE
  6
CONTINUOUS
 62
     3
 10
626.00002354929074
 20
562.5
 30
0.0
 11
626.00002354929074
 21
561.70000000000073
 31
0.0
  0
LINE
  8
OUTLINE
  6
CONTINUOUS
 62
     3
 10
625.00002354929074
 20
-842.5
 30
0.0
 11
625.00002354929074
 21
-841.69999999999891
 31
0.0
  0
LINE
  8
OUTLINE
  6
CONTINUOUS
 62
     3
 10
624.00002354929074
 20
-841.69999999999891
 30
0.0
 11
624.00002354929074
 21
-842.5
 31
0.0
  0
LINE
  8
OUTLINE
  6
CONTINUOUS
 62
     3
 10
624.00002354929074
 20
841.70000000000061
 30
0.0
 11
624.00002354929074
 21
842.5
 31
0.0
  0
LINE
  8
OUTLINE
  6
CONTINUOUS
 62
     3
 10
699.00002354929074
 20
109.7000000000007
 30
0.0
 11
634.20002354929045
 21
109.7000000000007
 31
0.0
  0
LINE
  8
OUTLINE
  6
CONTINUOUS
 62
     3
 10
700.80002354929093
 20
111.5
 30
0.0
 11
700.00002354929074
 21
111.5
 31
0.0
  0
LINE
  8
OUTLINE
  6
CONTINUOUS
 62
     3
 10
-629.99997645070926
 20
111.5
 30
0.0
 11
-630.99997645070926
 21
111.5
 31
0.0
  0
LINE
  8
OUTLINE
  6
CONTINUOUS
 62
     3
 10
440.00002354929069
 20
-859.5
 30
0.0
 11
440.00002354929069
 21
-842.5
 31
0.0
  0
LINE
  8
OUTLINE
  6
CONTINUOUS
 62
     3
 10
440.00002354929069
 20
-859.5
 30
0.0
 11
440.00002354929069
 21
-862.5
 31
0.0
  0
LINE
  8
OUTLINE
  6
CONTINUOUS
 62
     3
 10
-684.99997645070926
 20
456.5
 30
0.0
 11
-629.99997645070926
 21
456.5
 31
0.0
  0
LINE
  8
OUTLINE
  6
CONTINUOUS
 62
     3
 10
700.80002354929093
 20
466.5
 30
0.0
 11
700.00002354929074
 21
466.5
 31
0.0
  0
LINE
  8
OUTLINE
  6
CONTINUOUS
 62
     3
 10
692.00002354929074
 20
497.5
 30
0.0
 11
699.00002354929074
 21
497.5
 31
0.0
  0
LINE
  8
OUTLINE
  6
CONTINUOUS
 62
     3
 10
685.80002354929093
 20
498.30000000000109
 30
0.0
 11
692.00002354929074
 21
498.30000000000109
 31
0.0
  0
LINE
  8
OUTLINE
  6
CONTINUOUS
 62
     3
 10
-684.99997645070926
 20
525.49999999999989
 30
0.0
 11
-669.79997645070944
 21
525.49999999999989
 31
0.0
  0
LINE
  8
OUTLINE
  6
CONTINUOUS
 62
     3
 10
685.20002354929045
 20
525.49999999999989
 30
0.0
 11
669.20002354929045
 21
525.49999999999989
 31
0.0
  0
LINE
  8
OUTLINE
  6
CONTINUOUS
 62
     3
 10
-684.99997645070926
 20
537.5
 30
0.0
 11
-669.79997645070944
 21
537.5
 31
0.0
  0
LINE
  8
OUTLINE
  6
CONTINUOUS
 62
     3
 10
685.20002354929045
 20
537.5
 30
0.0
 11
669.20002354929045
 21
537.5
 31
0.0
  0
LINE
  8
OUTLINE
  6
CONTINUOUS
 62
     3
 10
-684.99997645070926
 20
559.0
 30
0.0
 11
-682.69997645070907
 21
559.0
 31
0.0
  0
LINE
  8
OUTLINE
  6
CONTINUOUS
 62
     3
 10
685.20002354929045
 20
559.0
 30
0.0
 11
682.70002354929056
 21
559.0
 31
0.0
  0
LINE
  8
OUTLINE
  6
CONTINUOUS
 62
     3
 10
-682.69997645070907
 20
561.5
 30
0.0
 11
-629.99997645070926
 21
561.5
 31
0.0
  0
LINE
  8
OUTLINE
  6
CONTINUOUS
 62
     3
 10
629.20002354929045
 20
561.5
 30
0.0
 11
682.70002354929056
 21
561.5
 31
0.0
  0
LINE
  8
OUTLINE
  6
CONTINUOUS
 62
     3
 10
626.00002354929074
 20
561.70000000000073
 30
0.0
 11
629.20002354929045
 21
561.70000000000073
 31
0.0
  0
LINE
  8
OUTLINE
  6
CONTINUOUS
 62
     3
 10
626.00002354929074
 20
563.30000000000098
 30
0.0
 11
630.00002354929074
 21
563.30000000000098
 31
0.0
  0
LINE
  8
OUTLINE
  6
CONTINUOUS
 62
     3
 10
635.00002354929074
 20
587.5
 30
0.0
 11
630.00002354929074
 21
587.5
 31
0.0
  0
LINE
  8
OUTLINE
  6
CONTINUOUS
 62
     3
 10
635.80002354929093
 20
588.30000000000098
 30
0.0
 11
635.00002354929074
 21
588.30000000000098
 31
0.0
  0
LINE
  8
OUTLINE
  6
CONTINUOUS
 62
     3
 10
-559.99997645070926
 20
-862.5
 30
0.0
 11
-559.99997645070926
 21
-859.5
 31
0.0
  0
LINE
  8
OUTLINE
  6
CONTINUOUS
 62
     3
 10
-559.99997645070926
 20
-859.5
 30
0.0
 11
-559.99997645070926
 21
-842.5
 31
0.0
  0
LINE
  8
OUTLINE
  6
CONTINUOUS
 62
     3
 10
635.80002354929093
 20
814.70000000000073
 30
0.0
 11
635.00002354929074
 21
814.70000000000073
 31
0.0
  0
LINE
  8
OUTLINE
  6
CONTINUOUS
 62
     3
 10
635.00002354929074
 20
815.49999999999989
 30
0.0
 11
630.00002354929074
 21
815.49999999999989
 31
0.0
  0
LINE
  8
OUTLINE
  6
CONTINUOUS
 62
     3
 10
-629.99997645070926
 20
841.70000000000061
 30
0.0
 11
-623.99997645070926
 21
841.70000000000061
 31
0.0
  0
LINE
  8
OUTLINE
  6
CONTINUOUS
 62
     3
 10
624.00002354929074
 20
841.70000000000061
 30
0.0
 11
630.00002354929074
 21
841.70000000000061
 31
0.0
  0
LINE
  8
OUTLINE
  6
CONTINUOUS
 62
     3
 10
-623.99997645070926
 20
842.5
 30
0.0
 11
-549.99997645070926
 21
842.5
 31
0.0
  0
LINE
  8
OUTLINE
  6
CONTINUOUS
 62
     3
 10
550.00002354929074
 20
842.5
 30
0.0
 11
624.00002354929074
 21
842.5
 31
0.0
  0
LINE
  8
OUTLINE
  6
CONTINUOUS
 62
     3
 10
-623.99997645070926
 20
842.5
 30
0.0
 11
-623.99997645070926
 21
841.70000000000061
 31
0.0
  0
LINE
  8
OUTLINE
  6
CONTINUOUS
 62
     3
 10
-623.99997645070926
 20
-841.69999999999891
 30
0.0
 11
-623.99997645070926
 21
-842.5
 31
0.0
  0
LINE
  8
OUTLINE
  6
CONTINUOUS
 62
     3
 10
-624.99997645070926
 20
-842.5
 30
0.0
 11
-624.99997645070926
 21
-841.69999999999891
 31
0.0
  0
LINE
  8
OUTLINE
  6
CONTINUOUS
 62
     3
 10
-629.19997645070907
 20
132.30000000000109
 30
0.0
 11
-629.19997645070907
 21
153.5
 31
0.0
  0
LINE
  8
OUTLINE
  6
CONTINUOUS
 62
     3
 10
-629.99997645070926
 20
-842.5
 30
0.0
 11
-629.99997645070926
 21
-838.29999999999916
 31
0.0
  0
LINE
  8
OUTLINE
  6
CONTINUOUS
 62
     3
 10
-629.99997645070926
 20
111.5
 30
0.0
 11
-629.99997645070926
 21
132.30000000000109
 31
0.0
  0
LINE
  8
OUTLINE
  6
CONTINUOUS
 62
     3
 10
-629.99997645070926
 20
153.5
 30
0.0
 11
-629.99997645070926
 21
456.5
 31
0.0
  0
LINE
  8
OUTLINE
  6
CONTINUOUS
 62
     3
 10
-629.99997645070926
 20
561.5
 30
0.0
 11
-629.99997645070926
 21
841.70000000000061
 31
0.0
  0
LINE
  8
OUTLINE
  6
CONTINUOUS
 62
     3
 10
-630.99997645070926
 20
-838.29999999999916
 30
0.0
 11
-630.99997645070926
 21
-836.5
 31
0.0
  0
LINE
  8
OUTLINE
  6
CONTINUOUS
 62
     3
 10
-630.99997645070926
 20
-731.5
 30
0.0
 11
-630.99997645070926
 21
111.5
 31
0.0
  0
LINE
  8
OUTLINE
  6
CONTINUOUS
 62
     3
 10
-655.79997645070944
 20
-814.49999999999989
 30
0.0
 11
-655.79997645070944
 21
-798.5
 31
0.0
  0
LINE
  8
OUTLINE
  6
CONTINUOUS
 62
     3
 10
-655.79997645070944
 20
523.5
 30
0.0
 11
-655.79997645070944
 21
539.5
 31
0.0
  0
LINE
  8
OUTLINE
  6
CONTINUOUS
 62
     3
 10
-669.79997645070944
 20
539.5
 30
0.0
 11
-669.79997645070944
 21
537.5
 31
0.0
  0
LINE
  8
OUTLINE
  6
CONTINUOUS
 62
     3
 10
-669.79997645070944
 20
525.49999999999989
 30
0.0
 11
-669.79997645070944
 21
523.5
 31
0.0
  0
LINE
  8
OUTLINE
  6
CONTINUOUS
 62
     3
 10
-669.79997645070944
 20
-798.5
 30
0.0
 11
-669.79997645070944
 21
-800.5
 31
0.0
  0
LINE
  8
OUTLINE
  6
CONTINUOUS
 62
     3
 10
-669.79997645070944
 20
-812.5
 30
0.0
 11
-669.79997645070944
 21
-814.49999999999989
 31
0.0
  0
LINE
  8
OUTLINE
  6
CONTINUOUS
 62
     3
 10
-682.69997645070907
 20
561.5
 30
0.0
 11
-682.69997645070907
 21
559.0
 31
0.0
  0
LINE
  8
OUTLINE
  6
CONTINUOUS
 62
     3
 10
-682.69997645070907
 20
-836.5
 30
0.0
 11
-682.69997645070907
 21
-834.0
 31
0.0
  0
LINE
  8
OUTLINE
  6
CONTINUOUS
 62
     3
 10
-684.99997645070926
 20
-834.0
 30
0.0
 11
-684.99997645070926
 21
-812.5
 31
0.0
  0
LINE
  8
OUTLINE
  6
CONTINUOUS
 62
     3
 10
-684.99997645070926
 20
-800.5
 30
0.0
 11
-684.99997645070926
 21
-731.5
 31
0.0
  0
LINE
  8
OUTLINE
  6
CONTINUOUS
 62
     3
 10
-684.99997645070926
 20
456.5
 30
0.0
 11
-684.99997645070926
 21
525.49999999999989
 31
0.0
  0
LINE
  8
OUTLINE
  6
CONTINUOUS
 62
     3
 10
-684.99997645070926
 20
537.5
 30
0.0
 11
-684.99997645070926
 21
559.0
 31
0.0
  0
ARC
  8
OUTLINE
  6
CONTINUOUS
 62
     3
 10
685.80002354929093
 20
497.5
 30
0.0
 40
0.7999999999999546
 50
90.0
 51
139.03299095134611
  0
ARC
  8
OUTLINE
  6
CONTINUOUS
 62
     3
 10
-662.79997645070944
 20
-814.49999999999989
 30
0.0
 40
7.0
 50
180.0
 51
0.0
  0
ARC
  8
OUTLINE
  6
CONTINUOUS
 62
     3
 10
-662.79997645070944
 20
-798.5
 30
0.0
 40
7.0
 50
0.0
 51
180.0
  0
ARC
  8
OUTLINE
  6
CONTINUOUS
 62
     3
 10
662.20002354929045
 20
-798.5
 30
0.0
 40
7.0
 50
0.0
 51
180.0
  0
ARC
  8
OUTLINE
  6
CONTINUOUS
 62
     3
 10
662.20002354929045
 20
-814.49999999999989
 30
0.0
 40
7.0
 50
180.0
 51
0.0
  0
ARC
  8
OUTLINE
  6
CONTINUOUS
 62
     3
 10
-662.79997645070944
 20
523.5
 30
0.0
 40
7.0
 50
180.0
 51
0.0
  0
ARC
  8
OUTLINE
  6
CONTINUOUS
 62
     3
 10
-662.79997645070944
 20
539.5
 30
0.0
 40
7.0
 50
0.0
 51
180.0
  0
ARC
  8
OUTLINE
  6
CONTINUOUS
 62
     3
 10
662.20002354929045
 20
539.5
 30
0.0
 40
7.0
 50
0.0
 51
180.0
  0
ARC
  8
OUTLINE
  6
CONTINUOUS
 62
     3
 10
662.20002354929045
 20
523.5
 30
0.0
 40
7.0
 50
180.0
 51
0.0
  0
ARC
  8
OUTLINE
  6
CONTINUOUS
 62
     3
 10
699.00002354929074
 20
111.5
 30
0.0
 40
0.9999999999999539
 50
270.0
 51
0.0
  0
ARC
  8
OUTLINE
  6
CONTINUOUS
 62
     3
 10
699.00002354929074
 20
496.49999999999989
 30
0.0
 40
1.0
 50
0.0
 51
90.0
  0
LINE
  8
OUTLINE
  6
CONTINUOUS
 62
     3
 10
635.80002354929002
 20
-683.49999999999989
 30
0.0
 11
640.00002354929074
 21
-683.49999999999989
 31
0.0
  0
LINE
  8
OUTLINE
  6
CONTINUOUS
 62
     3
 10
650.00002354929074
 20
-683.49999999999989
 30
0.0
 11
645.00002354929074
 21
-684.0
 31
0.0
  0
LINE
  8
OUTLINE
  6
CONTINUOUS
 62
     3
 10
645.00002354929074
 20
-683.49999999999989
 30
0.0
 11
640.00002354929074
 21
-684.0
 31
0.0
  0
LINE
  8
OUTLINE
  6
CONTINUOUS
 62
     3
 10
635.80002354929002
 20
-651.5
 30
0.0
 11
640.00002354929074
 21
-651.5
 31
0.0
  0
LINE
  8
OUTLINE
  6
CONTINUOUS
 62
     3
 10
645.00002354929074
 20
-651.5
 30
0.0
 11
640.00002354929074
 21
-651.0
 31
0.0
  0
LINE
  8
OUTLINE
  6
CONTINUOUS
 62
     3
 10
650.00002354929074
 20
-651.5
 30
0.0
 11
645.00002354929074
 21
-651.0
 31
0.0
  0
LINE
  8
OUTLINE
  6
CONTINUOUS
 62
     3
 10
650.00002354929074
 20
-503.5
 30
0.0
 11
645.00002354929074
 21
-504.0
 31
0.0
  0
LINE
  8
OUTLINE
  6
CONTINUOUS
 62
     3
 10
645.00002354929074
 20
-503.5
 30
0.0
 11
640.00002354929074
 21
-504.0
 31
0.0
  0
LINE
  8
OUTLINE
  6
CONTINUOUS
 62
     3
 10
635.80002354929002
 20
-503.5
 30
0.0
 11
640.00002354929074
 21
-503.5
 31
0.0
  0
LINE
  8
OUTLINE
  6
CONTINUOUS
 62
     3
 10
635.80002354929002
 20
-471.49999999999989
 30
0.0
 11
640.00002354929074
 21
-471.49999999999989
 31
0.0
  0
LINE
  8
OUTLINE
  6
CONTINUOUS
 62
     3
 10
645.00002354929074
 20
-471.49999999999989
 30
0.0
 11
640.00002354929074
 21
-471.0
 31
0.0
  0
LINE
  8
OUTLINE
  6
CONTINUOUS
 62
     3
 10
650.00002354929074
 20
-471.49999999999989
 30
0.0
 11
645.00002354929074
 21
-471.0
 31
0.0
  0
LINE
  8
OUTLINE
  6
CONTINUOUS
 62
     3
 10
635.00002354929074
 20
-362.0
 30
0.0
 11
692.63267155023448
 21
-362.0
 31
0.0
  0
LINE
  8
OUTLINE
  6
CONTINUOUS
 62
     3
 10
634.20002354929045
 20
-330.16543054529939
 30
0.0
 11
658.00002354929074
 21
-329.75
 31
0.0
  0
LINE
  8
OUTLINE
  6
CONTINUOUS
 62
     3
 10
634.20002354929045
 20
-337.0
 30
0.0
 11
692.63267155023448
 21
-337.0
 31
0.0
  0
LINE
  8
OUTLINE
  6
CONTINUOUS
 62
     3
 10
658.00002354929074
 20
-329.5
 30
0.0
 11
682.50002354929074
 21
-329.5
 31
0.0
  0
LINE
  8
OUTLINE
  6
CONTINUOUS
 62
     3
 10
658.00002354929074
 20
-297.5
 30
0.0
 11
682.50002354929074
 21
-297.5
 31
0.0
  0
LINE
  8
OUTLINE
  6
CONTINUOUS
 62
     3
 10
635.00002354929074
 20
-296.84853350664162
 30
0.0
 11
658.00002354929074
 21
-297.25
 31
0.0
  0
LINE
  8
OUTLINE
  6
CONTINUOUS
 62
     3
 10
683.00002354929074
 20
-298.0
 30
0.0
 11
683.00002354929074
 21
-329.0
 31
0.0
  0
LINE
  8
OUTLINE
  6
CONTINUOUS
 62
     3
 10
658.00002354929074
 20
-297.25
 30
0.0
 11
658.00002354929074
 21
-297.5
 31
0.0
  0
LINE
  8
OUTLINE
  6
CONTINUOUS
 62
     3
 10
658.00002354929074
 20
-329.5
 30
0.0
 11
658.00002354929074
 21
-329.75
 31
0.0
  0
LINE
  8
OUTLINE
  6
CONTINUOUS
 62
     3
 10
650.00002354929074
 20
-683.49999999999989
 30
0.0
 11
650.00002354929074
 21
-651.5
 31
0.0
  0
LINE
  8
OUTLINE
  6
CONTINUOUS
 62
     3
 10
650.00002354929074
 20
-503.5
 30
0.0
 11
650.00002354929074
 21
-471.49999999999989
 31
0.0
  0
LINE
  8
OUTLINE
  6
CONTINUOUS
 62
     3
 10
645.00002354929074
 20
-684.0
 30
0.0
 11
645.00002354929074
 21
-683.49999999999989
 31
0.0
  0
LINE
  8
OUTLINE
  6
CONTINUOUS
 62
     3
 10
645.00002354929074
 20
-651.5
 30
0.0
 11
645.00002354929074
 21
-651.0
 31
0.0
  0
LINE
  8
OUTLINE
  6
CONTINUOUS
 62
     3
 10
645.00002354929074
 20
-504.0
 30
0.0
 11
645.00002354929074
 21
-503.5
 31
0.0
  0
LINE
  8
OUTLINE
  6
CONTINUOUS
 62
     3
 10
645.00002354929074
 20
-471.49999999999989
 30
0.0
 11
645.00002354929074
 21
-471.0
 31
0.0
  0
LINE
  8
OUTLINE
  6
CONTINUOUS
 62
     3
 10
640.00002354929074
 20
-684.0
 30
0.0
 11
640.00002354929074
 21
-683.49999999999989
 31
0.0
  0
LINE
  8
OUTLINE
  6
CONTINUOUS
 62
     3
 10
640.00002354929074
 20
-651.5
 30
0.0
 11
640.00002354929074
 21
-651.0
 31
0.0
  0
LINE
  8
OUTLINE
  6
CONTINUOUS
 62
     3
 10
640.00002354929074
 20
-504.0
 30
0.0
 11
640.00002354929074
 21
-503.5
 31
0.0
  0
LINE
  8
OUTLINE
  6
CONTINUOUS
 62
     3
 10
640.00002354929074
 20
-471.49999999999989
 30
0.0
 11
640.00002354929074
 21
-471.0
 31
0.0
  0
LINE
  8
OUTLINE
  6
CONTINUOUS
 62
     3
 10
550.00002354929074
 20
842.5
 30
0.0
 11
550.00002354929074
 21
862.5
 31
0.0
  0
LINE
  8
OUTLINE
  6
CONTINUOUS
 62
     3
 10
550.00002354929074
 20
862.5
 30
0.0
 11
-549.99997645070926
 21
862.5
 31
0.0
  0
LINE
  8
OUTLINE
  6
CONTINUOUS
 62
     3
 10
-549.99997645070926
 20
862.5
 30
0.0
 11
-549.99997645070926
 21
842.5
 31
0.0
  0
ARC
  8
OUTLINE
  6
CONTINUOUS
 62
     3
 10
682.50002354929074
 20
-298.0
 30
0.0
 40
0.5
 50
0.0
 51
90.0
  0
ARC
  8
OUTLINE
  6
CONTINUOUS
 62
     3
 10
682.50002354929074
 20
-329.0
 30
0.0
 40
0.5
 50
270.0
 51
0.0
  0
LINE
  8
OUTLINE
  6
CONTINUOUS
 62
     3
 10
708.28002354929322
 20
-358.29881810247213
 30
0.0
 11
708.28002354929322
 21
-357.61775999999008
 31
0.0
  0
LINE
  8
OUTLINE
  6
CONTINUOUS
 62
     3
 10
708.28002354929129
 20
-341.38224000000628
 30
0.0
 11
708.28002354929129
 21
-340.7011818975389
 31
0.0
  0
LINE
  8
OUTLINE
  6
CONTINUOUS
 62
     3
 10
709.28002354929959
 20
-338.9691310899579
 30
0.0
 11
708.28002354929129
 21
-340.7011818975389
 31
0.0
  0
LINE
  8
OUTLINE
  6
CONTINUOUS
 62
     3
 10
709.28002354929959
 20
-338.9691310899579
 30
0.0
 11
714.00002354928245
 21
-338.9691310899579
 31
0.0
  0
LINE
  8
OUTLINE
  6
CONTINUOUS
 62
     3
 10
709.2800235492914
 20
-360.03086891004023
 30
0.0
 11
708.28002354929322
 21
-358.29881810247213
 31
0.0
  0
LINE
  8
OUTLINE
  6
CONTINUOUS
 62
     3
 10
714.00002354929074
 20
-360.03086891004023
 30
0.0
 11
709.2800235492914
 21
-360.03086891004023
 31
0.0
  0
LINE
  8
OUTLINE
  6
CONTINUOUS
 62
     3
 10
715.00002354928893
 20
-358.29881810247389
 30
0.0
 11
715.00002354928893
 21
-357.61775999999008
 31
0.0
  0
LINE
  8
OUTLINE
  6
CONTINUOUS
 62
     3
 10
715.00002354929074
 20
-341.38224000000628
 30
0.0
 11
715.00002354929074
 21
-340.70118189754072
 31
0.0
  0
LINE
  8
OUTLINE
  6
CONTINUOUS
 62
     3
 10
708.28002354929231
 20
-341.38224000000628
 30
0.0
 11
704.44002354929205
 21
-341.50224000000708
 31
0.0
  0
LINE
  8
OUTLINE
  6
CONTINUOUS
 62
     3
 10
708.28002354929231
 20
-357.61775999999008
 30
0.0
 11
704.44002354929205
 21
-357.4977599999911
 31
0.0
  0
LINE
  8
OUTLINE
  6
CONTINUOUS
 62
     3
 10
702.44002354929216
 20
-359.60756917791701
 30
0.0
 11
692.63267155023448
 21
-359.60756917791701
 31
0.0
  0
LINE
  8
OUTLINE
  6
CONTINUOUS
 62
     3
 10
702.44002354929216
 20
-359.60756917791701
 30
0.0
 11
704.44002354929205
 21
-358.45286863953697
 31
0.0
  0
LINE
  8
OUTLINE
  6
CONTINUOUS
 62
     3
 10
704.44002354929205
 20
-358.45286863953697
 30
0.0
 11
704.44002354929205
 21
-357.4977599999911
 31
0.0
  0
LINE
  8
OUTLINE
  6
CONTINUOUS
 62
     3
 10
704.44002354929205
 20
-341.50224000000708
 30
0.0
 11
704.44002354929205
 21
-340.54713136047388
 31
0.0
  0
LINE
  8
OUTLINE
  6
CONTINUOUS
 62
     3
 10
702.44002354929216
 20
-339.39243082209401
 30
0.0
 11
704.44002354929205
 21
-340.54713136047388
 31
0.0
  0
LINE
  8
OUTLINE
  6
CONTINUOUS
 62
     3
 10
702.44002354929216
 20
-339.39243082209401
 30
0.0
 11
692.63267155023448
 21
-339.39243082209401
 31
0.0
  0
LINE
  8
OUTLINE
  6
CONTINUOUS
 62
     3
 10
692.63267155023448
 20
-337.00000000000551
 30
0.0
 11
692.63267155023448
 21
-339.39243082209401
 31
0.0
  0
LINE
  8
OUTLINE
  6
CONTINUOUS
 62
     3
 10
692.63267155023448
 20
-359.60756917791701
 30
0.0
 11
692.63267155023448
 21
-362.00000000000551
 31
0.0
  0
LINE
  8
OUTLINE
  6
CONTINUOUS
 62
     3
 10
714.00002354928245
 20
-338.9691310899579
 30
0.0
 11
715.00002354929074
 21
-340.70118189754072
 31
0.0
  0
LINE
  8
OUTLINE
  6
CONTINUOUS
 62
     3
 10
714.00002354929074
 20
-360.03086891004023
 30
0.0
 11
715.00002354928893
 21
-358.29881810247389
 31
0.0
  0
LINE
  8
OUTLINE
  6
CONTINUOUS
 62
     3
 10
715.00002354928984
 20
-341.38224000000628
 30
0.0
 11
725.00002354929165
 21
-341.69474000000628
 31
0.0
  0
LINE
  8
OUTLINE
  6
CONTINUOUS
 62
     3
 10
715.00002354928984
 20
-357.61775999999008
 30
0.0
 11
725.00002354928893
 21
-357.30525999999372
 31
0.0
  0
LINE
  8
OUTLINE
  6
CONTINUOUS
 62
     3
 10
725.00002354928893
 20
-357.30525999999372
 30
0.0
 11
725.00002354929165
 21
-341.69474000000628
 31
0.0
  0
LINE
  8
OUTLINE
  6
CONTINUOUS
 62
     3
 10
725.00002354928893
 20
-357.30525999999372
 30
0.0
 11
725.00002354929165
 21
-341.69474000000628
 31
0.0
  0
LINE
  8
OUTLINE
  6
CONTINUOUS
 62
     3
 10
-629.19997645070907
 20
132.30000000000109
 30
0.0
 11
-629.99997645070926
 21
132.30000000000109
 31
0.0
  0
LINE
  8
OUTLINE
  6
CONTINUOUS
 62
     3
 10
-629.19997645070907
 20
153.5
 30
0.0
 11
-629.99997645070926
 21
153.5
 31
0.0
  0
LINE
  8
SIZE
  6
CONTINUOUS
 62
    30
 10
650.00002354929074
 20
-523.5
 30
0.0
 11
650.00002354929074
 21
-583.60026612964054
 31
0.0
  0
LINE
  8
SIZE
  6
CONTINUOUS
 62
    30
 10
625.00002354929074
 20
-278.0
 30
0.0
 11
625.00002354929074
 21
-583.60026612964054
 31
0.0
  0
LINE
  8
SIZE
  6
CONTINUOUS
 62
    30
 10
650.00002354929074
 20
-563.60026612964054
 30
0.0
 11
680.00002354929074
 21
-563.60026612964054
 31
0.0
  0
LINE
  8
SIZE
  6
CONTINUOUS
 62
    30
 10
625.00002354929074
 20
-563.60026612964054
 30
0.0
 11
466.71430926357567
 21
-563.60026612964054
 31
0.0
  0
LINE
  8
SIZE
  6
CONTINUOUS
 62
    30
 10
650.00002354929074
 20
-563.60026612964054
 30
0.0
 11
625.00002354929074
 21
-563.60026612964054
 31
0.0
  0
CIRCLE
  8
SIZE
  6
CONTINUOUS
 62
    30
 10
650.00002354929074
 20
-563.60026612964054
 30
0.0
 40
7.5
  0
CIRCLE
  8
SIZE
  6
CONTINUOUS
 62
    30
 10
625.00002354929074
 20
-563.60026612964054
 30
0.0
 40
7.5
  0
TEXT
  8
SIZE
  6
CONTINUOUS
 62
    30
 10
482.37716640643293
 20
-543.60026612964066
 30
0.0
 40
40.0
  1
25
 50
0.0
 41
0.9
 51
0.0
  7
STANDARD
 71
     0
 72
     1
 11
515.85716640643295
 21
-543.60026612964066
 31
0.0
210
0.0
220
0.0
230
1.0
  0
POINT
  8
DEFPOINTS
  6
CONTINUOUS
 62
    30
 10
650.00002354929074
 20
-503.5
 30
0.0
  0
POINT
  8
DEFPOINTS
  6
CONTINUOUS
 62
    30
 10
625.00002354929074
 20
-258.0
 30
0.0
  0
POINT
  8
DEFPOINTS
  6
CONTINUOUS
 62
    30
 10
625.00002354929074
 20
-563.60026612964054
 30
0.0
  0
LINE
  8
DETAIL
  6
CONTINUOUS
 62
     5
 10
606.80002354929093
 20
608.49999999999989
 30
0.0
 11
-596.19997645070907
 21
698.5
 31
0.0
  0
LINE
  8
DETAIL
  6
CONTINUOUS
 62
     5
 10
-596.19997645070907
 20
608.49999999999989
 30
0.0
 11
606.80002354929093
 21
698.5
 31
0.0
  0
LINE
  8
DETAIL
  6
CONTINUOUS
 62
     5
 10
606.80002354929093
 20
703.5
 30
0.0
 11
-596.19997645070907
 21
793.5
 31
0.0
  0
LINE
  8
DETAIL
  6
CONTINUOUS
 62
     5
 10
-596.19997645070907
 20
703.5
 30
0.0
 11
606.80002354929093
 21
793.5
 31
0.0
  0
CIRCLE
  8
DETAIL
  6
CONTINUOUS
 62
     5
 10
-209.99997645070931
 20
-852.5
 30
0.0
 40
1.450000000000045
  0
CIRCLE
  8
DETAIL
  6
CONTINUOUS
 62
     5
 10
-209.99997645070931
 20
-852.5
 30
0.0
 40
1.450000000000045
  0
CIRCLE
  8
DETAIL
  6
CONTINUOUS
 62
     5
 10
-309.99997645070931
 20
-852.5
 30
0.0
 40
1.450000000000045
  0
CIRCLE
  8
DETAIL
  6
CONTINUOUS
 62
     5
 10
-309.99997645070931
 20
-852.5
 30
0.0
 40
1.450000000000045
  0
CIRCLE
  8
DETAIL
  6
CONTINUOUS
 62
     5
 10
-409.9999764507092
 20
-852.5
 30
0.0
 40
1.450000000000045
  0
CIRCLE
  8
DETAIL
  6
CONTINUOUS
 62
     5
 10
-409.9999764507092
 20
-852.5
 30
0.0
 40
1.450000000000045
  0
CIRCLE
  8
DETAIL
  6
CONTINUOUS
 62
     5
 10
-509.9999764507092
 20
-852.5
 30
0.0
 40
1.450000000000045
  0
CIRCLE
  8
DETAIL
  6
CONTINUOUS
 62
     5
 10
-509.9999764507092
 20
-852.5
 30
0.0
 40
1.450000000000045
  0
CIRCLE
  8
DETAIL
  6
CONTINUOUS
 62
     5
 10
-199.9999764507092
 20
852.5
 30
0.0
 40
1.449999999999988
  0
CIRCLE
  8
DETAIL
  6
CONTINUOUS
 62
     5
 10
-299.99997645070931
 20
852.5
 30
0.0
 40
1.449999999999988
  0
CIRCLE
  8
DETAIL
  6
CONTINUOUS
 62
     5
 10
-399.99997645070931
 20
852.5
 30
0.0
 40
1.449999999999988
  0
CIRCLE
  8
DETAIL
  6
CONTINUOUS
 62
     5
 10
-499.99997645070931
 20
852.5
 30
0.0
 40
1.449999999999988
  0
LINE
  8
NOTE
  6
CONTINUOUS
 62
     4
 10
-10.35811700475278
 20
960.50155156441895
 30
0.0
 11
-30.60132363956928
 21
960.50155156441895
 31
0.0
  0
LINE
  8
NOTE
  6
CONTINUOUS
 62
     4
 10
43.486566636660427
 20
960.50155156441895
 30
0.0
 11
23.24336000184303
 21
960.50155156441895
 31
0.0
  0
LINE
  8
NOTE
  6
CONTINUOUS
 62
     4
 10
-30.60132363956928
 20
960.50155156441895
 30
0.0
 11
6.4426214985451216
 21
924.64491236018875
 31
0.0
  0
LINE
  8
NOTE
  6
CONTINUOUS
 62
     4
 10
43.486566636660427
 20
960.50155156441895
 30
0.0
 11
6.4426214985451216
 21
924.64491236018875
 31
0.0
  0
LINE
  8
NOTE
  6
CONTINUOUS
 62
     4
 10
-10.35811700475278
 20
960.50155156441895
 30
0.0
 11
-10.35811700475278
 21
996.21948633505406
 31
0.0
  0
LINE
  8
NOTE
  6
CONTINUOUS
 62
     4
 10
23.24336000184303
 20
960.50155156441895
 30
0.0
 11
23.24336000184303
 21
996.21948633505406
 31
0.0
  0
LINE
  8
NOTE
  6
CONTINUOUS
 62
     4
 10
23.24336000184303
 20
996.21948633505406
 30
0.0
 11
-10.35811700475278
 21
996.21948633505406
 31
0.0
  0
LINE
  8
NOTE
  6
CONTINUOUS
 62
     4
 10
-11.592471804835441
 20
-970.38018773575823
 30
0.0
 11
-31.835678439651929
 21
-970.38018773575823
 31
0.0
  0
LINE
  8
NOTE
  6
CONTINUOUS
 62
     4
 10
42.252211836577771
 20
-970.38018773575823
 30
0.0
 11
22.009005201760381
 21
-970.38018773575823
 31
0.0
  0
LINE
  8
NOTE
  6
CONTINUOUS
 62
     4
 10
-31.835678439651929
 20
-970.38018773575823
 30
0.0
 11
5.2082666984624657
 21
-1006.236826939988
 31
0.0
  0
LINE
  8
NOTE
  6
CONTINUOUS
 62
     4
 10
42.252211836577771
 20
-970.38018773575823
 30
0.0
 11
5.2082666984624657
 21
-1006.236826939988
 31
0.0
  0
LINE
  8
NOTE
  6
CONTINUOUS
 62
     4
 10
-11.592471804835441
 20
-970.38018773575823
 30
0.0
 11
-11.592471804835441
 21
-934.66225296512312
 31
0.0
  0
LINE
  8
NOTE
  6
CONTINUOUS
 62
     4
 10
22.009005201760381
 20
-970.38018773575823
 30
0.0
 11
22.009005201760381
 21
-934.66225296512312
 31
0.0
  0
LINE
  8
NOTE
  6
CONTINUOUS
 62
     4
 10
22.009005201760381
 20
-934.66225296512312
 30
0.0
 11
-11.592471804835441
 21
-934.66225296512312
 31
0.0
  0
CIRCLE
  8
FIX
  6
CONTINUOUS
 62
    11
 10
-662.79997645070944
 20
531.5
 30
0.0
 40
10.63443637122327
  0
CIRCLE
  8
FIX
  6
CONTINUOUS
 62
    11
 10
-662.79997645070944
 20
-806.49999999999989
 30
0.0
 40
10.63443637122327
  0
CIRCLE
  8
FIX
  6
CONTINUOUS
 62
    11
 10
662.20002354929045
 20
531.5
 30
0.0
 40
10.63443637122327
  0
CIRCLE
  8
FIX
  6
CONTINUOUS
 62
    11
 10
662.20002354929045
 20
-806.49999999999989
 30
0.0
 40
10.63443637122327
  0
LINE
  8
NOTE
  6
CONTINUOUS
 62
     4
 10
1458.5249626563179
 20
725.47354411637934
 30
0.0
 11
1434.200008795741
 21
706.16257026055598
 31
0.0
  0
LINE
  8
NOTE
  6
CONTINUOUS
 62
     4
 10
1434.200008795741
 20
706.16257026055598
 30
0.0
 11
1445.6105499880171
 21
735.04884107004
 31
0.0
  0
LINE
  8
NOTE
  6
CONTINUOUS
 62
     4
 10
1434.200008795741
 20
706.16257026055598
 30
0.0
 11
1452.067756322168
 21
730.26119259320956
 31
0.0
  0
LINE
  8
NOTE
  6
CONTINUOUS
 62
     4
 10
1452.067756322168
 20
730.26119259320956
 30
0.0
 11
1627.0798751638879
 21
966.30386945364262
 31
0.0
  0
LINE
  8
NOTE
  6
CONTINUOUS
 62
     4
 10
1627.0798751638879
 20
966.30386945364262
 30
0.0
 11
2171.9163865461128
 21
966.30386945364262
 31
0.0
  0
TEXT
  8
NOTE
  6
CONTINUOUS
 62
     4
 10
1627.3699346676599
 20
973.91889203252515
 30
0.0
 40
64.0
  1
サービススペース
 41
0.9
  0
LINE
  8
NOTE
  6
CONTINUOUS
 62
     4
 10
731.84588440335392
 20
-167.79441005773691
 30
0.0
 11
725.00002354929074
 21
-137.5
 31
0.0
  0
LINE
  8
NOTE
  6
CONTINUOUS
 62
     4
 10
725.00002354929074
 20
-137.5
 30
0.0
 11
746.07591788505977
 21
-160.31279837124291
 31
0.0
  0
LINE
  8
NOTE
  6
CONTINUOUS
 62
     4
 10
725.00002354929074
 20
-137.5
 30
0.0
 11
738.96090114420713
 21
-164.0536042144895
 31
0.0
  0
LINE
  8
NOTE
  6
CONTINUOUS
 62
     4
 10
738.96090114420713
 20
-164.0536042144895
 30
0.0
 11
1248.4205730797721
 21
-1133.0464486719829
 31
0.0
  0
LINE
  8
NOTE
  6
CONTINUOUS
 62
     4
 10
1248.4205730797721
 20
-1133.0464486719829
 30
0.0
 11
1680.2424407212191
 21
-1133.0464486719829
 31
0.0
  0
TEXT
  8
NOTE
  6
CONTINUOUS
 62
     4
 10
1261.7458580451739
 20
-1113.114409715228
 30
0.0
 40
64.0
  1
 RL %%C9.52
 41
0.9
  0
LINE
  8
NOTE
  6
CONTINUOUS
 62
     4
 10
730.79716326992229
 20
-264.01246077652468
 30
0.0
 11
725.00002354929074
 21
-233.5
 31
0.0
  0
LINE
  8
NOTE
  6
CONTINUOUS
 62
     4
 10
725.00002354929074
 20
-233.5
 30
0.0
 11
745.27672409818115
 21
-257.02599639611708
 31
0.0
  0
LINE
  8
NOTE
  6
CONTINUOUS
 62
     4
 10
725.00002354929074
 20
-233.5
 30
0.0
 11
738.03694368405138
 21
-260.51922858632128
 31
0.0
  0
LINE
  8
NOTE
  6
CONTINUOUS
 62
     4
 10
738.03694368405138
 20
-260.51922858632128
 30
0.0
 11
1214.51801430758
 21
-1248.0339813924841
 31
0.0
  0
LINE
  8
NOTE
  6
CONTINUOUS
 62
     4
 10
1214.51801430758
 20
-1248.0339813924841
 30
0.0
 11
1696.8496230116571
 21
-1248.0339813924841
 31
0.0
  0
TEXT
  8
NOTE
  6
CONTINUOUS
 62
     4
 10
1227.0049072522811
 20
-1232.7766975091911
 30
0.0
 40
64.0
  1
 RG %%C19.05
 41
0.9
  0
LINE
  8
NOTE
  6
CONTINUOUS
 62
     4
 10
-689.25709120986437
 20
-822.76770328597115
 30
0.0
 11
-662.79997645070944
 21
-806.49999999999989
 31
0.0
  0
LINE
  8
NOTE
  6
CONTINUOUS
 62
     4
 10
-662.79997645070944
 20
-806.49999999999989
 30
0.0
 11
-677.57865842391618
 21
-833.81680161941222
 31
0.0
  0
LINE
  8
NOTE
  6
CONTINUOUS
 62
     4
 10
-662.79997645070944
 20
-806.49999999999989
 30
0.0
 11
-683.41787481689039
 21
-828.29225245269106
 31
0.0
  0
LINE
  8
NOTE
  6
CONTINUOUS
 62
     4
 10
-683.41787481689039
 20
-828.29225245269106
 30
0.0
 11
-810.30019401621485
 21
-962.401533751221
 31
0.0
  0
LINE
  8
NOTE
  6
CONTINUOUS
 62
     4
 10
-810.30019401621485
 20
-962.401533751221
 30
0.0
 11
-1609.132823089451
 21
-962.401533751221
 31
0.0
  0
TEXT
  8
NOTE
  6
CONTINUOUS
 62
     4
 10
-1592.810767959578
 20
-947.14424986792801
 30
0.0
 40
64.0
  1
AH 2x2 M10ボルト用
 41
0.9
  0
LINE
  8
NOTE
  6
CONTINUOUS
 62
     4
 10
-671.45135954743205
 20
208.03978930785979
 30
0.0
 11
-665.79997291064683
 21
177.4999968943375
 31
0.0
  0
LINE
  8
NOTE
  6
CONTINUOUS
 62
     4
 10
-665.79997291064683
 20
177.4999968943375
 30
0.0
 11
-685.96411340430745
 21
201.122539723834
 31
0.0
  0
LINE
  8
NOTE
  6
CONTINUOUS
 62
     4
 10
-665.79997291064683
 20
177.4999968943375
 30
0.0
 11
-678.70773647586975
 21
204.58116451584741
 31
0.0
  0
LINE
  8
NOTE
  6
CONTINUOUS
 62
     4
 10
-678.70773647586975
 20
204.58116451584741
 30
0.0
 11
-811.1561380484427
 21
482.46488512038923
 31
0.0
  0
LINE
  8
NOTE
  6
CONTINUOUS
 62
     4
 10
-811.1561380484427
 20
482.46488512038923
 30
0.0
 11
-1380.4223920613661
 21
482.46488512038923
 31
0.0
  0
TEXT
  8
NOTE
  6
CONTINUOUS
 62
     4
 10
-1368.200348900574
 20
497.72216900368221
 30
0.0
 40
64.0
  1
サービススペース
 41
0.9
  0
TEXT
  8
ETC
  6
CONTINUOUS
 62
    61
 10
-761.89999191046161
 20
1653.8034148202059
 30
0.0
 40
64.0
  1
フィルターボックス組込
 41
0.9
  0
ENDSEC
  0
EOF
