  0
SECTION
  2
HEADER
  9
$ACADVER
  1
AC1006
  9
$INSBASE
 10
0.0
 20
0.0
 30
0.0
  9
$EXTMIN
 10
-1568.0770026633111
 20
-615.5125609801471
  9
$EXTMAX
 10
1444.2992991509091
 20
1084.4133707657199
  9
$LIMMIN
 10
-4267.1522210604817
 20
-2696.0832101984129
  9
$LIMMAX
 10
7190.7174225864646
 20
5141.155363923066
  9
$ORTHOMODE
 70
     0
  9
$REGENMODE
 70
     1
  9
$FILLMODE
 70
     1
  9
$QTEXTMODE
 70
     0
  9
$MIRRTEXT
 70
     0
  9
$LTSCALE
 40
20.0
  9
$ATTMODE
 70
     1
  9
$TEXTSIZE
 40
60.0
  9
$TRACEWID
 40
0.05
  9
$TEXTSTYLE
  7
STANDARD1
  9
$CLAYER
  8
NOTE
  9
$CELTYPE
  6
CONTINUOUS
  9
$CECOLOR
 62
     7
  9
$DIMSCALE
 40
1.0
  9
$DIMASZ
 40
30.0
  9
$DIMEXO
 40
20.0
  9
$DIMDLI
 40
80.0
  9
$DIMRND
 40
0.0
  9
$DIMDLE
 40
0.0
  9
$DIMEXE
 40
20.0
  9
$DIMTP
 40
0.0
  9
$DIMTM
 40
0.0
  9
$DIMTXT
 40
40.0
  9
$DIMCEN
 40
0.09
  9
$DIMTSZ
 40
0.0
  9
$DIMTOL
 70
     0
  9
$DIMLIM
 70
     0
  9
$DIMTIH
 70
     0
  9
$DIMTOH
 70
     0
  9
$DIMSE1
 70
     0
  9
$DIMSE2
 70
     0
  9
$DIMTAD
 70
     1
  9
$DIMZIN
 70
     8
  9
$DIMBLK
  1

  9
$DIMASO
 70
     1
  9
$DIMSHO
 70
     0
  9
$DIMPOST
  1

  9
$DIMAPOST
  1

  9
$DIMALT
 70
     0
  9
$DIMALTD
 70
     2
  9
$DIMALTF
 40
25.399999999999999
  9
$DIMLFAC
 40
1.0
  9
$DIMTOFL
 70
     1
  9
$DIMTVP
 40
0.0
  9
$DIMTIX
 70
     0
  9
$DIMSOXD
 70
     0
  9
$DIMSAH
 70
     0
  9
$DIMBLK1
  1

  9
$DIMBLK2
  1

  9
$LUNITS
 70
     2
  9
$LUPREC
 70
     4
  9
$SKETCHINC
 40
0.1
  9
$FILLETRAD
 40
0.0
  9
$AUNITS
 70
     1
  9
$AUPREC
 70
     3
  9
$MENU
  1
ACAD
  9
$ELEVATION
 40
0.0
  9
$THICKNESS
 40
0.0
  9
$LIMCHECK
 70
     0
  9
$CHAMFERA
 40
0.0
  9
$CHAMFERB
 40
0.0
  9
$SKPOLY
 70
     0
  9
$TDCREATE
 40
2455902.607164352
  9
$TDUPDATE
 40
2457751.361967593
  9
$TDINDWG
 40
1.6968386806
  9
$TDUSRTIMER
 40
1.6968350694
  9
$USRTIMER
 70
     1
  9
$ANGBASE
 50
0.0
  9
$ANGDIR
 70
     0
  9
$PDMODE
 70
     3
  9
$PDSIZE
 40
-2.0
  9
$PLINEWID
 40
0.0
  9
$SPLFRAME
 70
     0
  9
$SPLINETYPE
 70
     6
  9
$SPLINESEGS
 70
     8
  9
$SURFTAB1
 70
     6
  9
$SURFTAB2
 70
     6
  9
$SURFTYPE
 70
     6
  9
$SURFU
 70
     6
  9
$SURFV
 70
     6
  9
$UCSNAME
  2

  9
$UCSORG
 10
0.0
 20
0.0
 30
0.0
  9
$UCSXDIR
 10
1.0
 20
0.0
 30
0.0
  9
$UCSYDIR
 10
0.0
 20
1.0
 30
0.0
  9
$USERI1
 70
     0
  9
$USERI2
 70
     0
  9
$USERI3
 70
     0
  9
$USERI4
 70
     0
  9
$USERI5
 70
     0
  9
$USERR1
 40
20.0
  9
$USERR2
 40
0.0
  9
$USERR3
 40
0.0
  9
$USERR4
 40
0.0
  9
$USERR5
 40
0.0
  9
$WORLDVIEW
 70
     1
  9
$ATTDIA
 70
     0
  9
$ATTREQ
 70
     1
  9
$BLIPMODE
 70
     1
  9
$COORDS
 70
     1
  9
$DRAGMODE
 70
     2
  9
$OSMODE
 70
     0
  9
$HANDLING
 70
     0
  9
$HANDSEED
  5
909B79C
  0
ENDSEC
  0
SECTION
  2
TABLES
  0
TABLE
  2
LTYPE
 70
     2
  0
LTYPE
  2
CONTINUOUS
 70
     0
  3
実線
 72
    65
 73
     0
 40
0.0
  0
LTYPE
  2
DASHDOT
 70
     0
  3
____ _ ____ _ ____ _ ____ _ ____ _ ____ _ ____
 72
    65
 73
     4
 40
5.5
 49
4.0
 49
-0.6
 49
0.3
 49
-0.6
  0
ENDTAB
  0
TABLE
  2
LAYER
 70
    12
  0
LAYER
  2
0
 70
     0
 62
     7
  6
CONTINUOUS
  0
LAYER
  2
OUTLINE
 70
     0
 62
     3
  6
CONTINUOUS
  0
LAYER
  2
DETAIL
 70
     0
 62
     5
  6
CONTINUOUS
  0
LAYER
  2
BASIS
 70
     0
 62
     6
  6
DASHDOT
  0
LAYER
  2
SIZE
 70
     0
 62
    30
  6
CONTINUOUS
  0
LAYER
  2
NOTE
 70
     0
 62
     4
  6
CONTINUOUS
  0
LAYER
  2
ARRANGE
 70
     0
 62
     1
  6
CONTINUOUS
  0
LAYER
  2
FIX
 70
     0
 62
    11
  6
CONTINUOUS
  0
LAYER
  2
SERVICESPACE
 70
     0
 62
     2
  6
DASHDOT
  0
LAYER
  2
ETC
 70
     0
 62
    61
  6
CONTINUOUS
  0
LAYER
  2
SYMBOLLINE
 70
     0
 62
    15
  6
CONTINUOUS
  0
LAYER
  2
DEFPOINTS
 70
     0
 62
     7
  6
CONTINUOUS
  0
ENDTAB
  0
TABLE
  2
STYLE
 70
     2
  0
STYLE
  2
STANDARD
 70
     0
 40
0.0
 41
0.9
 50
0.0
 71
     0
 42
64.0
  3
SIMPLEX
  4
BIGFONT
  0
STYLE
  2
STANDARD1
 70
     0
 40
60.0
 41
0.7
 50
0.0
 71
     0
 42
60.0
  3
MONOTXT.shx
  4
BIGFONT.shx
  0
ENDTAB
  0
TABLE
  2
VIEW
 70
     1
  0
VIEW
  2
ALL
 70
     0
 40
9000.0
 10
241.50664699999999
 20
0.0
 41
12483.01
 11
0.0
 21
0.0
 31
1.0
 12
0.0
 22
0.0
 32
0.0
 42
50.0
 43
0.0
 44
0.0
 50
0.0
 71
     0
  0
ENDTAB
  0
TABLE
  2
UCS
 70
     0
  0
ENDTAB
  0
TABLE
  2
VPORT
 70
     1
  0
VPORT
  2
*ACTIVE
 70
     0
 10
0.0
 20
0.0
 11
1.0
 21
1.0
 12
-61.888851756200893
 22
234.45040489278639
 13
0.0
 23
0.0
 14
50.0
 24
50.0
 15
100.0
 25
100.0
 16
0.0
 26
0.0
 36
1.0
 17
0.0
 27
0.0
 37
0.0
 40
1750.3421059415989
 41
1.72801875732708
 42
50.0
 43
0.0
 44
0.0
 50
0.0
 51
0.0
 71
     0
 72
  1000
 73
     1
 74
     0
 75
     0
 76
     0
 77
     0
 78
     0
  0
ENDTAB
  0
TABLE
  2
DWGMGR
 70
     0
  0
ENDTAB
  0
ENDSEC
  0
SECTION
  2
BLOCKS
  0
ENDSEC
  0
SECTION
  2
ENTITIES
  0
LINE
  8
DETAIL
  6
CONTINUOUS
 62
     5
 10
610.80000000000109
 20
-479.0
 30
0.0
 11
625.80000000000098
 21
-479.0
 31
0.0
  0
LINE
  8
DETAIL
  6
CONTINUOUS
 62
     5
 10
-610.19999999999891
 20
-479.0
 30
0.0
 11
-625.19999999999891
 21
-479.0
 31
0.0
  0
LINE
  8
DETAIL
  6
CONTINUOUS
 62
     5
 10
-622.09999999999854
 20
-477.19999999999982
 30
0.0
 11
-613.89999999999782
 21
-477.19999999999982
 31
0.0
  0
LINE
  8
DETAIL
  6
CONTINUOUS
 62
     5
 10
614.5
 20
-477.19999999999982
 30
0.0
 11
622.70000000000073
 21
-477.19999999999982
 31
0.0
  0
LINE
  8
DETAIL
  6
CONTINUOUS
 62
     5
 10
626.54011007730151
 20
-476.0
 30
0.0
 11
631.30000000000109
 21
-476.0
 31
0.0
  0
LINE
  8
DETAIL
  6
CONTINUOUS
 62
     5
 10
626.30000000000109
 20
-476.0
 30
0.0
 11
-625.69999999999891
 21
-476.0
 31
0.0
  0
LINE
  8
DETAIL
  6
CONTINUOUS
 62
     5
 10
-625.94011007739755
 20
-476.0
 30
0.0
 11
-630.69999999999879
 21
-476.0
 31
0.0
  0
LINE
  8
DETAIL
  6
CONTINUOUS
 62
     5
 10
-625.69999999999891
 20
-473.0
 30
0.0
 11
-623.69999999999891
 21
-473.0
 31
0.0
  0
LINE
  8
DETAIL
  6
CONTINUOUS
 62
     5
 10
624.30000000000098
 20
-473.0
 30
0.0
 11
626.30000000000109
 21
-473.0
 31
0.0
  0
LINE
  8
DETAIL
  6
CONTINUOUS
 62
     5
 10
635.30000000000109
 20
-473.0
 30
0.0
 11
626.30000000000109
 21
-473.0
 31
0.0
  0
LINE
  8
DETAIL
  6
CONTINUOUS
 62
     5
 10
636.10000000000207
 20
-472.19999999999982
 30
0.0
 11
625.30000000000098
 21
-472.19999999999982
 31
0.0
  0
LINE
  8
DETAIL
  6
CONTINUOUS
 62
     5
 10
-624.69999999999891
 20
-472.19999999999982
 30
0.0
 11
-629.69999999999891
 21
-472.19999999999982
 31
0.0
  0
LINE
  8
DETAIL
  6
CONTINUOUS
 62
     5
 10
632.30000000000109
 20
-472.0
 30
0.0
 11
630.30000000000109
 21
-472.0
 31
0.0
  0
LINE
  8
DETAIL
  6
CONTINUOUS
 62
     5
 10
-623.89999999999782
 20
-471.40000000000049
 30
0.0
 11
-623.69999999999891
 21
-471.40000000000049
 31
0.0
  0
LINE
  8
DETAIL
  6
CONTINUOUS
 62
     5
 10
-624.69999999999891
 20
-471.1999999999997
 30
0.0
 11
-623.69999999999891
 21
-471.1999999999997
 31
0.0
  0
LINE
  8
DETAIL
  6
CONTINUOUS
 62
     5
 10
625.30000000000098
 20
-471.1999999999997
 30
0.0
 11
624.30000000000098
 21
-471.1999999999997
 31
0.0
  0
LINE
  8
DETAIL
  6
CONTINUOUS
 62
     5
 10
636.10000000000207
 20
-458.0
 30
0.0
 11
665.30000000000109
 21
-458.0
 31
0.0
  0
LINE
  8
DETAIL
  6
CONTINUOUS
 62
     5
 10
-629.69999999999891
 20
-458.0
 30
0.0
 11
-630.69999999999879
 21
-458.0
 31
0.0
  0
LINE
  8
DETAIL
  6
CONTINUOUS
 62
     5
 10
636.10000000000207
 20
-448.0
 30
0.0
 11
674.80000000000098
 21
-448.0
 31
0.0
  0
LINE
  8
DETAIL
  6
CONTINUOUS
 62
     5
 10
676.80000000000109
 20
-443.80000000000013
 30
0.0
 11
699.30000000000098
 21
-443.80000000000013
 31
0.0
  0
LINE
  8
DETAIL
  6
CONTINUOUS
 62
     5
 10
698.10000000000218
 20
-443.0
 30
0.0
 11
636.10000000000207
 21
-443.0
 31
0.0
  0
LINE
  8
DETAIL
  6
CONTINUOUS
 62
     5
 10
699.23023222180188
 20
-442.1999999999997
 30
0.0
 11
699.30000000000098
 21
-442.1999999999997
 31
0.0
  0
LINE
  8
DETAIL
  6
CONTINUOUS
 62
     5
 10
700.30000000000098
 20
-442.0
 30
0.0
 11
689.30000000000109
 21
-442.0
 31
0.0
  0
LINE
  8
DETAIL
  6
CONTINUOUS
 62
     5
 10
689.30000000000109
 20
-442.0
 30
0.0
 11
636.10000000000207
 21
-442.0
 31
0.0
  0
LINE
  8
DETAIL
  6
CONTINUOUS
 62
     5
 10
689.10000000000218
 20
-441.80000000000013
 30
0.0
 11
636.10000000000207
 21
-441.80000000000013
 31
0.0
  0
LINE
  8
DETAIL
  6
CONTINUOUS
 62
     5
 10
685.30000000000109
 20
-439.0
 30
0.0
 11
692.30000000000098
 21
-439.0
 31
0.0
  0
LINE
  8
DETAIL
  6
CONTINUOUS
 62
     5
 10
630.30000000000109
 20
-438.1999999999997
 30
0.0
 11
624.30000000000098
 21
-438.1999999999997
 31
0.0
  0
LINE
  8
DETAIL
  6
CONTINUOUS
 62
     5
 10
-623.69999999999891
 20
-438.1999999999997
 30
0.0
 11
-629.69999999999891
 21
-438.1999999999997
 31
0.0
  0
LINE
  8
DETAIL
  6
CONTINUOUS
 62
     5
 10
-623.69999999999891
 20
-438.0
 30
0.0
 11
-569.69999999999891
 21
-438.0
 31
0.0
  0
LINE
  8
DETAIL
  6
CONTINUOUS
 62
     5
 10
570.30000000000098
 20
-438.0
 30
0.0
 11
624.30000000000098
 21
-438.0
 31
0.0
  0
LINE
  8
DETAIL
  6
CONTINUOUS
 62
     5
 10
701.10000000000218
 20
-436.0
 30
0.0
 11
700.30000000000098
 21
-436.0
 31
0.0
  0
LINE
  8
DETAIL
  6
CONTINUOUS
 62
     5
 10
701.10000000000218
 20
-436.0
 30
0.0
 11
701.10000000000218
 21
-442.1999999999997
 31
0.0
  0
LINE
  8
DETAIL
  6
CONTINUOUS
 62
     5
 10
700.30000000000098
 20
-442.0
 30
0.0
 11
700.30000000000098
 21
-62.400000000000553
 31
0.0
  0
LINE
  8
DETAIL
  6
CONTINUOUS
 62
     5
 10
699.5
 20
-442.1999999999997
 30
0.0
 11
699.5
 21
-442.0
 31
0.0
  0
LINE
  8
DETAIL
  6
CONTINUOUS
 62
     5
 10
699.5
 20
-77.400000000000546
 30
0.0
 11
699.5
 21
-62.400000000000553
 31
0.0
  0
LINE
  8
DETAIL
  6
CONTINUOUS
 62
     5
 10
699.30000000000098
 20
-443.80000000000013
 30
0.0
 11
699.30000000000098
 21
-442.0
 31
0.0
  0
LINE
  8
DETAIL
  6
CONTINUOUS
 62
     5
 10
699.30000000000098
 20
-76.400000000000546
 30
0.0
 11
699.30000000000098
 21
-61.400000000000539
 31
0.0
  0
LINE
  8
DETAIL
  6
CONTINUOUS
 62
     5
 10
698.10000000000218
 20
-76.400000000000546
 30
0.0
 11
698.10000000000218
 21
-77.400000000000546
 31
0.0
  0
LINE
  8
DETAIL
  6
CONTINUOUS
 62
     5
 10
692.30000000000098
 20
-439.0
 30
0.0
 11
692.30000000000098
 21
-77.400000000000546
 31
0.0
  0
LINE
  8
DETAIL
  6
CONTINUOUS
 62
     5
 10
685.5
 20
-35.0
 30
0.0
 11
685.5
 21
-25.5
 31
0.0
  0
LINE
  8
DETAIL
  6
CONTINUOUS
 62
     5
 10
685.30000000000109
 20
-439.0
 30
0.0
 11
685.30000000000109
 21
-77.400000000000546
 31
0.0
  0
LINE
  8
DETAIL
  6
CONTINUOUS
 62
     5
 10
683.20000000000073
 20
-35.0
 30
0.0
 11
683.20000000000073
 21
-25.5
 31
0.0
  0
LINE
  8
DETAIL
  6
CONTINUOUS
 62
     5
 10
683.0
 20
-35.0
 30
0.0
 11
683.0
 21
-23.0
 31
0.0
  0
LINE
  8
DETAIL
  6
CONTINUOUS
 62
     5
 10
676.80000000000109
 20
-446.0
 30
0.0
 11
676.80000000000109
 21
-443.0
 31
0.0
  0
LINE
  8
DETAIL
  6
CONTINUOUS
 62
     5
 10
672.30000000000109
 20
-442.0
 30
0.0
 11
672.30000000000109
 21
-441.80000000000013
 31
0.0
  0
LINE
  8
DETAIL
  6
CONTINUOUS
 62
     5
 10
665.30000000000109
 20
-458.0
 30
0.0
 11
665.30000000000109
 21
-448.0
 31
0.0
  0
LINE
  8
DETAIL
  6
CONTINUOUS
 62
     5
 10
638.30000000000098
 20
-442.0
 30
0.0
 11
638.30000000000098
 21
-441.80000000000013
 31
0.0
  0
LINE
  8
DETAIL
  6
CONTINUOUS
 62
     5
 10
636.10000000000207
 20
-472.19999999999982
 30
0.0
 11
636.10000000000036
 21
-3.800000000000181
 31
0.0
  0
LINE
  8
DETAIL
  6
CONTINUOUS
 62
     5
 10
635.30000000000109
 20
-7.0
 30
0.0
 11
635.30000000000109
 21
-469.0
 31
0.0
  0
LINE
  8
DETAIL
  6
CONTINUOUS
 62
     5
 10
635.30000000000109
 20
-473.0
 30
0.0
 11
635.30000000000109
 21
-472.19999999999982
 31
0.0
  0
LINE
  8
DETAIL
  6
CONTINUOUS
 62
     5
 10
635.30000000000109
 20
-3.800000000000181
 30
0.0
 11
635.30000000000109
 21
-3.0
 31
0.0
  0
LINE
  8
DETAIL
  6
CONTINUOUS
 62
     5
 10
631.30000000000109
 20
-476.0
 30
0.0
 11
631.30000000000109
 21
-473.0
 31
0.0
  0
LINE
  8
DETAIL
  6
CONTINUOUS
 62
     5
 10
630.30000000000109
 20
-472.19999999999982
 30
0.0
 11
630.30000000000109
 21
-3.800000000000181
 31
0.0
  0
LINE
  8
DETAIL
  6
CONTINUOUS
 62
     5
 10
630.30000000000109
 20
-3.0
 30
0.0
 11
630.30000000000109
 21
0.0
 31
0.0
  0
LINE
  8
DETAIL
  6
CONTINUOUS
 62
     5
 10
626.30000000000109
 20
-473.0
 30
0.0
 11
626.30000000000109
 21
-476.0
 31
0.0
  0
LINE
  8
DETAIL
  6
CONTINUOUS
 62
     5
 10
625.80000000000098
 20
-476.44391251380063
 30
0.0
 11
625.80000000000098
 21
-479.0
 31
0.0
  0
LINE
  8
DETAIL
  6
CONTINUOUS
 62
     5
 10
625.30000000000098
 20
-473.0
 30
0.0
 11
625.30000000000098
 21
-438.1999999999997
 31
0.0
  0
LINE
  8
DETAIL
  6
CONTINUOUS
 62
     5
 10
625.30000000000098
 20
-38.800000000000182
 30
0.0
 11
625.30000000000098
 21
0.0
 31
0.0
  0
LINE
  8
DETAIL
  6
CONTINUOUS
 62
     5
 10
624.30000000000098
 20
0.0
 30
0.0
 11
624.30000000000098
 21
-37.0
 31
0.0
  0
LINE
  8
DETAIL
  6
CONTINUOUS
 62
     5
 10
624.30000000000098
 20
-438.0
 30
0.0
 11
624.30000000000098
 21
-476.0
 31
0.0
  0
LINE
  8
DETAIL
  6
CONTINUOUS
 62
     5
 10
614.5
 20
-476.0
 30
0.0
 11
614.5
 21
-477.19999999999982
 31
0.0
  0
LINE
  8
DETAIL
  6
CONTINUOUS
 62
     5
 10
610.80000000000109
 20
-476.0
 30
0.0
 11
610.80000000000109
 21
-479.0
 31
0.0
  0
LINE
  8
DETAIL
  6
CONTINUOUS
 62
     5
 10
685.30000000000109
 20
-77.400000000000546
 30
0.0
 11
692.30000000000098
 21
-77.400000000000546
 31
0.0
  0
LINE
  8
DETAIL
  6
CONTINUOUS
 62
     5
 10
700.30000000000098
 20
-77.400000000000546
 30
0.0
 11
692.30000000000098
 21
-77.400000000000546
 31
0.0
  0
LINE
  8
DETAIL
  6
CONTINUOUS
 62
     5
 10
699.30000000000098
 20
-76.400000000000546
 30
0.0
 11
636.10000000000207
 21
-76.400000000000546
 31
0.0
  0
LINE
  8
DETAIL
  6
CONTINUOUS
 62
     5
 10
654.49999999999989
 20
-63.0
 30
0.0
 11
636.10000000000036
 21
-63.0
 31
0.0
  0
LINE
  8
DETAIL
  6
CONTINUOUS
 62
     5
 10
-629.69999999999891
 20
-63.0
 30
0.0
 11
-653.89999999999782
 21
-63.0
 31
0.0
  0
LINE
  8
DETAIL
  6
CONTINUOUS
 62
     5
 10
699.5
 20
-62.400000000000553
 30
0.0
 11
699.30000000000098
 21
-62.400000000000553
 31
0.0
  0
LINE
  8
DETAIL
  6
CONTINUOUS
 62
     5
 10
656.12857142850044
 20
-61.400000000000539
 30
0.0
 11
699.30000000000098
 21
-61.400000000000539
 31
0.0
  0
LINE
  8
DETAIL
  6
CONTINUOUS
 62
     5
 10
683.0
 20
-35.0
 30
0.0
 11
654.49999999999989
 21
-63.0
 31
0.0
  0
LINE
  8
DETAIL
  6
CONTINUOUS
 62
     5
 10
549.30000000000098
 20
-476.0
 30
0.0
 11
549.30000000000098
 21
-463.0
 31
0.0
  0
LINE
  8
DETAIL
  6
CONTINUOUS
 62
     5
 10
570.30000000000098
 20
-38.800000000000182
 30
0.0
 11
630.30000000000109
 21
-38.800000000000182
 31
0.0
  0
LINE
  8
DETAIL
  6
CONTINUOUS
 62
     5
 10
-629.69999999999891
 20
-37.800000000000182
 30
0.0
 11
-569.69999999999891
 21
-37.800000000000182
 31
0.0
  0
LINE
  8
DETAIL
  6
CONTINUOUS
 62
     5
 10
624.30000000000098
 20
-37.0
 30
0.0
 11
-623.69999999999891
 21
-37.0
 31
0.0
  0
LINE
  8
DETAIL
  6
CONTINUOUS
 62
     5
 10
683.20000000000073
 20
-35.0
 30
0.0
 11
685.5
 21
-35.0
 31
0.0
  0
LINE
  8
DETAIL
  6
CONTINUOUS
 62
     5
 10
-682.39999999999782
 20
-35.0
 30
0.0
 11
-684.69999999999879
 21
-35.0
 31
0.0
  0
LINE
  8
DETAIL
  6
CONTINUOUS
 62
     5
 10
-682.19999999999891
 20
-23.0
 30
0.0
 11
-629.69999999999891
 21
-23.0
 31
0.0
  0
LINE
  8
DETAIL
  6
CONTINUOUS
 62
     5
 10
636.10000000000036
 20
-23.0
 30
0.0
 11
683.0
 21
-23.0
 31
0.0
  0
LINE
  8
DETAIL
  6
CONTINUOUS
 62
     5
 10
-624.69999999999891
 20
-4.800000000000181
 30
0.0
 11
-623.69999999999891
 21
-4.800000000000181
 31
0.0
  0
LINE
  8
DETAIL
  6
CONTINUOUS
 62
     5
 10
625.30000000000098
 20
-4.800000000000181
 30
0.0
 11
624.30000000000098
 21
-4.800000000000181
 31
0.0
  0
LINE
  8
DETAIL
  6
CONTINUOUS
 62
     5
 10
-623.89999999999782
 20
-4.6000000000003629
 30
0.0
 11
-623.69999999999891
 21
-4.6000000000003629
 31
0.0
  0
LINE
  8
DETAIL
  6
CONTINUOUS
 62
     5
 10
632.30000000000109
 20
-4.0
 30
0.0
 11
630.30000000000109
 21
-4.0
 31
0.0
  0
LINE
  8
DETAIL
  6
CONTINUOUS
 62
     5
 10
636.10000000000036
 20
-3.800000000000181
 30
0.0
 11
625.30000000000098
 21
-3.800000000000181
 31
0.0
  0
LINE
  8
DETAIL
  6
CONTINUOUS
 62
     5
 10
-624.69999999999891
 20
-3.800000000000181
 30
0.0
 11
-629.69999999999891
 21
-3.800000000000181
 31
0.0
  0
LINE
  8
DETAIL
  6
CONTINUOUS
 62
     5
 10
624.30000000000098
 20
-3.0
 30
0.0
 11
625.30000000000098
 21
-3.0
 31
0.0
  0
LINE
  8
DETAIL
  6
CONTINUOUS
 62
     5
 10
635.30000000000109
 20
-3.0
 30
0.0
 11
626.30000000000109
 21
-3.0
 31
0.0
  0
LINE
  8
DETAIL
  6
CONTINUOUS
 62
     5
 10
-623.69999999999891
 20
-3.0
 30
0.0
 11
-624.69999999999891
 21
-3.0
 31
0.0
  0
LINE
  8
DETAIL
  6
CONTINUOUS
 62
     5
 10
630.30000000000109
 20
0.0
 30
0.0
 11
-629.69999999999891
 21
0.0
 31
0.0
  0
LINE
  8
DETAIL
  6
CONTINUOUS
 62
     5
 10
689.30000000000109
 20
-442.0
 30
0.0
 11
686.30000000000109
 21
-439.0
 31
0.0
  0
LINE
  8
DETAIL
  6
CONTINUOUS
 62
     5
 10
-653.89999999999782
 20
-63.0
 30
0.0
 11
-682.19999999999891
 21
-35.0
 31
0.0
  0
LINE
  8
DETAIL
  6
CONTINUOUS
 62
     5
 10
-548.69999999999891
 20
-463.0
 30
0.0
 11
-548.69999999999891
 21
-476.0
 31
0.0
  0
LINE
  8
DETAIL
  6
CONTINUOUS
 62
     5
 10
-569.69999999999891
 20
-37.800000000000182
 30
0.0
 11
-569.69999999999891
 21
-357.99999999984351
 31
0.0
  0
LINE
  8
DETAIL
  6
CONTINUOUS
 62
     5
 10
-569.69999999999891
 20
-436.20000000000113
 30
0.0
 11
-569.69999999999891
 21
-438.0
 31
0.0
  0
LINE
  8
DETAIL
  6
CONTINUOUS
 62
     5
 10
-610.19999999999891
 20
-479.0
 30
0.0
 11
-610.19999999999891
 21
-476.0
 31
0.0
  0
LINE
  8
DETAIL
  6
CONTINUOUS
 62
     5
 10
-613.89999999999782
 20
-477.19999999999982
 30
0.0
 11
-613.89999999999782
 21
-476.0
 31
0.0
  0
LINE
  8
DETAIL
  6
CONTINUOUS
 62
     5
 10
-623.69999999999891
 20
-476.0
 30
0.0
 11
-623.69999999999891
 21
-438.0
 31
0.0
  0
LINE
  8
DETAIL
  6
CONTINUOUS
 62
     5
 10
-623.69999999999891
 20
-37.0
 30
0.0
 11
-623.69999999999891
 21
0.0
 31
0.0
  0
LINE
  8
DETAIL
  6
CONTINUOUS
 62
     5
 10
-623.89999999999782
 20
-471.40000000000049
 30
0.0
 11
-623.89999999999782
 21
-471.1999999999997
 31
0.0
  0
LINE
  8
DETAIL
  6
CONTINUOUS
 62
     5
 10
-623.89999999999782
 20
-4.800000000000181
 30
0.0
 11
-623.89999999999782
 21
-4.6000000000003629
 31
0.0
  0
LINE
  8
DETAIL
  6
CONTINUOUS
 62
     5
 10
-624.69999999999891
 20
0.0
 30
0.0
 11
-624.69999999999891
 21
-37.800000000000182
 31
0.0
  0
LINE
  8
DETAIL
  6
CONTINUOUS
 62
     5
 10
-624.69999999999891
 20
-438.1999999999997
 30
0.0
 11
-624.69999999999891
 21
-472.19999999999982
 31
0.0
  0
LINE
  8
DETAIL
  6
CONTINUOUS
 62
     5
 10
-624.69999999999891
 20
-473.0
 30
0.0
 11
-624.69999999999891
 21
-472.19999999999982
 31
0.0
  0
LINE
  8
DETAIL
  6
CONTINUOUS
 62
     5
 10
-625.19999999999891
 20
-479.0
 30
0.0
 11
-625.19999999999891
 21
-476.44391251380063
 31
0.0
  0
LINE
  8
DETAIL
  6
CONTINUOUS
 62
     5
 10
-625.69999999999891
 20
-473.0
 30
0.0
 11
-625.69999999999891
 21
-476.0
 31
0.0
  0
LINE
  8
DETAIL
  6
CONTINUOUS
 62
     5
 10
-629.69999999999891
 20
-472.19999999999982
 30
0.0
 11
-629.69999999999891
 21
0.0
 31
0.0
  0
LINE
  8
DETAIL
  6
CONTINUOUS
 62
     5
 10
-630.69999999999879
 20
-458.0
 30
0.0
 11
-630.69999999999879
 21
-476.0
 31
0.0
  0
LINE
  8
DETAIL
  6
CONTINUOUS
 62
     5
 10
-682.19999999999891
 20
-35.0
 30
0.0
 11
-682.19999999999891
 21
-23.0
 31
0.0
  0
LINE
  8
DETAIL
  6
CONTINUOUS
 62
     5
 10
-682.39999999999782
 20
-35.0
 30
0.0
 11
-682.39999999999782
 21
-25.5
 31
0.0
  0
LINE
  8
DETAIL
  6
CONTINUOUS
 62
     5
 10
-684.69999999999879
 20
-25.5
 30
0.0
 11
-684.69999999999879
 21
-35.0
 31
0.0
  0
CIRCLE
  8
DETAIL
  6
CONTINUOUS
 62
     5
 10
665.30000000000109
 20
-273.0
 30
0.0
 40
3.0
  0
ARC
  8
DETAIL
  6
CONTINUOUS
 62
     5
 10
622.70000000000073
 20
-470.40000000000049
 30
0.0
 40
6.7999999999997511
 50
270.0
 51
337.48313346488578
  0
ARC
  8
DETAIL
  6
CONTINUOUS
 62
     5
 10
-622.09999999999854
 20
-470.40000000000049
 30
0.0
 40
6.800000000000181
 50
195.3730896462134
 51
270.0
  0
ARC
  8
DETAIL
  6
CONTINUOUS
 62
     5
 10
674.80000000000098
 20
-446.0
 30
0.0
 40
2.0
 50
270.0
 51
0.0
  0
ARC
  8
DETAIL
  6
CONTINUOUS
 62
     5
 10
-682.19999999999891
 20
-25.5
 30
0.0
 40
0.1999999999998181
 50
96.468783739462026
 51
180.0
  0
ARC
  8
DETAIL
  6
CONTINUOUS
 62
     5
 10
683.0
 20
-25.5
 30
0.0
 40
0.2000000000000063
 50
0.0
 51
83.531216260537974
  0
ARC
  8
DETAIL
  6
CONTINUOUS
 62
     5
 10
699.30000000000098
 20
-62.400000000000553
 30
0.0
 40
0.1999999999998181
 50
0.0
 51
90.0
  0
ARC
  8
DETAIL
  6
CONTINUOUS
 62
     5
 10
700.30000000000098
 20
-442.1999999999997
 30
0.0
 40
0.8000000000001818
 50
180.0
 51
0.0
  0
ARC
  8
DETAIL
  6
CONTINUOUS
 62
     5
 10
624.30000000000098
 20
-471.1999999999997
 30
0.0
 40
0.1999999999998181
 50
270.0
 51
0.0
  0
ARC
  8
DETAIL
  6
CONTINUOUS
 62
     5
 10
624.30000000000098
 20
-4.800000000000181
 30
0.0
 40
0.1999999999998181
 50
0.0
 51
90.0
  0
ARC
  8
DETAIL
  6
CONTINUOUS
 62
     5
 10
-682.19999999999891
 20
-25.5
 30
0.0
 40
2.5
 50
90.0
 51
180.0
  0
ARC
  8
DETAIL
  6
CONTINUOUS
 62
     5
 10
683.0
 20
-25.5
 30
0.0
 40
2.5
 50
0.0
 51
90.0
  0
ARC
  8
DETAIL
  6
CONTINUOUS
 62
     5
 10
632.30000000000109
 20
-469.0
 30
0.0
 40
3.0
 50
270.0
 51
0.0
  0
ARC
  8
DETAIL
  6
CONTINUOUS
 62
     5
 10
632.30000000000109
 20
-7.0
 30
0.0
 40
3.0
 50
0.0
 51
90.0
  0
ARC
  8
DETAIL
  6
CONTINUOUS
 62
     5
 10
626.30000000000109
 20
-4.0
 30
0.0
 40
0.999999999999947
 50
90.0
 51
168.43603452809731
  0
ARC
  8
DETAIL
  6
CONTINUOUS
 62
     5
 10
626.30000000000109
 20
-472.0
 30
0.0
 40
1.0
 50
191.42031020958271
 51
270.0
  0
ARC
  8
DETAIL
  6
CONTINUOUS
 62
     5
 10
-624.69999999999891
 20
-472.0
 30
0.0
 40
1.0
 50
191.55989768220959
 51
270.0
  0
ARC
  8
DETAIL
  6
CONTINUOUS
 62
     5
 10
625.30000000000098
 20
-472.0
 30
0.0
 40
1.0000000000002169
 50
270.0
 51
300.34145024560729
  0
ARC
  8
DETAIL
  6
CONTINUOUS
 62
     5
 10
699.30000000000098
 20
-62.400000000000553
 30
0.0
 40
1.0
 50
0.0
 51
90.0
  0
ARC
  8
DETAIL
  6
CONTINUOUS
 62
     5
 10
-623.69999999999891
 20
-4.0
 30
0.0
 40
1.0
 50
90.0
 51
180.0
  0
ARC
  8
DETAIL
  6
CONTINUOUS
 62
     5
 10
698.10000000000218
 20
-441.80000000000013
 30
0.0
 40
1.1999999999997499
 50
270.0
 51
350.47526654239221
  0
ARC
  8
DETAIL
  6
CONTINUOUS
 62
     5
 10
-623.69999999999891
 20
-4.800000000000181
 30
0.0
 40
1.0
 50
90.0
 51
180.0
  0
ARC
  8
DETAIL
  6
CONTINUOUS
 62
     5
 10
-623.69999999999891
 20
-471.1999999999997
 30
0.0
 40
1.0
 50
180.0
 51
270.0
  0
ARC
  8
DETAIL
  6
CONTINUOUS
 62
     5
 10
624.30000000000098
 20
-4.800000000000181
 30
0.0
 40
1.0
 50
0.0
 51
90.0
  0
ARC
  8
DETAIL
  6
CONTINUOUS
 62
     5
 10
624.30000000000098
 20
-471.1999999999997
 30
0.0
 40
1.0
 50
270.0
 51
0.0
  0
ARC
  8
DETAIL
  6
CONTINUOUS
 62
     5
 10
704.4031999999097
 20
-188.43999999997499
 30
0.0
 40
10.89680000008957
 50
335.2618769482736
 51
24.73812305172644
  0
ARC
  8
DETAIL
  6
CONTINUOUS
 62
     5
 10
719.4768000001277
 20
-188.43999999997499
 30
0.0
 40
10.89680000008957
 50
155.2618769482736
 51
204.7381230517264
  0
ARC
  8
DETAIL
  6
CONTINUOUS
 62
     5
 10
704.4031999999097
 20
-197.55999999997761
 30
0.0
 40
10.89680000008957
 50
335.2618769482736
 51
24.73812305172644
  0
ARC
  8
DETAIL
  6
CONTINUOUS
 62
     5
 10
719.4768000001277
 20
-197.55999999997579
 30
0.0
 40
10.89680000008957
 50
155.2618769482736
 51
204.7381230517264
  0
ARC
  8
DETAIL
  6
CONTINUOUS
 62
     5
 10
698.95111149908007
 20
-188.62329416070219
 30
0.0
 40
5.7888885009215887
 50
310.88254642390712
 51
49.117453576092927
  0
ARC
  8
DETAIL
  6
CONTINUOUS
 62
     5
 10
698.95111149908007
 20
-197.3767058392805
 30
0.0
 40
5.7888885009215887
 50
310.88254642390712
 51
49.117453576092927
  0
LINE
  8
DETAIL
  6
CONTINUOUS
 62
     5
 10
709.58000000001994
 20
-192.9999999999927
 30
0.0
 11
714.30000000001735
 21
-192.9999999999927
 31
0.0
  0
LINE
  8
DETAIL
  6
CONTINUOUS
 62
     5
 10
700.30000000000098
 20
-192.9999999999927
 30
0.0
 11
702.74000000000706
 21
-192.9999999999927
 31
0.0
  0
LINE
  8
DETAIL
  6
CONTINUOUS
 62
     5
 10
704.7400000000016
 20
-201.7534116785709
 30
0.0
 11
700.30000000000098
 21
-201.7534116785709
 31
0.0
  0
LINE
  8
DETAIL
  6
CONTINUOUS
 62
     5
 10
700.30000000000098
 20
-184.24658832141171
 30
0.0
 11
704.7400000000016
 21
-184.24658832141171
 31
0.0
  0
LINE
  8
DETAIL
  6
CONTINUOUS
 62
     5
 10
708.58000000000175
 20
-183.87999999995731
 30
0.0
 11
715.29999999999916
 21
-183.87999999995731
 31
0.0
  0
LINE
  8
DETAIL
  6
CONTINUOUS
 62
     5
 10
715.30000000000109
 20
-202.11999999999529
 30
0.0
 11
708.58000000000175
 21
-202.11999999999529
 31
0.0
  0
LINE
  8
DETAIL
  6
CONTINUOUS
 62
     5
 10
570.30000000000098
 20
-38.0
 30
0.0
 11
-569.69999999999891
 21
-38.0
 31
0.0
  0
LINE
  8
DETAIL
  6
CONTINUOUS
 62
     5
 10
-549.69999999999891
 20
-38.800000000000182
 30
0.0
 11
-548.89999999999782
 21
-38.800000000000182
 31
0.0
  0
LINE
  8
DETAIL
  6
CONTINUOUS
 62
     5
 10
-548.89999999999782
 20
-38.800000000000182
 30
0.0
 11
-546.69999999999879
 21
-38.800000000000182
 31
0.0
  0
LINE
  8
DETAIL
  6
CONTINUOUS
 62
     5
 10
549.5
 20
-38.800000000000182
 30
0.0
 11
550.30000000000098
 21
-38.800000000000182
 31
0.0
  0
LINE
  8
DETAIL
  6
CONTINUOUS
 62
     5
 10
547.30000000000109
 20
-38.800000000000182
 30
0.0
 11
549.5
 21
-38.800000000000182
 31
0.0
  0
LINE
  8
DETAIL
  6
CONTINUOUS
 62
     5
 10
547.30000000000109
 20
-38.800000000000182
 30
0.0
 11
-546.69999999999879
 21
-38.800000000000182
 31
0.0
  0
LINE
  8
DETAIL
  6
CONTINUOUS
 62
     5
 10
549.30000000000098
 20
-39.600000000000357
 30
0.0
 11
528.30000000000109
 21
-39.600000000000357
 31
0.0
  0
LINE
  8
DETAIL
  6
CONTINUOUS
 62
     5
 10
-524.69999999999891
 20
-39.600000000000357
 30
0.0
 11
-548.69999999999891
 21
-39.600000000000357
 31
0.0
  0
LINE
  8
DETAIL
  6
CONTINUOUS
 62
     5
 10
-569.69999999999891
 20
-39.800000000000182
 30
0.0
 11
-549.69999999999891
 21
-39.800000000000182
 31
0.0
  0
LINE
  8
DETAIL
  6
CONTINUOUS
 62
     5
 10
550.30000000000098
 20
-39.800000000000182
 30
0.0
 11
570.30000000000098
 21
-39.800000000000182
 31
0.0
  0
LINE
  8
DETAIL
  6
CONTINUOUS
 62
     5
 10
725.30000000000098
 20
-272.48999999999978
 30
0.0
 11
725.30000000000098
 21
-283.51000000000022
 31
0.0
  0
LINE
  8
DETAIL
  6
CONTINUOUS
 62
     5
 10
725.30000000000098
 20
-308.76000000000022
 30
0.0
 11
725.30000000000098
 21
-327.23999999999978
 31
0.0
  0
LINE
  8
DETAIL
  6
CONTINUOUS
 62
     5
 10
715.01005050630192
 20
-272.48999999999978
 30
0.0
 11
715.01005050630192
 21
-283.51000000000022
 31
0.0
  0
LINE
  8
DETAIL
  6
CONTINUOUS
 62
     5
 10
714.26005050630192
 20
-273.23999999999978
 30
0.0
 11
714.26005050630192
 21
-282.76000000000022
 31
0.0
  0
LINE
  8
DETAIL
  6
CONTINUOUS
 62
     5
 10
710.37846096900103
 20
-308.76000000000022
 30
0.0
 11
710.37846096900103
 21
-327.23999999999978
 31
0.0
  0
LINE
  8
DETAIL
  6
CONTINUOUS
 62
     5
 10
709.82450018500094
 20
-309.07982940779948
 30
0.0
 11
709.82450018500094
 21
-326.92017059220052
 31
0.0
  0
LINE
  8
DETAIL
  6
CONTINUOUS
 62
     5
 10
706.0489248988996
 20
-306.89999999999958
 30
0.0
 11
706.0489248988996
 21
-329.10000000000042
 31
0.0
  0
LINE
  8
DETAIL
  6
CONTINUOUS
 62
     5
 10
725.30000000000098
 20
-272.48999999999978
 30
0.0
 11
715.01005050630192
 21
-272.48999999999978
 31
0.0
  0
LINE
  8
DETAIL
  6
CONTINUOUS
 62
     5
 10
700.30000000000098
 20
-273.23999999999978
 30
0.0
 11
714.26005050630192
 21
-273.23999999999978
 31
0.0
  0
LINE
  8
DETAIL
  6
CONTINUOUS
 62
     5
 10
700.30000000000098
 20
-282.76000000000022
 30
0.0
 11
714.26005050630192
 21
-282.76000000000022
 31
0.0
  0
LINE
  8
DETAIL
  6
CONTINUOUS
 62
     5
 10
725.30000000000098
 20
-283.51000000000022
 30
0.0
 11
715.01005050630192
 21
-283.51000000000022
 31
0.0
  0
LINE
  8
DETAIL
  6
CONTINUOUS
 62
     5
 10
700.30000000000098
 20
-306.89999999999958
 30
0.0
 11
706.0489248988996
 21
-306.89999999999958
 31
0.0
  0
LINE
  8
DETAIL
  6
CONTINUOUS
 62
     5
 10
725.30000000000098
 20
-308.76000000000022
 30
0.0
 11
710.37846096900103
 21
-308.76000000000022
 31
0.0
  0
LINE
  8
DETAIL
  6
CONTINUOUS
 62
     5
 10
710.37846096900103
 20
-308.76000000000022
 30
0.0
 11
709.82450018500094
 21
-309.07982940779948
 31
0.0
  0
LINE
  8
DETAIL
  6
CONTINUOUS
 62
     5
 10
709.82450018500094
 20
-326.92017059220052
 30
0.0
 11
706.0489248988996
 21
-329.10000000000042
 31
0.0
  0
LINE
  8
DETAIL
  6
CONTINUOUS
 62
     5
 10
715.01005050630192
 20
-272.48999999999978
 30
0.0
 11
714.26005050630192
 21
-273.23999999999978
 31
0.0
  0
LINE
  8
DETAIL
  6
CONTINUOUS
 62
     5
 10
715.01005050630192
 20
-283.51000000000022
 30
0.0
 11
714.26005050630192
 21
-282.76000000000022
 31
0.0
  0
LINE
  8
DETAIL
  6
CONTINUOUS
 62
     5
 10
709.82450018500094
 20
-309.07982940779948
 30
0.0
 11
706.0489248988996
 21
-306.89999999999958
 31
0.0
  0
LINE
  8
DETAIL
  6
CONTINUOUS
 62
     5
 10
710.37846096900103
 20
-327.23999999999978
 30
0.0
 11
709.82450018500094
 21
-326.92017059220052
 31
0.0
  0
LINE
  8
DETAIL
  6
CONTINUOUS
 62
     5
 10
725.30000000000098
 20
-327.23999999999978
 30
0.0
 11
710.37846096900103
 21
-327.23999999999978
 31
0.0
  0
LINE
  8
DETAIL
  6
CONTINUOUS
 62
     5
 10
700.30000000000098
 20
-329.10000000000042
 30
0.0
 11
706.0489248988996
 21
-329.10000000000042
 31
0.0
  0
LINE
  8
DETAIL
  6
CONTINUOUS
 62
     5
 10
570.30000000000098
 20
-38.0
 30
0.0
 11
570.30000000000098
 21
-357.99999999989399
 31
0.0
  0
LINE
  8
DETAIL
  6
CONTINUOUS
 62
     5
 10
570.30000000000098
 20
-436.20000000000073
 30
0.0
 11
570.30000000000098
 21
-438.0
 31
0.0
  0
LINE
  8
DETAIL
  6
CONTINUOUS
 62
     5
 10
551.30000000000109
 20
-438.0
 30
0.0
 11
551.30000000000109
 21
-436.20000000000073
 31
0.0
  0
LINE
  8
DETAIL
  6
CONTINUOUS
 62
     5
 10
551.30000000000109
 20
-39.800000000000182
 30
0.0
 11
551.30000000000109
 21
-38.0
 31
0.0
  0
LINE
  8
DETAIL
  6
CONTINUOUS
 62
     5
 10
550.30000000000098
 20
-38.0
 30
0.0
 11
550.30000000000098
 21
-357.99999999989222
 31
0.0
  0
LINE
  8
DETAIL
  6
CONTINUOUS
 62
     5
 10
550.30000000000098
 20
-436.20000000000073
 30
0.0
 11
550.30000000000098
 21
-458.0
 31
0.0
  0
LINE
  8
DETAIL
  6
CONTINUOUS
 62
     5
 10
549.5
 20
-463.0
 30
0.0
 11
549.5
 21
-458.0
 31
0.0
  0
LINE
  8
DETAIL
  6
CONTINUOUS
 62
     5
 10
549.5
 20
-437.20000000000061
 30
0.0
 11
549.5
 21
-436.20000000000073
 31
0.0
  0
LINE
  8
DETAIL
  6
CONTINUOUS
 62
     5
 10
549.5
 20
-357.99999999989268
 30
0.0
 11
549.5
 21
-39.800000000000182
 31
0.0
  0
LINE
  8
DETAIL
  6
CONTINUOUS
 62
     5
 10
549.5
 20
-38.800000000000182
 30
0.0
 11
549.5
 21
-39.800000000000182
 31
0.0
  0
LINE
  8
DETAIL
  6
CONTINUOUS
 62
     5
 10
547.30000000000109
 20
-38.800000000000182
 30
0.0
 11
547.30000000000109
 21
-38.0
 31
0.0
  0
LINE
  8
DETAIL
  6
CONTINUOUS
 62
     5
 10
547.30000000000109
 20
-437.20000000000061
 30
0.0
 11
547.30000000000109
 21
-438.0
 31
0.0
  0
LINE
  8
DETAIL
  6
CONTINUOUS
 62
     5
 10
528.30000000000109
 20
-437.20000000000061
 30
0.0
 11
528.30000000000109
 21
-436.39999999999958
 31
0.0
  0
LINE
  8
DETAIL
  6
CONTINUOUS
 62
     5
 10
528.30000000000109
 20
-38.800000000000182
 30
0.0
 11
528.30000000000109
 21
-39.600000000000357
 31
0.0
  0
LINE
  8
DETAIL
  6
CONTINUOUS
 62
     5
 10
570.30000000000098
 20
-436.20000000000073
 30
0.0
 11
550.30000000000098
 21
-436.20000000000073
 31
0.0
  0
LINE
  8
DETAIL
  6
CONTINUOUS
 62
     5
 10
-549.69999999999891
 20
-436.20000000000073
 30
0.0
 11
-569.69999999999891
 21
-436.20000000000073
 31
0.0
  0
LINE
  8
DETAIL
  6
CONTINUOUS
 62
     5
 10
549.30000000000098
 20
-436.39999999999958
 30
0.0
 11
528.30000000000109
 21
-436.39999999999958
 31
0.0
  0
LINE
  8
DETAIL
  6
CONTINUOUS
 62
     5
 10
-524.69999999999891
 20
-436.39999999999958
 30
0.0
 11
-548.69999999999891
 21
-436.39999999999958
 31
0.0
  0
LINE
  8
DETAIL
  6
CONTINUOUS
 62
     5
 10
550.30000000000098
 20
-437.20000000000061
 30
0.0
 11
549.5
 21
-437.20000000000061
 31
0.0
  0
LINE
  8
DETAIL
  6
CONTINUOUS
 62
     5
 10
549.5
 20
-437.20000000000061
 30
0.0
 11
547.30000000000109
 21
-437.20000000000061
 31
0.0
  0
LINE
  8
DETAIL
  6
CONTINUOUS
 62
     5
 10
547.30000000000109
 20
-437.20000000000061
 30
0.0
 11
-546.69999999999879
 21
-437.20000000000061
 31
0.0
  0
LINE
  8
DETAIL
  6
CONTINUOUS
 62
     5
 10
-546.69999999999879
 20
-437.20000000000061
 30
0.0
 11
-548.89999999999782
 21
-437.20000000000061
 31
0.0
  0
LINE
  8
DETAIL
  6
CONTINUOUS
 62
     5
 10
-548.89999999999782
 20
-437.20000000000061
 30
0.0
 11
-549.69999999999891
 21
-437.20000000000061
 31
0.0
  0
LINE
  8
DETAIL
  6
CONTINUOUS
 62
     5
 10
570.30000000000098
 20
-438.0
 30
0.0
 11
-569.69999999999891
 21
-438.0
 31
0.0
  0
LINE
  8
DETAIL
  6
CONTINUOUS
 62
     5
 10
550.30000000000098
 20
-458.0
 30
0.0
 11
-549.69999999999891
 21
-458.0
 31
0.0
  0
LINE
  8
DETAIL
  6
CONTINUOUS
 62
     5
 10
549.5
 20
-463.0
 30
0.0
 11
-548.89999999999782
 21
-463.0
 31
0.0
  0
LINE
  8
DETAIL
  6
CONTINUOUS
 62
     5
 10
-524.69999999999891
 20
-437.20000000000061
 30
0.0
 11
-524.69999999999891
 21
-436.39999999999958
 31
0.0
  0
LINE
  8
DETAIL
  6
CONTINUOUS
 62
     5
 10
-524.69999999999891
 20
-38.800000000000182
 30
0.0
 11
-524.69999999999891
 21
-39.600000000000357
 31
0.0
  0
LINE
  8
DETAIL
  6
CONTINUOUS
 62
     5
 10
-546.69999999999879
 20
-38.800000000000182
 30
0.0
 11
-546.69999999999879
 21
-38.0
 31
0.0
  0
LINE
  8
DETAIL
  6
CONTINUOUS
 62
     5
 10
-546.69999999999879
 20
-437.20000000000061
 30
0.0
 11
-546.69999999999879
 21
-438.0
 31
0.0
  0
LINE
  8
DETAIL
  6
CONTINUOUS
 62
     5
 10
-548.89999999999782
 20
-437.20000000000061
 30
0.0
 11
-548.89999999999782
 21
-436.20000000000073
 31
0.0
  0
LINE
  8
DETAIL
  6
CONTINUOUS
 62
     5
 10
-548.89999999999782
 20
-357.99999999984487
 30
0.0
 11
-548.89999999999782
 21
-39.800000000000182
 31
0.0
  0
LINE
  8
DETAIL
  6
CONTINUOUS
 62
     5
 10
-548.89999999999782
 20
-38.800000000000182
 30
0.0
 11
-548.89999999999782
 21
-39.800000000000182
 31
0.0
  0
LINE
  8
DETAIL
  6
CONTINUOUS
 62
     5
 10
-548.89999999999782
 20
-458.0
 30
0.0
 11
-548.89999999999782
 21
-463.0
 31
0.0
  0
LINE
  8
DETAIL
  6
CONTINUOUS
 62
     5
 10
-549.69999999999891
 20
-38.0
 30
0.0
 11
-549.69999999999891
 21
-357.99999999984487
 31
0.0
  0
LINE
  8
DETAIL
  6
CONTINUOUS
 62
     5
 10
-549.69999999999891
 20
-436.20000000000073
 30
0.0
 11
-549.69999999999891
 21
-458.0
 31
0.0
  0
LINE
  8
DETAIL
  6
CONTINUOUS
 62
     5
 10
-550.69999999999891
 20
-38.0
 30
0.0
 11
-550.69999999999891
 21
-39.800000000000182
 31
0.0
  0
LINE
  8
DETAIL
  6
CONTINUOUS
 62
     5
 10
-550.69999999999891
 20
-436.20000000000073
 30
0.0
 11
-550.69999999999891
 21
-438.0
 31
0.0
  0
LINE
  8
DETAIL
  6
CONTINUOUS
 62
     5
 10
-569.69999999999891
 20
-38.0
 30
0.0
 11
-569.69999999999891
 21
-357.99999999984402
 31
0.0
  0
LINE
  8
DETAIL
  6
CONTINUOUS
 62
     5
 10
-569.69999999999891
 20
-436.20000000000073
 30
0.0
 11
-569.69999999999891
 21
-438.0
 31
0.0
  0
ARC
  8
DETAIL
  6
CONTINUOUS
 62
     5
 10
549.30000000000098
 20
-39.800000000000182
 30
0.0
 40
1.0
 50
0.0
 51
90.0
  0
ARC
  8
DETAIL
  6
CONTINUOUS
 62
     5
 10
549.30000000000098
 20
-436.20000000000073
 30
0.0
 40
1.0
 50
270.0
 51
0.0
  0
ARC
  8
DETAIL
  6
CONTINUOUS
 62
     5
 10
-548.69999999999891
 20
-39.800000000000182
 30
0.0
 40
1.0
 50
90.0
 51
180.0
  0
ARC
  8
DETAIL
  6
CONTINUOUS
 62
     5
 10
-548.69999999999891
 20
-436.20000000000073
 30
0.0
 40
1.0
 50
180.0
 51
270.0
  0
ARC
  8
DETAIL
  6
CONTINUOUS
 62
     5
 10
549.30000000000098
 20
-436.20000000000073
 30
0.0
 40
0.1999999999998181
 50
270.0
 51
0.0
  0
ARC
  8
DETAIL
  6
CONTINUOUS
 62
     5
 10
549.30000000000098
 20
-39.800000000000182
 30
0.0
 40
0.1999999999998181
 50
0.0
 51
90.0
  0
ARC
  8
DETAIL
  6
CONTINUOUS
 62
     5
 10
-548.69999999999891
 20
-39.800000000000182
 30
0.0
 40
0.1999999999998181
 50
90.0
 51
180.0
  0
ARC
  8
DETAIL
  6
CONTINUOUS
 62
     5
 10
-548.69999999999891
 20
-436.20000000000073
 30
0.0
 40
0.1999999999998181
 50
180.0
 51
270.0
  0
LINE
  8
DETAIL
  6
CONTINUOUS
 62
     5
 10
708.58000000000175
 20
-183.87999999995731
 30
0.0
 11
708.58000000000175
 21
-202.11999999999529
 31
0.0
  0
LINE
  8
DETAIL
  6
CONTINUOUS
 62
     5
 10
715.29999999999916
 20
-183.87999999995731
 30
0.0
 11
715.30000000000109
 21
-202.11999999999529
 31
0.0
  0
LINE
  8
DETAIL
  6
CONTINUOUS
 62
     5
 10
708.58000000000175
 20
-201.11775999999281
 30
0.0
 11
704.7400000000016
 21
-200.99775999999289
 31
0.0
  0
LINE
  8
DETAIL
  6
CONTINUOUS
 62
     5
 10
708.58000000000175
 20
-184.88224000000989
 30
0.0
 11
704.7400000000016
 21
-185.0022400000089
 31
0.0
  0
LINE
  8
DETAIL
  6
CONTINUOUS
 62
     5
 10
708.58000000000175
 20
-185.7040000000097
 30
0.0
 11
704.7400000000016
 21
-185.82400000000871
 31
0.0
  0
LINE
  8
DETAIL
  6
CONTINUOUS
 62
     5
 10
708.58000000000175
 20
-200.295999999993
 30
0.0
 11
704.7400000000016
 21
-200.1759999999922
 31
0.0
  0
LINE
  8
DETAIL
  6
CONTINUOUS
 62
     5
 10
704.7400000000016
 20
-184.24658832141171
 30
0.0
 11
704.7400000000016
 21
-201.7534116785709
 31
0.0
  0
LINE
  8
DETAIL
  6
CONTINUOUS
 62
     5
 10
715.29999999999916
 20
-201.11775999999281
 30
0.0
 11
725.30000000000291
 21
-200.80525999999369
 31
0.0
  0
LINE
  8
DETAIL
  6
CONTINUOUS
 62
     5
 10
715.29999999999916
 20
-184.88224000000989
 30
0.0
 11
725.29999999999927
 21
-185.19474000000631
 31
0.0
  0
LINE
  8
DETAIL
  6
CONTINUOUS
 62
     5
 10
715.29999999999916
 20
-185.7040000000097
 30
0.0
 11
725.29999999999927
 21
-186.016500000007
 31
0.0
  0
LINE
  8
DETAIL
  6
CONTINUOUS
 62
     5
 10
715.29999999999916
 20
-200.295999999993
 30
0.0
 11
725.30000000000291
 21
-199.983499999993
 31
0.0
  0
LINE
  8
DETAIL
  6
CONTINUOUS
 62
     5
 10
725.29999999999927
 20
-185.19474000000631
 30
0.0
 11
725.30000000000291
 21
-200.80525999999369
 31
0.0
  0
LINE
  8
DETAIL
  6
CONTINUOUS
 62
     5
 10
725.29999999999927
 20
-185.19474000000631
 30
0.0
 11
725.30000000000291
 21
-200.80525999999369
 31
0.0
  0
LINE
  8
NOTE
  6
CONTINUOUS
 62
     4
 10
696.30000000000098
 20
-318.0
 30
0.0
 11
754.30000000000098
 21
-318.0
 31
0.0
  0
LINE
  8
NOTE
  6
CONTINUOUS
 62
     4
 10
725.30000000000098
 20
-289.0
 30
0.0
 11
725.30000000000098
 21
-347.0
 31
0.0
  0
LINE
  8
NOTE
  6
CONTINUOUS
 62
     4
 10
696.30000000000098
 20
-278.0
 30
0.0
 11
754.30000000000098
 21
-278.0
 31
0.0
  0
LINE
  8
NOTE
  6
CONTINUOUS
 62
     4
 10
725.30000000000098
 20
-249.0
 30
0.0
 11
725.30000000000098
 21
-307.0
 31
0.0
  0
LINE
  8
NOTE
  6
CONTINUOUS
 62
     4
 10
-662.5
 20
-13.30000000000018
 30
0.0
 11
-662.5
 21
-37.300000000000182
 31
0.0
  0
LINE
  8
NOTE
  6
CONTINUOUS
 62
     4
 10
-682.5
 20
-25.300000000000178
 30
0.0
 11
-642.49999999999989
 21
-25.300000000000178
 31
0.0
  0
LINE
  8
NOTE
  6
CONTINUOUS
 62
     4
 10
662.5
 20
-13.30000000000018
 30
0.0
 11
662.5
 21
-37.300000000000182
 31
0.0
  0
LINE
  8
NOTE
  6
CONTINUOUS
 62
     4
 10
642.49999999999989
 20
-25.300000000000178
 30
0.0
 11
682.5
 21
-25.300000000000178
 31
0.0
  0
LINE
  8
BASIS
  6
DASHDOT
 62
     6
 10
0.0
 20
-515.37458983270415
 30
0.0
 11
0.0
 21
78.208022341898868
 31
0.0
  0
CIRCLE
  8
ARRANGE
  6
CONTINUOUS
 62
     1
 10
0.0
 20
0.0
 30
0.0
 40
40.0
  0
LINE
  8
ARRANGE
  6
CONTINUOUS
 62
     1
 10
-36.845437407348072
 20
-36.845437407348982
 30
0.0
 11
36.845437407349891
 21
36.845437407348982
 31
0.0
  0
LINE
  8
ARRANGE
  6
CONTINUOUS
 62
     1
 10
-36.845437407348072
 20
36.845437407348982
 30
0.0
 11
36.845437407349891
 21
-36.845437407350801
 31
0.0
  0
LINE
  8
SIZE
  6
CONTINUOUS
 62
    30
 10
700.30000000000098
 20
-42.400000000000539
 30
0.0
 11
700.30000000000098
 21
324.37748800773528
 31
0.0
  0
LINE
  8
SIZE
  6
CONTINUOUS
 62
    30
 10
-684.69999999999879
 20
-15.0
 30
0.0
 11
-684.69999999999879
 21
324.37748800773528
 31
0.0
  0
LINE
  8
SIZE
  6
CONTINUOUS
 62
    30
 10
700.30000000000098
 20
304.37748800773539
 30
0.0
 11
-684.69999999999879
 21
304.37748800773539
 31
0.0
  0
CIRCLE
  8
SIZE
  6
CONTINUOUS
 62
    30
 10
700.30000000000098
 20
304.37748800773539
 30
0.0
 40
7.5
  0
CIRCLE
  8
SIZE
  6
CONTINUOUS
 62
    30
 10
-684.69999999999879
 20
304.37748800773539
 30
0.0
 40
7.5
  0
TEXT
  8
SIZE
  6
CONTINUOUS
 62
    30
 10
-55.559999999998915
 20
324.37748800773528
 30
0.0
 40
40.0
  1
1385
 50
0.0
 41
0.9
 51
0.0
  7
STANDARD
 71
     0
 72
     1
 11
7.8000000000010914
 21
324.37748800773528
 31
0.0
210
0.0
220
0.0
230
1.0
  0
POINT
  8
DEFPOINTS
  6
CONTINUOUS
 62
    30
 10
700.30000000000098
 20
-62.400000000000553
 30
0.0
  0
POINT
  8
DEFPOINTS
  6
CONTINUOUS
 62
    30
 10
-684.69999999999879
 20
-35.0
 30
0.0
  0
POINT
  8
DEFPOINTS
  6
CONTINUOUS
 62
    30
 10
-684.69999999999879
 20
304.37748800773539
 30
0.0
  0
LINE
  8
SIZE
  6
CONTINUOUS
 62
    30
 10
651.30000000000109
 20
-475.9999999999996
 30
0.0
 11
1013.875128297433
 21
-475.99999999999972
 31
0.0
  0
LINE
  8
SIZE
  6
CONTINUOUS
 62
    30
 10
656.10000000000025
 20
-5.9999999999990949
 30
0.0
 11
1013.875128297433
 21
-5.9999999999991971
 31
0.0
  0
LINE
  8
SIZE
  6
CONTINUOUS
 62
    30
 10
993.87512829743355
 20
-475.99999999999972
 30
0.0
 11
993.87512829743355
 21
-5.9999999999991909
 31
0.0
  0
CIRCLE
  8
SIZE
  6
CONTINUOUS
 62
    30
 10
993.87512829743355
 20
-475.99999999999972
 30
0.0
 40
7.5
  0
CIRCLE
  8
SIZE
  6
CONTINUOUS
 62
    30
 10
993.87512829743355
 20
-5.9999999999991909
 30
0.0
 40
7.5
  0
TEXT
  8
SIZE
  6
CONTINUOUS
 62
    30
 10
973.87512829743355
 20
-291.93999999999915
 30
0.0
 40
40.0
  1
470
 50
90.0
 41
0.9
 51
0.0
  7
STANDARD
 71
     0
 72
     1
 11
973.87512829743355
 21
-240.99999999999909
 31
0.0
210
0.0
220
0.0
230
1.0
  0
POINT
  8
DEFPOINTS
  6
CONTINUOUS
 62
    30
 10
631.30000000000109
 20
-475.99999999999949
 30
0.0
  0
POINT
  8
DEFPOINTS
  6
CONTINUOUS
 62
    30
 10
636.10000000000036
 20
-5.9999999999990896
 30
0.0
  0
POINT
  8
DEFPOINTS
  6
CONTINUOUS
 62
    30
 10
993.87512829743355
 20
-5.9999999999991909
 30
0.0
  0
LINE
  8
NOTE
  6
CONTINUOUS
 62
     4
 10
744.14296723454845
 20
-253.31073760969599
 30
0.0
 11
725.30000000000098
 21
-278.0
 31
0.0
  0
LINE
  8
NOTE
  6
CONTINUOUS
 62
     4
 10
725.30000000000098
 20
-278.0
 30
0.0
 11
729.27385725238389
 21
-247.19698797005091
 31
0.0
  0
LINE
  8
NOTE
  6
CONTINUOUS
 62
     4
 10
725.30000000000098
 20
-278.0
 30
0.0
 11
736.70841224346623
 21
-250.25386278987389
 31
0.0
  0
LINE
  8
NOTE
  6
CONTINUOUS
 62
     4
 10
736.70841224346623
 20
-250.25386278987389
 30
0.0
 11
960.91710707495804
 21
295.0389507706995
 31
0.0
  0
LINE
  8
NOTE
  6
CONTINUOUS
 62
     4
 10
960.91710707495804
 20
295.0389507706995
 30
0.0
 11
1392.738974716405
 21
295.0389507706995
 31
0.0
  0
TEXT
  8
NOTE
  6
CONTINUOUS
 62
     4
 10
974.24239204035985
 20
314.97098972745431
 30
0.0
 40
64.0
  1
 RL %%C9.52
 41
0.9
  0
LINE
  8
NOTE
  6
CONTINUOUS
 62
     4
 10
745.42758392516043
 20
-294.34630141150961
 30
0.0
 11
725.30000000000098
 21
-318.0
 31
0.0
  0
LINE
  8
NOTE
  6
CONTINUOUS
 62
     4
 10
725.30000000000098
 20
-318.0
 30
0.0
 11
730.90414984033168
 21
-287.4515041917507
 31
0.0
  0
LINE
  8
NOTE
  6
CONTINUOUS
 62
     4
 10
725.30000000000098
 20
-318.0
 30
0.0
 11
738.16586688274617
 21
-290.8989028016303
 31
0.0
  0
LINE
  8
NOTE
  6
CONTINUOUS
 62
     4
 10
738.16586688274617
 20
-290.8989028016303
 30
0.0
 11
961.74294540893231
 21
180.05141805019861
 31
0.0
  0
LINE
  8
NOTE
  6
CONTINUOUS
 62
     4
 10
961.74294540893231
 20
180.05141805019861
 30
0.0
 11
1444.0745541130091
 21
180.05141805019861
 31
0.0
  0
TEXT
  8
NOTE
  6
CONTINUOUS
 62
     4
 10
974.22983835363254
 20
195.30870193349159
 30
0.0
 40
64.0
  1
 RG %%C19.05
 41
0.9
  0
LINE
  8
SIZE
  6
CONTINUOUS
 62
    30
 10
655.30000000000109
 20
-473.0
 30
0.0
 11
900.33292668272202
 21
-473.00000000000011
 31
0.0
  0
LINE
  8
SIZE
  6
CONTINUOUS
 62
    30
 10
774.29999999999927
 20
-318.0
 30
0.0
 11
900.33292668272202
 21
-318.00000000000011
 31
0.0
  0
LINE
  8
SIZE
  6
CONTINUOUS
 62
    30
 10
880.33292668272213
 20
-473.0
 30
0.0
 11
880.33292668272213
 21
-318.0
 31
0.0
  0
CIRCLE
  8
SIZE
  6
CONTINUOUS
 62
    30
 10
880.33292668272213
 20
-473.0
 30
0.0
 40
7.5
  0
CIRCLE
  8
SIZE
  6
CONTINUOUS
 62
    30
 10
880.33292668272213
 20
-318.0
 30
0.0
 40
7.5
  0
TEXT
  8
SIZE
  6
CONTINUOUS
 62
    30
 10
860.33292668272225
 20
-422.11999999999773
 30
0.0
 40
40.0
  1
155
 50
90.0
 41
0.9
 51
0.0
  7
STANDARD
 71
     0
 72
     1
 11
860.33292668272225
 21
-375.49999999999773
 31
0.0
210
0.0
220
0.0
230
1.0
  0
POINT
  8
DEFPOINTS
  6
CONTINUOUS
 62
    30
 10
635.30000000000109
 20
-473.0
 30
0.0
  0
POINT
  8
DEFPOINTS
  6
CONTINUOUS
 62
    30
 10
754.29999999999927
 20
-318.0
 30
0.0
  0
POINT
  8
DEFPOINTS
  6
CONTINUOUS
 62
    30
 10
880.33292668272213
 20
-318.0
 30
0.0
  0
LINE
  8
SIZE
  6
CONTINUOUS
 62
    30
 10
774.30000000000098
 20
-278.0
 30
0.0
 11
900.33292668272202
 21
-278.00000000000011
 31
0.0
  0
LINE
  8
SIZE
  6
CONTINUOUS
 62
    30
 10
774.30000000000098
 20
-318.0
 30
0.0
 11
900.33292668272202
 21
-318.00000000000011
 31
0.0
  0
LINE
  8
SIZE
  6
CONTINUOUS
 62
    30
 10
880.33292668272213
 20
-318.0
 30
0.0
 11
880.33292668272213
 21
-278.0
 31
0.0
  0
LINE
  8
SIZE
  6
CONTINUOUS
 62
    30
 10
880.33292668272213
 20
-278.0
 30
0.0
 11
880.33292668272225
 21
-110.03453617467569
 31
0.0
  0
CIRCLE
  8
SIZE
  6
CONTINUOUS
 62
    30
 10
880.33292668272213
 20
-318.0
 30
0.0
 40
7.5
  0
CIRCLE
  8
SIZE
  6
CONTINUOUS
 62
    30
 10
880.33292668272213
 20
-278.0
 30
0.0
 40
7.5
  0
TEXT
  8
SIZE
  6
CONTINUOUS
 62
    30
 10
860.33292668272225
 20
-193.37739331753275
 30
0.0
 40
40.0
  1
40
 50
90.0
 41
0.9
 51
0.0
  7
STANDARD
 71
     0
 72
     1
 11
860.33292668272225
 21
-159.1773933175327
 31
0.0
210
0.0
220
0.0
230
1.0
  0
POINT
  8
DEFPOINTS
  6
CONTINUOUS
 62
    30
 10
754.30000000000098
 20
-278.0
 30
0.0
  0
POINT
  8
DEFPOINTS
  6
CONTINUOUS
 62
    30
 10
754.30000000000098
 20
-318.0
 30
0.0
  0
POINT
  8
DEFPOINTS
  6
CONTINUOUS
 62
    30
 10
880.33292668272213
 20
-318.0
 30
0.0
  0
LINE
  8
SIZE
  6
CONTINUOUS
 62
    30
 10
685.5
 20
-15.0
 30
0.0
 11
685.5
 21
224.37748800773531
 31
0.0
  0
LINE
  8
SIZE
  6
CONTINUOUS
 62
    30
 10
662.5
 20
6.6999999999998181
 30
0.0
 11
662.5
 21
224.37748800773531
 31
0.0
  0
LINE
  8
SIZE
  6
CONTINUOUS
 62
    30
 10
662.5
 20
204.37748800773531
 30
0.0
 11
632.5
 21
204.37748800773531
 31
0.0
  0
LINE
  8
SIZE
  6
CONTINUOUS
 62
    30
 10
685.5
 20
204.37748800773531
 30
0.0
 11
843.78571428571445
 21
204.37748800773531
 31
0.0
  0
LINE
  8
SIZE
  6
CONTINUOUS
 62
    30
 10
662.5
 20
204.37748800773531
 30
0.0
 11
685.5
 21
204.37748800773531
 31
0.0
  0
CIRCLE
  8
SIZE
  6
CONTINUOUS
 62
    30
 10
662.5
 20
204.37748800773531
 30
0.0
 40
7.5
  0
CIRCLE
  8
SIZE
  6
CONTINUOUS
 62
    30
 10
685.5
 20
204.37748800773531
 30
0.0
 40
7.5
  0
TEXT
  8
SIZE
  6
CONTINUOUS
 62
    30
 10
761.16285714285732
 20
224.37748800773534
 30
0.0
 40
40.0
  1
23
 50
0.0
 41
0.9
 51
0.0
  7
STANDARD
 71
     0
 72
     1
 11
794.64285714285734
 21
224.37748800773534
 31
0.0
210
0.0
220
0.0
230
1.0
  0
POINT
  8
DEFPOINTS
  6
CONTINUOUS
 62
    30
 10
685.5
 20
-35.0
 30
0.0
  0
POINT
  8
DEFPOINTS
  6
CONTINUOUS
 62
    30
 10
662.5
 20
-13.30000000000018
 30
0.0
  0
POINT
  8
DEFPOINTS
  6
CONTINUOUS
 62
    30
 10
662.5
 20
204.37748800773531
 30
0.0
  0
LINE
  8
SIZE
  6
CONTINUOUS
 62
    30
 10
-662.5
 20
-7.5
 30
0.0
 11
-662.5
 21
224.37748800773531
 31
0.0
  0
LINE
  8
SIZE
  6
CONTINUOUS
 62
    30
 10
662.5
 20
6.6999999999998181
 30
0.0
 11
662.5
 21
224.37748800773531
 31
0.0
  0
LINE
  8
SIZE
  6
CONTINUOUS
 62
    30
 10
-662.5
 20
204.37748800773531
 30
0.0
 11
662.5
 21
204.37748800773531
 31
0.0
  0
CIRCLE
  8
SIZE
  6
CONTINUOUS
 62
    30
 10
-662.5
 20
204.37748800773531
 30
0.0
 40
7.5
  0
CIRCLE
  8
SIZE
  6
CONTINUOUS
 62
    30
 10
662.5
 20
204.37748800773531
 30
0.0
 40
7.5
  0
TEXT
  8
SIZE
  6
CONTINUOUS
 62
    30
 10
-63.360000000000007
 20
224.37748800773534
 30
0.0
 40
40.0
  1
1325
 50
0.0
 41
0.9
 51
0.0
  7
STANDARD
 71
     0
 72
     1
 11
0.0
 21
224.37748800773534
 31
0.0
210
0.0
220
0.0
230
1.0
  0
POINT
  8
DEFPOINTS
  6
CONTINUOUS
 62
    30
 10
-662.5
 20
-27.5
 30
0.0
  0
POINT
  8
DEFPOINTS
  6
CONTINUOUS
 62
    30
 10
662.5
 20
-13.30000000000018
 30
0.0
  0
POINT
  8
DEFPOINTS
  6
CONTINUOUS
 62
    30
 10
662.5
 20
204.37748800773531
 30
0.0
  0
LINE
  8
NOTE
  6
CONTINUOUS
 62
     4
 10
-684.64291615961906
 20
-47.07862152496272
 30
0.0
 11
-662.5
 21
-25.300000000000178
 31
0.0
  0
LINE
  8
NOTE
  6
CONTINUOUS
 62
     4
 10
-662.5
 20
-25.300000000000178
 30
0.0
 11
-670.78701728140663
 21
-55.232297542239387
 31
0.0
  0
LINE
  8
NOTE
  6
CONTINUOUS
 62
     4
 10
-662.5
 20
-25.300000000000178
 30
0.0
 11
-677.71496672051285
 21
-51.155459533601061
 31
0.0
  0
LINE
  8
NOTE
  6
CONTINUOUS
 62
     4
 10
-677.71496672051285
 20
-51.155459533601061
 30
0.0
 11
-752.03071486660338
 21
-177.4434662178364
 31
0.0
  0
LINE
  8
NOTE
  6
CONTINUOUS
 62
     4
 10
-752.03071486660338
 20
-177.4434662178364
 30
0.0
 11
-1567.9906238785909
 21
-177.4434662178364
 31
0.0
  0
TEXT
  8
NOTE
  6
CONTINUOUS
 62
     4
 10
-1546.377560116219
 20
-162.18618233454339
 30
0.0
 40
64.0
  1
AH 2x2 M10ボルト用
 41
0.9
  0
LINE
  8
SIZE
  6
CONTINUOUS
 62
    30
 10
625.30000000000098
 20
-493.0
 30
0.0
 11
625.30000000000098
 21
-615.15582675529447
 31
0.0
  0
LINE
  8
SIZE
  6
CONTINUOUS
 62
    30
 10
725.30000000000098
 20
-367.0
 30
0.0
 11
725.30000000000098
 21
-615.15582675529447
 31
0.0
  0
LINE
  8
SIZE
  6
CONTINUOUS
 62
    30
 10
725.30000000000098
 20
-595.15582675529458
 30
0.0
 11
625.30000000000098
 21
-595.15582675529458
 31
0.0
  0
LINE
  8
SIZE
  6
CONTINUOUS
 62
    30
 10
625.30000000000098
 20
-595.15582675529458
 30
0.0
 11
469.58571428571508
 21
-595.15582675529458
 31
0.0
  0
CIRCLE
  8
SIZE
  6
CONTINUOUS
 62
    30
 10
725.30000000000098
 20
-595.15582675529458
 30
0.0
 40
7.5
  0
CIRCLE
  8
SIZE
  6
CONTINUOUS
 62
    30
 10
625.30000000000098
 20
-595.15582675529458
 30
0.0
 40
7.5
  0
TEXT
  8
SIZE
  6
CONTINUOUS
 62
    30
 10
485.102857142858
 20
-575.15582675529458
 30
0.0
 40
40.0
  1
100
 50
0.0
 41
0.9
 51
0.0
  7
STANDARD
 71
     0
 72
     1
 11
532.44285714285797
 21
-575.15582675529458
 31
0.0
210
0.0
220
0.0
230
1.0
  0
POINT
  8
DEFPOINTS
  6
CONTINUOUS
 62
    30
 10
625.30000000000098
 20
-473.0
 30
0.0
  0
POINT
  8
DEFPOINTS
  6
CONTINUOUS
 62
    30
 10
725.30000000000098
 20
-347.0
 30
0.0
  0
POINT
  8
DEFPOINTS
  6
CONTINUOUS
 62
    30
 10
725.30000000000098
 20
-595.15582675529458
 30
0.0
  0
TEXT
  8
ETC
  6
CONTINUOUS
 62
    61
 10
-934.17139459067039
 20
1019.847920408664
 30
0.0
 40
64.0
  1
GE-P1680MG6_2
 41
0.9
  0
LINE
  8
SIZE
  6
CONTINUOUS
 62
    30
 10
725.30000000000098
 20
-229.0
 30
0.0
 11
725.30000000000098
 21
124.37748800773529
 31
0.0
  0
LINE
  8
SIZE
  6
CONTINUOUS
 62
    30
 10
625.30000000000098
 20
20.0
 30
0.0
 11
625.30000000000098
 21
124.37748800773529
 31
0.0
  0
LINE
  8
SIZE
  6
CONTINUOUS
 62
    30
 10
725.30000000000098
 20
104.37748800773529
 30
0.0
 11
625.30000000000098
 21
104.37748800773529
 31
0.0
  0
LINE
  8
SIZE
  6
CONTINUOUS
 62
    30
 10
625.30000000000098
 20
104.37748800773529
 30
0.0
 11
446.4428571428582
 21
104.37748800773529
 31
0.0
  0
CIRCLE
  8
SIZE
  6
CONTINUOUS
 62
    30
 10
725.30000000000098
 20
104.37748800773529
 30
0.0
 40
7.5
  0
CIRCLE
  8
SIZE
  6
CONTINUOUS
 62
    30
 10
625.30000000000098
 20
104.37748800773529
 30
0.0
 40
7.5
  0
TEXT
  8
SIZE
  6
CONTINUOUS
 62
    30
 10
461.960000000001
 20
124.37748800773531
 30
0.0
 40
40.0
  1
100
 50
0.0
 41
0.9
 51
0.0
  7
STANDARD
 71
     0
 72
     1
 11
509.30000000000098
 21
124.37748800773531
 31
0.0
210
0.0
220
0.0
230
1.0
  0
POINT
  8
DEFPOINTS
  6
CONTINUOUS
 62
    30
 10
725.30000000000098
 20
-249.0
 30
0.0
  0
POINT
  8
DEFPOINTS
  6
CONTINUOUS
 62
    30
 10
625.30000000000098
 20
0.0
 30
0.0
  0
POINT
  8
DEFPOINTS
  6
CONTINUOUS
 62
    30
 10
625.30000000000098
 20
104.37748800773529
 30
0.0
  0
LINE
  8
OUTLINE
  6
CONTINUOUS
 62
     3
 10
610.80000000000109
 20
-479.0
 30
0.0
 11
625.80000000000098
 21
-479.0
 31
0.0
  0
LINE
  8
OUTLINE
  6
CONTINUOUS
 62
     3
 10
-610.19999999999891
 20
-479.0
 30
0.0
 11
-625.19999999999891
 21
-479.0
 31
0.0
  0
LINE
  8
OUTLINE
  6
CONTINUOUS
 62
     3
 10
626.54011007730151
 20
-476.0
 30
0.0
 11
631.30000000000109
 21
-476.0
 31
0.0
  0
LINE
  8
OUTLINE
  6
CONTINUOUS
 62
     3
 10
610.80000000000109
 20
-476.0
 30
0.0
 11
-610.19999999999891
 21
-476.0
 31
0.0
  0
LINE
  8
OUTLINE
  6
CONTINUOUS
 62
     3
 10
-625.94011007739755
 20
-476.0
 30
0.0
 11
-630.69999999999879
 21
-476.0
 31
0.0
  0
LINE
  8
OUTLINE
  6
CONTINUOUS
 62
     3
 10
635.30000000000109
 20
-473.0
 30
0.0
 11
631.30000000000109
 21
-473.0
 31
0.0
  0
LINE
  8
OUTLINE
  6
CONTINUOUS
 62
     3
 10
636.10000000000207
 20
-472.19999999999982
 30
0.0
 11
635.30000000000109
 21
-472.19999999999982
 31
0.0
  0
LINE
  8
OUTLINE
  6
CONTINUOUS
 62
     3
 10
636.10000000000207
 20
-458.0
 30
0.0
 11
665.30000000000109
 21
-458.0
 31
0.0
  0
LINE
  8
OUTLINE
  6
CONTINUOUS
 62
     3
 10
-629.69999999999891
 20
-458.0
 30
0.0
 11
-630.69999999999879
 21
-458.0
 31
0.0
  0
LINE
  8
OUTLINE
  6
CONTINUOUS
 62
     3
 10
665.30000000000109
 20
-448.0
 30
0.0
 11
674.80000000000098
 21
-448.0
 31
0.0
  0
LINE
  8
OUTLINE
  6
CONTINUOUS
 62
     3
 10
676.80000000000109
 20
-443.80000000000013
 30
0.0
 11
699.30000000000098
 21
-443.80000000000013
 31
0.0
  0
LINE
  8
OUTLINE
  6
CONTINUOUS
 62
     3
 10
699.5
 20
-442.0
 30
0.0
 11
699.30000000000098
 21
-442.0
 31
0.0
  0
LINE
  8
OUTLINE
  6
CONTINUOUS
 62
     3
 10
701.10000000000218
 20
-436.0
 30
0.0
 11
700.30000000000098
 21
-436.0
 31
0.0
  0
LINE
  8
OUTLINE
  6
CONTINUOUS
 62
     3
 10
701.10000000000218
 20
-436.0
 30
0.0
 11
701.10000000000218
 21
-442.1999999999997
 31
0.0
  0
LINE
  8
OUTLINE
  6
CONTINUOUS
 62
     3
 10
700.30000000000098
 20
-436.0000000000004
 30
0.0
 11
700.30000000000098
 21
-329.10000000000042
 31
0.0
  0
LINE
  8
OUTLINE
  6
CONTINUOUS
 62
     3
 10
700.30000000000098
 20
-306.89999999999958
 30
0.0
 11
700.30000000000098
 21
-282.76000000000022
 31
0.0
  0
LINE
  8
OUTLINE
  6
CONTINUOUS
 62
     3
 10
700.30000000000098
 20
-273.23999999999978
 30
0.0
 11
700.30000000000098
 21
-201.7534116785709
 31
0.0
  0
LINE
  8
OUTLINE
  6
CONTINUOUS
 62
     3
 10
700.30000000000098
 20
-184.24658832141171
 30
0.0
 11
700.30000000000098
 21
-62.400000000000553
 31
0.0
  0
LINE
  8
OUTLINE
  6
CONTINUOUS
 62
     3
 10
699.5
 20
-442.1999999999997
 30
0.0
 11
699.5
 21
-442.0
 31
0.0
  0
LINE
  8
OUTLINE
  6
CONTINUOUS
 62
     3
 10
699.30000000000098
 20
-443.80000000000013
 30
0.0
 11
699.30000000000098
 21
-442.0
 31
0.0
  0
LINE
  8
OUTLINE
  6
CONTINUOUS
 62
     3
 10
685.5
 20
-35.0
 30
0.0
 11
685.5
 21
-25.5
 31
0.0
  0
LINE
  8
OUTLINE
  6
CONTINUOUS
 62
     3
 10
636.10000000000207
 20
-472.19999999999982
 30
0.0
 11
636.10000000000207
 21
-458.0
 31
0.0
  0
LINE
  8
OUTLINE
  6
CONTINUOUS
 62
     3
 10
683.20000000000073
 20
-35.0
 30
0.0
 11
683.20000000000073
 21
-25.5
 31
0.0
  0
LINE
  8
OUTLINE
  6
CONTINUOUS
 62
     3
 10
683.0
 20
-35.0
 30
0.0
 11
683.0
 21
-25.300000000000178
 31
0.0
  0
LINE
  8
OUTLINE
  6
CONTINUOUS
 62
     3
 10
676.80000000000109
 20
-446.0
 30
0.0
 11
676.80000000000109
 21
-443.80000000000013
 31
0.0
  0
LINE
  8
OUTLINE
  6
CONTINUOUS
 62
     3
 10
665.30000000000109
 20
-458.0
 30
0.0
 11
665.30000000000109
 21
-448.0
 31
0.0
  0
LINE
  8
OUTLINE
  6
CONTINUOUS
 62
     3
 10
636.10000000000036
 20
-23.0
 30
0.0
 11
636.10000000000036
 21
-3.800000000000181
 31
0.0
  0
LINE
  8
OUTLINE
  6
CONTINUOUS
 62
     3
 10
635.30000000000109
 20
-473.0
 30
0.0
 11
635.30000000000109
 21
-472.19999999999982
 31
0.0
  0
LINE
  8
OUTLINE
  6
CONTINUOUS
 62
     3
 10
635.30000000000109
 20
-3.800000000000181
 30
0.0
 11
635.30000000000109
 21
-3.0
 31
0.0
  0
LINE
  8
OUTLINE
  6
CONTINUOUS
 62
     3
 10
631.30000000000109
 20
-476.0
 30
0.0
 11
631.30000000000109
 21
-473.0
 31
0.0
  0
LINE
  8
OUTLINE
  6
CONTINUOUS
 62
     3
 10
630.30000000000109
 20
-3.0
 30
0.0
 11
630.30000000000109
 21
0.0
 31
0.0
  0
LINE
  8
OUTLINE
  6
CONTINUOUS
 62
     3
 10
625.80000000000098
 20
-476.44391251380063
 30
0.0
 11
625.80000000000098
 21
-479.0
 31
0.0
  0
LINE
  8
OUTLINE
  6
CONTINUOUS
 62
     3
 10
610.80000000000109
 20
-476.0
 30
0.0
 11
610.80000000000109
 21
-479.0
 31
0.0
  0
LINE
  8
OUTLINE
  6
CONTINUOUS
 62
     3
 10
-629.69999999999891
 20
-63.0
 30
0.0
 11
-653.89999999999782
 21
-63.0
 31
0.0
  0
LINE
  8
OUTLINE
  6
CONTINUOUS
 62
     3
 10
656.12857142850044
 20
-61.400000000000539
 30
0.0
 11
699.30000000000098
 21
-61.400000000000539
 31
0.0
  0
LINE
  8
OUTLINE
  6
CONTINUOUS
 62
     3
 10
683.0
 20
-35.0
 30
0.0
 11
656.12857142857126
 21
-61.400000000000539
 31
0.0
  0
LINE
  8
OUTLINE
  6
CONTINUOUS
 62
     3
 10
683.20000000000073
 20
-35.0
 30
0.0
 11
685.5
 21
-35.0
 31
0.0
  0
LINE
  8
OUTLINE
  6
CONTINUOUS
 62
     3
 10
-682.39999999999782
 20
-35.0
 30
0.0
 11
-684.69999999999879
 21
-35.0
 31
0.0
  0
LINE
  8
OUTLINE
  6
CONTINUOUS
 62
     3
 10
-682.19999999999891
 20
-23.0
 30
0.0
 11
-629.69999999999891
 21
-23.0
 31
0.0
  0
LINE
  8
OUTLINE
  6
CONTINUOUS
 62
     3
 10
636.10000000000036
 20
-23.0
 30
0.0
 11
683.0
 21
-23.0
 31
0.0
  0
LINE
  8
OUTLINE
  6
CONTINUOUS
 62
     3
 10
636.10000000000036
 20
-3.800000000000181
 30
0.0
 11
635.30000000000109
 21
-3.800000000000181
 31
0.0
  0
LINE
  8
OUTLINE
  6
CONTINUOUS
 62
     3
 10
635.30000000000109
 20
-3.0
 30
0.0
 11
630.30000000000109
 21
-3.0
 31
0.0
  0
LINE
  8
OUTLINE
  6
CONTINUOUS
 62
     3
 10
630.30000000000109
 20
0.0
 30
0.0
 11
-629.69999999999891
 21
0.0
 31
0.0
  0
LINE
  8
OUTLINE
  6
CONTINUOUS
 62
     3
 10
-653.89999999999782
 20
-63.0
 30
0.0
 11
-682.19999999999891
 21
-35.0
 31
0.0
  0
LINE
  8
OUTLINE
  6
CONTINUOUS
 62
     3
 10
-610.19999999999891
 20
-479.0
 30
0.0
 11
-610.19999999999891
 21
-476.0
 31
0.0
  0
LINE
  8
OUTLINE
  6
CONTINUOUS
 62
     3
 10
-625.19999999999891
 20
-479.0
 30
0.0
 11
-625.19999999999891
 21
-476.44391251380063
 31
0.0
  0
LINE
  8
OUTLINE
  6
CONTINUOUS
 62
     3
 10
-629.69999999999891
 20
-458.0
 30
0.0
 11
-629.69999999999891
 21
-63.0
 31
0.0
  0
LINE
  8
OUTLINE
  6
CONTINUOUS
 62
     3
 10
-629.69999999999891
 20
-23.000000000000909
 30
0.0
 11
-629.69999999999891
 21
0.0
 31
0.0
  0
LINE
  8
OUTLINE
  6
CONTINUOUS
 62
     3
 10
-630.69999999999879
 20
-458.0
 30
0.0
 11
-630.69999999999879
 21
-476.0
 31
0.0
  0
LINE
  8
OUTLINE
  6
CONTINUOUS
 62
     3
 10
-682.19999999999891
 20
-35.0
 30
0.0
 11
-682.19999999999891
 21
-25.300000000000178
 31
0.0
  0
LINE
  8
OUTLINE
  6
CONTINUOUS
 62
     3
 10
-682.39999999999782
 20
-35.0
 30
0.0
 11
-682.39999999999782
 21
-25.5
 31
0.0
  0
LINE
  8
OUTLINE
  6
CONTINUOUS
 62
     3
 10
-684.69999999999879
 20
-25.5
 30
0.0
 11
-684.69999999999879
 21
-35.0
 31
0.0
  0
ARC
  8
OUTLINE
  6
CONTINUOUS
 62
     3
 10
622.70000000000073
 20
-470.40000000000049
 30
0.0
 40
6.7999999999997511
 50
297.1217207513065
 51
304.56032177996582
  0
ARC
  8
OUTLINE
  6
CONTINUOUS
 62
     3
 10
-622.09999999999854
 20
-470.40000000000049
 30
0.0
 40
6.800000000000181
 50
235.43967822003421
 51
242.87827924869339
  0
ARC
  8
OUTLINE
  6
CONTINUOUS
 62
     3
 10
674.80000000000098
 20
-446.0
 30
0.0
 40
2.0
 50
270.0
 51
0.0
  0
ARC
  8
OUTLINE
  6
CONTINUOUS
 62
     3
 10
-682.19999999999891
 20
-25.5
 30
0.0
 40
0.1999999999998181
 50
90.0
 51
180.0
  0
ARC
  8
OUTLINE
  6
CONTINUOUS
 62
     3
 10
683.0
 20
-25.5
 30
0.0
 40
0.2000000000000063
 50
0.0
 51
90.0
  0
ARC
  8
OUTLINE
  6
CONTINUOUS
 62
     3
 10
700.30000000000098
 20
-442.1999999999997
 30
0.0
 40
0.8000000000001818
 50
180.0
 51
0.0
  0
ARC
  8
OUTLINE
  6
CONTINUOUS
 62
     3
 10
-682.19999999999891
 20
-25.5
 30
0.0
 40
2.5
 50
90.0
 51
180.0
  0
ARC
  8
OUTLINE
  6
CONTINUOUS
 62
     3
 10
683.0
 20
-25.5
 30
0.0
 40
2.5
 50
0.0
 51
90.0
  0
ARC
  8
OUTLINE
  6
CONTINUOUS
 62
     3
 10
699.30000000000098
 20
-62.400000000000553
 30
0.0
 40
1.0
 50
0.0
 51
90.0
  0
LINE
  8
OUTLINE
  6
CONTINUOUS
 62
     3
 10
704.7400000000016
 20
-201.7534116785709
 30
0.0
 11
700.30000000000098
 21
-201.7534116785709
 31
0.0
  0
LINE
  8
OUTLINE
  6
CONTINUOUS
 62
     3
 10
700.30000000000098
 20
-184.24658832141171
 30
0.0
 11
704.7400000000016
 21
-184.24658832141171
 31
0.0
  0
LINE
  8
OUTLINE
  6
CONTINUOUS
 62
     3
 10
708.58000000000175
 20
-183.87999999995731
 30
0.0
 11
715.29999999999916
 21
-183.87999999995731
 31
0.0
  0
LINE
  8
OUTLINE
  6
CONTINUOUS
 62
     3
 10
715.30000000000109
 20
-202.11999999999529
 30
0.0
 11
708.58000000000175
 21
-202.11999999999529
 31
0.0
  0
LINE
  8
OUTLINE
  6
CONTINUOUS
 62
     3
 10
725.30000000000098
 20
-272.48999999999978
 30
0.0
 11
725.30000000000098
 21
-283.51000000000022
 31
0.0
  0
LINE
  8
OUTLINE
  6
CONTINUOUS
 62
     3
 10
725.30000000000098
 20
-308.76000000000022
 30
0.0
 11
725.30000000000098
 21
-327.23999999999978
 31
0.0
  0
LINE
  8
OUTLINE
  6
CONTINUOUS
 62
     3
 10
725.30000000000098
 20
-272.48999999999978
 30
0.0
 11
715.01005050630192
 21
-272.48999999999978
 31
0.0
  0
LINE
  8
OUTLINE
  6
CONTINUOUS
 62
     3
 10
700.30000000000098
 20
-273.23999999999978
 30
0.0
 11
714.26005050630192
 21
-273.23999999999978
 31
0.0
  0
LINE
  8
OUTLINE
  6
CONTINUOUS
 62
     3
 10
700.30000000000098
 20
-282.76000000000022
 30
0.0
 11
714.26005050630192
 21
-282.76000000000022
 31
0.0
  0
LINE
  8
OUTLINE
  6
CONTINUOUS
 62
     3
 10
725.30000000000098
 20
-283.51000000000022
 30
0.0
 11
715.01005050630192
 21
-283.51000000000022
 31
0.0
  0
LINE
  8
OUTLINE
  6
CONTINUOUS
 62
     3
 10
700.30000000000098
 20
-306.89999999999958
 30
0.0
 11
706.0489248988996
 21
-306.89999999999958
 31
0.0
  0
LINE
  8
OUTLINE
  6
CONTINUOUS
 62
     3
 10
725.30000000000098
 20
-308.76000000000022
 30
0.0
 11
710.37846096900103
 21
-308.76000000000022
 31
0.0
  0
LINE
  8
OUTLINE
  6
CONTINUOUS
 62
     3
 10
710.37846096900103
 20
-308.76000000000022
 30
0.0
 11
709.82450018500094
 21
-309.07982940779948
 31
0.0
  0
LINE
  8
OUTLINE
  6
CONTINUOUS
 62
     3
 10
709.82450018500094
 20
-326.92017059220052
 30
0.0
 11
706.0489248988996
 21
-329.10000000000042
 31
0.0
  0
LINE
  8
OUTLINE
  6
CONTINUOUS
 62
     3
 10
715.01005050630192
 20
-272.48999999999978
 30
0.0
 11
714.26005050630192
 21
-273.23999999999978
 31
0.0
  0
LINE
  8
OUTLINE
  6
CONTINUOUS
 62
     3
 10
715.01005050630192
 20
-283.51000000000022
 30
0.0
 11
714.26005050630192
 21
-282.76000000000022
 31
0.0
  0
LINE
  8
OUTLINE
  6
CONTINUOUS
 62
     3
 10
709.82450018500094
 20
-309.07982940779948
 30
0.0
 11
706.0489248988996
 21
-306.89999999999958
 31
0.0
  0
LINE
  8
OUTLINE
  6
CONTINUOUS
 62
     3
 10
710.37846096900103
 20
-327.23999999999978
 30
0.0
 11
709.82450018500094
 21
-326.92017059220052
 31
0.0
  0
LINE
  8
OUTLINE
  6
CONTINUOUS
 62
     3
 10
725.30000000000098
 20
-327.23999999999978
 30
0.0
 11
710.37846096900103
 21
-327.23999999999978
 31
0.0
  0
LINE
  8
OUTLINE
  6
CONTINUOUS
 62
     3
 10
700.30000000000098
 20
-329.10000000000042
 30
0.0
 11
706.0489248988996
 21
-329.10000000000042
 31
0.0
  0
LINE
  8
OUTLINE
  6
CONTINUOUS
 62
     3
 10
708.58000000000175
 20
-183.87999999995731
 30
0.0
 11
708.58000000000175
 21
-184.88224000000989
 31
0.0
  0
LINE
  8
OUTLINE
  6
CONTINUOUS
 62
     3
 10
708.58000000000175
 20
-201.11775999999281
 30
0.0
 11
708.58000000000175
 21
-202.11999999999529
 31
0.0
  0
LINE
  8
OUTLINE
  6
CONTINUOUS
 62
     3
 10
715.29999999999916
 20
-183.87999999995731
 30
0.0
 11
715.29999999999916
 21
-184.88224000000901
 31
0.0
  0
LINE
  8
OUTLINE
  6
CONTINUOUS
 62
     3
 10
715.30000000000109
 20
-201.11775999999281
 30
0.0
 11
715.30000000000109
 21
-202.11999999999529
 31
0.0
  0
LINE
  8
OUTLINE
  6
CONTINUOUS
 62
     3
 10
708.58000000000175
 20
-201.11775999999281
 30
0.0
 11
704.7400000000016
 21
-200.99775999999289
 31
0.0
  0
LINE
  8
OUTLINE
  6
CONTINUOUS
 62
     3
 10
708.58000000000175
 20
-184.88224000000989
 30
0.0
 11
704.7400000000016
 21
-185.0022400000089
 31
0.0
  0
LINE
  8
OUTLINE
  6
CONTINUOUS
 62
     3
 10
704.7400000000016
 20
-184.24658832141171
 30
0.0
 11
704.7400000000016
 21
-185.00224000000981
 31
0.0
  0
LINE
  8
OUTLINE
  6
CONTINUOUS
 62
     3
 10
704.7400000000016
 20
-200.9977599999938
 30
0.0
 11
704.7400000000016
 21
-201.7534116785709
 31
0.0
  0
LINE
  8
OUTLINE
  6
CONTINUOUS
 62
     3
 10
715.29999999999916
 20
-201.11775999999281
 30
0.0
 11
725.30000000000291
 21
-200.80525999999369
 31
0.0
  0
LINE
  8
OUTLINE
  6
CONTINUOUS
 62
     3
 10
715.29999999999916
 20
-184.88224000000989
 30
0.0
 11
725.29999999999927
 21
-185.19474000000631
 31
0.0
  0
LINE
  8
OUTLINE
  6
CONTINUOUS
 62
     3
 10
725.29999999999927
 20
-185.19474000000631
 30
0.0
 11
725.30000000000291
 21
-200.80525999999369
 31
0.0
  0
LINE
  8
OUTLINE
  6
CONTINUOUS
 62
     3
 10
725.29999999999927
 20
-185.19474000000631
 30
0.0
 11
725.30000000000291
 21
-200.80525999999369
 31
0.0
  0
LINE
  8
DETAIL
  6
CONTINUOUS
 62
     5
 10
-629.69999999999891
 20
-357.99999999983902
 30
0.0
 11
630.30000000000109
 21
-357.99999999990217
 31
0.0
  0
CIRCLE
  8
FIX
  6
CONTINUOUS
 62
    11
 10
-662.5
 20
-25.300000000000178
 30
0.0
 40
10.63443637122327
  0
CIRCLE
  8
FIX
  6
CONTINUOUS
 62
    11
 10
662.5
 20
-25.300000000000178
 30
0.0
 40
10.63443637122327
  0
TEXT
  8
ETC
  6
CONTINUOUS
 62
    61
 10
-934.17139459067039
 20
919.84792040866432
 30
0.0
 40
64.0
  1
フィルターボックス組込
 41
0.9
  0
ENDSEC
  0
EOF
