  0
SECTION
  2
HEADER
  9
$ACADVER
  1
AC1006
  9
$INSBASE
 10
0.0
 20
0.0
 30
0.0
  9
$EXTMIN
 10
-1621.4011336047879
 20
-724.93445587256065
  9
$EXTMAX
 10
1718.7874485873649
 20
1082.619569210106
  9
$LIMMIN
 10
-4267.1522210604817
 20
-2696.0832101984129
  9
$LIMMAX
 10
7190.7174225864646
 20
5141.155363923066
  9
$ORTHOMODE
 70
     0
  9
$REGENMODE
 70
     1
  9
$FILLMODE
 70
     1
  9
$QTEXTMODE
 70
     0
  9
$MIRRTEXT
 70
     0
  9
$LTSCALE
 40
20.0
  9
$ATTMODE
 70
     1
  9
$TEXTSIZE
 40
60.0
  9
$TRACEWID
 40
0.05
  9
$TEXTSTYLE
  7
STANDARD1
  9
$CLAYER
  8
NOTE
  9
$CELTYPE
  6
CONTINUOUS
  9
$CECOLOR
 62
     7
  9
$DIMSCALE
 40
1.0
  9
$DIMASZ
 40
30.0
  9
$DIMEXO
 40
20.0
  9
$DIMDLI
 40
80.0
  9
$DIMRND
 40
0.0
  9
$DIMDLE
 40
0.0
  9
$DIMEXE
 40
20.0
  9
$DIMTP
 40
0.0
  9
$DIMTM
 40
0.0
  9
$DIMTXT
 40
40.0
  9
$DIMCEN
 40
0.09
  9
$DIMTSZ
 40
0.0
  9
$DIMTOL
 70
     0
  9
$DIMLIM
 70
     0
  9
$DIMTIH
 70
     0
  9
$DIMTOH
 70
     0
  9
$DIMSE1
 70
     0
  9
$DIMSE2
 70
     0
  9
$DIMTAD
 70
     1
  9
$DIMZIN
 70
     8
  9
$DIMBLK
  1

  9
$DIMASO
 70
     1
  9
$DIMSHO
 70
     0
  9
$DIMPOST
  1

  9
$DIMAPOST
  1

  9
$DIMALT
 70
     0
  9
$DIMALTD
 70
     2
  9
$DIMALTF
 40
25.399999999999999
  9
$DIMLFAC
 40
1.0
  9
$DIMTOFL
 70
     1
  9
$DIMTVP
 40
0.0
  9
$DIMTIX
 70
     0
  9
$DIMSOXD
 70
     0
  9
$DIMSAH
 70
     0
  9
$DIMBLK1
  1

  9
$DIMBLK2
  1

  9
$LUNITS
 70
     2
  9
$LUPREC
 70
     4
  9
$SKETCHINC
 40
0.1
  9
$FILLETRAD
 40
0.0
  9
$AUNITS
 70
     1
  9
$AUPREC
 70
     3
  9
$MENU
  1
ACAD
  9
$ELEVATION
 40
0.0
  9
$THICKNESS
 40
0.0
  9
$LIMCHECK
 70
     0
  9
$CHAMFERA
 40
0.0
  9
$CHAMFERB
 40
0.0
  9
$SKPOLY
 70
     0
  9
$TDCREATE
 40
2455902.607164352
  9
$TDUPDATE
 40
2457751.361967593
  9
$TDINDWG
 40
1.6968386806
  9
$TDUSRTIMER
 40
1.6968350694
  9
$USRTIMER
 70
     1
  9
$ANGBASE
 50
0.0
  9
$ANGDIR
 70
     0
  9
$PDMODE
 70
     3
  9
$PDSIZE
 40
-2.0
  9
$PLINEWID
 40
0.0
  9
$SPLFRAME
 70
     0
  9
$SPLINETYPE
 70
     6
  9
$SPLINESEGS
 70
     8
  9
$SURFTAB1
 70
     6
  9
$SURFTAB2
 70
     6
  9
$SURFTYPE
 70
     6
  9
$SURFU
 70
     6
  9
$SURFV
 70
     6
  9
$UCSNAME
  2

  9
$UCSORG
 10
0.0
 20
0.0
 30
0.0
  9
$UCSXDIR
 10
1.0
 20
0.0
 30
0.0
  9
$UCSYDIR
 10
0.0
 20
1.0
 30
0.0
  9
$USERI1
 70
     0
  9
$USERI2
 70
     0
  9
$USERI3
 70
     0
  9
$USERI4
 70
     0
  9
$USERI5
 70
     0
  9
$USERR1
 40
20.0
  9
$USERR2
 40
0.0
  9
$USERR3
 40
0.0
  9
$USERR4
 40
0.0
  9
$USERR5
 40
0.0
  9
$WORLDVIEW
 70
     1
  9
$ATTDIA
 70
     0
  9
$ATTREQ
 70
     1
  9
$BLIPMODE
 70
     1
  9
$COORDS
 70
     1
  9
$DRAGMODE
 70
     2
  9
$OSMODE
 70
     0
  9
$HANDLING
 70
     0
  9
$HANDSEED
  5
909BBF3
  0
ENDSEC
  0
SECTION
  2
TABLES
  0
TABLE
  2
LTYPE
 70
     2
  0
LTYPE
  2
CONTINUOUS
 70
     0
  3
実線
 72
    65
 73
     0
 40
0.0
  0
LTYPE
  2
DASHDOT
 70
     0
  3
____ _ ____ _ ____ _ ____ _ ____ _ ____ _ ____
 72
    65
 73
     4
 40
5.5
 49
4.0
 49
-0.6
 49
0.3
 49
-0.6
  0
ENDTAB
  0
TABLE
  2
LAYER
 70
    12
  0
LAYER
  2
0
 70
     0
 62
     7
  6
CONTINUOUS
  0
LAYER
  2
OUTLINE
 70
     0
 62
     3
  6
CONTINUOUS
  0
LAYER
  2
DETAIL
 70
     0
 62
     5
  6
CONTINUOUS
  0
LAYER
  2
BASIS
 70
     0
 62
     6
  6
DASHDOT
  0
LAYER
  2
SIZE
 70
     0
 62
    30
  6
CONTINUOUS
  0
LAYER
  2
NOTE
 70
     0
 62
     4
  6
CONTINUOUS
  0
LAYER
  2
ARRANGE
 70
     0
 62
     1
  6
CONTINUOUS
  0
LAYER
  2
FIX
 70
     0
 62
    11
  6
CONTINUOUS
  0
LAYER
  2
SERVICESPACE
 70
     0
 62
     2
  6
DASHDOT
  0
LAYER
  2
ETC
 70
     0
 62
    61
  6
CONTINUOUS
  0
LAYER
  2
SYMBOLLINE
 70
     0
 62
    15
  6
CONTINUOUS
  0
LAYER
  2
DEFPOINTS
 70
     0
 62
     7
  6
CONTINUOUS
  0
ENDTAB
  0
TABLE
  2
STYLE
 70
     2
  0
STYLE
  2
STANDARD
 70
     0
 40
0.0
 41
0.9
 50
0.0
 71
     0
 42
64.0
  3
SIMPLEX
  4
BIGFONT
  0
STYLE
  2
STANDARD1
 70
     0
 40
60.0
 41
0.7
 50
0.0
 71
     0
 42
60.0
  3
MONOTXT.shx
  4
BIGFONT.shx
  0
ENDTAB
  0
TABLE
  2
VIEW
 70
     1
  0
VIEW
  2
ALL
 70
     0
 40
9000.0
 10
241.50664699999999
 20
0.0
 41
12483.01
 11
0.0
 21
0.0
 31
1.0
 12
0.0
 22
0.0
 32
0.0
 42
50.0
 43
0.0
 44
0.0
 50
0.0
 71
     0
  0
ENDTAB
  0
TABLE
  2
UCS
 70
     0
  0
ENDTAB
  0
TABLE
  2
VPORT
 70
     1
  0
VPORT
  2
*ACTIVE
 70
     0
 10
0.0
 20
0.0
 11
1.0
 21
1.0
 12
48.693157491288723
 22
178.842556668773
 13
0.0
 23
0.0
 14
50.0
 24
50.0
 15
100.0
 25
100.0
 16
0.0
 26
0.0
 36
1.0
 17
0.0
 27
0.0
 37
0.0
 40
1940.8175245819141
 41
1.72801875732708
 42
50.0
 43
0.0
 44
0.0
 50
0.0
 51
0.0
 71
     0
 72
  1000
 73
     1
 74
     0
 75
     0
 76
     0
 77
     0
 78
     0
  0
ENDTAB
  0
TABLE
  2
DWGMGR
 70
     0
  0
ENDTAB
  0
ENDSEC
  0
SECTION
  2
BLOCKS
  0
ENDSEC
  0
SECTION
  2
ENTITIES
  0
LINE
  8
DETAIL
  6
CONTINUOUS
 62
     5
 10
698.5
 20
-43.0
 30
0.0
 11
608.49999999999989
 21
-433.0
 31
0.0
  0
LINE
  8
DETAIL
  6
CONTINUOUS
 62
     5
 10
698.5
 20
-433.0
 30
0.0
 11
608.49999999999989
 21
-43.0
 31
0.0
  0
LINE
  8
DETAIL
  6
CONTINUOUS
 62
     5
 10
703.5
 20
-43.0
 30
0.0
 11
793.5
 21
-433.0
 31
0.0
  0
LINE
  8
DETAIL
  6
CONTINUOUS
 62
     5
 10
793.5
 20
-43.0
 30
0.0
 11
703.5
 21
-433.0
 31
0.0
  0
LINE
  8
DETAIL
  6
CONTINUOUS
 62
     5
 10
793.5
 20
-433.0
 30
0.0
 11
793.5
 21
-43.0
 31
0.0
  0
LINE
  8
DETAIL
  6
CONTINUOUS
 62
     5
 10
703.5
 20
-433.0
 30
0.0
 11
703.5
 21
-43.0
 31
0.0
  0
LINE
  8
DETAIL
  6
CONTINUOUS
 62
     5
 10
608.49999999999989
 20
-433.0
 30
0.0
 11
608.49999999999989
 21
-43.0
 31
0.0
  0
LINE
  8
DETAIL
  6
CONTINUOUS
 62
     5
 10
793.5
 20
-433.0
 30
0.0
 11
703.5
 21
-433.0
 31
0.0
  0
LINE
  8
DETAIL
  6
CONTINUOUS
 62
     5
 10
698.5
 20
-433.0
 30
0.0
 11
608.49999999999989
 21
-433.0
 31
0.0
  0
LINE
  8
DETAIL
  6
CONTINUOUS
 62
     5
 10
608.49999999999989
 20
-43.0
 30
0.0
 11
698.5
 21
-43.0
 31
0.0
  0
LINE
  8
DETAIL
  6
CONTINUOUS
 62
     5
 10
703.5
 20
-43.0
 30
0.0
 11
793.5
 21
-43.0
 31
0.0
  0
LINE
  8
DETAIL
  6
CONTINUOUS
 62
     5
 10
-862.5
 20
-58.0
 30
0.0
 11
-862.5
 21
-62.0
 31
0.0
  0
LINE
  8
DETAIL
  6
CONTINUOUS
 62
     5
 10
-862.5
 20
-62.0
 30
0.0
 11
-862.5
 21
-354.0
 31
0.0
  0
LINE
  8
DETAIL
  6
CONTINUOUS
 62
     5
 10
-862.5
 20
-358.0
 30
0.0
 11
-862.5
 21
-354.0
 31
0.0
  0
LINE
  8
DETAIL
  6
CONTINUOUS
 62
     5
 10
-859.5
 20
-58.0
 30
0.0
 11
-859.5
 21
-58.800000000000182
 31
0.0
  0
LINE
  8
DETAIL
  6
CONTINUOUS
 62
     5
 10
-842.5
 20
-458.0
 30
0.0
 11
-842.5
 21
-358.0
 31
0.0
  0
LINE
  8
DETAIL
  6
CONTINUOUS
 62
     5
 10
-842.5
 20
-58.0
 30
0.0
 11
-842.5
 21
0.0
 31
0.0
  0
LINE
  8
DETAIL
  6
CONTINUOUS
 62
     5
 10
-841.69999999999982
 20
-358.0
 30
0.0
 11
-841.69999999999982
 21
-58.0
 31
0.0
  0
LINE
  8
DETAIL
  6
CONTINUOUS
 62
     5
 10
-838.30000000000018
 20
-458.0
 30
0.0
 11
-838.30000000000018
 21
-476.0
 31
0.0
  0
LINE
  8
DETAIL
  6
CONTINUOUS
 62
     5
 10
-837.5
 20
-361.19999999999982
 30
0.0
 11
-837.5
 21
-458.0
 31
0.0
  0
LINE
  8
DETAIL
  6
CONTINUOUS
 62
     5
 10
-837.5
 20
-361.19999999999982
 30
0.0
 11
-837.5
 21
-358.0
 31
0.0
  0
LINE
  8
DETAIL
  6
CONTINUOUS
 62
     5
 10
-837.5
 20
-58.0
 30
0.0
 11
-837.5
 21
-54.800000000000182
 31
0.0
  0
LINE
  8
DETAIL
  6
CONTINUOUS
 62
     5
 10
-837.5
 20
-54.800000000000182
 30
0.0
 11
-837.5
 21
-18.0
 31
0.0
  0
LINE
  8
DETAIL
  6
CONTINUOUS
 62
     5
 10
-836.69999999999993
 20
-458.0
 30
0.0
 11
-836.69999999999993
 21
-58.0
 31
0.0
  0
LINE
  8
DETAIL
  6
CONTINUOUS
 62
     5
 10
-836.69999999999993
 20
-58.0
 30
0.0
 11
-836.69999999999993
 21
-56.400000000000539
 31
0.0
  0
LINE
  8
DETAIL
  6
CONTINUOUS
 62
     5
 10
-836.69999999999993
 20
-56.400000000000539
 30
0.0
 11
-836.69999999999993
 21
-18.0
 31
0.0
  0
LINE
  8
DETAIL
  6
CONTINUOUS
 62
     5
 10
-836.5
 20
-63.0
 30
0.0
 11
-836.5
 21
-25.5
 31
0.0
  0
LINE
  8
DETAIL
  6
CONTINUOUS
 62
     5
 10
-834.19999999999982
 20
-63.0
 30
0.0
 11
-834.19999999999982
 21
-25.5
 31
0.0
  0
LINE
  8
DETAIL
  6
CONTINUOUS
 62
     5
 10
-834.0
 20
-32.0
 30
0.0
 11
-834.0
 21
-23.0
 31
0.0
  0
LINE
  8
DETAIL
  6
CONTINUOUS
 62
     5
 10
-831.89999999999975
 20
-63.0
 30
0.0
 11
-831.89999999999975
 21
-34.842816093399961
 31
0.0
  0
LINE
  8
DETAIL
  6
CONTINUOUS
 62
     5
 10
-812.5
 20
-32.0
 30
0.0
 11
-812.5
 21
-23.0
 31
0.0
  0
LINE
  8
DETAIL
  6
CONTINUOUS
 62
     5
 10
-800.5
 20
-32.0
 30
0.0
 11
-800.5
 21
-23.0
 31
0.0
  0
LINE
  8
DETAIL
  6
CONTINUOUS
 62
     5
 10
-795.0
 20
-476.0
 30
0.0
 11
-795.0
 21
-479.0
 31
0.0
  0
LINE
  8
DETAIL
  6
CONTINUOUS
 62
     5
 10
-780.0
 20
-476.0
 30
0.0
 11
-780.0
 21
-479.0
 31
0.0
  0
LINE
  8
DETAIL
  6
CONTINUOUS
 62
     5
 10
-859.5
 20
-357.0
 30
0.0
 11
-862.5
 21
-354.0
 31
0.0
  0
LINE
  8
DETAIL
  6
CONTINUOUS
 62
     5
 10
-731.5
 20
-18.0
 30
0.0
 11
-731.5
 21
-23.0
 31
0.0
  0
LINE
  8
DETAIL
  6
CONTINUOUS
 62
     5
 10
-731.5
 20
-63.0
 30
0.0
 11
-731.5
 21
-32.0
 31
0.0
  0
LINE
  8
DETAIL
  6
CONTINUOUS
 62
     5
 10
-731.5
 20
-32.0
 30
0.0
 11
-731.5
 21
-23.0
 31
0.0
  0
LINE
  8
DETAIL
  6
CONTINUOUS
 62
     5
 10
-728.5
 20
-458.0
 30
0.0
 11
-728.5
 21
-383.22909303510011
 31
0.0
  0
LINE
  8
DETAIL
  6
CONTINUOUS
 62
     5
 10
-728.5
 20
-383.22909303510011
 30
0.0
 11
-728.5
 21
-49.0
 31
0.0
  0
LINE
  8
DETAIL
  6
CONTINUOUS
 62
     5
 10
-728.5
 20
-49.0
 30
0.0
 11
-728.5
 21
-48.0
 31
0.0
  0
LINE
  8
DETAIL
  6
CONTINUOUS
 62
     5
 10
-727.69999999999982
 20
-48.800000000000182
 30
0.0
 11
-727.69999999999982
 21
-384.4000000000006
 31
0.0
  0
LINE
  8
DETAIL
  6
CONTINUOUS
 62
     5
 10
-727.5
 20
-384.4000000000006
 30
0.0
 11
-727.5
 21
-385.19999999999982
 31
0.0
  0
LINE
  8
DETAIL
  6
CONTINUOUS
 62
     5
 10
-727.5
 20
-48.800000000000182
 30
0.0
 11
-727.5
 21
-48.0
 31
0.0
  0
LINE
  8
DETAIL
  6
CONTINUOUS
 62
     5
 10
-862.5
 20
-62.0
 30
0.0
 11
-859.5
 21
-59.0
 31
0.0
  0
LINE
  8
DETAIL
  6
CONTINUOUS
 62
     5
 10
-691.5
 20
-458.0
 30
0.0
 11
-691.5
 21
-419.19999999999982
 31
0.0
  0
LINE
  8
DETAIL
  6
CONTINUOUS
 62
     5
 10
-643.5
 20
-458.0
 30
0.0
 11
-643.5
 21
-419.19999999999982
 31
0.0
  0
LINE
  8
DETAIL
  6
CONTINUOUS
 62
     5
 10
-511.5
 20
-458.0
 30
0.0
 11
-511.5
 21
-438.0
 31
0.0
  0
LINE
  8
DETAIL
  6
CONTINUOUS
 62
     5
 10
-463.49999999999989
 20
-458.0
 30
0.0
 11
-463.49999999999989
 21
-438.0
 31
0.0
  0
LINE
  8
DETAIL
  6
CONTINUOUS
 62
     5
 10
60.0
 20
-479.0
 30
0.0
 11
45.0
 21
-479.0
 31
0.0
  0
LINE
  8
DETAIL
  6
CONTINUOUS
 62
     5
 10
-360.0
 20
-479.0
 30
0.0
 11
-375.0
 21
-479.0
 31
0.0
  0
LINE
  8
DETAIL
  6
CONTINUOUS
 62
     5
 10
-780.0
 20
-479.0
 30
0.0
 11
-795.0
 21
-479.0
 31
0.0
  0
LINE
  8
DETAIL
  6
CONTINUOUS
 62
     5
 10
132.5
 20
-477.19999999999982
 30
0.0
 11
107.5
 21
-477.19999999999982
 31
0.0
  0
LINE
  8
DETAIL
  6
CONTINUOUS
 62
     5
 10
563.49999999999989
 20
-476.0
 30
0.0
 11
443.5
 21
-476.0
 31
0.0
  0
LINE
  8
DETAIL
  6
CONTINUOUS
 62
     5
 10
251.89999999999969
 20
-476.0
 30
0.0
 11
132.5
 21
-476.0
 31
0.0
  0
LINE
  8
DETAIL
  6
CONTINUOUS
 62
     5
 10
-838.30000000000018
 20
-476.0
 30
0.0
 11
111.5
 21
-476.0
 31
0.0
  0
LINE
  8
DETAIL
  6
CONTINUOUS
 62
     5
 10
589.10000000000025
 20
-476.0
 30
0.0
 11
842.5
 21
-476.0
 31
0.0
  0
LINE
  8
DETAIL
  6
CONTINUOUS
 62
     5
 10
837.5
 20
-473.0
 30
0.0
 11
836.5
 21
-473.0
 31
0.0
  0
LINE
  8
DETAIL
  6
CONTINUOUS
 62
     5
 10
815.49999999999989
 20
-473.0
 30
0.0
 11
814.49999999999989
 21
-473.0
 31
0.0
  0
LINE
  8
DETAIL
  6
CONTINUOUS
 62
     5
 10
814.49999999999989
 20
-473.0
 30
0.0
 11
588.49999999999989
 21
-473.0
 31
0.0
  0
LINE
  8
DETAIL
  6
CONTINUOUS
 62
     5
 10
588.49999999999989
 20
-473.0
 30
0.0
 11
587.5
 21
-473.0
 31
0.0
  0
LINE
  8
DETAIL
  6
CONTINUOUS
 62
     5
 10
563.49999999999989
 20
-473.0
 30
0.0
 11
443.5
 21
-473.0
 31
0.0
  0
LINE
  8
DETAIL
  6
CONTINUOUS
 62
     5
 10
251.89999999999969
 20
-473.0
 30
0.0
 11
132.5
 21
-473.0
 31
0.0
  0
LINE
  8
DETAIL
  6
CONTINUOUS
 62
     5
 10
251.89999999999969
 20
-473.0
 30
0.0
 11
443.5
 21
-473.0
 31
0.0
  0
LINE
  8
DETAIL
  6
CONTINUOUS
 62
     5
 10
815.49999999999989
 20
-473.0
 30
0.0
 11
836.5
 21
-473.0
 31
0.0
  0
LINE
  8
DETAIL
  6
CONTINUOUS
 62
     5
 10
562.5
 20
-472.19999999999982
 30
0.0
 11
562.69999999999982
 21
-472.19999999999982
 31
0.0
  0
LINE
  8
DETAIL
  6
CONTINUOUS
 62
     5
 10
588.30000000000007
 20
-472.19999999999982
 30
0.0
 11
814.69999999999982
 21
-472.19999999999982
 31
0.0
  0
LINE
  8
DETAIL
  6
CONTINUOUS
 62
     5
 10
815.49999999999989
 20
-472.19999999999982
 30
0.0
 11
836.69999999999993
 21
-472.19999999999982
 31
0.0
  0
LINE
  8
DETAIL
  6
CONTINUOUS
 62
     5
 10
587.5
 20
-472.0
 30
0.0
 11
588.30000000000007
 21
-472.0
 31
0.0
  0
LINE
  8
DETAIL
  6
CONTINUOUS
 62
     5
 10
814.69999999999982
 20
-472.0
 30
0.0
 11
815.49999999999989
 21
-472.0
 31
0.0
  0
LINE
  8
DETAIL
  6
CONTINUOUS
 62
     5
 10
562.5
 20
-469.19999999999982
 30
0.0
 11
562.69999999999982
 21
-469.19999999999982
 31
0.0
  0
LINE
  8
DETAIL
  6
CONTINUOUS
 62
     5
 10
134.89999999999961
 20
-463.0
 30
0.0
 11
496.49999999999989
 21
-463.0
 31
0.0
  0
LINE
  8
DETAIL
  6
CONTINUOUS
 62
     5
 10
496.49999999999989
 20
-463.0
 30
0.0
 11
561.69999999999982
 21
-463.0
 31
0.0
  0
LINE
  8
DETAIL
  6
CONTINUOUS
 62
     5
 10
562.5
 20
-463.0
 30
0.0
 11
567.49999999999989
 21
-463.0
 31
0.0
  0
LINE
  8
DETAIL
  6
CONTINUOUS
 62
     5
 10
563.30000000000007
 20
-458.19999999999982
 30
0.0
 11
561.69999999999982
 21
-458.19999999999982
 31
0.0
  0
LINE
  8
DETAIL
  6
CONTINUOUS
 62
     5
 10
587.5
 20
-458.0
 30
0.0
 11
564.89999999999964
 21
-458.0
 31
0.0
  0
LINE
  8
DETAIL
  6
CONTINUOUS
 62
     5
 10
-842.5
 20
-458.0
 30
0.0
 11
132.5
 21
-458.0
 31
0.0
  0
LINE
  8
DETAIL
  6
CONTINUOUS
 62
     5
 10
563.30000000000007
 20
-457.19999999999982
 30
0.0
 11
587.5
 21
-457.19999999999982
 31
0.0
  0
LINE
  8
DETAIL
  6
CONTINUOUS
 62
     5
 10
-299.90426839300022
 20
-456.78578643760011
 30
0.0
 11
-69.042652378700041
 21
-456.78578643760011
 31
0.0
  0
LINE
  8
DETAIL
  6
CONTINUOUS
 62
     5
 10
-299.90426839300022
 20
-456.19999999999982
 30
0.0
 11
-300.7042683929995
 21
-456.19999999999982
 31
0.0
  0
LINE
  8
DETAIL
  6
CONTINUOUS
 62
     5
 10
-69.042652378700041
 20
-456.19999999999982
 30
0.0
 11
-68.242652378699859
 21
-456.19999999999982
 31
0.0
  0
LINE
  8
DETAIL
  6
CONTINUOUS
 62
     5
 10
709.25419581240021
 20
-448.10000000000031
 30
0.0
 11
724.14580418759931
 21
-448.10000000000031
 31
0.0
  0
LINE
  8
DETAIL
  6
CONTINUOUS
 62
     5
 10
480.99999956979991
 20
-448.0
 30
0.0
 11
442.00000043020009
 21
-448.0
 31
0.0
  0
LINE
  8
DETAIL
  6
CONTINUOUS
 62
     5
 10
410.9999995697998
 20
-448.0
 30
0.0
 11
372.00000043020009
 21
-448.0
 31
0.0
  0
LINE
  8
DETAIL
  6
CONTINUOUS
 62
     5
 10
709.25419581240021
 20
-446.30000000000013
 30
0.0
 11
724.14580418759931
 21
-446.30000000000013
 31
0.0
  0
LINE
  8
DETAIL
  6
CONTINUOUS
 62
     5
 10
154.69999999999979
 20
-443.80000000000013
 30
0.0
 11
148.5
 21
-443.80000000000013
 31
0.0
  0
LINE
  8
DETAIL
  6
CONTINUOUS
 62
     5
 10
495.30000000000018
 20
-443.0
 30
0.0
 11
466.5
 21
-443.0
 31
0.0
  0
LINE
  8
DETAIL
  6
CONTINUOUS
 62
     5
 10
466.5
 20
-443.0
 30
0.0
 11
111.5
 21
-443.0
 31
0.0
  0
LINE
  8
DETAIL
  6
CONTINUOUS
 62
     5
 10
111.5
 20
-442.0
 30
0.0
 11
110.5
 21
-442.0
 31
0.0
  0
LINE
  8
DETAIL
  6
CONTINUOUS
 62
     5
 10
466.5
 20
-442.0
 30
0.0
 11
497.5
 21
-442.0
 31
0.0
  0
LINE
  8
DETAIL
  6
CONTINUOUS
 62
     5
 10
498.30000000000018
 20
-439.0
 30
0.0
 11
497.5
 21
-439.0
 31
0.0
  0
LINE
  8
DETAIL
  6
CONTINUOUS
 62
     5
 10
836.69999999999993
 20
-438.1999999999997
 30
0.0
 11
841.69999999999982
 21
-438.1999999999997
 31
0.0
  0
LINE
  8
DETAIL
  6
CONTINUOUS
 62
     5
 10
561.69999999999982
 20
-438.0
 30
0.0
 11
563.30000000000007
 21
-438.0
 31
0.0
  0
LINE
  8
DETAIL
  6
CONTINUOUS
 62
     5
 10
841.69999999999982
 20
-438.0
 30
0.0
 11
842.5
 21
-438.0
 31
0.0
  0
LINE
  8
DETAIL
  6
CONTINUOUS
 62
     5
 10
466.5
 20
-436.0
 30
0.0
 11
111.5
 21
-436.0
 31
0.0
  0
LINE
  8
DETAIL
  6
CONTINUOUS
 62
     5
 10
477.80355483610032
 20
-435.0
 30
0.0
 11
475.19644516389963
 21
-435.0
 31
0.0
  0
LINE
  8
DETAIL
  6
CONTINUOUS
 62
     5
 10
-375.0
 20
-476.0
 30
0.0
 11
-375.0
 21
-479.0
 31
0.0
  0
LINE
  8
DETAIL
  6
CONTINUOUS
 62
     5
 10
-363.5
 20
-384.4000000000006
 30
0.0
 11
-363.5
 21
-385.19999999999982
 31
0.0
  0
LINE
  8
DETAIL
  6
CONTINUOUS
 62
     5
 10
-363.5
 20
-48.800000000000182
 30
0.0
 11
-363.5
 21
-48.0
 31
0.0
  0
LINE
  8
DETAIL
  6
CONTINUOUS
 62
     5
 10
-363.30000000000018
 20
-384.4000000000006
 30
0.0
 11
-363.30000000000018
 21
-48.800000000000182
 31
0.0
  0
LINE
  8
DETAIL
  6
CONTINUOUS
 62
     5
 10
-362.5
 20
-18.0
 30
0.0
 11
-362.5
 21
-49.970906964799717
 31
0.0
  0
LINE
  8
DETAIL
  6
CONTINUOUS
 62
     5
 10
-362.5
 20
-383.22910751030031
 30
0.0
 11
-362.5
 21
-458.0
 31
0.0
  0
LINE
  8
DETAIL
  6
CONTINUOUS
 62
     5
 10
-362.5
 20
-383.22910751030031
 30
0.0
 11
-362.5
 21
-49.970906964799717
 31
0.0
  0
LINE
  8
DETAIL
  6
CONTINUOUS
 62
     5
 10
-360.0
 20
-476.0
 30
0.0
 11
-360.0
 21
-479.0
 31
0.0
  0
LINE
  8
DETAIL
  6
CONTINUOUS
 62
     5
 10
-341.0
 20
-98.0
 30
0.0
 11
-341.0
 21
-58.0
 31
0.0
  0
LINE
  8
DETAIL
  6
CONTINUOUS
 62
     5
 10
-362.5
 20
-385.19999999999982
 30
0.0
 11
-364.47090696489983
 21
-385.19999999999982
 31
0.0
  0
LINE
  8
DETAIL
  6
CONTINUOUS
 62
     5
 10
-364.47090696489983
 20
-385.19999999999982
 30
0.0
 11
-726.52910751029958
 21
-385.19999999999982
 31
0.0
  0
LINE
  8
DETAIL
  6
CONTINUOUS
 62
     5
 10
-726.52910751029958
 20
-385.19999999999982
 30
0.0
 11
-728.5
 21
-385.19999999999982
 31
0.0
  0
LINE
  8
DETAIL
  6
CONTINUOUS
 62
     5
 10
-727.69999999999982
 20
-384.4000000000006
 30
0.0
 11
-363.30000000000018
 21
-384.4000000000006
 31
0.0
  0
LINE
  8
DETAIL
  6
CONTINUOUS
 62
     5
 10
-727.69999999999982
 20
-384.19999999999982
 30
0.0
 11
-728.5
 21
-384.19999999999982
 31
0.0
  0
LINE
  8
DETAIL
  6
CONTINUOUS
 62
     5
 10
-363.30000000000018
 20
-384.19999999999982
 30
0.0
 11
-362.5
 21
-384.19999999999982
 31
0.0
  0
LINE
  8
DETAIL
  6
CONTINUOUS
 62
     5
 10
-69.042652378700041
 20
-358.19999999999982
 30
0.0
 11
-75.242652378699859
 21
-358.19999999999982
 31
0.0
  0
LINE
  8
DETAIL
  6
CONTINUOUS
 62
     5
 10
-836.69999999999993
 20
-358.19999999999982
 30
0.0
 11
-837.5
 21
-358.19999999999982
 31
0.0
  0
LINE
  8
DETAIL
  6
CONTINUOUS
 62
     5
 10
-299.90426839300022
 20
-358.19999999999982
 30
0.0
 11
-293.70426839299938
 21
-358.19999999999982
 31
0.0
  0
LINE
  8
DETAIL
  6
CONTINUOUS
 62
     5
 10
-836.69999999999993
 20
-358.0
 30
0.0
 11
-842.5
 21
-358.0
 31
0.0
  0
LINE
  8
DETAIL
  6
CONTINUOUS
 62
     5
 10
-842.5
 20
-358.0
 30
0.0
 11
-862.5
 21
-358.0
 31
0.0
  0
LINE
  8
DETAIL
  6
CONTINUOUS
 62
     5
 10
-862.5
 20
-357.19999999999982
 30
0.0
 11
-841.69999999999982
 21
-357.19999999999982
 31
0.0
  0
LINE
  8
DETAIL
  6
CONTINUOUS
 62
     5
 10
-859.5
 20
-357.0
 30
0.0
 11
-841.69999999999982
 21
-357.0
 31
0.0
  0
LINE
  8
DETAIL
  6
CONTINUOUS
 62
     5
 10
-338.30000000000018
 20
-230.0
 30
0.0
 11
-338.30000000000018
 21
-198.50475185669981
 31
0.0
  0
LINE
  8
DETAIL
  6
CONTINUOUS
 62
     5
 10
-338.30000000000018
 20
-187.4952481433001
 30
0.0
 11
-338.30000000000018
 21
-156.0
 31
0.0
  0
LINE
  8
DETAIL
  6
CONTINUOUS
 62
     5
 10
-330.0
 20
-98.0
 30
0.0
 11
-330.0
 21
-87.0
 31
0.0
  0
LINE
  8
DETAIL
  6
CONTINUOUS
 62
     5
 10
-300.7042683929995
 20
-458.0
 30
0.0
 11
-300.7042683929995
 21
-303.0
 31
0.0
  0
LINE
  8
DETAIL
  6
CONTINUOUS
 62
     5
 10
-299.90426839300022
 20
-303.0
 30
0.0
 11
-299.90426839300022
 21
-456.78578643760011
 31
0.0
  0
LINE
  8
DETAIL
  6
CONTINUOUS
 62
     5
 10
-297.0
 20
-58.0
 30
0.0
 11
-297.0
 21
-69.0
 31
0.0
  0
LINE
  8
DETAIL
  6
CONTINUOUS
 62
     5
 10
-286.0
 20
-98.0
 30
0.0
 11
-286.0
 21
-61.0
 31
0.0
  0
LINE
  8
DETAIL
  6
CONTINUOUS
 62
     5
 10
-285.70426839299938
 20
-458.0
 30
0.0
 11
-285.70426839299938
 21
-456.78578643760011
 31
0.0
  0
LINE
  8
DETAIL
  6
CONTINUOUS
 62
     5
 10
-284.7042683929995
 20
-458.0
 30
0.0
 11
-284.7042683929995
 21
-456.78578643760011
 31
0.0
  0
LINE
  8
DETAIL
  6
CONTINUOUS
 62
     5
 10
-283.5
 20
-58.0
 30
0.0
 11
-283.5
 21
-98.0
 31
0.0
  0
LINE
  8
DETAIL
  6
CONTINUOUS
 62
     5
 10
-283.5
 20
-303.0
 30
0.0
 11
-283.5
 21
-98.0
 31
0.0
  0
LINE
  8
DETAIL
  6
CONTINUOUS
 62
     5
 10
-283.5
 20
-58.0
 30
0.0
 11
-283.5
 21
-18.0
 31
0.0
  0
LINE
  8
DETAIL
  6
CONTINUOUS
 62
     5
 10
-282.69999999999982
 20
-38.800000000000182
 30
0.0
 11
-282.69999999999982
 21
-247.19999999999979
 31
0.0
  0
LINE
  8
DETAIL
  6
CONTINUOUS
 62
     5
 10
-282.5
 20
-247.19999999999979
 30
0.0
 11
-282.5
 21
-248.0
 31
0.0
  0
LINE
  8
DETAIL
  6
CONTINUOUS
 62
     5
 10
-282.5
 20
-38.800000000000182
 30
0.0
 11
-282.5
 21
-38.0
 31
0.0
  0
LINE
  8
DETAIL
  6
CONTINUOUS
 62
     5
 10
-69.042652378700041
 20
-346.19999999999982
 30
0.0
 11
-75.242652378699859
 21
-346.19999999999982
 31
0.0
  0
LINE
  8
DETAIL
  6
CONTINUOUS
 62
     5
 10
-299.90426839300022
 20
-346.19999999999982
 30
0.0
 11
-293.70426839299938
 21
-346.19999999999982
 31
0.0
  0
LINE
  8
DETAIL
  6
CONTINUOUS
 62
     5
 10
-363.30000000000018
 20
-341.19999999999982
 30
0.0
 11
-369.5
 21
-341.19999999999982
 31
0.0
  0
LINE
  8
DETAIL
  6
CONTINUOUS
 62
     5
 10
-727.69999999999982
 20
-341.19999999999982
 30
0.0
 11
-721.49999999999989
 21
-341.19999999999982
 31
0.0
  0
LINE
  8
DETAIL
  6
CONTINUOUS
 62
     5
 10
-862.5
 20
-332.19999999999982
 30
0.0
 11
-841.69999999999982
 21
-332.19999999999982
 31
0.0
  0
LINE
  8
DETAIL
  6
CONTINUOUS
 62
     5
 10
-363.30000000000018
 20
-329.19999999999982
 30
0.0
 11
-369.5
 21
-329.19999999999982
 31
0.0
  0
LINE
  8
DETAIL
  6
CONTINUOUS
 62
     5
 10
-727.69999999999982
 20
-329.19999999999982
 30
0.0
 11
-721.49999999999989
 21
-329.19999999999982
 31
0.0
  0
LINE
  8
DETAIL
  6
CONTINUOUS
 62
     5
 10
-300.7042683929995
 20
-303.0
 30
0.0
 11
-252.7654276486
 21
-303.0
 31
0.0
  0
LINE
  8
DETAIL
  6
CONTINUOUS
 62
     5
 10
-214.23457235149999
 20
-303.0
 30
0.0
 11
-196.5619224437996
 21
-303.0
 31
0.0
  0
LINE
  8
DETAIL
  6
CONTINUOUS
 62
     5
 10
-256.5
 20
-306.0
 30
0.0
 11
-256.5
 21
-309.80003735120039
 31
0.0
  0
LINE
  8
DETAIL
  6
CONTINUOUS
 62
     5
 10
-239.5
 20
-38.800000000000182
 30
0.0
 11
-239.5
 21
-45.0
 31
0.0
  0
LINE
  8
DETAIL
  6
CONTINUOUS
 62
     5
 10
-239.5
 20
-247.19999999999979
 30
0.0
 11
-239.5
 21
-241.0
 31
0.0
  0
LINE
  8
DETAIL
  6
CONTINUOUS
 62
     5
 10
-227.5
 20
-38.800000000000182
 30
0.0
 11
-227.5
 21
-45.0
 31
0.0
  0
LINE
  8
DETAIL
  6
CONTINUOUS
 62
     5
 10
-227.5
 20
-247.19999999999979
 30
0.0
 11
-227.5
 21
-241.0
 31
0.0
  0
LINE
  8
DETAIL
  6
CONTINUOUS
 62
     5
 10
-210.5
 20
-309.80003735120039
 30
0.0
 11
-210.5
 21
-306.0
 31
0.0
  0
LINE
  8
DETAIL
  6
CONTINUOUS
 62
     5
 10
-196.5619224437996
 20
-263.0
 30
0.0
 11
-147.3404040744999
 21
-263.0
 31
0.0
  0
LINE
  8
DETAIL
  6
CONTINUOUS
 62
     5
 10
-127.6595959255
 20
-263.0
 30
0.0
 11
-68.242652378699859
 21
-263.0
 31
0.0
  0
LINE
  8
DETAIL
  6
CONTINUOUS
 62
     5
 10
77.5
 20
-248.0
 30
0.0
 11
-283.5
 21
-248.0
 31
0.0
  0
LINE
  8
DETAIL
  6
CONTINUOUS
 62
     5
 10
-282.69999999999982
 20
-247.19999999999979
 30
0.0
 11
76.699999999999818
 21
-247.19999999999979
 31
0.0
  0
LINE
  8
DETAIL
  6
CONTINUOUS
 62
     5
 10
-282.69999999999982
 20
-247.0
 30
0.0
 11
-283.5
 21
-247.0
 31
0.0
  0
LINE
  8
DETAIL
  6
CONTINUOUS
 62
     5
 10
76.699999999999818
 20
-247.0
 30
0.0
 11
77.5
 21
-247.0
 31
0.0
  0
LINE
  8
DETAIL
  6
CONTINUOUS
 62
     5
 10
-362.5
 20
-230.0
 30
0.0
 11
-338.30000000000018
 21
-230.0
 31
0.0
  0
LINE
  8
DETAIL
  6
CONTINUOUS
 62
     5
 10
-338.0
 20
-98.0
 30
0.0
 11
-341.0
 21
-95.0
 31
0.0
  0
LINE
  8
DETAIL
  6
CONTINUOUS
 62
     5
 10
-196.5619224437996
 20
-303.0
 30
0.0
 11
-196.5619224437996
 21
-263.0
 31
0.0
  0
LINE
  8
DETAIL
  6
CONTINUOUS
 62
     5
 10
-152.5
 20
-266.0
 30
0.0
 11
-152.5
 21
-268.15959592550013
 31
0.0
  0
LINE
  8
DETAIL
  6
CONTINUOUS
 62
     5
 10
-338.30000000000018
 20
-204.0
 30
0.0
 11
-343.62897549009989
 21
-204.0
 31
0.0
  0
LINE
  8
DETAIL
  6
CONTINUOUS
 62
     5
 10
-343.62897549009989
 20
-182.0
 30
0.0
 11
-338.30000000000018
 21
-182.0
 31
0.0
  0
LINE
  8
DETAIL
  6
CONTINUOUS
 62
     5
 10
-338.30000000000018
 20
-156.0
 30
0.0
 11
-362.5
 21
-156.0
 31
0.0
  0
LINE
  8
DETAIL
  6
CONTINUOUS
 62
     5
 10
-289.0
 20
-58.0
 30
0.0
 11
-286.0
 21
-61.0
 31
0.0
  0
LINE
  8
DETAIL
  6
CONTINUOUS
 62
     5
 10
-122.5
 20
-266.0
 30
0.0
 11
-122.5
 21
-268.15959592550013
 31
0.0
  0
LINE
  8
DETAIL
  6
CONTINUOUS
 62
     5
 10
-84.242652378699859
 20
-458.0
 30
0.0
 11
-84.242652378699859
 21
-456.78578643760011
 31
0.0
  0
LINE
  8
DETAIL
  6
CONTINUOUS
 62
     5
 10
-83.242652378699844
 20
-458.0
 30
0.0
 11
-83.242652378699844
 21
-456.78578643760011
 31
0.0
  0
LINE
  8
DETAIL
  6
CONTINUOUS
 62
     5
 10
-69.042652378700041
 20
-456.78578643760011
 30
0.0
 11
-69.042652378700041
 21
-263.0
 31
0.0
  0
LINE
  8
DETAIL
  6
CONTINUOUS
 62
     5
 10
-68.242652378699859
 20
-248.0
 30
0.0
 11
-68.242652378699859
 21
-458.0
 31
0.0
  0
LINE
  8
DETAIL
  6
CONTINUOUS
 62
     5
 10
-363.30000000000018
 20
-104.0
 30
0.0
 11
-369.5
 21
-104.0
 31
0.0
  0
LINE
  8
DETAIL
  6
CONTINUOUS
 62
     5
 10
-727.69999999999982
 20
-104.0
 30
0.0
 11
-721.49999999999989
 21
-104.0
 31
0.0
  0
LINE
  8
DETAIL
  6
CONTINUOUS
 62
     5
 10
-341.0
 20
-98.0
 30
0.0
 11
-283.5
 21
-98.0
 31
0.0
  0
LINE
  8
DETAIL
  6
CONTINUOUS
 62
     5
 10
-363.30000000000018
 20
-92.0
 30
0.0
 11
-369.5
 21
-92.0
 31
0.0
  0
LINE
  8
DETAIL
  6
CONTINUOUS
 62
     5
 10
-727.69999999999982
 20
-92.0
 30
0.0
 11
-721.49999999999989
 21
-92.0
 31
0.0
  0
LINE
  8
DETAIL
  6
CONTINUOUS
 62
     5
 10
-330.0
 20
-87.0
 30
0.0
 11
-341.0
 21
-87.0
 31
0.0
  0
LINE
  8
DETAIL
  6
CONTINUOUS
 62
     5
 10
-841.69999999999982
 20
-83.800000000000182
 30
0.0
 11
-862.5
 21
-83.800000000000182
 31
0.0
  0
LINE
  8
DETAIL
  6
CONTINUOUS
 62
     5
 10
498.30000000000018
 20
-77.400000000000546
 30
0.0
 11
497.5
 21
-77.400000000000546
 31
0.0
  0
LINE
  8
DETAIL
  6
CONTINUOUS
 62
     5
 10
496.49999999999989
 20
-77.400000000000546
 30
0.0
 11
497.5
 21
-77.400000000000546
 31
0.0
  0
LINE
  8
DETAIL
  6
CONTINUOUS
 62
     5
 10
497.5
 20
-76.400000000000546
 30
0.0
 11
496.6999999999997
 21
-76.400000000000546
 31
0.0
  0
LINE
  8
DETAIL
  6
CONTINUOUS
 62
     5
 10
109.6999999999998
 20
-76.400000000000546
 30
0.0
 11
110.5
 21
-76.400000000000546
 31
0.0
  0
LINE
  8
DETAIL
  6
CONTINUOUS
 62
     5
 10
-297.0
 20
-69.0
 30
0.0
 11
-286.0
 21
-69.0
 31
0.0
  0
LINE
  8
DETAIL
  6
CONTINUOUS
 62
     5
 10
496.6999999999997
 20
-63.0
 30
0.0
 11
496.49999999999989
 21
-63.0
 31
0.0
  0
LINE
  8
DETAIL
  6
CONTINUOUS
 62
     5
 10
-728.5
 20
-63.0
 30
0.0
 11
-836.69999999999993
 21
-63.0
 31
0.0
  0
LINE
  8
DETAIL
  6
CONTINUOUS
 62
     5
 10
497.5
 20
-63.0
 30
0.0
 11
561.69999999999982
 21
-63.0
 31
0.0
  0
LINE
  8
DETAIL
  6
CONTINUOUS
 62
     5
 10
111.5
 20
-62.400000000000553
 30
0.0
 11
110.5
 21
-62.400000000000553
 31
0.0
  0
LINE
  8
DETAIL
  6
CONTINUOUS
 62
     5
 10
110.6999999999998
 20
-62.199999999999811
 30
0.0
 11
111.5
 21
-62.199999999999811
 31
0.0
  0
LINE
  8
DETAIL
  6
CONTINUOUS
 62
     5
 10
110.6999999999998
 20
-61.400000000000539
 30
0.0
 11
496.49999999999989
 21
-61.400000000000539
 31
0.0
  0
LINE
  8
DETAIL
  6
CONTINUOUS
 62
     5
 10
132.5
 20
-60.600000000000357
 30
0.0
 11
496.30000000000013
 21
-60.600000000000357
 31
0.0
  0
LINE
  8
DETAIL
  6
CONTINUOUS
 62
     5
 10
-841.69999999999982
 20
-59.0
 30
0.0
 11
-859.5
 21
-59.0
 31
0.0
  0
LINE
  8
DETAIL
  6
CONTINUOUS
 62
     5
 10
-841.69999999999982
 20
-58.800000000000182
 30
0.0
 11
-862.5
 21
-58.800000000000182
 31
0.0
  0
LINE
  8
DETAIL
  6
CONTINUOUS
 62
     5
 10
-862.5
 20
-58.0
 30
0.0
 11
-842.5
 21
-58.0
 31
0.0
  0
LINE
  8
DETAIL
  6
CONTINUOUS
 62
     5
 10
-836.69999999999993
 20
-58.0
 30
0.0
 11
-842.5
 21
-58.0
 31
0.0
  0
LINE
  8
DETAIL
  6
CONTINUOUS
 62
     5
 10
-341.0
 20
-58.0
 30
0.0
 11
-283.5
 21
-58.0
 31
0.0
  0
LINE
  8
DETAIL
  6
CONTINUOUS
 62
     5
 10
-837.5
 20
-57.800000000000182
 30
0.0
 11
-836.69999999999993
 21
-57.800000000000182
 31
0.0
  0
LINE
  8
DETAIL
  6
CONTINUOUS
 62
     5
 10
-837.5
 20
-54.800000000000182
 30
0.0
 11
-836.69999999999993
 21
-54.800000000000182
 31
0.0
  0
LINE
  8
DETAIL
  6
CONTINUOUS
 62
     5
 10
-727.69999999999982
 20
-49.0
 30
0.0
 11
-728.5
 21
-49.0
 31
0.0
  0
LINE
  8
DETAIL
  6
CONTINUOUS
 62
     5
 10
-363.30000000000018
 20
-49.0
 30
0.0
 11
-362.5
 21
-49.0
 31
0.0
  0
LINE
  8
DETAIL
  6
CONTINUOUS
 62
     5
 10
-363.30000000000018
 20
-48.800000000000182
 30
0.0
 11
-727.69999999999982
 21
-48.800000000000182
 31
0.0
  0
LINE
  8
DETAIL
  6
CONTINUOUS
 62
     5
 10
-731.5
 20
-48.0
 30
0.0
 11
-726.52909303510023
 21
-48.0
 31
0.0
  0
LINE
  8
DETAIL
  6
CONTINUOUS
 62
     5
 10
-726.52909303510023
 20
-48.0
 30
0.0
 11
-364.47089248970042
 21
-48.0
 31
0.0
  0
LINE
  8
DETAIL
  6
CONTINUOUS
 62
     5
 10
-364.47089248970042
 20
-48.0
 30
0.0
 11
-362.5
 21
-48.0
 31
0.0
  0
LINE
  8
DETAIL
  6
CONTINUOUS
 62
     5
 10
373.0
 20
-42.449999999999818
 30
0.0
 11
372.0
 21
-42.449999999999818
 31
0.0
  0
LINE
  8
DETAIL
  6
CONTINUOUS
 62
     5
 10
374.94999999999982
 20
-40.499999999999993
 30
0.0
 11
373.0
 21
-40.499999999999993
 31
0.0
  0
LINE
  8
DETAIL
  6
CONTINUOUS
 62
     5
 10
372.0
 20
-40.499999999999993
 30
0.0
 11
370.05000000000018
 21
-40.499999999999993
 31
0.0
  0
LINE
  8
DETAIL
  6
CONTINUOUS
 62
     5
 10
370.05000000000018
 20
-39.5
 30
0.0
 11
372.0
 21
-39.5
 31
0.0
  0
LINE
  8
DETAIL
  6
CONTINUOUS
 62
     5
 10
373.0
 20
-39.5
 30
0.0
 11
374.94999999999982
 21
-39.5
 31
0.0
  0
LINE
  8
DETAIL
  6
CONTINUOUS
 62
     5
 10
-282.69999999999982
 20
-39.0
 30
0.0
 11
-283.5
 21
-39.0
 31
0.0
  0
LINE
  8
DETAIL
  6
CONTINUOUS
 62
     5
 10
76.699999999999818
 20
-39.0
 30
0.0
 11
77.5
 21
-39.0
 31
0.0
  0
LINE
  8
DETAIL
  6
CONTINUOUS
 62
     5
 10
76.699999999999818
 20
-38.800000000000182
 30
0.0
 11
-282.69999999999982
 21
-38.800000000000182
 31
0.0
  0
LINE
  8
DETAIL
  6
CONTINUOUS
 62
     5
 10
836.69999999999993
 20
-38.800000000000182
 30
0.0
 11
841.69999999999982
 21
-38.800000000000182
 31
0.0
  0
LINE
  8
DETAIL
  6
CONTINUOUS
 62
     5
 10
-831.89999999999975
 20
-38.0
 30
0.0
 11
-834.19999999999982
 21
-38.0
 31
0.0
  0
LINE
  8
DETAIL
  6
CONTINUOUS
 62
     5
 10
-283.5
 20
-38.0
 30
0.0
 11
77.5
 21
-38.0
 31
0.0
  0
LINE
  8
DETAIL
  6
CONTINUOUS
 62
     5
 10
556.69999999999982
 20
-38.0
 30
0.0
 11
559.1999999999997
 21
-38.0
 31
0.0
  0
LINE
  8
DETAIL
  6
CONTINUOUS
 62
     5
 10
841.69999999999982
 20
-37.800000000000182
 30
0.0
 11
837.09429404880029
 21
-37.800000000000182
 31
0.0
  0
LINE
  8
DETAIL
  6
CONTINUOUS
 62
     5
 10
372.0
 20
-37.550000000000182
 30
0.0
 11
373.0
 21
-37.550000000000182
 31
0.0
  0
LINE
  8
DETAIL
  6
CONTINUOUS
 62
     5
 10
561.69999999999982
 20
-37.0
 30
0.0
 11
563.30000000000007
 21
-37.0
 31
0.0
  0
LINE
  8
DETAIL
  6
CONTINUOUS
 62
     5
 10
836.69999999999993
 20
-37.0
 30
0.0
 11
842.5
 21
-37.0
 31
0.0
  0
LINE
  8
DETAIL
  6
CONTINUOUS
 62
     5
 10
561.5
 20
-35.0
 30
0.0
 11
559.1999999999997
 21
-35.0
 31
0.0
  0
LINE
  8
DETAIL
  6
CONTINUOUS
 62
     5
 10
-836.5
 20
-35.0
 30
0.0
 11
-834.19999999999982
 21
-35.0
 31
0.0
  0
LINE
  8
DETAIL
  6
CONTINUOUS
 62
     5
 10
-831.0
 20
-35.0
 30
0.0
 11
-815.49999999999989
 21
-35.0
 31
0.0
  0
LINE
  8
DETAIL
  6
CONTINUOUS
 62
     5
 10
-797.5
 20
-35.0
 30
0.0
 11
-734.49999999999989
 21
-35.0
 31
0.0
  0
LINE
  8
DETAIL
  6
CONTINUOUS
 62
     5
 10
459.49999999999989
 20
-35.0
 30
0.0
 11
522.5
 21
-35.0
 31
0.0
  0
LINE
  8
DETAIL
  6
CONTINUOUS
 62
     5
 10
540.5
 20
-35.0
 30
0.0
 11
556.0
 21
-35.0
 31
0.0
  0
LINE
  8
DETAIL
  6
CONTINUOUS
 62
     5
 10
562.5
 20
-34.0
 30
0.0
 11
561.69999999999982
 21
-34.0
 31
0.0
  0
LINE
  8
DETAIL
  6
CONTINUOUS
 62
     5
 10
133.5
 20
-33.0
 30
0.0
 11
427.5
 21
-33.0
 31
0.0
  0
LINE
  8
DETAIL
  6
CONTINUOUS
 62
     5
 10
709.25419581240021
 20
-29.699999999999822
 30
0.0
 11
724.14580418759931
 21
-29.699999999999822
 31
0.0
  0
LINE
  8
DETAIL
  6
CONTINUOUS
 62
     5
 10
709.25419581240021
 20
-27.900000000000549
 30
0.0
 11
724.14580418759931
 21
-27.900000000000549
 31
0.0
  0
LINE
  8
DETAIL
  6
CONTINUOUS
 62
     5
 10
537.5
 20
-25.300000000000178
 30
0.0
 11
525.49999999999989
 21
-25.300000000000178
 31
0.0
  0
LINE
  8
DETAIL
  6
CONTINUOUS
 62
     5
 10
-800.5
 20
-25.300000000000178
 30
0.0
 11
-812.5
 21
-25.300000000000178
 31
0.0
  0
LINE
  8
DETAIL
  6
CONTINUOUS
 62
     5
 10
559.0
 20
-23.0
 30
0.0
 11
456.5
 21
-23.0
 31
0.0
  0
LINE
  8
DETAIL
  6
CONTINUOUS
 62
     5
 10
-731.5
 20
-23.0
 30
0.0
 11
-834.0
 21
-23.0
 31
0.0
  0
LINE
  8
DETAIL
  6
CONTINUOUS
 62
     5
 10
132.5
 20
-18.0
 30
0.0
 11
-842.5
 21
-18.0
 31
0.0
  0
LINE
  8
DETAIL
  6
CONTINUOUS
 62
     5
 10
156.5
 20
-18.0
 30
0.0
 11
561.5
 21
-18.0
 31
0.0
  0
LINE
  8
DETAIL
  6
CONTINUOUS
 62
     5
 10
561.5
 20
-5.6000000000003629
 30
0.0
 11
561.69999999999982
 21
-5.6000000000003629
 31
0.0
  0
LINE
  8
DETAIL
  6
CONTINUOUS
 62
     5
 10
815.49999999999989
 20
-4.0
 30
0.0
 11
814.69999999999982
 21
-4.0
 31
0.0
  0
LINE
  8
DETAIL
  6
CONTINUOUS
 62
     5
 10
588.30000000000007
 20
-4.0
 30
0.0
 11
587.5
 21
-4.0
 31
0.0
  0
LINE
  8
DETAIL
  6
CONTINUOUS
 62
     5
 10
836.69999999999993
 20
-3.800000000000181
 30
0.0
 11
815.49999999999989
 21
-3.800000000000181
 31
0.0
  0
LINE
  8
DETAIL
  6
CONTINUOUS
 62
     5
 10
814.69999999999982
 20
-3.800000000000181
 30
0.0
 11
588.30000000000007
 21
-3.800000000000181
 31
0.0
  0
LINE
  8
DETAIL
  6
CONTINUOUS
 62
     5
 10
587.5
 20
-3.800000000000181
 30
0.0
 11
563.30000000000007
 21
-3.800000000000181
 31
0.0
  0
LINE
  8
DETAIL
  6
CONTINUOUS
 62
     5
 10
132.30000000000021
 20
-3.800000000000181
 30
0.0
 11
153.5
 21
-3.800000000000181
 31
0.0
  0
LINE
  8
DETAIL
  6
CONTINUOUS
 62
     5
 10
-721.09574545649946
 20
-3.0
 30
0.0
 11
-713.90425454350043
 21
-3.0
 31
0.0
  0
LINE
  8
DETAIL
  6
CONTINUOUS
 62
     5
 10
-421.09574545649951
 20
-3.0
 30
0.0
 11
-413.90425454350037
 21
-3.0
 31
0.0
  0
LINE
  8
DETAIL
  6
CONTINUOUS
 62
     5
 10
-121.0957454564995
 20
-3.0
 30
0.0
 11
-113.9042545435004
 21
-3.0
 31
0.0
  0
LINE
  8
DETAIL
  6
CONTINUOUS
 62
     5
 10
132.30000000000021
 20
-3.0
 30
0.0
 11
151.69999999999979
 21
-3.0
 31
0.0
  0
LINE
  8
DETAIL
  6
CONTINUOUS
 62
     5
 10
153.5
 20
-3.0
 30
0.0
 11
563.49999999999989
 21
-3.0
 31
0.0
  0
LINE
  8
DETAIL
  6
CONTINUOUS
 62
     5
 10
563.49999999999989
 20
-3.0
 30
0.0
 11
587.5
 21
-3.0
 31
0.0
  0
LINE
  8
DETAIL
  6
CONTINUOUS
 62
     5
 10
587.5
 20
-3.0
 30
0.0
 11
588.49999999999989
 21
-3.0
 31
0.0
  0
LINE
  8
DETAIL
  6
CONTINUOUS
 62
     5
 10
588.49999999999989
 20
-3.0
 30
0.0
 11
814.49999999999989
 21
-3.0
 31
0.0
  0
LINE
  8
DETAIL
  6
CONTINUOUS
 62
     5
 10
814.49999999999989
 20
-3.0
 30
0.0
 11
815.49999999999989
 21
-3.0
 31
0.0
  0
LINE
  8
DETAIL
  6
CONTINUOUS
 62
     5
 10
815.49999999999989
 20
-3.0
 30
0.0
 11
836.5
 21
-3.0
 31
0.0
  0
LINE
  8
DETAIL
  6
CONTINUOUS
 62
     5
 10
836.5
 20
-3.0
 30
0.0
 11
837.5
 21
-3.0
 31
0.0
  0
LINE
  8
DETAIL
  6
CONTINUOUS
 62
     5
 10
-842.5
 20
0.0
 30
0.0
 11
133.3000000000001
 21
0.0
 31
0.0
  0
LINE
  8
DETAIL
  6
CONTINUOUS
 62
     5
 10
153.5
 20
0.0
 30
0.0
 11
842.5
 21
0.0
 31
0.0
  0
LINE
  8
DETAIL
  6
CONTINUOUS
 62
     5
 10
501.79854528129988
 20
-271.58527295830032
 30
0.0
 11
498.30000000000018
 21
-270.35239679920051
 31
0.0
  0
LINE
  8
DETAIL
  6
CONTINUOUS
 62
     5
 10
21.5
 20
-38.800000000000182
 30
0.0
 11
21.5
 21
-45.0
 31
0.0
  0
LINE
  8
DETAIL
  6
CONTINUOUS
 62
     5
 10
21.5
 20
-247.19999999999979
 30
0.0
 11
21.5
 21
-241.0
 31
0.0
  0
LINE
  8
DETAIL
  6
CONTINUOUS
 62
     5
 10
33.5
 20
-38.800000000000182
 30
0.0
 11
33.5
 21
-45.0
 31
0.0
  0
LINE
  8
DETAIL
  6
CONTINUOUS
 62
     5
 10
33.5
 20
-247.19999999999979
 30
0.0
 11
33.5
 21
-241.0
 31
0.0
  0
LINE
  8
DETAIL
  6
CONTINUOUS
 62
     5
 10
45.0
 20
-476.0
 30
0.0
 11
45.0
 21
-479.0
 31
0.0
  0
LINE
  8
DETAIL
  6
CONTINUOUS
 62
     5
 10
60.0
 20
-476.0
 30
0.0
 11
60.0
 21
-479.0
 31
0.0
  0
LINE
  8
DETAIL
  6
CONTINUOUS
 62
     5
 10
76.5
 20
-247.19999999999979
 30
0.0
 11
76.5
 21
-248.0
 31
0.0
  0
LINE
  8
DETAIL
  6
CONTINUOUS
 62
     5
 10
76.5
 20
-38.800000000000182
 30
0.0
 11
76.5
 21
-38.0
 31
0.0
  0
LINE
  8
DETAIL
  6
CONTINUOUS
 62
     5
 10
76.699999999999818
 20
-247.19999999999979
 30
0.0
 11
76.699999999999818
 21
-38.800000000000182
 31
0.0
  0
LINE
  8
DETAIL
  6
CONTINUOUS
 62
     5
 10
77.5
 20
-18.0
 30
0.0
 11
77.5
 21
-458.0
 31
0.0
  0
LINE
  8
DETAIL
  6
CONTINUOUS
 62
     5
 10
107.5
 20
-477.19999999999982
 30
0.0
 11
107.5
 21
-476.0
 31
0.0
  0
LINE
  8
DETAIL
  6
CONTINUOUS
 62
     5
 10
109.6999999999998
 20
-76.400000000000546
 30
0.0
 11
109.6999999999998
 21
-62.400000000000553
 31
0.0
  0
LINE
  8
DETAIL
  6
CONTINUOUS
 62
     5
 10
110.5
 20
-442.0
 30
0.0
 11
110.5
 21
-62.400000000000553
 31
0.0
  0
LINE
  8
DETAIL
  6
CONTINUOUS
 62
     5
 10
111.5
 20
-436.0
 30
0.0
 11
111.5
 21
-443.0
 31
0.0
  0
LINE
  8
DETAIL
  6
CONTINUOUS
 62
     5
 10
111.5
 20
-476.0
 30
0.0
 11
111.5
 21
-458.0
 31
0.0
  0
LINE
  8
DETAIL
  6
CONTINUOUS
 62
     5
 10
111.5
 20
-62.400000000000553
 30
0.0
 11
111.5
 21
-61.400000000000539
 31
0.0
  0
LINE
  8
DETAIL
  6
CONTINUOUS
 62
     5
 10
132.30000000000021
 20
-18.0
 30
0.0
 11
132.30000000000021
 21
0.0
 31
0.0
  0
LINE
  8
DETAIL
  6
CONTINUOUS
 62
     5
 10
132.5
 20
-477.19999999999982
 30
0.0
 11
132.5
 21
-443.0
 31
0.0
  0
LINE
  8
DETAIL
  6
CONTINUOUS
 62
     5
 10
132.5
 20
-61.400000000000539
 30
0.0
 11
132.5
 21
-18.0
 31
0.0
  0
LINE
  8
DETAIL
  6
CONTINUOUS
 62
     5
 10
133.3000000000001
 20
-3.800000000000181
 30
0.0
 11
133.3000000000001
 21
0.0
 31
0.0
  0
LINE
  8
DETAIL
  6
CONTINUOUS
 62
     5
 10
148.5
 20
-443.80000000000013
 30
0.0
 11
148.5
 21
-443.0
 31
0.0
  0
LINE
  8
DETAIL
  6
CONTINUOUS
 62
     5
 10
151.69999999999979
 20
-3.0
 30
0.0
 11
151.69999999999979
 21
-3.800000000000181
 31
0.0
  0
LINE
  8
DETAIL
  6
CONTINUOUS
 62
     5
 10
153.5
 20
-15.0
 30
0.0
 11
153.5
 21
-3.0
 31
0.0
  0
LINE
  8
DETAIL
  6
CONTINUOUS
 62
     5
 10
153.5
 20
-3.0
 30
0.0
 11
153.5
 21
0.0
 31
0.0
  0
LINE
  8
DETAIL
  6
CONTINUOUS
 62
     5
 10
501.79854528129988
 20
-274.41472704169979
 30
0.0
 11
498.30000000000018
 21
-275.6476032008004
 31
0.0
  0
LINE
  8
DETAIL
  6
CONTINUOUS
 62
     5
 10
153.5
 20
-15.0
 30
0.0
 11
156.5
 21
-18.0
 31
0.0
  0
LINE
  8
DETAIL
  6
CONTINUOUS
 62
     5
 10
251.89999999999969
 20
-473.0
 30
0.0
 11
251.89999999999969
 21
-476.0
 31
0.0
  0
LINE
  8
DETAIL
  6
CONTINUOUS
 62
     5
 10
370.0
 20
-446.0
 30
0.0
 11
370.0
 21
-443.0
 31
0.0
  0
LINE
  8
DETAIL
  6
CONTINUOUS
 62
     5
 10
370.05000000000018
 20
-40.499999999999993
 30
0.0
 11
370.05000000000018
 21
-39.5
 31
0.0
  0
LINE
  8
DETAIL
  6
CONTINUOUS
 62
     5
 10
372.0
 20
-42.449999999999818
 30
0.0
 11
372.0
 21
-40.499999999999993
 31
0.0
  0
LINE
  8
DETAIL
  6
CONTINUOUS
 62
     5
 10
372.0
 20
-39.5
 30
0.0
 11
372.0
 21
-37.550000000000182
 31
0.0
  0
LINE
  8
DETAIL
  6
CONTINUOUS
 62
     5
 10
373.0
 20
-37.550000000000182
 30
0.0
 11
373.0
 21
-39.5
 31
0.0
  0
LINE
  8
DETAIL
  6
CONTINUOUS
 62
     5
 10
373.0
 20
-40.499999999999993
 30
0.0
 11
373.0
 21
-42.449999999999818
 31
0.0
  0
LINE
  8
DETAIL
  6
CONTINUOUS
 62
     5
 10
374.94999999999982
 20
-39.5
 30
0.0
 11
374.94999999999982
 21
-40.499999999999993
 31
0.0
  0
LINE
  8
DETAIL
  6
CONTINUOUS
 62
     5
 10
413.0
 20
-446.0
 30
0.0
 11
413.0
 21
-443.0
 31
0.0
  0
LINE
  8
DETAIL
  6
CONTINUOUS
 62
     5
 10
430.49999999999989
 20
-60.600000000000357
 30
0.0
 11
430.49999999999989
 21
-36.0
 31
0.0
  0
LINE
  8
DETAIL
  6
CONTINUOUS
 62
     5
 10
440.0
 20
-446.0
 30
0.0
 11
440.0
 21
-443.0
 31
0.0
  0
LINE
  8
DETAIL
  6
CONTINUOUS
 62
     5
 10
443.5
 20
-473.0
 30
0.0
 11
443.5
 21
-476.0
 31
0.0
  0
LINE
  8
DETAIL
  6
CONTINUOUS
 62
     5
 10
456.5
 20
-60.0
 30
0.0
 11
456.5
 21
-32.0
 31
0.0
  0
LINE
  8
DETAIL
  6
CONTINUOUS
 62
     5
 10
456.5
 20
-32.0
 30
0.0
 11
456.5
 21
-23.0
 31
0.0
  0
LINE
  8
DETAIL
  6
CONTINUOUS
 62
     5
 10
466.5
 20
-436.0
 30
0.0
 11
466.5
 21
-443.0
 31
0.0
  0
LINE
  8
DETAIL
  6
CONTINUOUS
 62
     5
 10
483.0
 20
-446.0
 30
0.0
 11
483.0
 21
-443.0
 31
0.0
  0
LINE
  8
DETAIL
  6
CONTINUOUS
 62
     5
 10
495.30000000000018
 20
-443.0
 30
0.0
 11
495.30000000000018
 21
-442.0
 31
0.0
  0
LINE
  8
DETAIL
  6
CONTINUOUS
 62
     5
 10
496.30000000000013
 20
-60.600000000000357
 30
0.0
 11
496.30000000000013
 21
-61.400000000000539
 31
0.0
  0
LINE
  8
DETAIL
  6
CONTINUOUS
 62
     5
 10
496.49999999999989
 20
-442.0
 30
0.0
 11
496.49999999999989
 21
-463.0
 31
0.0
  0
LINE
  8
DETAIL
  6
CONTINUOUS
 62
     5
 10
496.49999999999989
 20
-77.400000000000546
 30
0.0
 11
496.49999999999989
 21
-61.400000000000539
 31
0.0
  0
LINE
  8
DETAIL
  6
CONTINUOUS
 62
     5
 10
496.6999999999997
 20
-62.400000000000553
 30
0.0
 11
496.6999999999997
 21
-76.400000000000546
 31
0.0
  0
LINE
  8
DETAIL
  6
CONTINUOUS
 62
     5
 10
497.5
 20
-62.400000000000553
 30
0.0
 11
497.5
 21
-76.400000000000546
 31
0.0
  0
LINE
  8
DETAIL
  6
CONTINUOUS
 62
     5
 10
497.5
 20
-77.400000000000546
 30
0.0
 11
497.5
 21
-442.0
 31
0.0
  0
LINE
  8
DETAIL
  6
CONTINUOUS
 62
     5
 10
498.30000000000018
 20
-439.0
 30
0.0
 11
498.30000000000018
 21
-77.400000000000546
 31
0.0
  0
LINE
  8
DETAIL
  6
CONTINUOUS
 62
     5
 10
525.49999999999989
 20
-32.0
 30
0.0
 11
525.49999999999989
 21
-23.0
 31
0.0
  0
LINE
  8
DETAIL
  6
CONTINUOUS
 62
     5
 10
537.5
 20
-32.0
 30
0.0
 11
537.5
 21
-23.0
 31
0.0
  0
LINE
  8
DETAIL
  6
CONTINUOUS
 62
     5
 10
556.69999999999982
 20
-34.912505957199748
 30
0.0
 11
556.69999999999982
 21
-38.0
 31
0.0
  0
LINE
  8
DETAIL
  6
CONTINUOUS
 62
     5
 10
556.89999999999964
 20
-63.0
 30
0.0
 11
556.89999999999964
 21
-38.0
 31
0.0
  0
LINE
  8
DETAIL
  6
CONTINUOUS
 62
     5
 10
559.0
 20
-32.0
 30
0.0
 11
559.0
 21
-23.0
 31
0.0
  0
LINE
  8
DETAIL
  6
CONTINUOUS
 62
     5
 10
559.1999999999997
 20
-25.5
 30
0.0
 11
559.1999999999997
 21
-63.0
 31
0.0
  0
LINE
  8
DETAIL
  6
CONTINUOUS
 62
     5
 10
561.5
 20
-25.5
 30
0.0
 11
561.5
 21
-63.0
 31
0.0
  0
LINE
  8
DETAIL
  6
CONTINUOUS
 62
     5
 10
561.5
 20
-18.0
 30
0.0
 11
561.5
 21
-3.0
 31
0.0
  0
LINE
  8
DETAIL
  6
CONTINUOUS
 62
     5
 10
561.69999999999982
 20
-4.0
 30
0.0
 11
561.69999999999982
 21
-35.600000000000357
 31
0.0
  0
LINE
  8
DETAIL
  6
CONTINUOUS
 62
     5
 10
561.69999999999982
 20
-35.600000000000357
 30
0.0
 11
561.69999999999982
 21
-37.0
 31
0.0
  0
LINE
  8
DETAIL
  6
CONTINUOUS
 62
     5
 10
561.69999999999982
 20
-463.96847721910029
 30
0.0
 11
561.69999999999982
 21
-37.0
 31
0.0
  0
LINE
  8
DETAIL
  6
CONTINUOUS
 62
     5
 10
562.5
 20
-34.800000000000182
 30
0.0
 11
562.5
 21
-37.0
 31
0.0
  0
LINE
  8
DETAIL
  6
CONTINUOUS
 62
     5
 10
562.5
 20
-473.0
 30
0.0
 11
562.5
 21
-458.19999999999982
 31
0.0
  0
LINE
  8
DETAIL
  6
CONTINUOUS
 62
     5
 10
562.5
 20
-34.800000000000182
 30
0.0
 11
562.5
 21
-4.0
 31
0.0
  0
LINE
  8
DETAIL
  6
CONTINUOUS
 62
     5
 10
562.5
 20
-4.0
 30
0.0
 11
562.5
 21
0.0
 31
0.0
  0
LINE
  8
DETAIL
  6
CONTINUOUS
 62
     5
 10
562.69999999999982
 20
-472.19999999999982
 30
0.0
 11
562.69999999999982
 21
-463.0
 31
0.0
  0
LINE
  8
DETAIL
  6
CONTINUOUS
 62
     5
 10
563.30000000000007
 20
-458.19999999999982
 30
0.0
 11
563.30000000000007
 21
-3.800000000000181
 31
0.0
  0
LINE
  8
DETAIL
  6
CONTINUOUS
 62
     5
 10
563.49999999999989
 20
-473.0
 30
0.0
 11
563.49999999999989
 21
-476.0
 31
0.0
  0
LINE
  8
DETAIL
  6
CONTINUOUS
 62
     5
 10
563.49999999999989
 20
-472.0
 30
0.0
 11
563.49999999999989
 21
-463.0
 31
0.0
  0
LINE
  8
DETAIL
  6
CONTINUOUS
 62
     5
 10
564.89999999999964
 20
-457.19999999999982
 30
0.0
 11
564.89999999999964
 21
-458.0
 31
0.0
  0
LINE
  8
DETAIL
  6
CONTINUOUS
 62
     5
 10
567.49999999999989
 20
0.0
 30
0.0
 11
567.49999999999989
 21
-3.800000000000181
 31
0.0
  0
LINE
  8
DETAIL
  6
CONTINUOUS
 62
     5
 10
567.49999999999989
 20
-458.0
 30
0.0
 11
567.49999999999989
 21
-463.0
 31
0.0
  0
LINE
  8
DETAIL
  6
CONTINUOUS
 62
     5
 10
572.5
 20
-3.0
 30
0.0
 11
572.5
 21
0.0
 31
0.0
  0
LINE
  8
DETAIL
  6
CONTINUOUS
 62
     5
 10
582.5
 20
-3.0
 30
0.0
 11
582.5
 21
0.0
 31
0.0
  0
LINE
  8
DETAIL
  6
CONTINUOUS
 62
     5
 10
587.5
 20
-473.0
 30
0.0
 11
587.5
 21
-472.0
 31
0.0
  0
LINE
  8
DETAIL
  6
CONTINUOUS
 62
     5
 10
587.5
 20
-472.0
 30
0.0
 11
587.5
 21
-4.0
 31
0.0
  0
LINE
  8
DETAIL
  6
CONTINUOUS
 62
     5
 10
587.5
 20
-4.0
 30
0.0
 11
587.5
 21
-3.0
 31
0.0
  0
LINE
  8
DETAIL
  6
CONTINUOUS
 62
     5
 10
588.30000000000007
 20
-3.800000000000181
 30
0.0
 11
588.30000000000007
 21
-472.19999999999982
 31
0.0
  0
LINE
  8
DETAIL
  6
CONTINUOUS
 62
     5
 10
588.49999999999989
 20
-3.0
 30
0.0
 11
588.49999999999989
 21
-3.800000000000181
 31
0.0
  0
LINE
  8
DETAIL
  6
CONTINUOUS
 62
     5
 10
588.49999999999989
 20
-472.19999999999982
 30
0.0
 11
588.49999999999989
 21
-473.0
 31
0.0
  0
LINE
  8
DETAIL
  6
CONTINUOUS
 62
     5
 10
589.10000000000025
 20
-473.0
 30
0.0
 11
589.10000000000025
 21
-476.0
 31
0.0
  0
LINE
  8
DETAIL
  6
CONTINUOUS
 62
     5
 10
599.10000000000036
 20
-473.0
 30
0.0
 11
599.10000000000036
 21
-476.0
 31
0.0
  0
LINE
  8
DETAIL
  6
CONTINUOUS
 62
     5
 10
609.10000000000025
 20
-473.0
 30
0.0
 11
609.10000000000025
 21
-476.0
 31
0.0
  0
LINE
  8
DETAIL
  6
CONTINUOUS
 62
     5
 10
814.49999999999989
 20
-473.0
 30
0.0
 11
814.49999999999989
 21
-472.19999999999982
 31
0.0
  0
LINE
  8
DETAIL
  6
CONTINUOUS
 62
     5
 10
814.49999999999989
 20
-3.800000000000181
 30
0.0
 11
814.49999999999989
 21
-3.0
 31
0.0
  0
LINE
  8
DETAIL
  6
CONTINUOUS
 62
     5
 10
814.69999999999982
 20
-472.19999999999982
 30
0.0
 11
814.69999999999982
 21
-3.800000000000181
 31
0.0
  0
LINE
  8
DETAIL
  6
CONTINUOUS
 62
     5
 10
815.49999999999989
 20
-3.0
 30
0.0
 11
815.49999999999989
 21
-4.0
 31
0.0
  0
LINE
  8
DETAIL
  6
CONTINUOUS
 62
     5
 10
815.49999999999989
 20
-4.0
 30
0.0
 11
815.49999999999989
 21
-472.0
 31
0.0
  0
LINE
  8
DETAIL
  6
CONTINUOUS
 62
     5
 10
815.49999999999989
 20
-472.0
 30
0.0
 11
815.49999999999989
 21
-473.0
 31
0.0
  0
LINE
  8
DETAIL
  6
CONTINUOUS
 62
     5
 10
817.5
 20
-473.0
 30
0.0
 11
817.5
 21
-476.0
 31
0.0
  0
LINE
  8
DETAIL
  6
CONTINUOUS
 62
     5
 10
817.5
 20
-3.0
 30
0.0
 11
817.5
 21
0.0
 31
0.0
  0
LINE
  8
DETAIL
  6
CONTINUOUS
 62
     5
 10
827.5
 20
-473.0
 30
0.0
 11
827.5
 21
-476.0
 31
0.0
  0
LINE
  8
DETAIL
  6
CONTINUOUS
 62
     5
 10
827.5
 20
-3.0
 30
0.0
 11
827.5
 21
0.0
 31
0.0
  0
LINE
  8
DETAIL
  6
CONTINUOUS
 62
     5
 10
836.69999999999993
 20
-472.19999999999982
 30
0.0
 11
836.69999999999993
 21
-3.800000000000181
 31
0.0
  0
LINE
  8
DETAIL
  6
CONTINUOUS
 62
     5
 10
837.5
 20
0.0
 30
0.0
 11
837.5
 21
-4.0
 31
0.0
  0
LINE
  8
DETAIL
  6
CONTINUOUS
 62
     5
 10
837.5
 20
-4.0
 30
0.0
 11
837.5
 21
-34.0
 31
0.0
  0
LINE
  8
DETAIL
  6
CONTINUOUS
 62
     5
 10
837.5
 20
-34.0
 30
0.0
 11
837.5
 21
-37.0
 31
0.0
  0
LINE
  8
DETAIL
  6
CONTINUOUS
 62
     5
 10
837.5
 20
-438.1999999999997
 30
0.0
 11
837.5
 21
-441.0
 31
0.0
  0
LINE
  8
DETAIL
  6
CONTINUOUS
 62
     5
 10
837.5
 20
-472.0
 30
0.0
 11
837.5
 21
-476.0
 31
0.0
  0
LINE
  8
DETAIL
  6
CONTINUOUS
 62
     5
 10
837.5
 20
-472.0
 30
0.0
 11
837.5
 21
-441.0
 31
0.0
  0
LINE
  8
DETAIL
  6
CONTINUOUS
 62
     5
 10
841.69999999999982
 20
-37.800000000000182
 30
0.0
 11
841.69999999999982
 21
-438.1999999999997
 31
0.0
  0
LINE
  8
DETAIL
  6
CONTINUOUS
 62
     5
 10
842.5
 20
0.0
 30
0.0
 11
842.5
 21
-37.0
 31
0.0
  0
LINE
  8
DETAIL
  6
CONTINUOUS
 62
     5
 10
842.5
 20
-438.0
 30
0.0
 11
842.5
 21
-476.0
 31
0.0
  0
CIRCLE
  8
DETAIL
  6
CONTINUOUS
 62
     5
 10
372.5
 20
-40.0
 30
0.0
 40
4.75
  0
CIRCLE
  8
DETAIL
  6
CONTINUOUS
 62
     5
 10
-796.49999999999989
 20
-54.0
 30
0.0
 40
2.5
  0
CIRCLE
  8
DETAIL
  6
CONTINUOUS
 62
     5
 10
-766.5
 20
-54.0
 30
0.0
 40
2.5
  0
CIRCLE
  8
DETAIL
  6
CONTINUOUS
 62
     5
 10
-741.5
 20
-43.0
 30
0.0
 40
2.5
  0
CIRCLE
  8
DETAIL
  6
CONTINUOUS
 62
     5
 10
-821.49999999999989
 20
-43.0
 30
0.0
 40
2.5
  0
CIRCLE
  8
DETAIL
  6
CONTINUOUS
 62
     5
 10
546.49999999999989
 20
-43.0
 30
0.0
 40
2.5
  0
CIRCLE
  8
DETAIL
  6
CONTINUOUS
 62
     5
 10
521.49999999999989
 20
-54.0
 30
0.0
 40
2.5
  0
CIRCLE
  8
DETAIL
  6
CONTINUOUS
 62
     5
 10
491.5
 20
-54.0
 30
0.0
 40
2.5
  0
CIRCLE
  8
DETAIL
  6
CONTINUOUS
 62
     5
 10
466.5
 20
-43.0
 30
0.0
 40
2.5
  0
ARC
  8
DETAIL
  6
CONTINUOUS
 62
     5
 10
501.30000000000013
 20
-273.0
 30
0.0
 40
1.500000000000141
 50
289.41229452210757
 51
70.587705477892442
  0
CIRCLE
  8
DETAIL
  6
CONTINUOUS
 62
     5
 10
716.69999999999982
 20
-28.800000000000178
 30
0.0
 40
7.5
  0
ARC
  8
DETAIL
  6
CONTINUOUS
 62
     5
 10
716.69999999999982
 20
-28.800000000000178
 30
0.0
 40
6.9999999999998952
 50
7.3870484363016704
 51
172.61295156369829
  0
ARC
  8
DETAIL
  6
CONTINUOUS
 62
     5
 10
716.69999999999982
 20
-28.800000000000178
 30
0.0
 40
6.9999999999998952
 50
187.3870484363016
 51
352.61295156369829
  0
CIRCLE
  8
DETAIL
  6
CONTINUOUS
 62
     5
 10
716.69999999999982
 20
-447.19999999999982
 30
0.0
 40
7.5
  0
ARC
  8
DETAIL
  6
CONTINUOUS
 62
     5
 10
716.69999999999982
 20
-447.19999999999982
 30
0.0
 40
6.9999999999998952
 50
7.3870484363016704
 51
172.61295156369829
  0
ARC
  8
DETAIL
  6
CONTINUOUS
 62
     5
 10
716.69999999999982
 20
-447.19999999999982
 30
0.0
 40
6.9999999999998952
 50
187.3870484363016
 51
352.61295156369829
  0
CIRCLE
  8
DETAIL
  6
CONTINUOUS
 62
     5
 10
-137.5
 20
-278.0
 30
0.0
 40
7.75999999999999
  0
CIRCLE
  8
DETAIL
  6
CONTINUOUS
 62
     5
 10
-233.5
 20
-318.0
 30
0.0
 40
11.100000000000019
  0
CIRCLE
  8
DETAIL
  6
CONTINUOUS
 62
     5
 10
-233.5
 20
-318.0
 30
0.0
 40
7.6499999999999773
  0
CIRCLE
  8
DETAIL
  6
CONTINUOUS
 62
     5
 10
-233.5
 20
-318.0
 30
0.0
 40
8.0399999999999636
  0
CIRCLE
  8
DETAIL
  6
CONTINUOUS
 62
     5
 10
-233.5
 20
-318.0
 30
0.0
 40
9.2400000000000091
  0
ARC
  8
DETAIL
  6
CONTINUOUS
 62
     5
 10
481.0
 20
-446.0
 30
0.0
 40
2.0
 50
270.0
 51
0.0
  0
ARC
  8
DETAIL
  6
CONTINUOUS
 62
     5
 10
442.0
 20
-446.0
 30
0.0
 40
2.0
 50
180.0
 51
270.0
  0
ARC
  8
DETAIL
  6
CONTINUOUS
 62
     5
 10
411.0
 20
-446.0
 30
0.0
 40
2.0
 50
270.0
 51
0.0
  0
ARC
  8
DETAIL
  6
CONTINUOUS
 62
     5
 10
372.0
 20
-446.0
 30
0.0
 40
2.0
 50
180.0
 51
270.0
  0
CIRCLE
  8
DETAIL
  6
CONTINUOUS
 62
     5
 10
-233.5
 20
-318.0
 30
0.0
 40
14.100000000000019
  0
CIRCLE
  8
DETAIL
  6
CONTINUOUS
 62
     5
 10
-137.5
 20
-278.0
 30
0.0
 40
15.0
  0
CIRCLE
  8
DETAIL
  6
CONTINUOUS
 62
     5
 10
-137.5
 20
-278.0
 30
0.0
 40
18.0
  0
CIRCLE
  8
DETAIL
  6
CONTINUOUS
 62
     5
 10
-487.5
 20
-438.0
 30
0.0
 40
20.0
  0
CIRCLE
  8
DETAIL
  6
CONTINUOUS
 62
     5
 10
-137.5
 20
-278.0
 30
0.0
 40
4.0599999999999454
  0
CIRCLE
  8
DETAIL
  6
CONTINUOUS
 62
     5
 10
-137.5
 20
-278.0
 30
0.0
 40
4.8099999999999454
  0
CIRCLE
  8
DETAIL
  6
CONTINUOUS
 62
     5
 10
-137.5
 20
-278.0
 30
0.0
 40
5.50999999999999
  0
CIRCLE
  8
DETAIL
  6
CONTINUOUS
 62
     5
 10
-349.5
 20
-223.0
 30
0.0
 40
5.0
  0
CIRCLE
  8
DETAIL
  6
CONTINUOUS
 62
     5
 10
-349.5
 20
-163.0
 30
0.0
 40
5.0
  0
CIRCLE
  8
DETAIL
  6
CONTINUOUS
 62
     5
 10
-233.5
 20
-318.0
 30
0.0
 40
21.5
  0
CIRCLE
  8
DETAIL
  6
CONTINUOUS
 62
     5
 10
-233.5
 20
-318.0
 30
0.0
 40
11.5
  0
CIRCLE
  8
DETAIL
  6
CONTINUOUS
 62
     5
 10
-658.49999999999989
 20
-268.0
 30
0.0
 40
18.5
  0
CIRCLE
  8
DETAIL
  6
CONTINUOUS
 62
     5
 10
-292.0
 20
-64.0
 30
0.0
 40
2.5
  0
CIRCLE
  8
DETAIL
  6
CONTINUOUS
 62
     5
 10
-335.0
 20
-92.0
 30
0.0
 40
2.5
  0
CIRCLE
  8
DETAIL
  6
CONTINUOUS
 62
     5
 10
-233.5
 20
-318.0
 30
0.0
 40
24.5
  0
CIRCLE
  8
DETAIL
  6
CONTINUOUS
 62
     5
 10
-741.5
 20
-43.0
 30
0.0
 40
6.5
  0
CIRCLE
  8
DETAIL
  6
CONTINUOUS
 62
     5
 10
-766.5
 20
-54.0
 30
0.0
 40
6.5
  0
CIRCLE
  8
DETAIL
  6
CONTINUOUS
 62
     5
 10
-796.49999999999989
 20
-54.0
 30
0.0
 40
6.5
  0
CIRCLE
  8
DETAIL
  6
CONTINUOUS
 62
     5
 10
-821.49999999999989
 20
-43.0
 30
0.0
 40
6.5
  0
ARC
  8
DETAIL
  6
CONTINUOUS
 62
     5
 10
-837.69999999999982
 20
-358.19999999999982
 30
0.0
 40
1.0
 50
0.0
 51
11.249999999983761
  0
CIRCLE
  8
DETAIL
  6
CONTINUOUS
 62
     5
 10
-821.49999999999989
 20
-43.0
 30
0.0
 40
3.5
  0
CIRCLE
  8
DETAIL
  6
CONTINUOUS
 62
     5
 10
-796.49999999999989
 20
-54.0
 30
0.0
 40
3.5
  0
CIRCLE
  8
DETAIL
  6
CONTINUOUS
 62
     5
 10
-766.5
 20
-54.0
 30
0.0
 40
3.5
  0
CIRCLE
  8
DETAIL
  6
CONTINUOUS
 62
     5
 10
-741.5
 20
-43.0
 30
0.0
 40
3.5
  0
ARC
  8
DETAIL
  6
CONTINUOUS
 62
     5
 10
-834.0
 20
-25.5
 30
0.0
 40
0.2000000000000063
 50
96.468783739462026
 51
180.0
  0
ARC
  8
DETAIL
  6
CONTINUOUS
 62
     5
 10
459.49999999999989
 20
-60.0
 30
0.0
 40
3.0
 50
180.0
 51
191.5501097993091
  0
CIRCLE
  8
DETAIL
  6
CONTINUOUS
 62
     5
 10
466.5
 20
-43.0
 30
0.0
 40
3.5
  0
CIRCLE
  8
DETAIL
  6
CONTINUOUS
 62
     5
 10
491.5
 20
-54.0
 30
0.0
 40
3.5
  0
CIRCLE
  8
DETAIL
  6
CONTINUOUS
 62
     5
 10
521.49999999999989
 20
-54.0
 30
0.0
 40
3.5
  0
CIRCLE
  8
DETAIL
  6
CONTINUOUS
 62
     5
 10
546.49999999999989
 20
-43.0
 30
0.0
 40
3.5
  0
CIRCLE
  8
DETAIL
  6
CONTINUOUS
 62
     5
 10
506.5
 20
-43.0
 30
0.0
 40
3.5
  0
ARC
  8
DETAIL
  6
CONTINUOUS
 62
     5
 10
559.0
 20
-25.5
 30
0.0
 40
0.2000000000000455
 50
0.0
 51
83.531216260641514
  0
CIRCLE
  8
DETAIL
  6
CONTINUOUS
 62
     5
 10
182.5
 20
-40.0
 30
0.0
 40
3.5
  0
ARC
  8
DETAIL
  6
CONTINUOUS
 62
     5
 10
427.5
 20
-36.0
 30
0.0
 40
3.0
 50
0.0
 51
90.0
  0
ARC
  8
DETAIL
  6
CONTINUOUS
 62
     5
 10
133.5
 20
-36.0
 30
0.0
 40
3.0
 50
90.0
 51
109.4873702272118
  0
ARC
  8
DETAIL
  6
CONTINUOUS
 62
     5
 10
561.5
 20
-4.0
 30
0.0
 40
0.2000000000000455
 50
0.0
 51
83.5258884133723
  0
CIRCLE
  8
DETAIL
  6
CONTINUOUS
 62
     5
 10
-117.5
 20
-9.0
 30
0.0
 40
7.0
  0
CIRCLE
  8
DETAIL
  6
CONTINUOUS
 62
     5
 10
-417.49999999999989
 20
-9.0
 30
0.0
 40
7.0
  0
CIRCLE
  8
DETAIL
  6
CONTINUOUS
 62
     5
 10
-717.49999999999989
 20
-9.0
 30
0.0
 40
7.0
  0
CIRCLE
  8
DETAIL
  6
CONTINUOUS
 62
     5
 10
-349.5
 20
-193.0
 30
0.0
 40
12.5
  0
CIRCLE
  8
DETAIL
  6
CONTINUOUS
 62
     5
 10
-349.5
 20
-193.0
 30
0.0
 40
4.5
  0
CIRCLE
  8
DETAIL
  6
CONTINUOUS
 62
     5
 10
100.5
 20
-113.0
 30
0.0
 40
2.5
  0
CIRCLE
  8
DETAIL
  6
CONTINUOUS
 62
     5
 10
122.5
 20
-53.0
 30
0.0
 40
6.0
  0
CIRCLE
  8
DETAIL
  6
CONTINUOUS
 62
     5
 10
547.5
 20
-128.0
 30
0.0
 40
4.0
  0
CIRCLE
  8
DETAIL
  6
CONTINUOUS
 62
     5
 10
547.5
 20
-378.0
 30
0.0
 40
4.0
  0
ARC
  8
DETAIL
  6
CONTINUOUS
 62
     5
 10
-487.5
 20
-438.0
 30
0.0
 40
24.0
 50
0.0
 51
180.0
  0
ARC
  8
DETAIL
  6
CONTINUOUS
 62
     5
 10
-155.5
 20
-266.0
 30
0.0
 40
3.0
 50
0.0
 51
90.0
  0
ARC
  8
DETAIL
  6
CONTINUOUS
 62
     5
 10
-193.5619224437996
 20
-266.0
 30
0.0
 40
3.0
 50
90.0
 51
180.0
  0
ARC
  8
DETAIL
  6
CONTINUOUS
 62
     5
 10
-207.5
 20
-306.0
 30
0.0
 40
3.0
 50
90.0
 51
180.0
  0
ARC
  8
DETAIL
  6
CONTINUOUS
 62
     5
 10
-259.5
 20
-306.0
 30
0.0
 40
3.0
 50
0.0
 51
90.0
  0
ARC
  8
DETAIL
  6
CONTINUOUS
 62
     5
 10
-293.70426839299938
 20
-352.19999999999982
 30
0.0
 40
6.0
 50
270.0
 51
90.0
  0
ARC
  8
DETAIL
  6
CONTINUOUS
 62
     5
 10
-75.242652378699859
 20
-352.19999999999982
 30
0.0
 40
6.0
 50
90.0
 51
270.0
  0
ARC
  8
DETAIL
  6
CONTINUOUS
 62
     5
 10
-119.5
 20
-266.0
 30
0.0
 40
3.0
 50
90.0
 51
180.0
  0
CIRCLE
  8
DETAIL
  6
CONTINUOUS
 62
     5
 10
-181.83327335109971
 20
-283.0
 30
0.0
 40
6.0
  0
CIRCLE
  8
DETAIL
  6
CONTINUOUS
 62
     5
 10
-293.70426839299938
 20
-352.19999999999982
 30
0.0
 40
2.5
  0
CIRCLE
  8
DETAIL
  6
CONTINUOUS
 62
     5
 10
-75.242652378699859
 20
-352.19999999999982
 30
0.0
 40
2.5
  0
CIRCLE
  8
DETAIL
  6
CONTINUOUS
 62
     5
 10
-181.83327335109971
 20
-283.0
 30
0.0
 40
2.5
  0
ARC
  8
DETAIL
  6
CONTINUOUS
 62
     5
 10
-837.69999999999982
 20
-57.800000000000182
 30
0.0
 40
0.999999999999927
 50
348.73866023542621
 51
0.0
  0
ARC
  8
DETAIL
  6
CONTINUOUS
 62
     5
 10
-233.5
 20
-241.0
 30
0.0
 40
6.0
 50
0.0
 51
180.0
  0
ARC
  8
DETAIL
  6
CONTINUOUS
 62
     5
 10
27.5
 20
-241.0
 30
0.0
 40
6.0
 50
0.0
 51
180.0
  0
ARC
  8
DETAIL
  6
CONTINUOUS
 62
     5
 10
27.5
 20
-45.0
 30
0.0
 40
6.0
 50
180.0
 51
0.0
  0
ARC
  8
DETAIL
  6
CONTINUOUS
 62
     5
 10
-233.5
 20
-45.0
 30
0.0
 40
6.0
 50
180.0
 51
0.0
  0
CIRCLE
  8
DETAIL
  6
CONTINUOUS
 62
     5
 10
-233.5
 20
-241.0
 30
0.0
 40
3.5
  0
CIRCLE
  8
DETAIL
  6
CONTINUOUS
 62
     5
 10
-233.5
 20
-45.0
 30
0.0
 40
3.5
  0
CIRCLE
  8
DETAIL
  6
CONTINUOUS
 62
     5
 10
27.5
 20
-45.0
 30
0.0
 40
3.5
  0
CIRCLE
  8
DETAIL
  6
CONTINUOUS
 62
     5
 10
27.5
 20
-241.0
 30
0.0
 40
3.5
  0
CIRCLE
  8
DETAIL
  6
CONTINUOUS
 62
     5
 10
716.69999999999982
 20
-447.19999999999982
 30
0.0
 40
12.5
  0
CIRCLE
  8
DETAIL
  6
CONTINUOUS
 62
     5
 10
716.69999999999982
 20
-28.800000000000178
 30
0.0
 40
12.5
  0
CIRCLE
  8
DETAIL
  6
CONTINUOUS
 62
     5
 10
-658.49999999999989
 20
-268.0
 30
0.0
 40
23.0
  0
ARC
  8
DETAIL
  6
CONTINUOUS
 62
     5
 10
-721.49999999999989
 20
-335.19999999999982
 30
0.0
 40
6.0
 50
270.0
 51
90.0
  0
ARC
  8
DETAIL
  6
CONTINUOUS
 62
     5
 10
-369.5
 20
-335.19999999999982
 30
0.0
 40
6.0
 50
90.0
 51
270.0
  0
ARC
  8
DETAIL
  6
CONTINUOUS
 62
     5
 10
-369.5
 20
-98.0
 30
0.0
 40
6.0
 50
90.0
 51
270.0
  0
ARC
  8
DETAIL
  6
CONTINUOUS
 62
     5
 10
-721.49999999999989
 20
-98.0
 30
0.0
 40
6.0
 50
270.0
 51
90.0
  0
CIRCLE
  8
DETAIL
  6
CONTINUOUS
 62
     5
 10
-721.49999999999989
 20
-98.0
 30
0.0
 40
2.5
  0
CIRCLE
  8
DETAIL
  6
CONTINUOUS
 62
     5
 10
-721.49999999999989
 20
-335.19999999999982
 30
0.0
 40
2.5
  0
CIRCLE
  8
DETAIL
  6
CONTINUOUS
 62
     5
 10
-369.5
 20
-335.19999999999982
 30
0.0
 40
2.5
  0
CIRCLE
  8
DETAIL
  6
CONTINUOUS
 62
     5
 10
-369.5
 20
-98.0
 30
0.0
 40
2.5
  0
ARC
  8
DETAIL
  6
CONTINUOUS
 62
     5
 10
111.5
 20
-442.0
 30
0.0
 40
0.1999999999999565
 50
185.65197824944849
 51
270.0
  0
ARC
  8
DETAIL
  6
CONTINUOUS
 62
     5
 10
496.49999999999989
 20
-62.400000000000553
 30
0.0
 40
0.2000000000000455
 50
0.0
 51
84.348021750395887
  0
ARC
  8
DETAIL
  6
CONTINUOUS
 62
     5
 10
110.6999999999998
 20
-62.400000000000553
 30
0.0
 40
0.1999999999998181
 50
90.0
 51
180.0
  0
ARC
  8
DETAIL
  6
CONTINUOUS
 62
     5
 10
154.69999999999979
 20
-443.0
 30
0.0
 40
0.8000000000001818
 50
270.0
 51
0.0
  0
CIRCLE
  8
DETAIL
  6
CONTINUOUS
 62
     5
 10
-349.5
 20
-223.0
 30
0.0
 40
2.5
  0
CIRCLE
  8
DETAIL
  6
CONTINUOUS
 62
     5
 10
-349.5
 20
-163.0
 30
0.0
 40
2.5
  0
ARC
  8
DETAIL
  6
CONTINUOUS
 62
     5
 10
-734.49999999999989
 20
-32.0
 30
0.0
 40
3.0
 50
270.0
 51
0.0
  0
ARC
  8
DETAIL
  6
CONTINUOUS
 62
     5
 10
-797.5
 20
-32.0
 30
0.0
 40
3.0
 50
180.0
 51
270.0
  0
ARC
  8
DETAIL
  6
CONTINUOUS
 62
     5
 10
-831.0
 20
-32.0
 30
0.0
 40
3.0
 50
180.0
 51
270.0
  0
ARC
  8
DETAIL
  6
CONTINUOUS
 62
     5
 10
-815.49999999999989
 20
-32.0
 30
0.0
 40
3.0
 50
270.0
 51
0.0
  0
ARC
  8
DETAIL
  6
CONTINUOUS
 62
     5
 10
-834.0
 20
-25.5
 30
0.0
 40
2.5
 50
90.0
 51
180.0
  0
ARC
  8
DETAIL
  6
CONTINUOUS
 62
     5
 10
540.5
 20
-32.0
 30
0.0
 40
3.0
 50
180.0
 51
270.0
  0
ARC
  8
DETAIL
  6
CONTINUOUS
 62
     5
 10
556.0
 20
-32.0
 30
0.0
 40
3.0
 50
270.0
 51
0.0
  0
ARC
  8
DETAIL
  6
CONTINUOUS
 62
     5
 10
522.5
 20
-32.0
 30
0.0
 40
3.0
 50
270.0
 51
0.0
  0
ARC
  8
DETAIL
  6
CONTINUOUS
 62
     5
 10
459.49999999999989
 20
-32.0
 30
0.0
 40
3.0
 50
180.0
 51
270.0
  0
ARC
  8
DETAIL
  6
CONTINUOUS
 62
     5
 10
559.0
 20
-25.5
 30
0.0
 40
2.5
 50
0.0
 51
90.0
  0
ARC
  8
DETAIL
  6
CONTINUOUS
 62
     5
 10
559.49999999999989
 20
-466.0
 30
0.0
 40
3.0
 50
0.0
 51
90.0
  0
ARC
  8
DETAIL
  6
CONTINUOUS
 62
     5
 10
134.89999999999961
 20
-466.0
 30
0.0
 40
3.0
 50
90.0
 51
143.18301420681519
  0
ARC
  8
DETAIL
  6
CONTINUOUS
 62
     5
 10
562.5
 20
-472.0
 30
0.0
 40
1.0
 50
270.0
 51
0.0
  0
ARC
  8
DETAIL
  6
CONTINUOUS
 62
     5
 10
836.5
 20
-472.0
 30
0.0
 40
1.0
 50
270.0
 51
0.0
  0
ARC
  8
DETAIL
  6
CONTINUOUS
 62
     5
 10
836.5
 20
-37.0
 30
0.0
 40
0.9999999999998593
 50
281.56048715187973
 51
0.0
  0
ARC
  8
DETAIL
  6
CONTINUOUS
 62
     5
 10
563.49999999999989
 20
-4.0
 30
0.0
 40
1.0
 50
90.0
 51
180.0
  0
ARC
  8
DETAIL
  6
CONTINUOUS
 62
     5
 10
836.5
 20
-4.0
 30
0.0
 40
1.0
 50
0.0
 51
90.0
  0
ARC
  8
DETAIL
  6
CONTINUOUS
 62
     5
 10
153.5
 20
-4.0
 30
0.0
 40
1.0
 50
90.0
 51
168.43403498027899
  0
ARC
  8
DETAIL
  6
CONTINUOUS
 62
     5
 10
561.5
 20
-4.0
 30
0.0
 40
1.0
 50
0.0
 51
90.0
  0
CIRCLE
  8
DETAIL
  6
CONTINUOUS
 62
     5
 10
162.5
 20
-11.0
 30
0.0
 40
2.5
  0
CIRCLE
  8
DETAIL
  6
CONTINUOUS
 62
     5
 10
442.49999999999989
 20
-11.0
 30
0.0
 40
2.5
  0
CIRCLE
  8
DETAIL
  6
CONTINUOUS
 62
     5
 10
122.5
 20
-53.0
 30
0.0
 40
2.25
  0
ARC
  8
DETAIL
  6
CONTINUOUS
 62
     5
 10
132.30000000000021
 20
-4.0
 30
0.0
 40
1.000000000000044
 50
11.56644558122774
 51
90.0
  0
CIRCLE
  8
DETAIL
  6
CONTINUOUS
 62
     5
 10
-717.49999999999989
 20
-11.0
 30
0.0
 40
2.5
  0
CIRCLE
  8
DETAIL
  6
CONTINUOUS
 62
     5
 10
-417.49999999999989
 20
-11.0
 30
0.0
 40
2.5
  0
CIRCLE
  8
DETAIL
  6
CONTINUOUS
 62
     5
 10
-117.5
 20
-11.0
 30
0.0
 40
2.5
  0
CIRCLE
  8
DETAIL
  6
CONTINUOUS
 62
     5
 10
476.49999999999989
 20
-436.0
 30
0.0
 40
1.650000000000005
  0
CIRCLE
  8
DETAIL
  6
CONTINUOUS
 62
     5
 10
476.49999999999989
 20
-436.0
 30
0.0
 40
2.5
  0
ARC
  8
DETAIL
  6
CONTINUOUS
 62
     5
 10
496.49999999999989
 20
-62.400000000000553
 30
0.0
 40
1.0
 50
0.0
 51
90.0
  0
ARC
  8
DETAIL
  6
CONTINUOUS
 62
     5
 10
110.6999999999998
 20
-62.400000000000553
 30
0.0
 40
1.0
 50
90.0
 51
180.0
  0
ARC
  8
DETAIL
  6
CONTINUOUS
 62
     5
 10
111.5
 20
-442.0
 30
0.0
 40
1.0
 50
180.0
 51
270.0
  0
CIRCLE
  8
DETAIL
  6
CONTINUOUS
 62
     5
 10
-292.0
 20
-64.0
 30
0.0
 40
1.700000000000045
  0
CIRCLE
  8
DETAIL
  6
CONTINUOUS
 62
     5
 10
-335.0
 20
-92.0
 30
0.0
 40
1.700000000000045
  0
CIRCLE
  8
DETAIL
  6
CONTINUOUS
 62
     5
 10
-717.49999999999989
 20
-11.0
 30
0.0
 40
1.700000000000045
  0
CIRCLE
  8
DETAIL
  6
CONTINUOUS
 62
     5
 10
-417.49999999999989
 20
-11.0
 30
0.0
 40
1.700000000000045
  0
CIRCLE
  8
DETAIL
  6
CONTINUOUS
 62
     5
 10
-117.5
 20
-11.0
 30
0.0
 40
1.700000000000045
  0
CIRCLE
  8
DETAIL
  6
CONTINUOUS
 62
     5
 10
162.5
 20
-11.0
 30
0.0
 40
1.699999999999988
  0
CIRCLE
  8
DETAIL
  6
CONTINUOUS
 62
     5
 10
442.49999999999989
 20
-11.0
 30
0.0
 40
1.699999999999988
  0
CIRCLE
  8
DETAIL
  6
CONTINUOUS
 62
     5
 10
-721.49999999999989
 20
-98.0
 30
0.0
 40
1.700000000000045
  0
CIRCLE
  8
DETAIL
  6
CONTINUOUS
 62
     5
 10
-721.49999999999989
 20
-335.19999999999982
 30
0.0
 40
1.700000000000045
  0
CIRCLE
  8
DETAIL
  6
CONTINUOUS
 62
     5
 10
-369.5
 20
-98.0
 30
0.0
 40
1.700000000000045
  0
CIRCLE
  8
DETAIL
  6
CONTINUOUS
 62
     5
 10
-369.5
 20
-335.19999999999982
 30
0.0
 40
1.700000000000045
  0
CIRCLE
  8
DETAIL
  6
CONTINUOUS
 62
     5
 10
-233.5
 20
-45.0
 30
0.0
 40
1.700000000000045
  0
CIRCLE
  8
DETAIL
  6
CONTINUOUS
 62
     5
 10
-233.5
 20
-241.0
 30
0.0
 40
1.700000000000045
  0
CIRCLE
  8
DETAIL
  6
CONTINUOUS
 62
     5
 10
27.5
 20
-241.0
 30
0.0
 40
1.700000000000045
  0
CIRCLE
  8
DETAIL
  6
CONTINUOUS
 62
     5
 10
27.5
 20
-45.0
 30
0.0
 40
1.700000000000045
  0
CIRCLE
  8
DETAIL
  6
CONTINUOUS
 62
     5
 10
-293.70426839299938
 20
-352.19999999999982
 30
0.0
 40
1.700000000000045
  0
CIRCLE
  8
DETAIL
  6
CONTINUOUS
 62
     5
 10
-75.242652378699859
 20
-352.19999999999982
 30
0.0
 40
1.700000000000045
  0
CIRCLE
  8
DETAIL
  6
CONTINUOUS
 62
     5
 10
122.5
 20
-53.0
 30
0.0
 40
3.5
  0
CIRCLE
  8
DETAIL
  6
CONTINUOUS
 62
     5
 10
182.5
 20
-40.0
 30
0.0
 40
1.699999999999988
  0
CIRCLE
  8
DETAIL
  6
CONTINUOUS
 62
     5
 10
547.5
 20
-128.0
 30
0.0
 40
2.25
  0
CIRCLE
  8
DETAIL
  6
CONTINUOUS
 62
     5
 10
547.5
 20
-378.0
 30
0.0
 40
2.25
  0
CIRCLE
  8
DETAIL
  6
CONTINUOUS
 62
     5
 10
100.5
 20
-113.0
 30
0.0
 40
1.700000000000045
  0
CIRCLE
  8
DETAIL
  6
CONTINUOUS
 62
     5
 10
-349.5
 20
-163.0
 30
0.0
 40
1.700000000000045
  0
CIRCLE
  8
DETAIL
  6
CONTINUOUS
 62
     5
 10
-349.5
 20
-223.0
 30
0.0
 40
1.700000000000045
  0
CIRCLE
  8
DETAIL
  6
CONTINUOUS
 62
     5
 10
-852.5
 20
-308.0
 30
0.0
 40
1.700000000000045
  0
CIRCLE
  8
DETAIL
  6
CONTINUOUS
 62
     5
 10
-852.5
 20
-208.0
 30
0.0
 40
1.700000000000045
  0
CIRCLE
  8
DETAIL
  6
CONTINUOUS
 62
     5
 10
-852.5
 20
-108.0
 30
0.0
 40
1.700000000000045
  0
LINE
  8
NOTE
  6
CONTINUOUS
 62
     4
 10
-292.25
 20
-78.0
 30
0.0
 11
-334.75
 21
-78.0
 31
0.0
  0
LINE
  8
NOTE
  6
CONTINUOUS
 62
     4
 10
-313.5
 20
-56.75
 30
0.0
 11
-313.5
 21
-99.25
 31
0.0
  0
LINE
  8
NOTE
  6
CONTINUOUS
 62
     4
 10
-349.5
 20
-175.5
 30
0.0
 11
-349.5
 21
-210.5
 31
0.0
  0
LINE
  8
NOTE
  6
CONTINUOUS
 62
     4
 10
-332.0
 20
-193.0
 30
0.0
 11
-367.0
 21
-193.0
 31
0.0
  0
LINE
  8
NOTE
  6
CONTINUOUS
 62
     4
 10
-233.5
 20
-287.0
 30
0.0
 11
-233.5
 21
-349.0
 31
0.0
  0
LINE
  8
NOTE
  6
CONTINUOUS
 62
     4
 10
-202.5
 20
-318.0
 30
0.0
 11
-264.5
 21
-318.0
 31
0.0
  0
LINE
  8
NOTE
  6
CONTINUOUS
 62
     4
 10
-137.5
 20
-255.0
 30
0.0
 11
-137.5
 21
-301.0
 31
0.0
  0
LINE
  8
NOTE
  6
CONTINUOUS
 62
     4
 10
-114.5
 20
-278.0
 30
0.0
 11
-160.5
 21
-278.0
 31
0.0
  0
LINE
  8
DETAIL
  6
CONTINUOUS
 62
     5
 10
-691.5
 20
-458.0
 30
0.0
 11
-691.5
 21
-413.0
 31
0.0
  0
LINE
  8
DETAIL
  6
CONTINUOUS
 62
     5
 10
-643.5
 20
-458.0
 30
0.0
 11
-643.5
 21
-413.0
 31
0.0
  0
LINE
  8
DETAIL
  6
CONTINUOUS
 62
     5
 10
842.5
 20
-458.0
 30
0.0
 11
843.30000000000007
 21
-458.0
 31
0.0
  0
LINE
  8
DETAIL
  6
CONTINUOUS
 62
     5
 10
841.69999999999982
 20
-437.19999999999982
 30
0.0
 11
860.30000000000007
 21
-437.19999999999982
 31
0.0
  0
LINE
  8
DETAIL
  6
CONTINUOUS
 62
     5
 10
841.69999999999982
 20
-438.0
 30
0.0
 11
862.5
 21
-438.0
 31
0.0
  0
LINE
  8
DETAIL
  6
CONTINUOUS
 62
     5
 10
860.30000000000007
 20
-437.19999999999982
 30
0.0
 11
862.5
 21
-437.19999999999982
 31
0.0
  0
LINE
  8
DETAIL
  6
CONTINUOUS
 62
     5
 10
841.69999999999982
 20
-436.19999999999982
 30
0.0
 11
842.5
 21
-436.19999999999982
 31
0.0
  0
LINE
  8
DETAIL
  6
CONTINUOUS
 62
     5
 10
841.69999999999982
 20
-39.800000000000182
 30
0.0
 11
842.5
 21
-39.800000000000182
 31
0.0
  0
LINE
  8
DETAIL
  6
CONTINUOUS
 62
     5
 10
862.5
 20
-38.800000000000182
 30
0.0
 11
860.30000000000007
 21
-38.800000000000182
 31
0.0
  0
LINE
  8
DETAIL
  6
CONTINUOUS
 62
     5
 10
860.30000000000007
 20
-38.800000000000182
 30
0.0
 11
841.69999999999982
 21
-38.800000000000182
 31
0.0
  0
LINE
  8
DETAIL
  6
CONTINUOUS
 62
     5
 10
841.69999999999982
 20
-38.0
 30
0.0
 11
862.5
 21
-38.0
 31
0.0
  0
LINE
  8
DETAIL
  6
CONTINUOUS
 62
     5
 10
842.5
 20
-39.800000000000182
 30
0.0
 11
842.5
 21
-436.19999999999982
 31
0.0
  0
LINE
  8
DETAIL
  6
CONTINUOUS
 62
     5
 10
843.30000000000007
 20
-438.0
 30
0.0
 11
843.30000000000007
 21
-458.0
 31
0.0
  0
LINE
  8
DETAIL
  6
CONTINUOUS
 62
     5
 10
859.5
 20
-437.19999999999982
 30
0.0
 11
859.5
 21
-438.0
 31
0.0
  0
LINE
  8
DETAIL
  6
CONTINUOUS
 62
     5
 10
859.5
 20
-38.800000000000182
 30
0.0
 11
859.5
 21
-38.0
 31
0.0
  0
LINE
  8
DETAIL
  6
CONTINUOUS
 62
     5
 10
862.5
 20
-438.0
 30
0.0
 11
862.5
 21
-38.0
 31
0.0
  0
CIRCLE
  8
DETAIL
  6
CONTINUOUS
 62
     5
 10
-313.5
 20
-78.0
 30
0.0
 40
16.0
  0
CIRCLE
  8
DETAIL
  6
CONTINUOUS
 62
     5
 10
-313.5
 20
-78.0
 30
0.0
 40
5.0748815588000289
  0
CIRCLE
  8
DETAIL
  6
CONTINUOUS
 62
     5
 10
-313.5
 20
-78.0
 30
0.0
 40
13.25
  0
CIRCLE
  8
DETAIL
  6
CONTINUOUS
 62
     5
 10
-313.5
 20
-78.0
 30
0.0
 40
16.25
  0
CIRCLE
  8
DETAIL
  6
CONTINUOUS
 62
     5
 10
-313.5
 20
-78.0
 30
0.0
 40
12.289971428899999
  0
CIRCLE
  8
DETAIL
  6
CONTINUOUS
 62
     5
 10
-487.5
 20
-438.0
 30
0.0
 40
14.0
  0
CIRCLE
  8
DETAIL
  6
CONTINUOUS
 62
     5
 10
-487.5
 20
-438.0
 30
0.0
 40
16.5
  0
CIRCLE
  8
DETAIL
  6
CONTINUOUS
 62
     5
 10
-487.5
 20
-438.0
 30
0.0
 40
16.0
  0
CIRCLE
  8
DETAIL
  6
CONTINUOUS
 62
     5
 10
-667.49999999999989
 20
-413.0
 30
0.0
 40
14.0
  0
CIRCLE
  8
DETAIL
  6
CONTINUOUS
 62
     5
 10
-667.49999999999989
 20
-413.0
 30
0.0
 40
16.5
  0
CIRCLE
  8
DETAIL
  6
CONTINUOUS
 62
     5
 10
-667.49999999999989
 20
-413.0
 30
0.0
 40
16.0
  0
CIRCLE
  8
DETAIL
  6
CONTINUOUS
 62
     5
 10
852.5
 20
-88.0
 30
0.0
 40
1.449999999999988
  0
CIRCLE
  8
DETAIL
  6
CONTINUOUS
 62
     5
 10
852.5
 20
-188.0
 30
0.0
 40
1.449999999999988
  0
CIRCLE
  8
DETAIL
  6
CONTINUOUS
 62
     5
 10
852.5
 20
-288.0
 30
0.0
 40
1.449999999999988
  0
CIRCLE
  8
DETAIL
  6
CONTINUOUS
 62
     5
 10
852.5
 20
-388.0
 30
0.0
 40
1.449999999999988
  0
CIRCLE
  8
DETAIL
  6
CONTINUOUS
 62
     5
 10
-852.5
 20
-308.0
 30
0.0
 40
1.700000000000045
  0
CIRCLE
  8
DETAIL
  6
CONTINUOUS
 62
     5
 10
-852.5
 20
-208.0
 30
0.0
 40
1.700000000000045
  0
CIRCLE
  8
DETAIL
  6
CONTINUOUS
 62
     5
 10
-852.5
 20
-108.0
 30
0.0
 40
1.700000000000045
  0
CIRCLE
  8
DETAIL
  6
CONTINUOUS
 62
     5
 10
-349.5
 20
-193.0
 30
0.0
 40
7.805259999994405
  0
LINE
  8
DETAIL
  6
CONTINUOUS
 62
     5
 10
-354.76543445503381
 20
-202.11999999999529
 30
0.0
 11
-344.23456554499899
 21
-202.11999999999529
 31
0.0
  0
LINE
  8
DETAIL
  6
CONTINUOUS
 62
     5
 10
-338.9691310899716
 20
-193.0
 30
0.0
 11
-344.23456554500632
 21
-183.8799999999564
 31
0.0
  0
LINE
  8
DETAIL
  6
CONTINUOUS
 62
     5
 10
-360.03086891004023
 20
-192.99999999997539
 30
0.0
 11
-354.76543445503381
 21
-202.11999999999529
 31
0.0
  0
LINE
  8
DETAIL
  6
CONTINUOUS
 62
     5
 10
-344.23456554499899
 20
-202.1200000000072
 30
0.0
 11
-338.9691310899716
 21
-193.0
 31
0.0
  0
LINE
  8
DETAIL
  6
CONTINUOUS
 62
     5
 10
-360.03086891004023
 20
-192.99999999997539
 30
0.0
 11
-354.76543445503381
 21
-183.8799999999564
 31
0.0
  0
LINE
  8
DETAIL
  6
CONTINUOUS
 62
     5
 10
-344.23456554500632
 20
-183.8799999999564
 30
0.0
 11
-354.76543445503381
 21
-183.8799999999564
 31
0.0
  0
ARC
  8
DETAIL
  6
CONTINUOUS
 62
     5
 10
100.5
 20
-121.0
 30
0.0
 40
5.9999999999999103
 50
114.6243183522252
 51
65.375681647774783
  0
ARC
  8
DETAIL
  6
CONTINUOUS
 62
     5
 10
-667.49999999999989
 20
-413.0
 30
0.0
 40
24.0
 50
0.0
 51
180.0
  0
LINE
  8
DETAIL
  6
CONTINUOUS
 62
     5
 10
91.299999999999272
 20
-104.0
 30
0.0
 11
94.299999999999258
 21
-101.0
 31
0.0
  0
LINE
  8
DETAIL
  6
CONTINUOUS
 62
     5
 10
94.299999999999258
 20
-141.0
 30
0.0
 11
110.5
 21
-141.0
 31
0.0
  0
LINE
  8
DETAIL
  6
CONTINUOUS
 62
     5
 10
94.299999999999258
 20
-101.0
 30
0.0
 11
110.5
 21
-101.0
 31
0.0
  0
LINE
  8
DETAIL
  6
CONTINUOUS
 62
     5
 10
94.299999999999258
 20
-141.0
 30
0.0
 11
91.299999999999272
 21
-138.0
 31
0.0
  0
LINE
  8
DETAIL
  6
CONTINUOUS
 62
     5
 10
91.299999999999272
 20
-104.0
 30
0.0
 11
91.299999999999272
 21
-138.0
 31
0.0
  0
LINE
  8
DETAIL
  6
CONTINUOUS
 62
     5
 10
98.0
 20
-115.54564394270071
 30
0.0
 11
98.0
 21
-113.0
 31
0.0
  0
LINE
  8
DETAIL
  6
CONTINUOUS
 62
     5
 10
103.0
 20
-113.0
 30
0.0
 11
103.0
 21
-115.54564394270071
 31
0.0
  0
LINE
  8
NOTE
  6
CONTINUOUS
 62
     4
 10
-458.49999999999989
 20
-438.0
 30
0.0
 11
-516.5
 21
-438.0
 31
0.0
  0
LINE
  8
DETAIL
  6
CONTINUOUS
 62
     5
 10
-638.49999999999989
 20
-413.0
 30
0.0
 11
-696.49999999999989
 21
-413.0
 31
0.0
  0
LINE
  8
NOTE
  6
CONTINUOUS
 62
     4
 10
-487.5
 20
-409.0
 30
0.0
 11
-487.5
 21
-467.0
 31
0.0
  0
LINE
  8
DETAIL
  6
CONTINUOUS
 62
     5
 10
-667.49999999999989
 20
-384.0
 30
0.0
 11
-667.49999999999989
 21
-442.0
 31
0.0
  0
LINE
  8
NOTE
  6
CONTINUOUS
 62
     4
 10
-332.0
 20
-193.0
 30
0.0
 11
-367.0
 21
-193.0
 31
0.0
  0
LINE
  8
SIZE
  6
CONTINUOUS
 62
    30
 10
112.5
 20
-472.99999999999989
 30
0.0
 11
-1341.1489826779759
 21
-472.99999999999949
 31
0.0
  0
LINE
  8
SIZE
  6
CONTINUOUS
 62
    30
 10
-354.75
 20
-77.999999999999986
 30
0.0
 11
-1341.1489826779759
 21
-77.999999999999716
 31
0.0
  0
LINE
  8
SIZE
  6
CONTINUOUS
 62
    30
 10
-1321.1489826779759
 20
-472.99999999999949
 30
0.0
 11
-1321.1489826779759
 21
-77.999999999999716
 31
0.0
  0
CIRCLE
  8
SIZE
  6
CONTINUOUS
 62
    30
 10
-1321.1489826779759
 20
-472.99999999999949
 30
0.0
 40
7.5
  0
CIRCLE
  8
SIZE
  6
CONTINUOUS
 62
    30
 10
-1321.1489826779759
 20
-77.999999999999716
 30
0.0
 40
7.5
  0
TEXT
  8
SIZE
  6
CONTINUOUS
 62
    30
 10
-1341.1489826779759
 20
-294.12079470249932
 30
0.0
 40
40.0
  1
395
 50
90.0
 41
0.9
 51
0.0
  7
STANDARD
 71
     0
 72
     1
 11
-1341.1489826779759
 21
-243.9007947024993
 31
0.0
210
0.0
220
0.0
230
1.0
  0
POINT
  8
DEFPOINTS
  6
CONTINUOUS
 62
    30
 10
132.5
 20
-473.0
 30
0.0
  0
POINT
  8
DEFPOINTS
  6
CONTINUOUS
 62
    30
 10
-334.75
 20
-78.0
 30
0.0
  0
POINT
  8
DEFPOINTS
  6
CONTINUOUS
 62
    30
 10
-1321.1489826779759
 20
-77.999999999999716
 30
0.0
  0
LINE
  8
SIZE
  6
CONTINUOUS
 62
    30
 10
-862.5
 20
-3.0000000000009028
 30
0.0
 11
-1581.1489826779759
 21
-3.000000000000699
 31
0.0
  0
LINE
  8
SIZE
  6
CONTINUOUS
 62
    30
 10
-858.30000000000007
 20
-472.99999999999812
 30
0.0
 11
-1581.1489826779759
 21
-472.9999999999979
 31
0.0
  0
LINE
  8
SIZE
  6
CONTINUOUS
 62
    30
 10
-1561.1489826779759
 20
-3.0000000000007052
 30
0.0
 11
-1561.1489826779759
 21
-472.9999999999979
 31
0.0
  0
CIRCLE
  8
SIZE
  6
CONTINUOUS
 62
    30
 10
-1561.1489826779759
 20
-3.0000000000007052
 30
0.0
 40
7.5
  0
CIRCLE
  8
SIZE
  6
CONTINUOUS
 62
    30
 10
-1561.1489826779759
 20
-472.9999999999979
 30
0.0
 40
7.5
  0
TEXT
  8
SIZE
  6
CONTINUOUS
 62
    30
 10
-1581.1489826779759
 20
-312.67506074319368
 30
0.0
 40
40.0
  1
470
 50
90.0
 41
0.9
 51
0.0
  7
STANDARD
 71
     0
 72
     1
 11
-1581.1489826779759
 21
-261.73506074319363
 31
0.0
210
0.0
220
0.0
230
1.0
  0
POINT
  8
DEFPOINTS
  6
CONTINUOUS
 62
    30
 10
-842.5
 20
-3.0000000000009091
 30
0.0
  0
POINT
  8
DEFPOINTS
  6
CONTINUOUS
 62
    30
 10
-838.30000000000018
 20
-472.99999999999812
 30
0.0
  0
POINT
  8
DEFPOINTS
  6
CONTINUOUS
 62
    30
 10
-1561.1489826779759
 20
-472.9999999999979
 30
0.0
  0
LINE
  8
SIZE
  6
CONTINUOUS
 62
    30
 10
-877.5
 20
-473.00000000000182
 30
0.0
 11
-1461.1489826779759
 21
-473.00000000000159
 31
0.0
  0
LINE
  8
SIZE
  6
CONTINUOUS
 62
    30
 10
-882.50000000000011
 20
-358.0000000000004
 30
0.0
 11
-1461.1489826779759
 21
-358.00000000000023
 31
0.0
  0
LINE
  8
SIZE
  6
CONTINUOUS
 62
    30
 10
-1441.1489826779759
 20
-473.00000000000159
 30
0.0
 11
-1441.1489826779759
 21
-358.00000000000023
 31
0.0
  0
CIRCLE
  8
SIZE
  6
CONTINUOUS
 62
    30
 10
-1441.1489826779759
 20
-473.00000000000159
 30
0.0
 40
7.5
  0
CIRCLE
  8
SIZE
  6
CONTINUOUS
 62
    30
 10
-1441.1489826779759
 20
-358.00000000000023
 30
0.0
 40
7.5
  0
TEXT
  8
SIZE
  6
CONTINUOUS
 62
    30
 10
-1461.1489826779759
 20
-458.52000000000106
 30
0.0
 40
40.0
  1
115
 50
90.0
 41
0.9
 51
0.0
  7
STANDARD
 71
     0
 72
     1
 11
-1461.1489826779759
 21
-415.50000000000108
 31
0.0
210
0.0
220
0.0
230
1.0
  0
POINT
  8
DEFPOINTS
  6
CONTINUOUS
 62
    30
 10
-857.50000000000011
 20
-473.00000000000182
 30
0.0
  0
POINT
  8
DEFPOINTS
  6
CONTINUOUS
 62
    30
 10
-862.5
 20
-358.0000000000004
 30
0.0
  0
POINT
  8
DEFPOINTS
  6
CONTINUOUS
 62
    30
 10
-1441.1489826779759
 20
-358.00000000000023
 30
0.0
  0
LINE
  8
SIZE
  6
CONTINUOUS
 62
    30
 10
-882.50000000000011
 20
-358.0000000000004
 30
0.0
 11
-1461.1489826779759
 21
-358.00000000000023
 31
0.0
  0
LINE
  8
SIZE
  6
CONTINUOUS
 62
    30
 10
-882.50000000000011
 20
-57.999999999999993
 30
0.0
 11
-1461.1489826779759
 21
-57.999999999999822
 31
0.0
  0
LINE
  8
SIZE
  6
CONTINUOUS
 62
    30
 10
-1441.1489826779759
 20
-358.00000000000023
 30
0.0
 11
-1441.1489826779759
 21
-57.999999999999829
 31
0.0
  0
CIRCLE
  8
SIZE
  6
CONTINUOUS
 62
    30
 10
-1441.1489826779759
 20
-358.00000000000023
 30
0.0
 40
7.5
  0
CIRCLE
  8
SIZE
  6
CONTINUOUS
 62
    30
 10
-1441.1489826779759
 20
-57.999999999999829
 30
0.0
 40
7.5
  0
TEXT
  8
SIZE
  6
CONTINUOUS
 62
    30
 10
-1461.1489826779759
 20
-255.32189879235057
 30
0.0
 40
40.0
  1
300
 50
90.0
 41
0.9
 51
0.0
  7
STANDARD
 71
     0
 72
     1
 11
-1461.1489826779759
 21
-204.38189879235051
 31
0.0
210
0.0
220
0.0
230
1.0
  0
POINT
  8
DEFPOINTS
  6
CONTINUOUS
 62
    30
 10
-862.5
 20
-358.0000000000004
 30
0.0
  0
POINT
  8
DEFPOINTS
  6
CONTINUOUS
 62
    30
 10
-862.5
 20
-58.0
 30
0.0
  0
POINT
  8
DEFPOINTS
  6
CONTINUOUS
 62
    30
 10
-1441.1489826779759
 20
-57.999999999999829
 30
0.0
  0
LINE
  8
SIZE
  6
CONTINUOUS
 62
    30
 10
-806.49999999999989
 20
7.7459084346082809
 30
0.0
 11
-806.49999999999989
 21
533.24276493192417
 31
0.0
  0
LINE
  8
SIZE
  6
CONTINUOUS
 62
    30
 10
531.5
 20
7.7459084346082809
 30
0.0
 11
531.5
 21
533.24276493192417
 31
0.0
  0
LINE
  8
SIZE
  6
CONTINUOUS
 62
    30
 10
-806.49999999999989
 20
513.24276493192417
 30
0.0
 11
531.5
 21
513.24276493192417
 31
0.0
  0
CIRCLE
  8
SIZE
  6
CONTINUOUS
 62
    30
 10
-806.49999999999989
 20
513.24276493192417
 30
0.0
 40
7.5
  0
CIRCLE
  8
SIZE
  6
CONTINUOUS
 62
    30
 10
531.5
 20
513.24276493192417
 30
0.0
 40
7.5
  0
TEXT
  8
SIZE
  6
CONTINUOUS
 62
    30
 10
-200.86000000000001
 20
533.24276493192428
 30
0.0
 40
40.0
  1
1338
 50
0.0
 41
0.9
 51
0.0
  7
STANDARD
 71
     0
 72
     1
 11
-137.5
 21
533.24276493192428
 31
0.0
210
0.0
220
0.0
230
1.0
  0
POINT
  8
DEFPOINTS
  6
CONTINUOUS
 62
    30
 10
-806.49999999999989
 20
-12.25409156539172
 30
0.0
  0
POINT
  8
DEFPOINTS
  6
CONTINUOUS
 62
    30
 10
531.5
 20
-12.25409156539172
 30
0.0
  0
POINT
  8
DEFPOINTS
  6
CONTINUOUS
 62
    30
 10
531.5
 20
513.24276493192417
 30
0.0
  0
LINE
  8
SIZE
  6
CONTINUOUS
 62
    30
 10
-837.5
 20
2.0
 30
0.0
 11
-837.5
 21
644.55649216677102
 31
0.0
  0
LINE
  8
SIZE
  6
CONTINUOUS
 62
    30
 10
562.5
 20
16.104814482819162
 30
0.0
 11
562.5
 21
644.55649216677102
 31
0.0
  0
LINE
  8
SIZE
  6
CONTINUOUS
 62
    30
 10
-837.5
 20
624.55649216677102
 30
0.0
 11
562.5
 21
624.55649216677102
 31
0.0
  0
CIRCLE
  8
SIZE
  6
CONTINUOUS
 62
    30
 10
-837.5
 20
624.55649216677102
 30
0.0
 40
7.5
  0
CIRCLE
  8
SIZE
  6
CONTINUOUS
 62
    30
 10
562.5
 20
624.55649216677102
 30
0.0
 40
7.5
  0
TEXT
  8
SIZE
  6
CONTINUOUS
 62
    30
 10
-201.94
 20
644.55649216677102
 30
0.0
 40
40.0
  1
1400
 50
0.0
 41
0.9
 51
0.0
  7
STANDARD
 71
     0
 72
     1
 11
-137.5
 21
644.55649216677102
 31
0.0
210
0.0
220
0.0
230
1.0
  0
POINT
  8
DEFPOINTS
  6
CONTINUOUS
 62
    30
 10
-837.5
 20
-18.0
 30
0.0
  0
POINT
  8
DEFPOINTS
  6
CONTINUOUS
 62
    30
 10
562.5
 20
-3.8951855171808338
 30
0.0
  0
POINT
  8
DEFPOINTS
  6
CONTINUOUS
 62
    30
 10
562.5
 20
624.55649216677102
 30
0.0
  0
LINE
  8
NOTE
  6
CONTINUOUS
 62
     4
 10
-503.1124708155366
 20
-464.84898222677202
 30
0.0
 11
-487.5
 21
-438.0
 31
0.0
  0
LINE
  8
NOTE
  6
CONTINUOUS
 62
     4
 10
-487.5
 20
-438.0
 30
0.0
 11
-487.59630536960771
 21
-469.05813608147258
 31
0.0
  0
LINE
  8
NOTE
  6
CONTINUOUS
 62
     4
 10
-487.5
 20
-438.0
 30
0.0
 11
-495.3543880925717
 21
-466.9535591541225
 31
0.0
  0
LINE
  8
NOTE
  6
CONTINUOUS
 62
     4
 10
-495.3543880925717
 20
-466.9535591541225
 30
0.0
 11
-560.71456781583765
 21
-707.89019325440404
 31
0.0
  0
LINE
  8
NOTE
  6
CONTINUOUS
 62
     4
 10
-560.71456781583765
 20
-707.89019325440404
 30
0.0
 11
-937.26062844130865
 21
-707.89019325440404
 31
0.0
  0
TEXT
  8
NOTE
  6
CONTINUOUS
 62
     4
 10
-956.06036951364865
 20
-692.63290937111105
 30
0.0
 40
64.0
  1
 D1 %%C32
 41
0.9
  0
LINE
  8
NOTE
  6
CONTINUOUS
 62
     4
 10
-112.331331561797
 20
-259.80232925269593
 30
0.0
 11
-137.5
 21
-278.0
 31
0.0
  0
LINE
  8
NOTE
  6
CONTINUOUS
 62
     4
 10
-137.5
 20
-278.0
 30
0.0
 11
-124.802128998157
 21
-249.65602068163301
 31
0.0
  0
LINE
  8
NOTE
  6
CONTINUOUS
 62
     4
 10
-137.5
 20
-278.0
 30
0.0
 11
-118.5667302799766
 21
-254.729174967164
 31
0.0
  0
LINE
  8
NOTE
  6
CONTINUOUS
 62
     4
 10
-118.5667302799766
 20
-254.729174967164
 30
0.0
 11
118.3161682357713
 21
36.422885197122923
 31
0.0
  0
LINE
  8
NOTE
  6
CONTINUOUS
 62
     4
 10
118.3161682357713
 20
36.422885197122923
 30
0.0
 11
514.58987616040019
 21
36.422885197122923
 31
0.0
  0
TEXT
  8
NOTE
  6
CONTINUOUS
 62
     4
 10
51.068219275661249
 20
211.5408662946966
 30
0.0
 40
64.0
  1
 RG %%C22.2
 41
0.9
  0
LINE
  8
NOTE
  6
CONTINUOUS
 62
     4
 10
560.77445390482978
 20
-14.925828218433701
 30
0.0
 11
531.5
 21
-25.300000000001091
 31
0.0
  0
LINE
  8
NOTE
  6
CONTINUOUS
 62
     4
 10
531.5
 20
-25.300000000001091
 30
0.0
 11
551.66533497987621
 21
-1.678476833006243
 31
0.0
  0
LINE
  8
NOTE
  6
CONTINUOUS
 62
     4
 10
531.5
 20
-25.300000000001091
 30
0.0
 11
556.2198944423526
 21
-8.3021525257199755
 31
0.0
  0
LINE
  8
NOTE
  6
CONTINUOUS
 62
     4
 10
556.2198944423526
 20
-8.3021525257199755
 30
0.0
 11
914.26323737256087
 21
237.89493971922909
 31
0.0
  0
LINE
  8
NOTE
  6
CONTINUOUS
 62
     4
 10
914.26323737256087
 20
237.89493971922909
 30
0.0
 11
1718.7795439310539
 21
237.89493971922909
 31
0.0
  0
TEXT
  8
NOTE
  6
CONTINUOUS
 62
     4
 10
930.48842300288015
 20
256.10525564202089
 30
0.0
 40
64.0
  1
AH 2x2 M10ボルト用
 41
0.9
  0
LINE
  8
SIZE
  6
CONTINUOUS
 62
    30
 10
-137.5
 20
-235.0
 30
0.0
 11
-137.5
 21
383.82677611044079
 31
0.0
  0
LINE
  8
SIZE
  6
CONTINUOUS
 62
    30
 10
-233.5
 20
-267.0
 30
0.0
 11
-233.5
 21
383.82677611044079
 31
0.0
  0
LINE
  8
SIZE
  6
CONTINUOUS
 62
    30
 10
-137.5
 20
363.82677611044068
 30
0.0
 11
-233.5
 21
363.82677611044068
 31
0.0
  0
CIRCLE
  8
SIZE
  6
CONTINUOUS
 62
    30
 10
-137.5
 20
363.82677611044068
 30
0.0
 40
7.5
  0
CIRCLE
  8
SIZE
  6
CONTINUOUS
 62
    30
 10
-233.5
 20
363.82677611044068
 30
0.0
 40
7.5
  0
TEXT
  8
SIZE
  6
CONTINUOUS
 62
    30
 10
-218.98000000000002
 20
383.82677611044068
 30
0.0
 40
40.0
  1
96
 50
0.0
 41
0.9
 51
0.0
  7
STANDARD
 71
     0
 72
     1
 11
-185.5
 21
383.82677611044068
 31
0.0
210
0.0
220
0.0
230
1.0
  0
POINT
  8
DEFPOINTS
  6
CONTINUOUS
 62
    30
 10
-137.5
 20
-255.0
 30
0.0
  0
POINT
  8
DEFPOINTS
  6
CONTINUOUS
 62
    30
 10
-233.5
 20
-287.0
 30
0.0
  0
POINT
  8
DEFPOINTS
  6
CONTINUOUS
 62
    30
 10
-233.5
 20
363.82677611044068
 30
0.0
  0
LINE
  8
SIZE
  6
CONTINUOUS
 62
    30
 10
-233.5
 20
-267.0
 30
0.0
 11
-233.5
 21
383.82677611044079
 31
0.0
  0
LINE
  8
SIZE
  6
CONTINUOUS
 62
    30
 10
-837.5
 20
2.0
 30
0.0
 11
-837.5
 21
383.82677611044079
 31
0.0
  0
LINE
  8
SIZE
  6
CONTINUOUS
 62
    30
 10
-233.5
 20
363.82677611044068
 30
0.0
 11
-837.5
 21
363.82677611044068
 31
0.0
  0
CIRCLE
  8
SIZE
  6
CONTINUOUS
 62
    30
 10
-233.5
 20
363.82677611044068
 30
0.0
 40
7.5
  0
CIRCLE
  8
SIZE
  6
CONTINUOUS
 62
    30
 10
-837.5
 20
363.82677611044068
 30
0.0
 40
7.5
  0
TEXT
  8
SIZE
  6
CONTINUOUS
 62
    30
 10
-586.44000000000005
 20
383.82677611044068
 30
0.0
 40
40.0
  1
604
 50
0.0
 41
0.9
 51
0.0
  7
STANDARD
 71
     0
 72
     1
 11
-535.5
 21
383.82677611044068
 31
0.0
210
0.0
220
0.0
230
1.0
  0
POINT
  8
DEFPOINTS
  6
CONTINUOUS
 62
    30
 10
-233.5
 20
-287.0
 30
0.0
  0
POINT
  8
DEFPOINTS
  6
CONTINUOUS
 62
    30
 10
-837.5
 20
-18.0
 30
0.0
  0
POINT
  8
DEFPOINTS
  6
CONTINUOUS
 62
    30
 10
-837.5
 20
363.82677611044068
 30
0.0
  0
LINE
  8
SIZE
  6
CONTINUOUS
 62
    30
 10
-837.5
 20
2.0
 30
0.0
 11
-837.5
 21
267.4267761104411
 31
0.0
  0
LINE
  8
SIZE
  6
CONTINUOUS
 62
    30
 10
-313.5
 20
-36.75
 30
0.0
 11
-313.5
 21
267.4267761104411
 31
0.0
  0
LINE
  8
SIZE
  6
CONTINUOUS
 62
    30
 10
-837.5
 20
247.4267761104411
 30
0.0
 11
-313.5
 21
247.4267761104411
 31
0.0
  0
CIRCLE
  8
SIZE
  6
CONTINUOUS
 62
    30
 10
-837.5
 20
247.4267761104411
 30
0.0
 40
7.5
  0
CIRCLE
  8
SIZE
  6
CONTINUOUS
 62
    30
 10
-313.5
 20
247.4267761104411
 30
0.0
 40
7.5
  0
TEXT
  8
SIZE
  6
CONTINUOUS
 62
    30
 10
-626.07999999999993
 20
267.4267761104411
 30
0.0
 40
40.0
  1
524
 50
0.0
 41
0.9
 51
0.0
  7
STANDARD
 71
     0
 72
     1
 11
-575.49999999999989
 21
267.4267761104411
 31
0.0
210
0.0
220
0.0
230
1.0
  0
POINT
  8
DEFPOINTS
  6
CONTINUOUS
 62
    30
 10
-837.5
 20
-18.0
 30
0.0
  0
POINT
  8
DEFPOINTS
  6
CONTINUOUS
 62
    30
 10
-313.5
 20
-56.75
 30
0.0
  0
POINT
  8
DEFPOINTS
  6
CONTINUOUS
 62
    30
 10
-313.5
 20
247.4267761104411
 30
0.0
  0
LINE
  8
SIZE
  6
CONTINUOUS
 62
    30
 10
-862.5
 20
-38.0
 30
0.0
 11
-862.5
 21
728.73770452817098
 31
0.0
  0
LINE
  8
SIZE
  6
CONTINUOUS
 62
    30
 10
862.5
 20
-18.0
 30
0.0
 11
862.5
 21
728.73770452817098
 31
0.0
  0
LINE
  8
SIZE
  6
CONTINUOUS
 62
    30
 10
-862.5
 20
708.73770452817087
 30
0.0
 11
862.5
 21
708.73770452817087
 31
0.0
  0
CIRCLE
  8
SIZE
  6
CONTINUOUS
 62
    30
 10
-862.5
 20
708.73770452817087
 30
0.0
 40
7.5
  0
CIRCLE
  8
SIZE
  6
CONTINUOUS
 62
    30
 10
862.5
 20
708.73770452817087
 30
0.0
 40
7.5
  0
TEXT
  8
SIZE
  6
CONTINUOUS
 62
    30
 10
-63.360000000000007
 20
728.73770452817098
 30
0.0
 40
40.0
  1
1725
 50
0.0
 41
0.9
 51
0.0
  7
STANDARD
 71
     0
 72
     1
 11
0.0
 21
728.73770452817098
 31
0.0
210
0.0
220
0.0
230
1.0
  0
POINT
  8
DEFPOINTS
  6
CONTINUOUS
 62
    30
 10
-862.5
 20
-58.0
 30
0.0
  0
POINT
  8
DEFPOINTS
  6
CONTINUOUS
 62
    30
 10
862.5
 20
-38.0
 30
0.0
  0
POINT
  8
DEFPOINTS
  6
CONTINUOUS
 62
    30
 10
862.5
 20
708.73770452817087
 30
0.0
  0
LINE
  8
SIZE
  6
CONTINUOUS
 62
    30
 10
-222.5
 20
-318.0
 30
0.0
 11
-1101.1489826779759
 21
-317.99999999999977
 31
0.0
  0
LINE
  8
SIZE
  6
CONTINUOUS
 62
    30
 10
112.5
 20
-472.99999999999989
 30
0.0
 11
-1101.1489826779759
 21
-472.9999999999996
 31
0.0
  0
LINE
  8
SIZE
  6
CONTINUOUS
 62
    30
 10
-1081.1489826779759
 20
-317.99999999999977
 30
0.0
 11
-1081.1489826779759
 21
-472.9999999999996
 31
0.0
  0
CIRCLE
  8
SIZE
  6
CONTINUOUS
 62
    30
 10
-1081.1489826779759
 20
-317.99999999999977
 30
0.0
 40
7.5
  0
CIRCLE
  8
SIZE
  6
CONTINUOUS
 62
    30
 10
-1081.1489826779759
 20
-472.9999999999996
 30
0.0
 40
7.5
  0
TEXT
  8
SIZE
  6
CONTINUOUS
 62
    30
 10
-1101.1489826779759
 20
-460.51346888931783
 30
0.0
 40
40.0
  1
155
 50
90.0
 41
0.9
 51
0.0
  7
STANDARD
 71
     0
 72
     1
 11
-1101.1489826779759
 21
-413.89346888931794
 31
0.0
210
0.0
220
0.0
230
1.0
  0
POINT
  8
DEFPOINTS
  6
CONTINUOUS
 62
    30
 10
-202.5
 20
-318.0
 30
0.0
  0
POINT
  8
DEFPOINTS
  6
CONTINUOUS
 62
    30
 10
132.5
 20
-473.0
 30
0.0
  0
POINT
  8
DEFPOINTS
  6
CONTINUOUS
 62
    30
 10
-1081.1489826779759
 20
-472.9999999999996
 30
0.0
  0
LINE
  8
SIZE
  6
CONTINUOUS
 62
    30
 10
-837.5
 20
2.0
 30
0.0
 11
-837.5
 21
174.92193669570679
 31
0.0
  0
LINE
  8
SIZE
  6
CONTINUOUS
 62
    30
 10
-349.5
 20
-155.5
 30
0.0
 11
-349.5
 21
174.92193669570679
 31
0.0
  0
LINE
  8
SIZE
  6
CONTINUOUS
 62
    30
 10
-837.5
 20
154.92193669570679
 30
0.0
 11
-349.5
 21
154.92193669570679
 31
0.0
  0
CIRCLE
  8
SIZE
  6
CONTINUOUS
 62
    30
 10
-837.5
 20
154.92193669570679
 30
0.0
 40
7.5
  0
CIRCLE
  8
SIZE
  6
CONTINUOUS
 62
    30
 10
-349.5
 20
154.92193669570679
 30
0.0
 40
7.5
  0
TEXT
  8
SIZE
  6
CONTINUOUS
 62
    30
 10
-644.08000000000004
 20
174.92193669570679
 30
0.0
 40
40.0
  1
488
 50
0.0
 41
0.9
 51
0.0
  7
STANDARD
 71
     0
 72
     1
 11
-593.5
 21
174.92193669570679
 31
0.0
210
0.0
220
0.0
230
1.0
  0
POINT
  8
DEFPOINTS
  6
CONTINUOUS
 62
    30
 10
-837.5
 20
-18.0
 30
0.0
  0
POINT
  8
DEFPOINTS
  6
CONTINUOUS
 62
    30
 10
-349.5
 20
-175.5
 30
0.0
  0
POINT
  8
DEFPOINTS
  6
CONTINUOUS
 62
    30
 10
-349.5
 20
154.92193669570679
 30
0.0
  0
LINE
  8
SIZE
  6
CONTINUOUS
 62
    30
 10
-837.5
 20
2.0
 30
0.0
 11
-837.5
 21
86.176771968424873
 31
0.0
  0
LINE
  8
SIZE
  6
CONTINUOUS
 62
    30
 10
-487.5
 20
-389.0
 30
0.0
 11
-487.49999999999989
 21
86.176771968424873
 31
0.0
  0
LINE
  8
SIZE
  6
CONTINUOUS
 62
    30
 10
-837.5
 20
66.176771968424873
 30
0.0
 11
-487.49999999999989
 21
66.176771968424873
 31
0.0
  0
CIRCLE
  8
SIZE
  6
CONTINUOUS
 62
    30
 10
-837.5
 20
66.176771968424873
 30
0.0
 40
7.5
  0
CIRCLE
  8
SIZE
  6
CONTINUOUS
 62
    30
 10
-487.49999999999989
 20
66.176771968424873
 30
0.0
 40
7.5
  0
TEXT
  8
SIZE
  6
CONTINUOUS
 62
    30
 10
-713.08000000000004
 20
86.176771968424802
 30
0.0
 40
40.0
  1
350
 50
0.0
 41
0.9
 51
0.0
  7
STANDARD
 71
     0
 72
     1
 11
-662.5
 21
86.176771968424802
 31
0.0
210
0.0
220
0.0
230
1.0
  0
POINT
  8
DEFPOINTS
  6
CONTINUOUS
 62
    30
 10
-837.5
 20
-18.0
 30
0.0
  0
POINT
  8
DEFPOINTS
  6
CONTINUOUS
 62
    30
 10
-487.5
 20
-409.0
 30
0.0
  0
POINT
  8
DEFPOINTS
  6
CONTINUOUS
 62
    30
 10
-487.49999999999989
 20
66.176771968424873
 30
0.0
  0
TEXT
  8
NOTE
  6
CONTINUOUS
 62
     4
 10
103.8868044959345
 20
52.88974297299773
 30
0.0
 40
64.0
  1
 RL %%C9.52
 41
0.9
  0
LINE
  8
NOTE
  6
CONTINUOUS
 62
     4
 10
-211.61105883198701
 20
-295.96613183930782
 30
0.0
 11
-233.5
 21
-318.0
 31
0.0
  0
LINE
  8
NOTE
  6
CONTINUOUS
 62
     4
 10
-233.5
 20
-318.0
 30
0.0
 11
-225.56055483068849
 21
-287.97363988121469
 31
0.0
  0
LINE
  8
NOTE
  6
CONTINUOUS
 62
     4
 10
-233.5
 20
-318.0
 30
0.0
 11
-218.58580683133829
 21
-291.969885860261
 31
0.0
  0
LINE
  8
NOTE
  6
CONTINUOUS
 62
     4
 10
-218.58580683133829
 20
-291.969885860261
 30
0.0
 11
54.62383165592837
 21
184.86972547343149
 31
0.0
  0
LINE
  8
NOTE
  6
CONTINUOUS
 62
     4
 10
54.62383165592837
 20
184.86972547343149
 30
0.0
 11
520.55173886620832
 21
184.86972547343149
 31
0.0
  0
LINE
  8
NOTE
  6
CONTINUOUS
 62
     4
 10
-347.54374662918138
 20
-223.9966153689183
 30
0.0
 11
-349.5
 21
-193.0
 31
0.0
  0
LINE
  8
NOTE
  6
CONTINUOUS
 62
     4
 10
-349.5
 20
-193.0
 30
0.0
 11
-332.30752731751448
 21
-218.86572973340299
 31
0.0
  0
LINE
  8
NOTE
  6
CONTINUOUS
 62
     4
 10
-349.5
 20
-193.0
 30
0.0
 11
-339.92563697334748
 21
-221.4311725511607
 31
0.0
  0
LINE
  8
NOTE
  6
CONTINUOUS
 62
     4
 10
-339.92563697334748
 20
-221.4311725511607
 30
0.0
 11
-170.43634265344369
 21
-724.73142959903362
 31
0.0
  0
LINE
  8
NOTE
  6
CONTINUOUS
 62
     4
 10
-170.43634265344369
 20
-724.73142959903362
 30
0.0
 11
727.34496725056306
 21
-724.73142959903362
 31
0.0
  0
TEXT
  8
NOTE
  6
CONTINUOUS
 62
     4
 10
-137.55178368499401
 20
-703.39807619463409
 30
0.0
 40
64.0
  1
加湿器給水口(1／2Bおねじ) 
 41
0.9
  0
LINE
  8
NOTE
  6
CONTINUOUS
 62
     4
 10
-288.89063386960419
 20
-59.052805214501859
 30
0.0
 11
-313.5
 21
-78.0
 31
0.0
  0
LINE
  8
NOTE
  6
CONTINUOUS
 62
     4
 10
-313.5
 20
-78.0
 30
0.0
 11
-301.66126102253378
 21
-49.286564973815068
 31
0.0
  0
LINE
  8
NOTE
  6
CONTINUOUS
 62
     4
 10
-313.5
 20
-78.0
 30
0.0
 11
-295.2759474460691
 21
-54.169685094158922
 31
0.0
  0
LINE
  8
NOTE
  6
CONTINUOUS
 62
     4
 10
-295.2759474460691
 20
-54.169685094158922
 30
0.0
 11
54.62383165592837
 21
403.36970669641232
 31
0.0
  0
LINE
  8
NOTE
  6
CONTINUOUS
 62
     4
 10
54.62383165592837
 20
403.36970669641232
 30
0.0
 11
396.23707634479427
 21
403.36970669641232
 31
0.0
  0
TEXT
  8
NOTE
  6
CONTINUOUS
 62
     4
 10
51.16899001016008
 20
425.83603684338601
 30
0.0
 40
64.0
  1
 D2 %%C32
 41
0.9
  0
LINE
  8
NOTE
  6
CONTINUOUS
 62
     4
 10
-806.49999999999989
 20
-12.25409156539172
 30
0.0
 11
-806.49999999999989
 21
-38.345908434611381
 31
0.0
  0
LINE
  8
NOTE
  6
CONTINUOUS
 62
     4
 10
-819.54590843460937
 20
-25.300000000000178
 30
0.0
 11
-793.45409156539063
 21
-25.300000000000178
 31
0.0
  0
LINE
  8
NOTE
  6
CONTINUOUS
 62
     4
 10
531.5
 20
-12.25409156539172
 30
0.0
 11
531.5
 21
-38.345908434611381
 31
0.0
  0
LINE
  8
NOTE
  6
CONTINUOUS
 62
     4
 10
518.45409156539063
 20
-25.300000000000178
 30
0.0
 11
544.54590843460937
 21
-25.300000000000178
 31
0.0
  0
LINE
  8
SIZE
  6
CONTINUOUS
 62
    30
 10
-134.5
 20
-277.99999999999989
 30
0.0
 11
-1101.1489826779759
 21
-277.99999999999972
 31
0.0
  0
LINE
  8
SIZE
  6
CONTINUOUS
 62
    30
 10
-222.5
 20
-318.0
 30
0.0
 11
-1101.1489826779759
 21
-317.99999999999977
 31
0.0
  0
LINE
  8
SIZE
  6
CONTINUOUS
 62
    30
 10
-1081.1489826779759
 20
-317.99999999999977
 30
0.0
 11
-1081.1489826779759
 21
-277.99999999999972
 31
0.0
  0
LINE
  8
SIZE
  6
CONTINUOUS
 62
    30
 10
-1081.1489826779759
 20
-277.99999999999972
 30
0.0
 11
-1081.1489826779759
 21
-100.5714285714262
 31
0.0
  0
CIRCLE
  8
SIZE
  6
CONTINUOUS
 62
    30
 10
-1081.1489826779759
 20
-317.99999999999977
 30
0.0
 40
7.5
  0
CIRCLE
  8
SIZE
  6
CONTINUOUS
 62
    30
 10
-1081.1489826779759
 20
-277.99999999999972
 30
0.0
 40
7.5
  0
TEXT
  8
SIZE
  6
CONTINUOUS
 62
    30
 10
-1101.1489826779759
 20
-183.91428571428355
 30
0.0
 40
40.0
  1
40
 50
90.0
 41
0.9
 51
0.0
  7
STANDARD
 71
     0
 72
     1
 11
-1101.1489826779759
 21
-149.71428571428351
 31
0.0
210
0.0
220
0.0
230
1.0
  0
POINT
  8
DEFPOINTS
  6
CONTINUOUS
 62
    30
 10
-114.5
 20
-278.0
 30
0.0
  0
POINT
  8
DEFPOINTS
  6
CONTINUOUS
 62
    30
 10
-202.5
 20
-318.0
 30
0.0
  0
POINT
  8
DEFPOINTS
  6
CONTINUOUS
 62
    30
 10
-1081.1489826779759
 20
-317.99999999999977
 30
0.0
  0
LINE
  8
BASIS
  6
DASHDOT
 62
     6
 10
0.0
 20
-514.87458983285831
 30
0.0
 11
0.0
 21
78.739365757071013
 31
0.0
  0
CIRCLE
  8
ARRANGE
  6
CONTINUOUS
 62
     1
 10
0.0
 20
0.0
 30
0.0
 40
40.0
  0
LINE
  8
ARRANGE
  6
CONTINUOUS
 62
     1
 10
-36.845437407348072
 20
-36.845437407349891
 30
0.0
 11
36.845437407350801
 21
36.845437407348072
 31
0.0
  0
LINE
  8
ARRANGE
  6
CONTINUOUS
 62
     1
 10
-36.845437407348072
 20
36.845437407348072
 30
0.0
 11
36.845437407350801
 21
-36.84543740735171
 31
0.0
  0
LINE
  8
SIZE
  6
CONTINUOUS
 62
    30
 10
-837.5
 20
2.0
 30
0.0
 11
-837.5
 21
644.55649216677102
 31
0.0
  0
LINE
  8
SIZE
  6
CONTINUOUS
 62
    30
 10
-862.5
 20
-42.0
 30
0.0
 11
-862.5
 21
644.55649216677102
 31
0.0
  0
LINE
  8
SIZE
  6
CONTINUOUS
 62
    30
 10
-837.5
 20
624.55649216677102
 30
0.0
 11
-807.49999999999989
 21
624.55649216677102
 31
0.0
  0
LINE
  8
SIZE
  6
CONTINUOUS
 62
    30
 10
-862.5
 20
624.55649216677102
 30
0.0
 11
-1023.310245585943
 21
624.55649216677102
 31
0.0
  0
LINE
  8
SIZE
  6
CONTINUOUS
 62
    30
 10
-837.5
 20
624.55649216677102
 30
0.0
 11
-862.5
 21
624.55649216677102
 31
0.0
  0
CIRCLE
  8
SIZE
  6
CONTINUOUS
 62
    30
 10
-837.5
 20
624.55649216677102
 30
0.0
 40
7.5
  0
CIRCLE
  8
SIZE
  6
CONTINUOUS
 62
    30
 10
-862.5
 20
624.55649216677102
 30
0.0
 40
7.5
  0
TEXT
  8
SIZE
  6
CONTINUOUS
 62
    30
 10
-1007.6473884430865
 20
644.55649216677102
 30
0.0
 40
40.0
  1
25
 50
0.0
 41
0.9
 51
0.0
  7
STANDARD
 71
     0
 72
     1
 11
-974.16738844308645
 21
644.55649216677102
 31
0.0
210
0.0
220
0.0
230
1.0
  0
POINT
  8
DEFPOINTS
  6
CONTINUOUS
 62
    30
 10
-837.5
 20
-18.0
 30
0.0
  0
POINT
  8
DEFPOINTS
  6
CONTINUOUS
 62
    30
 10
-862.5
 20
-62.0
 30
0.0
  0
POINT
  8
DEFPOINTS
  6
CONTINUOUS
 62
    30
 10
-862.5
 20
624.55649216677102
 30
0.0
  0
LINE
  8
SIZE
  6
CONTINUOUS
 62
    30
 10
837.5
 20
17.0
 30
0.0
 11
837.5
 21
644.55649216677102
 31
0.0
  0
LINE
  8
SIZE
  6
CONTINUOUS
 62
    30
 10
562.5057337022663
 20
16.106932358015911
 30
0.0
 11
562.5057337022663
 21
644.55649216677102
 31
0.0
  0
LINE
  8
SIZE
  6
CONTINUOUS
 62
    30
 10
837.5
 20
624.55649216677102
 30
0.0
 11
562.5057337022663
 21
624.55649216677102
 31
0.0
  0
CIRCLE
  8
SIZE
  6
CONTINUOUS
 62
    30
 10
837.5
 20
624.55649216677102
 30
0.0
 40
7.5
  0
CIRCLE
  8
SIZE
  6
CONTINUOUS
 62
    30
 10
562.5057337022663
 20
624.55649216677102
 30
0.0
 40
7.5
  0
TEXT
  8
SIZE
  6
CONTINUOUS
 62
    30
 10
649.78286685113312
 20
644.55649216677102
 30
0.0
 40
40.0
  1
275
 50
0.0
 41
0.9
 51
0.0
  7
STANDARD
 71
     0
 72
     1
 11
700.00286685113315
 21
644.55649216677102
 31
0.0
210
0.0
220
0.0
230
1.0
  0
POINT
  8
DEFPOINTS
  6
CONTINUOUS
 62
    30
 10
837.5
 20
-3.0
 30
0.0
  0
POINT
  8
DEFPOINTS
  6
CONTINUOUS
 62
    30
 10
562.5057337022663
 20
-3.8930676419840888
 30
0.0
  0
POINT
  8
DEFPOINTS
  6
CONTINUOUS
 62
    30
 10
562.5057337022663
 20
624.55649216677102
 30
0.0
  0
LINE
  8
SIZE
  6
CONTINUOUS
 62
    30
 10
862.5
 20
-18.0
 30
0.0
 11
862.5
 21
644.55649216677102
 31
0.0
  0
LINE
  8
SIZE
  6
CONTINUOUS
 62
    30
 10
837.5
 20
17.0
 30
0.0
 11
837.5
 21
644.55649216677102
 31
0.0
  0
LINE
  8
SIZE
  6
CONTINUOUS
 62
    30
 10
837.5
 20
624.55649216677102
 30
0.0
 11
807.49999999999989
 21
624.55649216677102
 31
0.0
  0
LINE
  8
SIZE
  6
CONTINUOUS
 62
    30
 10
862.5
 20
624.55649216677102
 30
0.0
 11
1020.785714285714
 21
624.55649216677102
 31
0.0
  0
LINE
  8
SIZE
  6
CONTINUOUS
 62
    30
 10
837.5
 20
624.55649216677102
 30
0.0
 11
862.5
 21
624.55649216677102
 31
0.0
  0
CIRCLE
  8
SIZE
  6
CONTINUOUS
 62
    30
 10
837.5
 20
624.55649216677102
 30
0.0
 40
7.5
  0
CIRCLE
  8
SIZE
  6
CONTINUOUS
 62
    30
 10
862.5
 20
624.55649216677102
 30
0.0
 40
7.5
  0
TEXT
  8
SIZE
  6
CONTINUOUS
 62
    30
 10
938.16285714285698
 20
644.55649216677102
 30
0.0
 40
40.0
  1
25
 50
0.0
 41
0.9
 51
0.0
  7
STANDARD
 71
     0
 72
     1
 11
971.642857142857
 21
644.55649216677102
 31
0.0
210
0.0
220
0.0
230
1.0
  0
POINT
  8
DEFPOINTS
  6
CONTINUOUS
 62
    30
 10
862.5
 20
-38.0
 30
0.0
  0
POINT
  8
DEFPOINTS
  6
CONTINUOUS
 62
    30
 10
837.5
 20
-3.0
 30
0.0
  0
POINT
  8
DEFPOINTS
  6
CONTINUOUS
 62
    30
 10
837.5
 20
624.55649216677102
 30
0.0
  0
LINE
  8
SIZE
  6
CONTINUOUS
 62
    30
 10
-387.0
 20
-193.0
 30
0.0
 11
-1221.1489826779759
 21
-192.99999999999969
 31
0.0
  0
LINE
  8
SIZE
  6
CONTINUOUS
 62
    30
 10
-20.205466315223021
 20
-473.0
 30
0.0
 11
-1221.1489826779759
 21
-472.9999999999996
 31
0.0
  0
LINE
  8
SIZE
  6
CONTINUOUS
 62
    30
 10
-1201.1489826779759
 20
-192.99999999999969
 30
0.0
 11
-1201.1489826779759
 21
-472.9999999999996
 31
0.0
  0
CIRCLE
  8
SIZE
  6
CONTINUOUS
 62
    30
 10
-1201.1489826779759
 20
-192.99999999999969
 30
0.0
 40
7.5
  0
CIRCLE
  8
SIZE
  6
CONTINUOUS
 62
    30
 10
-1201.1489826779759
 20
-472.9999999999996
 30
0.0
 40
7.5
  0
TEXT
  8
SIZE
  6
CONTINUOUS
 62
    30
 10
-1221.1489826779759
 20
-333.86365673192904
 30
0.0
 40
40.0
  1
280
 50
90.0
 41
0.9
 51
0.0
  7
STANDARD
 71
     0
 72
     1
 11
-1221.1489826779759
 21
-283.28365673192911
 31
0.0
210
0.0
220
0.0
230
1.0
  0
POINT
  8
DEFPOINTS
  6
CONTINUOUS
 62
    30
 10
-367.0
 20
-193.0
 30
0.0
  0
POINT
  8
DEFPOINTS
  6
CONTINUOUS
 62
    30
 10
-0.2054663152230205
 20
-473.0
 30
0.0
  0
POINT
  8
DEFPOINTS
  6
CONTINUOUS
 62
    30
 10
-1201.1489826779759
 20
-472.9999999999996
 30
0.0
  0
LINE
  8
SIZE
  6
CONTINUOUS
 62
    30
 10
-536.5
 20
-438.0
 30
0.0
 11
-981.14898267797616
 21
-437.99999999999977
 31
0.0
  0
LINE
  8
SIZE
  6
CONTINUOUS
 62
    30
 10
112.5
 20
-472.99999999999989
 30
0.0
 11
-981.14898267797605
 21
-472.9999999999996
 31
0.0
  0
LINE
  8
SIZE
  6
CONTINUOUS
 62
    30
 10
-961.14898267797628
 20
-437.99999999999989
 30
0.0
 11
-961.14898267797628
 21
-407.99999999999989
 31
0.0
  0
LINE
  8
SIZE
  6
CONTINUOUS
 62
    30
 10
-961.14898267797628
 20
-472.9999999999996
 30
0.0
 11
-961.14898267797628
 21
-631.28571428571399
 31
0.0
  0
LINE
  8
SIZE
  6
CONTINUOUS
 62
    30
 10
-961.14898267797628
 20
-437.99999999999989
 30
0.0
 11
-961.14898267797628
 21
-472.9999999999996
 31
0.0
  0
CIRCLE
  8
SIZE
  6
CONTINUOUS
 62
    30
 10
-961.14898267797628
 20
-437.99999999999989
 30
0.0
 40
7.5
  0
CIRCLE
  8
SIZE
  6
CONTINUOUS
 62
    30
 10
-961.14898267797628
 20
-472.9999999999996
 30
0.0
 40
7.5
  0
TEXT
  8
SIZE
  6
CONTINUOUS
 62
    30
 10
-981.14898267797605
 20
-615.62285714285667
 30
0.0
 40
40.0
  1
35
 50
90.0
 41
0.9
 51
0.0
  7
STANDARD
 71
     0
 72
     1
 11
-981.14898267797605
 21
-582.14285714285666
 31
0.0
210
0.0
220
0.0
230
1.0
  0
POINT
  8
DEFPOINTS
  6
CONTINUOUS
 62
    30
 10
-516.5
 20
-438.0
 30
0.0
  0
POINT
  8
DEFPOINTS
  6
CONTINUOUS
 62
    30
 10
132.5
 20
-473.0
 30
0.0
  0
POINT
  8
DEFPOINTS
  6
CONTINUOUS
 62
    30
 10
-961.14898267797628
 20
-472.9999999999996
 30
0.0
  0
LINE
  8
SIZE
  6
CONTINUOUS
 62
    30
 10
-806.49999999999989
 20
-5.300000000000181
 30
0.0
 11
-806.49999999999989
 21
533.24276493192417
 31
0.0
  0
LINE
  8
SIZE
  6
CONTINUOUS
 62
    30
 10
-836.69999999999993
 20
2.0
 30
0.0
 11
-836.69999999999993
 21
533.24276493192417
 31
0.0
  0
LINE
  8
SIZE
  6
CONTINUOUS
 62
    30
 10
-806.49999999999989
 20
513.24276493192417
 30
0.0
 11
-776.5
 21
513.24276493192417
 31
0.0
  0
LINE
  8
SIZE
  6
CONTINUOUS
 62
    30
 10
-836.69999999999993
 20
513.24276493192417
 30
0.0
 11
-1025.2402536854549
 21
513.24276493192417
 31
0.0
  0
LINE
  8
SIZE
  6
CONTINUOUS
 62
    30
 10
-806.49999999999989
 20
513.24276493192417
 30
0.0
 11
-836.69999999999993
 21
513.24276493192417
 31
0.0
  0
CIRCLE
  8
SIZE
  6
CONTINUOUS
 62
    30
 10
-806.49999999999989
 20
513.24276493192417
 30
0.0
 40
7.5
  0
CIRCLE
  8
SIZE
  6
CONTINUOUS
 62
    30
 10
-836.69999999999993
 20
513.24276493192417
 30
0.0
 40
7.5
  0
TEXT
  8
SIZE
  6
CONTINUOUS
 62
    30
 10
-1009.9373965425982
 20
533.24276493192428
 30
0.0
 40
40.0
  1
30
 50
0.0
 41
0.9
 51
0.0
  7
STANDARD
 71
     0
 72
     1
 11
-976.09739654259818
 21
533.24276493192428
 31
0.0
210
0.0
220
0.0
230
1.0
  0
POINT
  8
DEFPOINTS
  6
CONTINUOUS
 62
    30
 10
-806.49999999999989
 20
-25.300000000000178
 30
0.0
  0
POINT
  8
DEFPOINTS
  6
CONTINUOUS
 62
    30
 10
-836.69999999999993
 20
-18.0
 30
0.0
  0
POINT
  8
DEFPOINTS
  6
CONTINUOUS
 62
    30
 10
-836.69999999999993
 20
513.24276493192417
 30
0.0
  0
TEXT
  8
ETC
  6
CONTINUOUS
 62
    61
 10
-1450.3780291637479
 20
1018.066247579815
 30
0.0
 40
64.0
  1
GE-P2100MG6_4
 41
0.9
  0
LINE
  8
OUTLINE
  6
CONTINUOUS
 62
     3
 10
-862.5
 20
-58.0
 30
0.0
 11
-862.5
 21
-62.0
 31
0.0
  0
LINE
  8
OUTLINE
  6
CONTINUOUS
 62
     3
 10
-862.5
 20
-62.0
 30
0.0
 11
-862.5
 21
-354.0
 31
0.0
  0
LINE
  8
OUTLINE
  6
CONTINUOUS
 62
     3
 10
-862.5
 20
-358.0
 30
0.0
 11
-862.5
 21
-354.0
 31
0.0
  0
LINE
  8
OUTLINE
  6
CONTINUOUS
 62
     3
 10
-842.5
 20
-458.0
 30
0.0
 11
-842.5
 21
-358.0
 31
0.0
  0
LINE
  8
OUTLINE
  6
CONTINUOUS
 62
     3
 10
-842.5
 20
-58.0
 30
0.0
 11
-842.5
 21
0.0
 31
0.0
  0
LINE
  8
OUTLINE
  6
CONTINUOUS
 62
     3
 10
-838.30000000000018
 20
-458.0
 30
0.0
 11
-838.30000000000018
 21
-476.0
 31
0.0
  0
LINE
  8
OUTLINE
  6
CONTINUOUS
 62
     3
 10
-795.0
 20
-476.0
 30
0.0
 11
-795.0
 21
-479.0
 31
0.0
  0
LINE
  8
OUTLINE
  6
CONTINUOUS
 62
     3
 10
-780.0
 20
-476.0
 30
0.0
 11
-780.0
 21
-479.0
 31
0.0
  0
LINE
  8
OUTLINE
  6
CONTINUOUS
 62
     3
 10
60.0
 20
-479.0
 30
0.0
 11
45.0
 21
-479.0
 31
0.0
  0
LINE
  8
OUTLINE
  6
CONTINUOUS
 62
     3
 10
-360.0
 20
-479.0
 30
0.0
 11
-375.0
 21
-479.0
 31
0.0
  0
LINE
  8
OUTLINE
  6
CONTINUOUS
 62
     3
 10
-780.0
 20
-479.0
 30
0.0
 11
-795.0
 21
-479.0
 31
0.0
  0
LINE
  8
OUTLINE
  6
CONTINUOUS
 62
     3
 10
132.5
 20
-477.19999999999982
 30
0.0
 11
107.5
 21
-477.19999999999982
 31
0.0
  0
LINE
  8
OUTLINE
  6
CONTINUOUS
 62
     3
 10
563.49999999999989
 20
-476.0
 30
0.0
 11
443.5
 21
-476.0
 31
0.0
  0
LINE
  8
OUTLINE
  6
CONTINUOUS
 62
     3
 10
251.89999999999969
 20
-476.0
 30
0.0
 11
132.5
 21
-476.0
 31
0.0
  0
LINE
  8
OUTLINE
  6
CONTINUOUS
 62
     3
 10
-838.30000000000018
 20
-476.0
 30
0.0
 11
-795.0
 21
-476.0
 31
0.0
  0
LINE
  8
OUTLINE
  6
CONTINUOUS
 62
     3
 10
-780.0
 20
-476.0
 30
0.0
 11
-375.0
 21
-476.0
 31
0.0
  0
LINE
  8
OUTLINE
  6
CONTINUOUS
 62
     3
 10
-360.0
 20
-476.0
 30
0.0
 11
45.0
 21
-476.0
 31
0.0
  0
LINE
  8
OUTLINE
  6
CONTINUOUS
 62
     3
 10
60.0
 20
-476.0
 30
0.0
 11
107.5
 21
-476.0
 31
0.0
  0
LINE
  8
OUTLINE
  6
CONTINUOUS
 62
     3
 10
589.10000000000025
 20
-476.0
 30
0.0
 11
842.5
 21
-476.0
 31
0.0
  0
LINE
  8
OUTLINE
  6
CONTINUOUS
 62
     3
 10
589.10000000000025
 20
-473.0
 30
0.0
 11
588.49999999999989
 21
-473.0
 31
0.0
  0
LINE
  8
OUTLINE
  6
CONTINUOUS
 62
     3
 10
588.49999999999989
 20
-473.0
 30
0.0
 11
587.5
 21
-473.0
 31
0.0
  0
LINE
  8
OUTLINE
  6
CONTINUOUS
 62
     3
 10
563.49999999999989
 20
-473.0
 30
0.0
 11
562.5
 21
-473.0
 31
0.0
  0
LINE
  8
OUTLINE
  6
CONTINUOUS
 62
     3
 10
251.89999999999969
 20
-473.0
 30
0.0
 11
443.5
 21
-473.0
 31
0.0
  0
LINE
  8
OUTLINE
  6
CONTINUOUS
 62
     3
 10
563.49999999999989
 20
-463.0
 30
0.0
 11
567.49999999999989
 21
-463.0
 31
0.0
  0
LINE
  8
OUTLINE
  6
CONTINUOUS
 62
     3
 10
587.5
 20
-458.0
 30
0.0
 11
567.49999999999989
 21
-458.0
 31
0.0
  0
LINE
  8
OUTLINE
  6
CONTINUOUS
 62
     3
 10
-842.5
 20
-458.0
 30
0.0
 11
-838.30000000000018
 21
-458.0
 31
0.0
  0
LINE
  8
OUTLINE
  6
CONTINUOUS
 62
     3
 10
-375.0
 20
-476.0
 30
0.0
 11
-375.0
 21
-479.0
 31
0.0
  0
LINE
  8
OUTLINE
  6
CONTINUOUS
 62
     3
 10
-360.0
 20
-476.0
 30
0.0
 11
-360.0
 21
-479.0
 31
0.0
  0
LINE
  8
OUTLINE
  6
CONTINUOUS
 62
     3
 10
-842.5
 20
-358.0
 30
0.0
 11
-862.5
 21
-358.0
 31
0.0
  0
LINE
  8
OUTLINE
  6
CONTINUOUS
 62
     3
 10
-862.5
 20
-58.0
 30
0.0
 11
-842.5
 21
-58.0
 31
0.0
  0
LINE
  8
OUTLINE
  6
CONTINUOUS
 62
     3
 10
841.69999999999982
 20
-37.800000000000182
 30
0.0
 11
837.09429404880029
 21
-37.800000000000182
 31
0.0
  0
LINE
  8
OUTLINE
  6
CONTINUOUS
 62
     3
 10
837.5
 20
-37.0
 30
0.0
 11
842.5
 21
-37.0
 31
0.0
  0
LINE
  8
OUTLINE
  6
CONTINUOUS
 62
     3
 10
151.69999999999979
 20
-3.800000000000181
 30
0.0
 11
152.52020410288691
 21
-3.800000000000181
 31
0.0
  0
LINE
  8
OUTLINE
  6
CONTINUOUS
 62
     3
 10
133.3000000000001
 20
-3.0
 30
0.0
 11
151.69999999999979
 21
-3.0
 31
0.0
  0
LINE
  8
OUTLINE
  6
CONTINUOUS
 62
     3
 10
-842.5
 20
0.0
 30
0.0
 11
133.3000000000001
 21
0.0
 31
0.0
  0
LINE
  8
OUTLINE
  6
CONTINUOUS
 62
     3
 10
153.5
 20
0.0
 30
0.0
 11
842.5
 21
0.0
 31
0.0
  0
LINE
  8
OUTLINE
  6
CONTINUOUS
 62
     3
 10
45.0
 20
-476.0
 30
0.0
 11
45.0
 21
-479.0
 31
0.0
  0
LINE
  8
OUTLINE
  6
CONTINUOUS
 62
     3
 10
60.0
 20
-476.0
 30
0.0
 11
60.0
 21
-479.0
 31
0.0
  0
LINE
  8
OUTLINE
  6
CONTINUOUS
 62
     3
 10
107.5
 20
-477.19999999999982
 30
0.0
 11
107.5
 21
-476.0
 31
0.0
  0
LINE
  8
OUTLINE
  6
CONTINUOUS
 62
     3
 10
132.5
 20
-477.19999999999982
 30
0.0
 11
132.5
 21
-476.0
 31
0.0
  0
LINE
  8
OUTLINE
  6
CONTINUOUS
 62
     3
 10
133.3000000000001
 20
-3.0
 30
0.0
 11
133.3000000000001
 21
0.0
 31
0.0
  0
LINE
  8
OUTLINE
  6
CONTINUOUS
 62
     3
 10
151.69999999999979
 20
-3.0
 30
0.0
 11
151.69999999999979
 21
-3.800000000000181
 31
0.0
  0
LINE
  8
OUTLINE
  6
CONTINUOUS
 62
     3
 10
153.5
 20
-3.0
 30
0.0
 11
153.5
 21
-3.0
 31
0.0
  0
LINE
  8
OUTLINE
  6
CONTINUOUS
 62
     3
 10
153.5
 20
-3.0
 30
0.0
 11
153.5
 21
0.0
 31
0.0
  0
LINE
  8
OUTLINE
  6
CONTINUOUS
 62
     3
 10
251.89999999999969
 20
-473.0
 30
0.0
 11
251.89999999999969
 21
-476.0
 31
0.0
  0
LINE
  8
OUTLINE
  6
CONTINUOUS
 62
     3
 10
443.5
 20
-473.0
 30
0.0
 11
443.5
 21
-476.0
 31
0.0
  0
LINE
  8
OUTLINE
  6
CONTINUOUS
 62
     3
 10
563.49999999999989
 20
-473.0
 30
0.0
 11
563.49999999999989
 21
-476.0
 31
0.0
  0
LINE
  8
OUTLINE
  6
CONTINUOUS
 62
     3
 10
563.49999999999989
 20
-472.0
 30
0.0
 11
563.49999999999989
 21
-463.0
 31
0.0
  0
LINE
  8
OUTLINE
  6
CONTINUOUS
 62
     3
 10
567.49999999999989
 20
-458.0
 30
0.0
 11
567.49999999999989
 21
-463.0
 31
0.0
  0
LINE
  8
OUTLINE
  6
CONTINUOUS
 62
     3
 10
587.5
 20
-473.0
 30
0.0
 11
587.5
 21
-472.0
 31
0.0
  0
LINE
  8
OUTLINE
  6
CONTINUOUS
 62
     3
 10
587.5
 20
-472.0
 30
0.0
 11
587.5
 21
-458.0
 31
0.0
  0
LINE
  8
OUTLINE
  6
CONTINUOUS
 62
     3
 10
589.10000000000025
 20
-473.0
 30
0.0
 11
589.10000000000025
 21
-476.0
 31
0.0
  0
LINE
  8
OUTLINE
  6
CONTINUOUS
 62
     3
 10
841.69999999999982
 20
-37.800000000000182
 30
0.0
 11
841.69999999999982
 21
-38.0
 31
0.0
  0
LINE
  8
OUTLINE
  6
CONTINUOUS
 62
     3
 10
842.5
 20
0.0
 30
0.0
 11
842.5
 21
-37.0
 31
0.0
  0
LINE
  8
OUTLINE
  6
CONTINUOUS
 62
     3
 10
842.5
 20
-458.0
 30
0.0
 11
842.5
 21
-476.0
 31
0.0
  0
ARC
  8
OUTLINE
  6
CONTINUOUS
 62
     3
 10
562.5
 20
-472.0
 30
0.0
 40
1.0
 50
270.0
 51
0.0
  0
ARC
  8
OUTLINE
  6
CONTINUOUS
 62
     3
 10
836.5
 20
-37.0
 30
0.0
 40
0.9999999999998593
 50
306.86989764581278
 51
0.0
  0
ARC
  8
OUTLINE
  6
CONTINUOUS
 62
     3
 10
153.5
 20
-4.0
 30
0.0
 40
1.0
 50
90.0
 51
168.463040967192
  0
LINE
  8
OUTLINE
  6
CONTINUOUS
 62
     3
 10
842.5
 20
-458.0
 30
0.0
 11
843.30000000000007
 21
-458.0
 31
0.0
  0
LINE
  8
OUTLINE
  6
CONTINUOUS
 62
     3
 10
843.29999999999916
 20
-438.0
 30
0.0
 11
862.5
 21
-438.0
 31
0.0
  0
LINE
  8
OUTLINE
  6
CONTINUOUS
 62
     3
 10
841.69999999999982
 20
-38.0
 30
0.0
 11
862.5
 21
-38.0
 31
0.0
  0
LINE
  8
OUTLINE
  6
CONTINUOUS
 62
     3
 10
843.30000000000007
 20
-438.0
 30
0.0
 11
843.30000000000007
 21
-458.0
 31
0.0
  0
LINE
  8
OUTLINE
  6
CONTINUOUS
 62
     3
 10
862.5
 20
-438.0
 30
0.0
 11
862.5
 21
-38.0
 31
0.0
  0
LINE
  8
NOTE
  6
CONTINUOUS
 62
     4
 10
971.05019227779019
 20
-111.087211247428
 30
0.0
 11
971.05019227779019
 21
-90.84400461261157
 31
0.0
  0
LINE
  8
NOTE
  6
CONTINUOUS
 62
     4
 10
971.05019227779019
 20
-164.9318948888413
 30
0.0
 11
971.05019227779019
 21
-144.6886882540239
 31
0.0
  0
LINE
  8
NOTE
  6
CONTINUOUS
 62
     4
 10
971.05019227779019
 20
-90.84400461261157
 30
0.0
 11
935.19355307356
 21
-127.88794975072589
 31
0.0
  0
LINE
  8
NOTE
  6
CONTINUOUS
 62
     4
 10
971.05019227779019
 20
-164.9318948888413
 30
0.0
 11
935.19355307356
 21
-127.88794975072589
 31
0.0
  0
LINE
  8
NOTE
  6
CONTINUOUS
 62
     4
 10
971.05019227779019
 20
-111.087211247428
 30
0.0
 11
1006.768127048425
 21
-111.087211247428
 31
0.0
  0
LINE
  8
NOTE
  6
CONTINUOUS
 62
     4
 10
971.05019227779019
 20
-144.6886882540239
 30
0.0
 11
1006.768127048425
 21
-144.6886882540239
 31
0.0
  0
LINE
  8
NOTE
  6
CONTINUOUS
 62
     4
 10
1006.768127048425
 20
-144.6886882540239
 30
0.0
 11
1006.768127048425
 21
-111.087211247428
 31
0.0
  0
LINE
  8
NOTE
  6
CONTINUOUS
 62
     4
 10
-959.83154702238687
 20
-109.8528564473454
 30
0.0
 11
-959.83154702238687
 21
-89.609649812528914
 31
0.0
  0
LINE
  8
NOTE
  6
CONTINUOUS
 62
     4
 10
-959.83154702238687
 20
-163.69754008875859
 30
0.0
 11
-959.83154702238687
 21
-143.45433345394119
 31
0.0
  0
LINE
  8
NOTE
  6
CONTINUOUS
 62
     4
 10
-959.83154702238687
 20
-89.609649812528914
 30
0.0
 11
-995.68818622661718
 21
-126.6535949506433
 31
0.0
  0
LINE
  8
NOTE
  6
CONTINUOUS
 62
     4
 10
-959.83154702238687
 20
-163.69754008875859
 30
0.0
 11
-995.68818622661718
 21
-126.6535949506433
 31
0.0
  0
LINE
  8
NOTE
  6
CONTINUOUS
 62
     4
 10
-959.83154702238687
 20
-109.8528564473454
 30
0.0
 11
-924.11361225175176
 21
-109.8528564473454
 31
0.0
  0
LINE
  8
NOTE
  6
CONTINUOUS
 62
     4
 10
-959.83154702238687
 20
-143.45433345394119
 30
0.0
 11
-924.11361225175176
 21
-143.45433345394119
 31
0.0
  0
LINE
  8
NOTE
  6
CONTINUOUS
 62
     4
 10
-924.11361225175176
 20
-143.45433345394119
 30
0.0
 11
-924.11361225175176
 21
-109.8528564473454
 31
0.0
  0
CIRCLE
  8
FIX
  6
CONTINUOUS
 62
    11
 10
-806.49999999999989
 20
-25.300000000001091
 30
0.0
 40
10.63443637122327
  0
CIRCLE
  8
FIX
  6
CONTINUOUS
 62
    11
 10
531.5
 20
-25.300000000001091
 30
0.0
 40
10.63443637122327
  0
TEXT
  8
ETC
  6
CONTINUOUS
 62
    61
 10
-1450.3780291637479
 20
918.06624757981535
 30
0.0
 40
64.0
  1
フィルターボックス組込
 41
0.9
  0
ENDSEC
  0
EOF
