  0
SECTION
  2
HEADER
  9
$ACADVER
  1
AC1006
  9
$INSBASE
 10
0.0
 20
0.0
 30
0.0
  9
$EXTMIN
 10
-1719.3077346776661
 20
-515.05967386579869
  9
$EXTMAX
 10
1342.021867672996
 20
1088.5989077288179
  9
$LIMMIN
 10
-4267.1522210604817
 20
-2696.0832101984129
  9
$LIMMAX
 10
7190.7174225864646
 20
5141.155363923066
  9
$ORTHOMODE
 70
     0
  9
$REGENMODE
 70
     1
  9
$FILLMODE
 70
     1
  9
$QTEXTMODE
 70
     0
  9
$MIRRTEXT
 70
     0
  9
$LTSCALE
 40
20.0
  9
$ATTMODE
 70
     1
  9
$TEXTSIZE
 40
60.0
  9
$TRACEWID
 40
0.05
  9
$TEXTSTYLE
  7
STANDARD1
  9
$CLAYER
  8
NOTE
  9
$CELTYPE
  6
CONTINUOUS
  9
$CECOLOR
 62
     7
  9
$DIMSCALE
 40
1.0
  9
$DIMASZ
 40
30.0
  9
$DIMEXO
 40
20.0
  9
$DIMDLI
 40
80.0
  9
$DIMRND
 40
0.0
  9
$DIMDLE
 40
0.0
  9
$DIMEXE
 40
20.0
  9
$DIMTP
 40
0.0
  9
$DIMTM
 40
0.0
  9
$DIMTXT
 40
40.0
  9
$DIMCEN
 40
0.09
  9
$DIMTSZ
 40
0.0
  9
$DIMTOL
 70
     0
  9
$DIMLIM
 70
     0
  9
$DIMTIH
 70
     0
  9
$DIMTOH
 70
     0
  9
$DIMSE1
 70
     0
  9
$DIMSE2
 70
     0
  9
$DIMTAD
 70
     1
  9
$DIMZIN
 70
     8
  9
$DIMBLK
  1

  9
$DIMASO
 70
     1
  9
$DIMSHO
 70
     0
  9
$DIMPOST
  1

  9
$DIMAPOST
  1

  9
$DIMALT
 70
     0
  9
$DIMALTD
 70
     2
  9
$DIMALTF
 40
25.399999999999999
  9
$DIMLFAC
 40
1.0
  9
$DIMTOFL
 70
     1
  9
$DIMTVP
 40
0.0
  9
$DIMTIX
 70
     0
  9
$DIMSOXD
 70
     0
  9
$DIMSAH
 70
     0
  9
$DIMBLK1
  1

  9
$DIMBLK2
  1

  9
$LUNITS
 70
     2
  9
$LUPREC
 70
     4
  9
$SKETCHINC
 40
0.1
  9
$FILLETRAD
 40
0.0
  9
$AUNITS
 70
     1
  9
$AUPREC
 70
     3
  9
$MENU
  1
ACAD
  9
$ELEVATION
 40
0.0
  9
$THICKNESS
 40
0.0
  9
$LIMCHECK
 70
     0
  9
$CHAMFERA
 40
0.0
  9
$CHAMFERB
 40
0.0
  9
$SKPOLY
 70
     0
  9
$TDCREATE
 40
2455902.607164352
  9
$TDUPDATE
 40
2457751.361967593
  9
$TDINDWG
 40
1.6968502546
  9
$TDUSRTIMER
 40
1.6968466435
  9
$USRTIMER
 70
     1
  9
$ANGBASE
 50
0.0
  9
$ANGDIR
 70
     0
  9
$PDMODE
 70
     3
  9
$PDSIZE
 40
-2.0
  9
$PLINEWID
 40
0.0
  9
$SPLFRAME
 70
     0
  9
$SPLINETYPE
 70
     6
  9
$SPLINESEGS
 70
     8
  9
$SURFTAB1
 70
     6
  9
$SURFTAB2
 70
     6
  9
$SURFTYPE
 70
     6
  9
$SURFU
 70
     6
  9
$SURFV
 70
     6
  9
$UCSNAME
  2

  9
$UCSORG
 10
0.0
 20
0.0
 30
0.0
  9
$UCSXDIR
 10
1.0
 20
0.0
 30
0.0
  9
$UCSYDIR
 10
0.0
 20
1.0
 30
0.0
  9
$USERI1
 70
     0
  9
$USERI2
 70
     0
  9
$USERI3
 70
     0
  9
$USERI4
 70
     0
  9
$USERI5
 70
     0
  9
$USERR1
 40
20.0
  9
$USERR2
 40
0.0
  9
$USERR3
 40
0.0
  9
$USERR4
 40
0.0
  9
$USERR5
 40
0.0
  9
$WORLDVIEW
 70
     1
  9
$ATTDIA
 70
     0
  9
$ATTREQ
 70
     1
  9
$BLIPMODE
 70
     1
  9
$COORDS
 70
     1
  9
$DRAGMODE
 70
     2
  9
$OSMODE
 70
     0
  9
$HANDLING
 70
     0
  9
$HANDSEED
  5
909B883
  0
ENDSEC
  0
SECTION
  2
TABLES
  0
TABLE
  2
LTYPE
 70
     2
  0
LTYPE
  2
CONTINUOUS
 70
     0
  3
実線
 72
    65
 73
     0
 40
0.0
  0
LTYPE
  2
DASHDOT
 70
     0
  3
____ _ ____ _ ____ _ ____ _ ____ _ ____ _ ____
 72
    65
 73
     4
 40
5.5
 49
4.0
 49
-0.6
 49
0.3
 49
-0.6
  0
ENDTAB
  0
TABLE
  2
LAYER
 70
    12
  0
LAYER
  2
0
 70
     0
 62
     7
  6
CONTINUOUS
  0
LAYER
  2
OUTLINE
 70
     0
 62
     3
  6
CONTINUOUS
  0
LAYER
  2
DETAIL
 70
     0
 62
     5
  6
CONTINUOUS
  0
LAYER
  2
BASIS
 70
     0
 62
     6
  6
DASHDOT
  0
LAYER
  2
SIZE
 70
     0
 62
    30
  6
CONTINUOUS
  0
LAYER
  2
NOTE
 70
     0
 62
     4
  6
CONTINUOUS
  0
LAYER
  2
ARRANGE
 70
     0
 62
     1
  6
CONTINUOUS
  0
LAYER
  2
FIX
 70
     0
 62
    11
  6
CONTINUOUS
  0
LAYER
  2
SERVICESPACE
 70
     0
 62
     2
  6
DASHDOT
  0
LAYER
  2
ETC
 70
     0
 62
    61
  6
CONTINUOUS
  0
LAYER
  2
SYMBOLLINE
 70
     0
 62
    15
  6
CONTINUOUS
  0
LAYER
  2
DEFPOINTS
 70
     0
 62
     7
  6
CONTINUOUS
  0
ENDTAB
  0
TABLE
  2
STYLE
 70
     2
  0
STYLE
  2
STANDARD
 70
     0
 40
0.0
 41
0.9
 50
0.0
 71
     0
 42
64.0
  3
SIMPLEX
  4
BIGFONT
  0
STYLE
  2
STANDARD1
 70
     0
 40
60.0
 41
0.7
 50
0.0
 71
     0
 42
60.0
  3
MONOTXT.shx
  4
BIGFONT.shx
  0
ENDTAB
  0
TABLE
  2
VIEW
 70
     1
  0
VIEW
  2
ALL
 70
     0
 40
9000.0
 10
241.50664699999999
 20
0.0
 41
12483.01
 11
0.0
 21
0.0
 31
1.0
 12
0.0
 22
0.0
 32
0.0
 42
50.0
 43
0.0
 44
0.0
 50
0.0
 71
     0
  0
ENDTAB
  0
TABLE
  2
UCS
 70
     0
  0
ENDTAB
  0
TABLE
  2
VPORT
 70
     1
  0
VPORT
  2
*ACTIVE
 70
     0
 10
0.0
 20
0.0
 11
1.0
 21
1.0
 12
-188.6429335023349
 22
286.76961693150952
 13
0.0
 23
0.0
 14
50.0
 24
50.0
 15
100.0
 25
100.0
 16
0.0
 26
0.0
 36
1.0
 17
0.0
 27
0.0
 37
0.0
 40
1778.7864351252219
 41
1.72801875732708
 42
50.0
 43
0.0
 44
0.0
 50
0.0
 51
0.0
 71
     0
 72
  1000
 73
     1
 74
     0
 75
     0
 76
     0
 77
     0
 78
     0
  0
ENDTAB
  0
TABLE
  2
DWGMGR
 70
     0
  0
ENDTAB
  0
ENDSEC
  0
SECTION
  2
BLOCKS
  0
ENDSEC
  0
SECTION
  2
ENTITIES
  0
LINE
  8
BASIS
  6
DASHDOT
 62
     6
 10
0.0
 20
-514.87458983285831
 30
0.0
 11
0.0
 21
67.457379359892911
 31
0.0
  0
CIRCLE
  8
ARRANGE
  6
CONTINUOUS
 62
     1
 10
0.0
 20
0.0
 30
0.0
 40
40.0
  0
LINE
  8
ARRANGE
  6
CONTINUOUS
 62
     1
 10
-36.845437407348072
 20
-36.845437407348982
 30
0.0
 11
36.845437407349891
 21
36.845437407348982
 31
0.0
  0
LINE
  8
ARRANGE
  6
CONTINUOUS
 62
     1
 10
-36.845437407348072
 20
36.845437407348982
 30
0.0
 11
36.845437407349891
 21
-36.845437407350801
 31
0.0
  0
LINE
  8
DETAIL
  6
CONTINUOUS
 62
     5
 10
-698.50000000000364
 20
-43.0
 30
0.0
 11
-608.50000000000364
 21
-433.0
 31
0.0
  0
LINE
  8
DETAIL
  6
CONTINUOUS
 62
     5
 10
-698.50000000000364
 20
-433.0
 30
0.0
 11
-608.50000000000364
 21
-43.0
 31
0.0
  0
LINE
  8
DETAIL
  6
CONTINUOUS
 62
     5
 10
-703.50000000000364
 20
-43.0
 30
0.0
 11
-793.50000000000364
 21
-433.0
 31
0.0
  0
LINE
  8
DETAIL
  6
CONTINUOUS
 62
     5
 10
-793.50000000000364
 20
-43.0
 30
0.0
 11
-703.50000000000364
 21
-433.0
 31
0.0
  0
LINE
  8
DETAIL
  6
CONTINUOUS
 62
     5
 10
-793.50000000000364
 20
-433.0
 30
0.0
 11
-793.50000000000364
 21
-43.0
 31
0.0
  0
LINE
  8
DETAIL
  6
CONTINUOUS
 62
     5
 10
-703.50000000000364
 20
-433.0
 30
0.0
 11
-703.50000000000364
 21
-43.0
 31
0.0
  0
LINE
  8
DETAIL
  6
CONTINUOUS
 62
     5
 10
-698.50000000000364
 20
-433.0
 30
0.0
 11
-698.50000000000364
 21
-43.0
 31
0.0
  0
LINE
  8
DETAIL
  6
CONTINUOUS
 62
     5
 10
-608.50000000000364
 20
-433.0
 30
0.0
 11
-608.50000000000364
 21
-43.0
 31
0.0
  0
LINE
  8
DETAIL
  6
CONTINUOUS
 62
     5
 10
-793.50000000000364
 20
-433.0
 30
0.0
 11
-703.50000000000364
 21
-433.0
 31
0.0
  0
LINE
  8
DETAIL
  6
CONTINUOUS
 62
     5
 10
-698.50000000000364
 20
-433.0
 30
0.0
 11
-608.50000000000364
 21
-433.0
 31
0.0
  0
LINE
  8
DETAIL
  6
CONTINUOUS
 62
     5
 10
-608.50000000000364
 20
-43.0
 30
0.0
 11
-698.50000000000364
 21
-43.0
 31
0.0
  0
LINE
  8
DETAIL
  6
CONTINUOUS
 62
     5
 10
-703.50000000000364
 20
-43.0
 30
0.0
 11
-793.50000000000364
 21
-43.0
 31
0.0
  0
LINE
  8
DETAIL
  6
CONTINUOUS
 62
     5
 10
862.49999999999636
 20
-58.0
 30
0.0
 11
862.49999999999636
 21
-62.0
 31
0.0
  0
LINE
  8
DETAIL
  6
CONTINUOUS
 62
     5
 10
862.49999999999636
 20
-62.0
 30
0.0
 11
862.49999999999636
 21
-354.0
 31
0.0
  0
LINE
  8
DETAIL
  6
CONTINUOUS
 62
     5
 10
862.49999999999636
 20
-358.0
 30
0.0
 11
862.49999999999636
 21
-354.0
 31
0.0
  0
LINE
  8
DETAIL
  6
CONTINUOUS
 62
     5
 10
859.49999999999625
 20
-58.0
 30
0.0
 11
859.49999999999625
 21
-58.800000000000182
 31
0.0
  0
LINE
  8
DETAIL
  6
CONTINUOUS
 62
     5
 10
842.49999999999625
 20
-458.0
 30
0.0
 11
842.49999999999625
 21
-358.0
 31
0.0
  0
LINE
  8
DETAIL
  6
CONTINUOUS
 62
     5
 10
842.49999999999625
 20
-58.0
 30
0.0
 11
842.49999999999625
 21
0.0
 31
0.0
  0
LINE
  8
DETAIL
  6
CONTINUOUS
 62
     5
 10
841.69999999999709
 20
-358.0
 30
0.0
 11
841.69999999999709
 21
-58.0
 31
0.0
  0
LINE
  8
DETAIL
  6
CONTINUOUS
 62
     5
 10
838.29999999999563
 20
-458.0
 30
0.0
 11
838.29999999999563
 21
-476.0
 31
0.0
  0
LINE
  8
DETAIL
  6
CONTINUOUS
 62
     5
 10
837.49999999999636
 20
-361.19999999999982
 30
0.0
 11
837.49999999999636
 21
-458.0
 31
0.0
  0
LINE
  8
DETAIL
  6
CONTINUOUS
 62
     5
 10
837.49999999999636
 20
-361.19999999999982
 30
0.0
 11
837.49999999999636
 21
-358.0
 31
0.0
  0
LINE
  8
DETAIL
  6
CONTINUOUS
 62
     5
 10
837.49999999999636
 20
-58.0
 30
0.0
 11
837.49999999999636
 21
-54.800000000000182
 31
0.0
  0
LINE
  8
DETAIL
  6
CONTINUOUS
 62
     5
 10
837.49999999999636
 20
-54.800000000000182
 30
0.0
 11
837.49999999999636
 21
-18.0
 31
0.0
  0
LINE
  8
DETAIL
  6
CONTINUOUS
 62
     5
 10
836.69999999999698
 20
-458.0
 30
0.0
 11
836.69999999999698
 21
-58.0
 31
0.0
  0
LINE
  8
DETAIL
  6
CONTINUOUS
 62
     5
 10
836.69999999999698
 20
-58.0
 30
0.0
 11
836.69999999999698
 21
-56.400000000000539
 31
0.0
  0
LINE
  8
DETAIL
  6
CONTINUOUS
 62
     5
 10
836.69999999999698
 20
-56.400000000000539
 30
0.0
 11
836.69999999999698
 21
-18.0
 31
0.0
  0
LINE
  8
DETAIL
  6
CONTINUOUS
 62
     5
 10
836.49999999999625
 20
-63.0
 30
0.0
 11
836.49999999999625
 21
-25.5
 31
0.0
  0
LINE
  8
DETAIL
  6
CONTINUOUS
 62
     5
 10
834.19999999999698
 20
-63.0
 30
0.0
 11
834.19999999999698
 21
-25.5
 31
0.0
  0
LINE
  8
DETAIL
  6
CONTINUOUS
 62
     5
 10
833.99999999999636
 20
-32.0
 30
0.0
 11
833.99999999999636
 21
-23.0
 31
0.0
  0
LINE
  8
DETAIL
  6
CONTINUOUS
 62
     5
 10
831.89999999999588
 20
-63.0
 30
0.0
 11
831.89999999999588
 21
-34.842816093399961
 31
0.0
  0
LINE
  8
DETAIL
  6
CONTINUOUS
 62
     5
 10
812.49999999999636
 20
-32.0
 30
0.0
 11
812.49999999999636
 21
-23.0
 31
0.0
  0
LINE
  8
DETAIL
  6
CONTINUOUS
 62
     5
 10
800.49999999999625
 20
-32.0
 30
0.0
 11
800.49999999999625
 21
-23.0
 31
0.0
  0
LINE
  8
DETAIL
  6
CONTINUOUS
 62
     5
 10
794.99999999999625
 20
-476.0
 30
0.0
 11
794.99999999999625
 21
-479.0
 31
0.0
  0
LINE
  8
DETAIL
  6
CONTINUOUS
 62
     5
 10
779.99999999999625
 20
-476.0
 30
0.0
 11
779.99999999999625
 21
-479.0
 31
0.0
  0
LINE
  8
DETAIL
  6
CONTINUOUS
 62
     5
 10
859.49999999999625
 20
-357.0
 30
0.0
 11
862.49999999999636
 21
-354.0
 31
0.0
  0
LINE
  8
DETAIL
  6
CONTINUOUS
 62
     5
 10
731.49999999999625
 20
0.0
 30
0.0
 11
731.49999999999625
 21
-23.0
 31
0.0
  0
LINE
  8
DETAIL
  6
CONTINUOUS
 62
     5
 10
731.49999999999625
 20
-63.0
 30
0.0
 11
731.49999999999625
 21
-32.0
 31
0.0
  0
LINE
  8
DETAIL
  6
CONTINUOUS
 62
     5
 10
731.49999999999625
 20
-32.0
 30
0.0
 11
731.49999999999625
 21
-23.0
 31
0.0
  0
LINE
  8
DETAIL
  6
CONTINUOUS
 62
     5
 10
862.49999999999636
 20
-62.0
 30
0.0
 11
859.49999999999625
 21
-59.0
 31
0.0
  0
LINE
  8
DETAIL
  6
CONTINUOUS
 62
     5
 10
-60.000000000003638
 20
-479.0
 30
0.0
 11
-45.000000000003638
 21
-479.0
 31
0.0
  0
LINE
  8
DETAIL
  6
CONTINUOUS
 62
     5
 10
359.99999999999642
 20
-479.0
 30
0.0
 11
374.99999999999642
 21
-479.0
 31
0.0
  0
LINE
  8
DETAIL
  6
CONTINUOUS
 62
     5
 10
779.99999999999625
 20
-479.0
 30
0.0
 11
794.99999999999625
 21
-479.0
 31
0.0
  0
LINE
  8
DETAIL
  6
CONTINUOUS
 62
     5
 10
-132.50000000000361
 20
-477.19999999999982
 30
0.0
 11
-107.5000000000036
 21
-477.19999999999982
 31
0.0
  0
LINE
  8
DETAIL
  6
CONTINUOUS
 62
     5
 10
-563.50000000000364
 20
-476.0
 30
0.0
 11
-443.50000000000358
 21
-476.0
 31
0.0
  0
LINE
  8
DETAIL
  6
CONTINUOUS
 62
     5
 10
-251.9000000000033
 20
-476.0
 30
0.0
 11
-132.50000000000361
 21
-476.0
 31
0.0
  0
LINE
  8
DETAIL
  6
CONTINUOUS
 62
     5
 10
838.29999999999563
 20
-476.0
 30
0.0
 11
-111.5000000000036
 21
-476.0
 31
0.0
  0
LINE
  8
DETAIL
  6
CONTINUOUS
 62
     5
 10
-589.10000000000389
 20
-476.0
 30
0.0
 11
-842.50000000000364
 21
-476.0
 31
0.0
  0
LINE
  8
DETAIL
  6
CONTINUOUS
 62
     5
 10
-837.50000000000375
 20
-473.0
 30
0.0
 11
-836.50000000000352
 21
-473.0
 31
0.0
  0
LINE
  8
DETAIL
  6
CONTINUOUS
 62
     5
 10
-815.50000000000364
 20
-473.0
 30
0.0
 11
-814.50000000000364
 21
-473.0
 31
0.0
  0
LINE
  8
DETAIL
  6
CONTINUOUS
 62
     5
 10
-814.50000000000364
 20
-473.0
 30
0.0
 11
-588.50000000000364
 21
-473.0
 31
0.0
  0
LINE
  8
DETAIL
  6
CONTINUOUS
 62
     5
 10
-588.50000000000364
 20
-473.0
 30
0.0
 11
-587.50000000000364
 21
-473.0
 31
0.0
  0
LINE
  8
DETAIL
  6
CONTINUOUS
 62
     5
 10
-563.50000000000364
 20
-473.0
 30
0.0
 11
-443.50000000000358
 21
-473.0
 31
0.0
  0
LINE
  8
DETAIL
  6
CONTINUOUS
 62
     5
 10
-251.9000000000033
 20
-473.0
 30
0.0
 11
-132.50000000000361
 21
-473.0
 31
0.0
  0
LINE
  8
DETAIL
  6
CONTINUOUS
 62
     5
 10
-251.9000000000033
 20
-473.0
 30
0.0
 11
-443.50000000000358
 21
-473.0
 31
0.0
  0
LINE
  8
DETAIL
  6
CONTINUOUS
 62
     5
 10
-815.50000000000364
 20
-473.0
 30
0.0
 11
-836.50000000000352
 21
-473.0
 31
0.0
  0
LINE
  8
DETAIL
  6
CONTINUOUS
 62
     5
 10
-562.50000000000364
 20
-472.19999999999982
 30
0.0
 11
-562.70000000000437
 21
-472.19999999999982
 31
0.0
  0
LINE
  8
DETAIL
  6
CONTINUOUS
 62
     5
 10
-588.30000000000291
 20
-472.19999999999982
 30
0.0
 11
-814.70000000000437
 21
-472.19999999999982
 31
0.0
  0
LINE
  8
DETAIL
  6
CONTINUOUS
 62
     5
 10
-815.50000000000364
 20
-472.19999999999982
 30
0.0
 11
-836.70000000000425
 21
-472.19999999999982
 31
0.0
  0
LINE
  8
DETAIL
  6
CONTINUOUS
 62
     5
 10
-587.50000000000364
 20
-472.0
 30
0.0
 11
-588.30000000000291
 21
-472.0
 31
0.0
  0
LINE
  8
DETAIL
  6
CONTINUOUS
 62
     5
 10
-814.70000000000437
 20
-472.0
 30
0.0
 11
-815.50000000000364
 21
-472.0
 31
0.0
  0
LINE
  8
DETAIL
  6
CONTINUOUS
 62
     5
 10
-562.50000000000364
 20
-469.19999999999982
 30
0.0
 11
-562.70000000000437
 21
-469.19999999999982
 31
0.0
  0
LINE
  8
DETAIL
  6
CONTINUOUS
 62
     5
 10
-496.50000000000358
 20
-463.0
 30
0.0
 11
-561.70000000000425
 21
-463.0
 31
0.0
  0
LINE
  8
DETAIL
  6
CONTINUOUS
 62
     5
 10
-562.50000000000364
 20
-463.0
 30
0.0
 11
-567.50000000000364
 21
-463.0
 31
0.0
  0
LINE
  8
DETAIL
  6
CONTINUOUS
 62
     5
 10
-563.30000000000291
 20
-458.19999999999982
 30
0.0
 11
-561.70000000000425
 21
-458.19999999999982
 31
0.0
  0
LINE
  8
DETAIL
  6
CONTINUOUS
 62
     5
 10
-587.50000000000364
 20
-458.0
 30
0.0
 11
-564.90000000000316
 21
-458.0
 31
0.0
  0
LINE
  8
DETAIL
  6
CONTINUOUS
 62
     5
 10
-563.30000000000291
 20
-457.19999999999982
 30
0.0
 11
-587.50000000000364
 21
-457.19999999999982
 31
0.0
  0
LINE
  8
DETAIL
  6
CONTINUOUS
 62
     5
 10
-709.25419581240385
 20
-448.10000000000031
 30
0.0
 11
-724.14580418760295
 21
-448.10000000000031
 31
0.0
  0
LINE
  8
DETAIL
  6
CONTINUOUS
 62
     5
 10
-709.25419581240385
 20
-446.30000000000013
 30
0.0
 11
-724.14580418760295
 21
-446.30000000000013
 31
0.0
  0
LINE
  8
DETAIL
  6
CONTINUOUS
 62
     5
 10
-498.3000000000028
 20
-439.0
 30
0.0
 11
-497.50000000000358
 21
-439.0
 31
0.0
  0
LINE
  8
DETAIL
  6
CONTINUOUS
 62
     5
 10
-836.70000000000425
 20
-438.1999999999997
 30
0.0
 11
-841.70000000000437
 21
-438.1999999999997
 31
0.0
  0
LINE
  8
DETAIL
  6
CONTINUOUS
 62
     5
 10
-561.70000000000425
 20
-438.0
 30
0.0
 11
-563.30000000000291
 21
-438.0
 31
0.0
  0
LINE
  8
DETAIL
  6
CONTINUOUS
 62
     5
 10
-841.70000000000437
 20
-438.0
 30
0.0
 11
-842.50000000000364
 21
-438.0
 31
0.0
  0
LINE
  8
DETAIL
  6
CONTINUOUS
 62
     5
 10
374.99999999999642
 20
-476.0
 30
0.0
 11
374.99999999999642
 21
-479.0
 31
0.0
  0
LINE
  8
DETAIL
  6
CONTINUOUS
 62
     5
 10
359.99999999999642
 20
-476.0
 30
0.0
 11
359.99999999999642
 21
-479.0
 31
0.0
  0
LINE
  8
DETAIL
  6
CONTINUOUS
 62
     5
 10
836.69999999999698
 20
-358.19999999999982
 30
0.0
 11
837.49999999999636
 21
-358.19999999999982
 31
0.0
  0
LINE
  8
DETAIL
  6
CONTINUOUS
 62
     5
 10
836.69999999999698
 20
-358.0
 30
0.0
 11
842.49999999999625
 21
-358.0
 31
0.0
  0
LINE
  8
DETAIL
  6
CONTINUOUS
 62
     5
 10
842.49999999999625
 20
-358.0
 30
0.0
 11
862.49999999999636
 21
-358.0
 31
0.0
  0
LINE
  8
DETAIL
  6
CONTINUOUS
 62
     5
 10
862.49999999999636
 20
-357.19999999999982
 30
0.0
 11
841.69999999999709
 21
-357.19999999999982
 31
0.0
  0
LINE
  8
DETAIL
  6
CONTINUOUS
 62
     5
 10
859.49999999999625
 20
-357.0
 30
0.0
 11
841.69999999999709
 21
-357.0
 31
0.0
  0
LINE
  8
DETAIL
  6
CONTINUOUS
 62
     5
 10
862.49999999999636
 20
-332.19999999999982
 30
0.0
 11
841.69999999999709
 21
-332.19999999999982
 31
0.0
  0
LINE
  8
DETAIL
  6
CONTINUOUS
 62
     5
 10
841.69999999999709
 20
-83.800000000000182
 30
0.0
 11
862.49999999999636
 21
-83.800000000000182
 31
0.0
  0
LINE
  8
DETAIL
  6
CONTINUOUS
 62
     5
 10
-498.3000000000028
 20
-77.400000000000546
 30
0.0
 11
-497.50000000000358
 21
-77.400000000000546
 31
0.0
  0
LINE
  8
DETAIL
  6
CONTINUOUS
 62
     5
 10
-496.50000000000358
 20
-77.400000000000546
 30
0.0
 11
-497.50000000000358
 21
-77.400000000000546
 31
0.0
  0
LINE
  8
DETAIL
  6
CONTINUOUS
 62
     5
 10
-497.50000000000358
 20
-76.400000000000546
 30
0.0
 11
-496.70000000000442
 21
-76.400000000000546
 31
0.0
  0
LINE
  8
DETAIL
  6
CONTINUOUS
 62
     5
 10
-496.70000000000442
 20
-63.0
 30
0.0
 11
-496.50000000000358
 21
-63.0
 31
0.0
  0
LINE
  8
DETAIL
  6
CONTINUOUS
 62
     5
 10
731.49999999999625
 20
-63.0
 30
0.0
 11
836.69999999999698
 21
-63.0
 31
0.0
  0
LINE
  8
DETAIL
  6
CONTINUOUS
 62
     5
 10
-497.50000000000358
 20
-63.0
 30
0.0
 11
-561.70000000000425
 21
-63.0
 31
0.0
  0
LINE
  8
DETAIL
  6
CONTINUOUS
 62
     5
 10
-456.56061230866362
 20
-60.600000000000357
 30
0.0
 11
-496.30000000000291
 21
-60.600000000000357
 31
0.0
  0
LINE
  8
DETAIL
  6
CONTINUOUS
 62
     5
 10
841.69999999999709
 20
-59.0
 30
0.0
 11
859.49999999999625
 21
-59.0
 31
0.0
  0
LINE
  8
DETAIL
  6
CONTINUOUS
 62
     5
 10
841.69999999999709
 20
-58.800000000000182
 30
0.0
 11
862.49999999999636
 21
-58.800000000000182
 31
0.0
  0
LINE
  8
DETAIL
  6
CONTINUOUS
 62
     5
 10
862.49999999999636
 20
-58.0
 30
0.0
 11
842.49999999999625
 21
-58.0
 31
0.0
  0
LINE
  8
DETAIL
  6
CONTINUOUS
 62
     5
 10
836.69999999999698
 20
-58.0
 30
0.0
 11
842.49999999999625
 21
-58.0
 31
0.0
  0
LINE
  8
DETAIL
  6
CONTINUOUS
 62
     5
 10
837.49999999999636
 20
-57.800000000000182
 30
0.0
 11
836.69999999999698
 21
-57.800000000000182
 31
0.0
  0
LINE
  8
DETAIL
  6
CONTINUOUS
 62
     5
 10
837.49999999999636
 20
-54.800000000000182
 30
0.0
 11
836.69999999999698
 21
-54.800000000000182
 31
0.0
  0
LINE
  8
DETAIL
  6
CONTINUOUS
 62
     5
 10
-836.70000000000425
 20
-38.800000000000182
 30
0.0
 11
-841.70000000000437
 21
-38.800000000000182
 31
0.0
  0
LINE
  8
DETAIL
  6
CONTINUOUS
 62
     5
 10
831.89999999999588
 20
-38.0
 30
0.0
 11
834.19999999999698
 21
-38.0
 31
0.0
  0
LINE
  8
DETAIL
  6
CONTINUOUS
 62
     5
 10
-556.70000000000425
 20
-38.0
 30
0.0
 11
-559.20000000000437
 21
-38.0
 31
0.0
  0
LINE
  8
DETAIL
  6
CONTINUOUS
 62
     5
 10
-841.70000000000437
 20
-37.800000000000182
 30
0.0
 11
-837.09429404880382
 21
-37.800000000000182
 31
0.0
  0
LINE
  8
DETAIL
  6
CONTINUOUS
 62
     5
 10
-561.70000000000425
 20
-37.0
 30
0.0
 11
-563.30000000000291
 21
-37.0
 31
0.0
  0
LINE
  8
DETAIL
  6
CONTINUOUS
 62
     5
 10
-836.70000000000425
 20
-37.0
 30
0.0
 11
-842.50000000000364
 21
-37.0
 31
0.0
  0
LINE
  8
DETAIL
  6
CONTINUOUS
 62
     5
 10
-561.50000000000364
 20
-35.0
 30
0.0
 11
-559.20000000000437
 21
-35.0
 31
0.0
  0
LINE
  8
DETAIL
  6
CONTINUOUS
 62
     5
 10
836.49999999999625
 20
-35.0
 30
0.0
 11
834.19999999999698
 21
-35.0
 31
0.0
  0
LINE
  8
DETAIL
  6
CONTINUOUS
 62
     5
 10
830.99999999999625
 20
-35.0
 30
0.0
 11
815.49999999999625
 21
-35.0
 31
0.0
  0
LINE
  8
DETAIL
  6
CONTINUOUS
 62
     5
 10
797.49999999999636
 20
-35.0
 30
0.0
 11
734.49999999999625
 21
-35.0
 31
0.0
  0
LINE
  8
DETAIL
  6
CONTINUOUS
 62
     5
 10
-459.50000000000358
 20
-35.0
 30
0.0
 11
-522.50000000000364
 21
-35.0
 31
0.0
  0
LINE
  8
DETAIL
  6
CONTINUOUS
 62
     5
 10
-540.50000000000364
 20
-35.0
 30
0.0
 11
-556.00000000000364
 21
-35.0
 31
0.0
  0
LINE
  8
DETAIL
  6
CONTINUOUS
 62
     5
 10
-562.50000000000364
 20
-34.0
 30
0.0
 11
-561.70000000000425
 21
-34.0
 31
0.0
  0
LINE
  8
DETAIL
  6
CONTINUOUS
 62
     5
 10
-709.25419581240385
 20
-29.699999999999822
 30
0.0
 11
-724.14580418760295
 21
-29.699999999999822
 31
0.0
  0
LINE
  8
DETAIL
  6
CONTINUOUS
 62
     5
 10
-709.25419581240385
 20
-27.900000000000549
 30
0.0
 11
-724.14580418760295
 21
-27.900000000000549
 31
0.0
  0
LINE
  8
DETAIL
  6
CONTINUOUS
 62
     5
 10
-537.50000000000364
 20
-25.300000000000178
 30
0.0
 11
-525.50000000000364
 21
-25.300000000000178
 31
0.0
  0
LINE
  8
DETAIL
  6
CONTINUOUS
 62
     5
 10
800.49999999999625
 20
-25.300000000000178
 30
0.0
 11
812.49999999999636
 21
-25.300000000000178
 31
0.0
  0
LINE
  8
DETAIL
  6
CONTINUOUS
 62
     5
 10
-559.00000000000364
 20
-23.0
 30
0.0
 11
-456.50000000000358
 21
-23.0
 31
0.0
  0
LINE
  8
DETAIL
  6
CONTINUOUS
 62
     5
 10
731.49999999999625
 20
-23.0
 30
0.0
 11
833.99999999999636
 21
-23.0
 31
0.0
  0
LINE
  8
DETAIL
  6
CONTINUOUS
 62
     5
 10
-156.50000000000361
 20
-18.0
 30
0.0
 11
-561.50000000000364
 21
-18.0
 31
0.0
  0
LINE
  8
DETAIL
  6
CONTINUOUS
 62
     5
 10
-561.50000000000364
 20
-5.6000000000003629
 30
0.0
 11
-561.70000000000425
 21
-5.6000000000003629
 31
0.0
  0
LINE
  8
DETAIL
  6
CONTINUOUS
 62
     5
 10
-815.50000000000364
 20
-4.0
 30
0.0
 11
-814.70000000000437
 21
-4.0
 31
0.0
  0
LINE
  8
DETAIL
  6
CONTINUOUS
 62
     5
 10
-588.30000000000291
 20
-4.0
 30
0.0
 11
-587.50000000000364
 21
-4.0
 31
0.0
  0
LINE
  8
DETAIL
  6
CONTINUOUS
 62
     5
 10
-836.70000000000425
 20
-3.800000000000181
 30
0.0
 11
-815.50000000000364
 21
-3.800000000000181
 31
0.0
  0
LINE
  8
DETAIL
  6
CONTINUOUS
 62
     5
 10
-814.70000000000437
 20
-3.800000000000181
 30
0.0
 11
-588.30000000000291
 21
-3.800000000000181
 31
0.0
  0
LINE
  8
DETAIL
  6
CONTINUOUS
 62
     5
 10
-587.50000000000364
 20
-3.800000000000181
 30
0.0
 11
-563.30000000000291
 21
-3.800000000000181
 31
0.0
  0
LINE
  8
DETAIL
  6
CONTINUOUS
 62
     5
 10
-151.70000000000431
 20
-3.800000000000181
 30
0.0
 11
-153.50000000000361
 21
-3.800000000000181
 31
0.0
  0
LINE
  8
DETAIL
  6
CONTINUOUS
 62
     5
 10
-153.50000000000361
 20
-3.0
 30
0.0
 11
-563.50000000000364
 21
-3.0
 31
0.0
  0
LINE
  8
DETAIL
  6
CONTINUOUS
 62
     5
 10
-563.50000000000364
 20
-3.0
 30
0.0
 11
-587.50000000000364
 21
-3.0
 31
0.0
  0
LINE
  8
DETAIL
  6
CONTINUOUS
 62
     5
 10
-587.50000000000364
 20
-3.0
 30
0.0
 11
-588.50000000000364
 21
-3.0
 31
0.0
  0
LINE
  8
DETAIL
  6
CONTINUOUS
 62
     5
 10
-588.50000000000364
 20
-3.0
 30
0.0
 11
-814.50000000000364
 21
-3.0
 31
0.0
  0
LINE
  8
DETAIL
  6
CONTINUOUS
 62
     5
 10
-814.50000000000364
 20
-3.0
 30
0.0
 11
-815.50000000000364
 21
-3.0
 31
0.0
  0
LINE
  8
DETAIL
  6
CONTINUOUS
 62
     5
 10
-815.50000000000364
 20
-3.0
 30
0.0
 11
-836.50000000000352
 21
-3.0
 31
0.0
  0
LINE
  8
DETAIL
  6
CONTINUOUS
 62
     5
 10
-836.50000000000352
 20
-3.0
 30
0.0
 11
-837.50000000000375
 21
-3.0
 31
0.0
  0
LINE
  8
DETAIL
  6
CONTINUOUS
 62
     5
 10
842.49999999999625
 20
0.0
 30
0.0
 11
-133.30000000000291
 21
0.0
 31
0.0
  0
LINE
  8
DETAIL
  6
CONTINUOUS
 62
     5
 10
-153.50000000000361
 20
0.0
 30
0.0
 11
-842.50000000000364
 21
0.0
 31
0.0
  0
LINE
  8
DETAIL
  6
CONTINUOUS
 62
     5
 10
-501.79854528130448
 20
-271.58527295830032
 30
0.0
 11
-498.3000000000028
 21
-270.35239679920051
 31
0.0
  0
LINE
  8
DETAIL
  6
CONTINUOUS
 62
     5
 10
-45.000000000003638
 20
-476.0
 30
0.0
 11
-45.000000000003638
 21
-479.0
 31
0.0
  0
LINE
  8
DETAIL
  6
CONTINUOUS
 62
     5
 10
-60.000000000003638
 20
-476.0
 30
0.0
 11
-60.000000000003638
 21
-479.0
 31
0.0
  0
LINE
  8
DETAIL
  6
CONTINUOUS
 62
     5
 10
-107.5000000000036
 20
-477.19999999999982
 30
0.0
 11
-107.5000000000036
 21
-476.0
 31
0.0
  0
LINE
  8
DETAIL
  6
CONTINUOUS
 62
     5
 10
-151.70000000000431
 20
-3.0
 30
0.0
 11
-151.70000000000431
 21
-3.800000000000181
 31
0.0
  0
LINE
  8
DETAIL
  6
CONTINUOUS
 62
     5
 10
-153.50000000000361
 20
-15.0
 30
0.0
 11
-153.50000000000361
 21
-3.0
 31
0.0
  0
LINE
  8
DETAIL
  6
CONTINUOUS
 62
     5
 10
-153.50000000000361
 20
-3.0
 30
0.0
 11
-153.50000000000361
 21
0.0
 31
0.0
  0
LINE
  8
DETAIL
  6
CONTINUOUS
 62
     5
 10
-501.79854528130448
 20
-274.41472704169979
 30
0.0
 11
-498.3000000000028
 21
-275.6476032008004
 31
0.0
  0
LINE
  8
DETAIL
  6
CONTINUOUS
 62
     5
 10
-153.50000000000361
 20
-15.0
 30
0.0
 11
-156.50000000000361
 21
-18.0
 31
0.0
  0
LINE
  8
DETAIL
  6
CONTINUOUS
 62
     5
 10
-251.9000000000033
 20
-473.0
 30
0.0
 11
-251.9000000000033
 21
-476.0
 31
0.0
  0
LINE
  8
DETAIL
  6
CONTINUOUS
 62
     5
 10
-443.50000000000358
 20
-473.0
 30
0.0
 11
-443.50000000000358
 21
-476.0
 31
0.0
  0
LINE
  8
DETAIL
  6
CONTINUOUS
 62
     5
 10
-456.50000000000358
 20
-60.0
 30
0.0
 11
-456.50000000000358
 21
-32.0
 31
0.0
  0
LINE
  8
DETAIL
  6
CONTINUOUS
 62
     5
 10
-456.50000000000358
 20
-32.0
 30
0.0
 11
-456.50000000000358
 21
-23.0
 31
0.0
  0
LINE
  8
DETAIL
  6
CONTINUOUS
 62
     5
 10
-496.30000000000291
 20
-60.600000000000357
 30
0.0
 11
-496.30000000000291
 21
-61.400000000000539
 31
0.0
  0
LINE
  8
DETAIL
  6
CONTINUOUS
 62
     5
 10
-496.50000000000358
 20
-442.0
 30
0.0
 11
-496.50000000000358
 21
-463.0
 31
0.0
  0
LINE
  8
DETAIL
  6
CONTINUOUS
 62
     5
 10
-496.50000000000358
 20
-77.400000000000546
 30
0.0
 11
-496.50000000000358
 21
-61.400000000000539
 31
0.0
  0
LINE
  8
DETAIL
  6
CONTINUOUS
 62
     5
 10
-496.70000000000442
 20
-62.400000000000553
 30
0.0
 11
-496.70000000000442
 21
-76.400000000000546
 31
0.0
  0
LINE
  8
DETAIL
  6
CONTINUOUS
 62
     5
 10
-497.50000000000358
 20
-62.400000000000553
 30
0.0
 11
-497.50000000000358
 21
-76.400000000000546
 31
0.0
  0
LINE
  8
DETAIL
  6
CONTINUOUS
 62
     5
 10
-497.50000000000358
 20
-77.400000000000546
 30
0.0
 11
-497.50000000000358
 21
-442.0
 31
0.0
  0
LINE
  8
DETAIL
  6
CONTINUOUS
 62
     5
 10
-498.3000000000028
 20
-439.0
 30
0.0
 11
-498.3000000000028
 21
-77.400000000000546
 31
0.0
  0
LINE
  8
DETAIL
  6
CONTINUOUS
 62
     5
 10
-525.50000000000364
 20
-32.0
 30
0.0
 11
-525.50000000000364
 21
-23.0
 31
0.0
  0
LINE
  8
DETAIL
  6
CONTINUOUS
 62
     5
 10
-537.50000000000364
 20
-32.0
 30
0.0
 11
-537.50000000000364
 21
-23.0
 31
0.0
  0
LINE
  8
DETAIL
  6
CONTINUOUS
 62
     5
 10
-556.70000000000425
 20
-34.912505957199748
 30
0.0
 11
-556.70000000000425
 21
-38.0
 31
0.0
  0
LINE
  8
DETAIL
  6
CONTINUOUS
 62
     5
 10
-556.90000000000316
 20
-63.0
 30
0.0
 11
-556.90000000000316
 21
-38.0
 31
0.0
  0
LINE
  8
DETAIL
  6
CONTINUOUS
 62
     5
 10
-559.00000000000364
 20
-32.0
 30
0.0
 11
-559.00000000000364
 21
-23.0
 31
0.0
  0
LINE
  8
DETAIL
  6
CONTINUOUS
 62
     5
 10
-559.20000000000437
 20
-25.5
 30
0.0
 11
-559.20000000000437
 21
-63.0
 31
0.0
  0
LINE
  8
DETAIL
  6
CONTINUOUS
 62
     5
 10
-561.50000000000364
 20
-25.5
 30
0.0
 11
-561.50000000000364
 21
-63.0
 31
0.0
  0
LINE
  8
DETAIL
  6
CONTINUOUS
 62
     5
 10
-561.50000000000364
 20
-18.0
 30
0.0
 11
-561.50000000000364
 21
-3.0
 31
0.0
  0
LINE
  8
DETAIL
  6
CONTINUOUS
 62
     5
 10
-561.70000000000425
 20
-4.0
 30
0.0
 11
-561.70000000000425
 21
-35.600000000000357
 31
0.0
  0
LINE
  8
DETAIL
  6
CONTINUOUS
 62
     5
 10
-561.70000000000425
 20
-35.600000000000357
 30
0.0
 11
-561.70000000000425
 21
-37.0
 31
0.0
  0
LINE
  8
DETAIL
  6
CONTINUOUS
 62
     5
 10
-561.70000000000425
 20
-463.96847721910029
 30
0.0
 11
-561.70000000000425
 21
-37.0
 31
0.0
  0
LINE
  8
DETAIL
  6
CONTINUOUS
 62
     5
 10
-562.50000000000364
 20
-34.800000000000182
 30
0.0
 11
-562.50000000000364
 21
-37.0
 31
0.0
  0
LINE
  8
DETAIL
  6
CONTINUOUS
 62
     5
 10
-562.50000000000364
 20
-473.0
 30
0.0
 11
-562.50000000000364
 21
-458.19999999999982
 31
0.0
  0
LINE
  8
DETAIL
  6
CONTINUOUS
 62
     5
 10
-562.50000000000364
 20
-34.800000000000182
 30
0.0
 11
-562.50000000000364
 21
-4.0
 31
0.0
  0
LINE
  8
DETAIL
  6
CONTINUOUS
 62
     5
 10
-562.50000000000364
 20
-4.0
 30
0.0
 11
-562.50000000000364
 21
0.0
 31
0.0
  0
LINE
  8
DETAIL
  6
CONTINUOUS
 62
     5
 10
-562.70000000000437
 20
-472.19999999999982
 30
0.0
 11
-562.70000000000437
 21
-463.0
 31
0.0
  0
LINE
  8
DETAIL
  6
CONTINUOUS
 62
     5
 10
-563.30000000000291
 20
-458.19999999999982
 30
0.0
 11
-563.30000000000291
 21
-3.800000000000181
 31
0.0
  0
LINE
  8
DETAIL
  6
CONTINUOUS
 62
     5
 10
-563.50000000000364
 20
-473.0
 30
0.0
 11
-563.50000000000364
 21
-476.0
 31
0.0
  0
LINE
  8
DETAIL
  6
CONTINUOUS
 62
     5
 10
-563.50000000000364
 20
-472.0
 30
0.0
 11
-563.50000000000364
 21
-463.0
 31
0.0
  0
LINE
  8
DETAIL
  6
CONTINUOUS
 62
     5
 10
-564.90000000000316
 20
-457.19999999999982
 30
0.0
 11
-564.90000000000316
 21
-458.0
 31
0.0
  0
LINE
  8
DETAIL
  6
CONTINUOUS
 62
     5
 10
-567.50000000000364
 20
0.0
 30
0.0
 11
-567.50000000000364
 21
-3.800000000000181
 31
0.0
  0
LINE
  8
DETAIL
  6
CONTINUOUS
 62
     5
 10
-567.50000000000364
 20
-458.0
 30
0.0
 11
-567.50000000000364
 21
-463.0
 31
0.0
  0
LINE
  8
DETAIL
  6
CONTINUOUS
 62
     5
 10
-572.50000000000364
 20
-3.0
 30
0.0
 11
-572.50000000000364
 21
0.0
 31
0.0
  0
LINE
  8
DETAIL
  6
CONTINUOUS
 62
     5
 10
-582.50000000000364
 20
-3.0
 30
0.0
 11
-582.50000000000364
 21
0.0
 31
0.0
  0
LINE
  8
DETAIL
  6
CONTINUOUS
 62
     5
 10
-587.50000000000364
 20
-473.0
 30
0.0
 11
-587.50000000000364
 21
-472.0
 31
0.0
  0
LINE
  8
DETAIL
  6
CONTINUOUS
 62
     5
 10
-587.50000000000364
 20
-472.0
 30
0.0
 11
-587.50000000000364
 21
-4.0
 31
0.0
  0
LINE
  8
DETAIL
  6
CONTINUOUS
 62
     5
 10
-587.50000000000364
 20
-4.0
 30
0.0
 11
-587.50000000000364
 21
-3.0
 31
0.0
  0
LINE
  8
DETAIL
  6
CONTINUOUS
 62
     5
 10
-588.30000000000291
 20
-3.800000000000181
 30
0.0
 11
-588.30000000000291
 21
-472.19999999999982
 31
0.0
  0
LINE
  8
DETAIL
  6
CONTINUOUS
 62
     5
 10
-588.50000000000364
 20
-3.0
 30
0.0
 11
-588.50000000000364
 21
-3.800000000000181
 31
0.0
  0
LINE
  8
DETAIL
  6
CONTINUOUS
 62
     5
 10
-588.50000000000364
 20
-472.19999999999982
 30
0.0
 11
-588.50000000000364
 21
-473.0
 31
0.0
  0
LINE
  8
DETAIL
  6
CONTINUOUS
 62
     5
 10
-589.10000000000389
 20
-473.0
 30
0.0
 11
-589.10000000000389
 21
-476.0
 31
0.0
  0
LINE
  8
DETAIL
  6
CONTINUOUS
 62
     5
 10
-599.100000000004
 20
-473.0
 30
0.0
 11
-599.100000000004
 21
-476.0
 31
0.0
  0
LINE
  8
DETAIL
  6
CONTINUOUS
 62
     5
 10
-609.100000000004
 20
-473.0
 30
0.0
 11
-609.100000000004
 21
-476.0
 31
0.0
  0
LINE
  8
DETAIL
  6
CONTINUOUS
 62
     5
 10
-814.50000000000364
 20
-473.0
 30
0.0
 11
-814.50000000000364
 21
-472.19999999999982
 31
0.0
  0
LINE
  8
DETAIL
  6
CONTINUOUS
 62
     5
 10
-814.50000000000364
 20
-3.800000000000181
 30
0.0
 11
-814.50000000000364
 21
-3.0
 31
0.0
  0
LINE
  8
DETAIL
  6
CONTINUOUS
 62
     5
 10
-814.70000000000437
 20
-472.19999999999982
 30
0.0
 11
-814.70000000000437
 21
-3.800000000000181
 31
0.0
  0
LINE
  8
DETAIL
  6
CONTINUOUS
 62
     5
 10
-815.50000000000364
 20
-3.0
 30
0.0
 11
-815.50000000000364
 21
-4.0
 31
0.0
  0
LINE
  8
DETAIL
  6
CONTINUOUS
 62
     5
 10
-815.50000000000364
 20
-4.0
 30
0.0
 11
-815.50000000000364
 21
-472.0
 31
0.0
  0
LINE
  8
DETAIL
  6
CONTINUOUS
 62
     5
 10
-815.50000000000364
 20
-472.0
 30
0.0
 11
-815.50000000000364
 21
-473.0
 31
0.0
  0
LINE
  8
DETAIL
  6
CONTINUOUS
 62
     5
 10
-817.50000000000364
 20
-473.0
 30
0.0
 11
-817.50000000000364
 21
-476.0
 31
0.0
  0
LINE
  8
DETAIL
  6
CONTINUOUS
 62
     5
 10
-817.50000000000364
 20
-3.0
 30
0.0
 11
-817.50000000000364
 21
0.0
 31
0.0
  0
LINE
  8
DETAIL
  6
CONTINUOUS
 62
     5
 10
-827.50000000000352
 20
-473.0
 30
0.0
 11
-827.50000000000352
 21
-476.0
 31
0.0
  0
LINE
  8
DETAIL
  6
CONTINUOUS
 62
     5
 10
-827.50000000000352
 20
-3.0
 30
0.0
 11
-827.50000000000352
 21
0.0
 31
0.0
  0
LINE
  8
DETAIL
  6
CONTINUOUS
 62
     5
 10
-836.70000000000425
 20
-472.19999999999982
 30
0.0
 11
-836.70000000000425
 21
-3.800000000000181
 31
0.0
  0
LINE
  8
DETAIL
  6
CONTINUOUS
 62
     5
 10
-837.50000000000375
 20
0.0
 30
0.0
 11
-837.50000000000375
 21
-4.0
 31
0.0
  0
LINE
  8
DETAIL
  6
CONTINUOUS
 62
     5
 10
-837.50000000000375
 20
-4.0
 30
0.0
 11
-837.50000000000375
 21
-34.0
 31
0.0
  0
LINE
  8
DETAIL
  6
CONTINUOUS
 62
     5
 10
-837.50000000000375
 20
-34.0
 30
0.0
 11
-837.50000000000375
 21
-37.0
 31
0.0
  0
LINE
  8
DETAIL
  6
CONTINUOUS
 62
     5
 10
-837.50000000000375
 20
-438.1999999999997
 30
0.0
 11
-837.50000000000375
 21
-441.0
 31
0.0
  0
LINE
  8
DETAIL
  6
CONTINUOUS
 62
     5
 10
-837.50000000000375
 20
-472.0
 30
0.0
 11
-837.50000000000375
 21
-476.0
 31
0.0
  0
LINE
  8
DETAIL
  6
CONTINUOUS
 62
     5
 10
-837.50000000000375
 20
-472.0
 30
0.0
 11
-837.50000000000375
 21
-441.0
 31
0.0
  0
LINE
  8
DETAIL
  6
CONTINUOUS
 62
     5
 10
-841.70000000000437
 20
-37.800000000000182
 30
0.0
 11
-841.70000000000437
 21
-438.1999999999997
 31
0.0
  0
LINE
  8
DETAIL
  6
CONTINUOUS
 62
     5
 10
-842.50000000000364
 20
0.0
 30
0.0
 11
-842.50000000000364
 21
-37.0
 31
0.0
  0
LINE
  8
DETAIL
  6
CONTINUOUS
 62
     5
 10
-842.50000000000364
 20
-438.0
 30
0.0
 11
-842.50000000000364
 21
-476.0
 31
0.0
  0
ARC
  8
DETAIL
  6
CONTINUOUS
 62
     5
 10
-501.30000000000291
 20
-273.0
 30
0.0
 40
1.500000000000141
 50
109.41229452204109
 51
250.58770547795891
  0
CIRCLE
  8
DETAIL
  6
CONTINUOUS
 62
     5
 10
-716.70000000000437
 20
-28.800000000000178
 30
0.0
 40
7.5
  0
ARC
  8
DETAIL
  6
CONTINUOUS
 62
     5
 10
-716.70000000000437
 20
-28.800000000000178
 30
0.0
 40
6.9999999999998952
 50
7.3870484362983211
 51
172.61295156370161
  0
ARC
  8
DETAIL
  6
CONTINUOUS
 62
     5
 10
-716.70000000000437
 20
-28.800000000000178
 30
0.0
 40
6.9999999999998952
 50
187.3870484362983
 51
352.6129515637017
  0
CIRCLE
  8
DETAIL
  6
CONTINUOUS
 62
     5
 10
-716.70000000000437
 20
-447.19999999999982
 30
0.0
 40
7.5
  0
ARC
  8
DETAIL
  6
CONTINUOUS
 62
     5
 10
-716.70000000000437
 20
-447.19999999999982
 30
0.0
 40
6.9999999999998952
 50
7.3870484362983211
 51
172.61295156370161
  0
ARC
  8
DETAIL
  6
CONTINUOUS
 62
     5
 10
-716.70000000000437
 20
-447.19999999999982
 30
0.0
 40
6.9999999999998952
 50
187.3870484362983
 51
352.6129515637017
  0
ARC
  8
DETAIL
  6
CONTINUOUS
 62
     5
 10
837.69999999999698
 20
-358.19999999999982
 30
0.0
 40
1.0
 50
168.7500000000162
 51
180.0
  0
ARC
  8
DETAIL
  6
CONTINUOUS
 62
     5
 10
833.99999999999636
 20
-25.5
 30
0.0
 40
0.2000000000000063
 50
0.0
 51
83.531216260537974
  0
ARC
  8
DETAIL
  6
CONTINUOUS
 62
     5
 10
-459.50000000000358
 20
-60.0
 30
0.0
 40
3.0
 50
348.44989020069352
 51
0.0
  0
ARC
  8
DETAIL
  6
CONTINUOUS
 62
     5
 10
-559.00000000000364
 20
-25.5
 30
0.0
 40
0.2000000000000455
 50
96.468783739358486
 51
180.0
  0
ARC
  8
DETAIL
  6
CONTINUOUS
 62
     5
 10
-561.50000000000364
 20
-4.0
 30
0.0
 40
0.2000000000000455
 50
96.474111586685353
 51
180.0
  0
ARC
  8
DETAIL
  6
CONTINUOUS
 62
     5
 10
837.69999999999698
 20
-57.800000000000182
 30
0.0
 40
0.999999999999927
 50
180.0
 51
191.26133976457879
  0
CIRCLE
  8
DETAIL
  6
CONTINUOUS
 62
     5
 10
-716.70000000000437
 20
-447.19999999999982
 30
0.0
 40
12.5
  0
CIRCLE
  8
DETAIL
  6
CONTINUOUS
 62
     5
 10
-716.70000000000437
 20
-28.800000000000178
 30
0.0
 40
12.5
  0
ARC
  8
DETAIL
  6
CONTINUOUS
 62
     5
 10
-496.50000000000358
 20
-62.400000000000553
 30
0.0
 40
0.2000000000000455
 50
95.651978249552243
 51
180.0
  0
ARC
  8
DETAIL
  6
CONTINUOUS
 62
     5
 10
734.49999999999625
 20
-32.0
 30
0.0
 40
3.0
 50
180.0
 51
270.0
  0
ARC
  8
DETAIL
  6
CONTINUOUS
 62
     5
 10
797.49999999999636
 20
-32.0
 30
0.0
 40
3.0
 50
270.0
 51
0.0
  0
ARC
  8
DETAIL
  6
CONTINUOUS
 62
     5
 10
830.99999999999625
 20
-32.0
 30
0.0
 40
3.0
 50
270.0
 51
0.0
  0
ARC
  8
DETAIL
  6
CONTINUOUS
 62
     5
 10
815.49999999999625
 20
-32.0
 30
0.0
 40
3.0
 50
180.0
 51
270.0
  0
ARC
  8
DETAIL
  6
CONTINUOUS
 62
     5
 10
833.99999999999636
 20
-25.5
 30
0.0
 40
2.5
 50
0.0
 51
90.0
  0
ARC
  8
DETAIL
  6
CONTINUOUS
 62
     5
 10
-540.50000000000364
 20
-32.0
 30
0.0
 40
3.0
 50
270.0
 51
0.0
  0
ARC
  8
DETAIL
  6
CONTINUOUS
 62
     5
 10
-556.00000000000364
 20
-32.0
 30
0.0
 40
3.0
 50
180.0
 51
270.0
  0
ARC
  8
DETAIL
  6
CONTINUOUS
 62
     5
 10
-522.50000000000364
 20
-32.0
 30
0.0
 40
3.0
 50
180.0
 51
270.0
  0
ARC
  8
DETAIL
  6
CONTINUOUS
 62
     5
 10
-459.50000000000358
 20
-32.0
 30
0.0
 40
3.0
 50
270.0
 51
0.0
  0
ARC
  8
DETAIL
  6
CONTINUOUS
 62
     5
 10
-559.00000000000364
 20
-25.5
 30
0.0
 40
2.5
 50
90.0
 51
180.0
  0
ARC
  8
DETAIL
  6
CONTINUOUS
 62
     5
 10
-559.50000000000364
 20
-466.0
 30
0.0
 40
3.0
 50
90.0
 51
180.0
  0
ARC
  8
DETAIL
  6
CONTINUOUS
 62
     5
 10
-562.50000000000364
 20
-472.0
 30
0.0
 40
1.0
 50
180.0
 51
270.0
  0
ARC
  8
DETAIL
  6
CONTINUOUS
 62
     5
 10
-836.50000000000352
 20
-472.0
 30
0.0
 40
1.0
 50
180.0
 51
270.0
  0
ARC
  8
DETAIL
  6
CONTINUOUS
 62
     5
 10
-836.50000000000352
 20
-37.0
 30
0.0
 40
0.9999999999998593
 50
180.0
 51
258.43951284812027
  0
ARC
  8
DETAIL
  6
CONTINUOUS
 62
     5
 10
-563.50000000000364
 20
-4.0
 30
0.0
 40
1.0
 50
0.0
 51
90.0
  0
ARC
  8
DETAIL
  6
CONTINUOUS
 62
     5
 10
-836.50000000000352
 20
-4.0
 30
0.0
 40
1.0
 50
90.0
 51
180.0
  0
ARC
  8
DETAIL
  6
CONTINUOUS
 62
     5
 10
-153.50000000000361
 20
-4.0
 30
0.0
 40
1.0
 50
11.56596501972364
 51
90.0
  0
ARC
  8
DETAIL
  6
CONTINUOUS
 62
     5
 10
-561.50000000000364
 20
-4.0
 30
0.0
 40
1.0
 50
90.0
 51
180.0
  0
ARC
  8
DETAIL
  6
CONTINUOUS
 62
     5
 10
-496.50000000000358
 20
-62.400000000000553
 30
0.0
 40
1.0
 50
90.0
 51
180.0
  0
CIRCLE
  8
DETAIL
  6
CONTINUOUS
 62
     5
 10
852.49999999999625
 20
-308.0
 30
0.0
 40
1.700000000000045
  0
CIRCLE
  8
DETAIL
  6
CONTINUOUS
 62
     5
 10
852.49999999999625
 20
-208.0
 30
0.0
 40
1.700000000000045
  0
CIRCLE
  8
DETAIL
  6
CONTINUOUS
 62
     5
 10
852.49999999999625
 20
-108.0
 30
0.0
 40
1.700000000000045
  0
LINE
  8
DETAIL
  6
CONTINUOUS
 62
     5
 10
-842.50000000000364
 20
-458.0
 30
0.0
 11
-843.30000000000302
 21
-458.0
 31
0.0
  0
LINE
  8
DETAIL
  6
CONTINUOUS
 62
     5
 10
-841.70000000000437
 20
-437.19999999999982
 30
0.0
 11
-860.30000000000291
 21
-437.19999999999982
 31
0.0
  0
LINE
  8
DETAIL
  6
CONTINUOUS
 62
     5
 10
-841.70000000000437
 20
-438.0
 30
0.0
 11
-862.50000000000375
 21
-438.0
 31
0.0
  0
LINE
  8
DETAIL
  6
CONTINUOUS
 62
     5
 10
-860.30000000000291
 20
-437.19999999999982
 30
0.0
 11
-862.50000000000375
 21
-437.19999999999982
 31
0.0
  0
LINE
  8
DETAIL
  6
CONTINUOUS
 62
     5
 10
-841.70000000000437
 20
-436.19999999999982
 30
0.0
 11
-842.50000000000364
 21
-436.19999999999982
 31
0.0
  0
LINE
  8
DETAIL
  6
CONTINUOUS
 62
     5
 10
-841.70000000000437
 20
-39.800000000000182
 30
0.0
 11
-842.50000000000364
 21
-39.800000000000182
 31
0.0
  0
LINE
  8
DETAIL
  6
CONTINUOUS
 62
     5
 10
-862.50000000000375
 20
-38.800000000000182
 30
0.0
 11
-860.30000000000291
 21
-38.800000000000182
 31
0.0
  0
LINE
  8
DETAIL
  6
CONTINUOUS
 62
     5
 10
-860.30000000000291
 20
-38.800000000000182
 30
0.0
 11
-841.70000000000437
 21
-38.800000000000182
 31
0.0
  0
LINE
  8
DETAIL
  6
CONTINUOUS
 62
     5
 10
-841.70000000000437
 20
-38.0
 30
0.0
 11
-862.50000000000375
 21
-38.0
 31
0.0
  0
LINE
  8
DETAIL
  6
CONTINUOUS
 62
     5
 10
-842.50000000000364
 20
-39.800000000000182
 30
0.0
 11
-842.50000000000364
 21
-436.19999999999982
 31
0.0
  0
LINE
  8
DETAIL
  6
CONTINUOUS
 62
     5
 10
-843.30000000000302
 20
-438.0
 30
0.0
 11
-843.30000000000302
 21
-458.0
 31
0.0
  0
LINE
  8
DETAIL
  6
CONTINUOUS
 62
     5
 10
-859.50000000000364
 20
-437.19999999999982
 30
0.0
 11
-859.50000000000364
 21
-438.0
 31
0.0
  0
LINE
  8
DETAIL
  6
CONTINUOUS
 62
     5
 10
-859.50000000000364
 20
-38.800000000000182
 30
0.0
 11
-859.50000000000364
 21
-38.0
 31
0.0
  0
LINE
  8
DETAIL
  6
CONTINUOUS
 62
     5
 10
-862.50000000000375
 20
-438.0
 30
0.0
 11
-862.50000000000375
 21
-38.0
 31
0.0
  0
CIRCLE
  8
DETAIL
  6
CONTINUOUS
 62
     5
 10
-852.50000000000352
 20
-88.0
 30
0.0
 40
1.449999999999988
  0
CIRCLE
  8
DETAIL
  6
CONTINUOUS
 62
     5
 10
-852.50000000000352
 20
-188.0
 30
0.0
 40
1.449999999999988
  0
CIRCLE
  8
DETAIL
  6
CONTINUOUS
 62
     5
 10
-852.50000000000352
 20
-288.0
 30
0.0
 40
1.449999999999988
  0
CIRCLE
  8
DETAIL
  6
CONTINUOUS
 62
     5
 10
-852.50000000000352
 20
-388.0
 30
0.0
 40
1.449999999999988
  0
CIRCLE
  8
DETAIL
  6
CONTINUOUS
 62
     5
 10
852.49999999999625
 20
-308.0
 30
0.0
 40
1.700000000000045
  0
CIRCLE
  8
DETAIL
  6
CONTINUOUS
 62
     5
 10
852.49999999999625
 20
-208.0
 30
0.0
 40
1.700000000000045
  0
CIRCLE
  8
DETAIL
  6
CONTINUOUS
 62
     5
 10
852.49999999999625
 20
-108.0
 30
0.0
 40
1.700000000000045
  0
TEXT
  8
ETC
  6
CONTINUOUS
 62
    61
 10
-1287.4563040405881
 20
1024.5133679871569
 30
0.0
 40
64.0
  1
GE-P2100MG6_5
 41
0.9
  0
LINE
  8
SIZE
  6
CONTINUOUS
 62
    30
 10
862.5
 20
-3.0000000000109188
 30
0.0
 11
1341.1489826779759
 21
-3.0000000000110552
 31
0.0
  0
LINE
  8
SIZE
  6
CONTINUOUS
 62
    30
 10
858.29999999999927
 20
-473.00000000000819
 30
0.0
 11
1341.1489826779759
 21
-473.0000000000083
 31
0.0
  0
LINE
  8
SIZE
  6
CONTINUOUS
 62
    30
 10
1321.1489826779759
 20
-3.0000000000110489
 30
0.0
 11
1321.1489826779759
 21
-473.0000000000083
 31
0.0
  0
CIRCLE
  8
SIZE
  6
CONTINUOUS
 62
    30
 10
1321.1489826779759
 20
-3.0000000000110489
 30
0.0
 40
7.5
  0
CIRCLE
  8
SIZE
  6
CONTINUOUS
 62
    30
 10
1321.1489826779759
 20
-473.0000000000083
 30
0.0
 40
7.5
  0
TEXT
  8
SIZE
  6
CONTINUOUS
 62
    30
 10
1301.1489826779759
 20
-312.67506074320363
 30
0.0
 40
40.0
  1
470
 50
90.0
 41
0.9
 51
0.0
  7
STANDARD
 71
     0
 72
     1
 11
1301.1489826779759
 21
-261.73506074320358
 31
0.0
210
0.0
220
0.0
230
1.0
  0
POINT
  8
DEFPOINTS
  6
CONTINUOUS
 62
    30
 10
842.5
 20
-3.000000000010913
 30
0.0
  0
POINT
  8
DEFPOINTS
  6
CONTINUOUS
 62
    30
 10
838.29999999999916
 20
-473.00000000000819
 30
0.0
  0
POINT
  8
DEFPOINTS
  6
CONTINUOUS
 62
    30
 10
1321.1489826779759
 20
-473.0000000000083
 30
0.0
  0
LINE
  8
SIZE
  6
CONTINUOUS
 62
    30
 10
877.5
 20
-473.00000000001182
 30
0.0
 11
1221.1489826779739
 21
-473.00000000001188
 31
0.0
  0
LINE
  8
SIZE
  6
CONTINUOUS
 62
    30
 10
882.50000000000011
 20
-358.00000000001052
 30
0.0
 11
1221.1489826779739
 21
-358.00000000001057
 31
0.0
  0
LINE
  8
SIZE
  6
CONTINUOUS
 62
    30
 10
1201.1489826779739
 20
-473.00000000001188
 30
0.0
 11
1201.1489826779739
 21
-358.00000000001057
 31
0.0
  0
CIRCLE
  8
SIZE
  6
CONTINUOUS
 62
    30
 10
1201.1489826779739
 20
-473.00000000001188
 30
0.0
 40
7.5
  0
CIRCLE
  8
SIZE
  6
CONTINUOUS
 62
    30
 10
1201.1489826779739
 20
-358.00000000001057
 30
0.0
 40
7.5
  0
TEXT
  8
SIZE
  6
CONTINUOUS
 62
    30
 10
1181.1489826779739
 20
-458.52000000001101
 30
0.0
 40
40.0
  1
115
 50
90.0
 41
0.9
 51
0.0
  7
STANDARD
 71
     0
 72
     1
 11
1181.1489826779739
 21
-415.50000000001103
 31
0.0
210
0.0
220
0.0
230
1.0
  0
POINT
  8
DEFPOINTS
  6
CONTINUOUS
 62
    30
 10
857.50000000000011
 20
-473.00000000001182
 30
0.0
  0
POINT
  8
DEFPOINTS
  6
CONTINUOUS
 62
    30
 10
862.5
 20
-358.00000000001052
 30
0.0
  0
POINT
  8
DEFPOINTS
  6
CONTINUOUS
 62
    30
 10
1201.1489826779739
 20
-358.00000000001057
 30
0.0
  0
LINE
  8
SIZE
  6
CONTINUOUS
 62
    30
 10
882.50000000000011
 20
-358.00000000001052
 30
0.0
 11
1221.1489826779739
 21
-358.00000000001057
 31
0.0
  0
LINE
  8
SIZE
  6
CONTINUOUS
 62
    30
 10
882.50000000000011
 20
-58.000000000010012
 30
0.0
 11
1221.1489826779739
 21
-58.000000000010097
 31
0.0
  0
LINE
  8
SIZE
  6
CONTINUOUS
 62
    30
 10
1201.1489826779739
 20
-358.00000000001057
 30
0.0
 11
1201.1489826779739
 21
-58.000000000010097
 31
0.0
  0
CIRCLE
  8
SIZE
  6
CONTINUOUS
 62
    30
 10
1201.1489826779739
 20
-358.00000000001057
 30
0.0
 40
7.5
  0
CIRCLE
  8
SIZE
  6
CONTINUOUS
 62
    30
 10
1201.1489826779739
 20
-58.000000000010097
 30
0.0
 40
7.5
  0
TEXT
  8
SIZE
  6
CONTINUOUS
 62
    30
 10
1181.1489826779739
 20
-255.32189879235966
 30
0.0
 40
40.0
  1
300
 50
90.0
 41
0.9
 51
0.0
  7
STANDARD
 71
     0
 72
     1
 11
1181.1489826779739
 21
-204.38189879235961
 31
0.0
210
0.0
220
0.0
230
1.0
  0
POINT
  8
DEFPOINTS
  6
CONTINUOUS
 62
    30
 10
862.5
 20
-358.00000000001052
 30
0.0
  0
POINT
  8
DEFPOINTS
  6
CONTINUOUS
 62
    30
 10
862.5
 20
-58.000000000009997
 30
0.0
  0
POINT
  8
DEFPOINTS
  6
CONTINUOUS
 62
    30
 10
1201.1489826779739
 20
-58.000000000010097
 30
0.0
  0
LINE
  8
SIZE
  6
CONTINUOUS
 62
    30
 10
806.49999999999989
 20
7.7459084345982774
 30
0.0
 11
806.49999999999989
 21
378.89407490761641
 31
0.0
  0
LINE
  8
SIZE
  6
CONTINUOUS
 62
    30
 10
-531.5
 20
7.7459084345982774
 30
0.0
 11
-531.5
 21
378.89407490761641
 31
0.0
  0
LINE
  8
SIZE
  6
CONTINUOUS
 62
    30
 10
806.49999999999989
 20
358.89407490761641
 30
0.0
 11
-531.5
 21
358.89407490761641
 31
0.0
  0
CIRCLE
  8
SIZE
  6
CONTINUOUS
 62
    30
 10
806.49999999999989
 20
358.89407490761641
 30
0.0
 40
7.5
  0
CIRCLE
  8
SIZE
  6
CONTINUOUS
 62
    30
 10
-531.5
 20
358.89407490761641
 30
0.0
 40
7.5
  0
TEXT
  8
SIZE
  6
CONTINUOUS
 62
    30
 10
74.139999999999986
 20
378.89407490761641
 30
0.0
 40
40.0
  1
1338
 50
0.0
 41
0.9
 51
0.0
  7
STANDARD
 71
     0
 72
     1
 11
137.5
 21
378.89407490761641
 31
0.0
210
0.0
220
0.0
230
1.0
  0
POINT
  8
DEFPOINTS
  6
CONTINUOUS
 62
    30
 10
806.49999999999989
 20
-12.254091565401721
 30
0.0
  0
POINT
  8
DEFPOINTS
  6
CONTINUOUS
 62
    30
 10
-531.5
 20
-12.254091565401721
 30
0.0
  0
POINT
  8
DEFPOINTS
  6
CONTINUOUS
 62
    30
 10
-531.5
 20
358.89407490761641
 30
0.0
  0
LINE
  8
SIZE
  6
CONTINUOUS
 62
    30
 10
837.5
 20
1.9999999999899949
 30
0.0
 11
837.5
 21
515.34994366405851
 31
0.0
  0
LINE
  8
SIZE
  6
CONTINUOUS
 62
    30
 10
-562.5
 20
16.104814482809161
 30
0.0
 11
-562.5
 21
515.34994366405851
 31
0.0
  0
LINE
  8
SIZE
  6
CONTINUOUS
 62
    30
 10
837.5
 20
495.34994366405863
 30
0.0
 11
-562.5
 21
495.34994366405863
 31
0.0
  0
CIRCLE
  8
SIZE
  6
CONTINUOUS
 62
    30
 10
837.5
 20
495.34994366405863
 30
0.0
 40
7.5
  0
CIRCLE
  8
SIZE
  6
CONTINUOUS
 62
    30
 10
-562.5
 20
495.34994366405863
 30
0.0
 40
7.5
  0
TEXT
  8
SIZE
  6
CONTINUOUS
 62
    30
 10
73.060000000000002
 20
515.34994366405863
 30
0.0
 40
40.0
  1
1400
 50
0.0
 41
0.9
 51
0.0
  7
STANDARD
 71
     0
 72
     1
 11
137.5
 21
515.34994366405863
 31
0.0
210
0.0
220
0.0
230
1.0
  0
POINT
  8
DEFPOINTS
  6
CONTINUOUS
 62
    30
 10
837.5
 20
-18.000000000010001
 30
0.0
  0
POINT
  8
DEFPOINTS
  6
CONTINUOUS
 62
    30
 10
-562.5
 20
-3.8951855171908392
 30
0.0
  0
POINT
  8
DEFPOINTS
  6
CONTINUOUS
 62
    30
 10
-562.5
 20
495.34994366405863
 30
0.0
  0
LINE
  8
SIZE
  6
CONTINUOUS
 62
    30
 10
137.5
 20
-235.00000000001
 30
0.0
 11
137.5
 21
211.1240296715942
 31
0.0
  0
LINE
  8
SIZE
  6
CONTINUOUS
 62
    30
 10
233.5
 20
-267.00000000001
 30
0.0
 11
233.5
 21
211.1240296715942
 31
0.0
  0
LINE
  8
SIZE
  6
CONTINUOUS
 62
    30
 10
137.5
 20
191.12402967159409
 30
0.0
 11
233.5
 21
191.12402967159409
 31
0.0
  0
CIRCLE
  8
SIZE
  6
CONTINUOUS
 62
    30
 10
137.5
 20
191.12402967159409
 30
0.0
 40
7.5
  0
CIRCLE
  8
SIZE
  6
CONTINUOUS
 62
    30
 10
233.5
 20
191.12402967159409
 30
0.0
 40
7.5
  0
TEXT
  8
SIZE
  6
CONTINUOUS
 62
    30
 10
152.01999999999998
 20
211.12402967159409
 30
0.0
 40
40.0
  1
96
 50
0.0
 41
0.9
 51
0.0
  7
STANDARD
 71
     0
 72
     1
 11
185.5
 21
211.12402967159409
 31
0.0
210
0.0
220
0.0
230
1.0
  0
POINT
  8
DEFPOINTS
  6
CONTINUOUS
 62
    30
 10
137.5
 20
-255.00000000001
 30
0.0
  0
POINT
  8
DEFPOINTS
  6
CONTINUOUS
 62
    30
 10
233.5
 20
-287.00000000001
 30
0.0
  0
POINT
  8
DEFPOINTS
  6
CONTINUOUS
 62
    30
 10
233.5
 20
191.12402967159409
 30
0.0
  0
LINE
  8
SIZE
  6
CONTINUOUS
 62
    30
 10
233.5
 20
-267.00000000001
 30
0.0
 11
233.5
 21
211.1240296715942
 31
0.0
  0
LINE
  8
SIZE
  6
CONTINUOUS
 62
    30
 10
837.5
 20
1.9999999999899949
 30
0.0
 11
837.5
 21
211.1240296715942
 31
0.0
  0
LINE
  8
SIZE
  6
CONTINUOUS
 62
    30
 10
233.5
 20
191.12402967159409
 30
0.0
 11
837.5
 21
191.12402967159409
 31
0.0
  0
CIRCLE
  8
SIZE
  6
CONTINUOUS
 62
    30
 10
233.5
 20
191.12402967159409
 30
0.0
 40
7.5
  0
CIRCLE
  8
SIZE
  6
CONTINUOUS
 62
    30
 10
837.5
 20
191.12402967159409
 30
0.0
 40
7.5
  0
TEXT
  8
SIZE
  6
CONTINUOUS
 62
    30
 10
484.56
 20
211.12402967159409
 30
0.0
 40
40.0
  1
604
 50
0.0
 41
0.9
 51
0.0
  7
STANDARD
 71
     0
 72
     1
 11
535.5
 21
211.12402967159409
 31
0.0
210
0.0
220
0.0
230
1.0
  0
POINT
  8
DEFPOINTS
  6
CONTINUOUS
 62
    30
 10
233.5
 20
-287.00000000001
 30
0.0
  0
POINT
  8
DEFPOINTS
  6
CONTINUOUS
 62
    30
 10
837.5
 20
-18.000000000010001
 30
0.0
  0
POINT
  8
DEFPOINTS
  6
CONTINUOUS
 62
    30
 10
837.5
 20
191.12402967159409
 30
0.0
  0
LINE
  8
SIZE
  6
CONTINUOUS
 62
    30
 10
862.5
 20
-38.000000000010012
 30
0.0
 11
862.5
 21
637.83924137246765
 31
0.0
  0
LINE
  8
SIZE
  6
CONTINUOUS
 62
    30
 10
-862.5
 20
-18.000000000010001
 30
0.0
 11
-862.5
 21
637.83924137246765
 31
0.0
  0
LINE
  8
SIZE
  6
CONTINUOUS
 62
    30
 10
862.5
 20
617.83924137246777
 30
0.0
 11
-862.5
 21
617.83924137246777
 31
0.0
  0
CIRCLE
  8
SIZE
  6
CONTINUOUS
 62
    30
 10
862.5
 20
617.83924137246777
 30
0.0
 40
7.5
  0
CIRCLE
  8
SIZE
  6
CONTINUOUS
 62
    30
 10
-862.5
 20
617.83924137246777
 30
0.0
 40
7.5
  0
TEXT
  8
SIZE
  6
CONTINUOUS
 62
    30
 10
-63.360000000000007
 20
637.83924137246765
 30
0.0
 40
40.0
  1
1725
 50
0.0
 41
0.9
 51
0.0
  7
STANDARD
 71
     0
 72
     1
 11
0.0
 21
637.83924137246765
 31
0.0
210
0.0
220
0.0
230
1.0
  0
POINT
  8
DEFPOINTS
  6
CONTINUOUS
 62
    30
 10
862.5
 20
-58.000000000009997
 30
0.0
  0
POINT
  8
DEFPOINTS
  6
CONTINUOUS
 62
    30
 10
-862.5
 20
-38.000000000010012
 30
0.0
  0
POINT
  8
DEFPOINTS
  6
CONTINUOUS
 62
    30
 10
-862.5
 20
617.83924137246777
 30
0.0
  0
LINE
  8
SIZE
  6
CONTINUOUS
 62
    30
 10
222.5
 20
-318.00000000001
 30
0.0
 11
1101.1489826779759
 21
-318.00000000001017
 31
0.0
  0
LINE
  8
SIZE
  6
CONTINUOUS
 62
    30
 10
-112.5
 20
-473.00000000001
 30
0.0
 11
1101.1489826779759
 21
-473.00000000001029
 31
0.0
  0
LINE
  8
SIZE
  6
CONTINUOUS
 62
    30
 10
1081.1489826779759
 20
-318.00000000001017
 30
0.0
 11
1081.1489826779759
 21
-473.00000000001029
 31
0.0
  0
CIRCLE
  8
SIZE
  6
CONTINUOUS
 62
    30
 10
1081.1489826779759
 20
-318.00000000001017
 30
0.0
 40
7.5
  0
CIRCLE
  8
SIZE
  6
CONTINUOUS
 62
    30
 10
1081.1489826779759
 20
-473.00000000001029
 30
0.0
 40
7.5
  0
TEXT
  8
SIZE
  6
CONTINUOUS
 62
    30
 10
1061.1489826779759
 20
-460.51346888932773
 30
0.0
 40
40.0
  1
155
 50
90.0
 41
0.9
 51
0.0
  7
STANDARD
 71
     0
 72
     1
 11
1061.1489826779759
 21
-413.89346888932772
 31
0.0
210
0.0
220
0.0
230
1.0
  0
POINT
  8
DEFPOINTS
  6
CONTINUOUS
 62
    30
 10
202.5
 20
-318.00000000001
 30
0.0
  0
POINT
  8
DEFPOINTS
  6
CONTINUOUS
 62
    30
 10
-132.5
 20
-473.00000000000989
 30
0.0
  0
POINT
  8
DEFPOINTS
  6
CONTINUOUS
 62
    30
 10
1081.1489826779759
 20
-473.00000000001029
 30
0.0
  0
LINE
  8
SIZE
  6
CONTINUOUS
 62
    30
 10
134.5
 20
-278.00000000001012
 30
0.0
 11
1101.1489826779759
 21
-278.00000000001029
 31
0.0
  0
LINE
  8
SIZE
  6
CONTINUOUS
 62
    30
 10
222.5
 20
-318.00000000001
 30
0.0
 11
1101.1489826779759
 21
-318.00000000001017
 31
0.0
  0
LINE
  8
SIZE
  6
CONTINUOUS
 62
    30
 10
1081.1489826779759
 20
-318.00000000001017
 30
0.0
 11
1081.1489826779759
 21
-348.00000000001029
 31
0.0
  0
LINE
  8
SIZE
  6
CONTINUOUS
 62
    30
 10
1081.1489826779759
 20
-278.00000000001029
 30
0.0
 11
1081.1489826779759
 21
-100.5714285714365
 31
0.0
  0
LINE
  8
SIZE
  6
CONTINUOUS
 62
    30
 10
1081.1489826779759
 20
-318.00000000001017
 30
0.0
 11
1081.1489826779759
 21
-278.00000000001029
 31
0.0
  0
CIRCLE
  8
SIZE
  6
CONTINUOUS
 62
    30
 10
1081.1489826779759
 20
-318.00000000001017
 30
0.0
 40
7.5
  0
CIRCLE
  8
SIZE
  6
CONTINUOUS
 62
    30
 10
1081.1489826779759
 20
-278.00000000001029
 30
0.0
 40
7.5
  0
TEXT
  8
SIZE
  6
CONTINUOUS
 62
    30
 10
1061.1489826779759
 20
-183.91428571429356
 30
0.0
 40
40.0
  1
40
 50
90.0
 41
0.9
 51
0.0
  7
STANDARD
 71
     0
 72
     1
 11
1061.1489826779759
 21
-149.71428571429351
 31
0.0
210
0.0
220
0.0
230
1.0
  0
POINT
  8
DEFPOINTS
  6
CONTINUOUS
 62
    30
 10
114.5
 20
-278.00000000001
 30
0.0
  0
POINT
  8
DEFPOINTS
  6
CONTINUOUS
 62
    30
 10
202.5
 20
-318.00000000001
 30
0.0
  0
POINT
  8
DEFPOINTS
  6
CONTINUOUS
 62
    30
 10
1081.1489826779759
 20
-318.00000000001017
 30
0.0
  0
LINE
  8
SIZE
  6
CONTINUOUS
 62
    30
 10
837.5
 20
1.9999999999899949
 30
0.0
 11
837.5
 21
515.34994366405851
 31
0.0
  0
LINE
  8
SIZE
  6
CONTINUOUS
 62
    30
 10
862.5
 20
-42.000000000009997
 30
0.0
 11
862.5
 21
515.34994366405851
 31
0.0
  0
LINE
  8
SIZE
  6
CONTINUOUS
 62
    30
 10
837.5
 20
495.34994366405863
 30
0.0
 11
807.49999999999989
 21
495.34994366405863
 31
0.0
  0
LINE
  8
SIZE
  6
CONTINUOUS
 62
    30
 10
862.5
 20
495.34994366405863
 30
0.0
 11
1020.785714285714
 21
495.34994366405863
 31
0.0
  0
LINE
  8
SIZE
  6
CONTINUOUS
 62
    30
 10
837.5
 20
495.34994366405863
 30
0.0
 11
862.5
 21
495.34994366405863
 31
0.0
  0
CIRCLE
  8
SIZE
  6
CONTINUOUS
 62
    30
 10
837.5
 20
495.34994366405863
 30
0.0
 40
7.5
  0
CIRCLE
  8
SIZE
  6
CONTINUOUS
 62
    30
 10
862.5
 20
495.34994366405863
 30
0.0
 40
7.5
  0
TEXT
  8
SIZE
  6
CONTINUOUS
 62
    30
 10
938.16285714285721
 20
515.34994366405863
 30
0.0
 40
40.0
  1
25
 50
0.0
 41
0.9
 51
0.0
  7
STANDARD
 71
     0
 72
     1
 11
971.64285714285722
 21
515.34994366405863
 31
0.0
210
0.0
220
0.0
230
1.0
  0
POINT
  8
DEFPOINTS
  6
CONTINUOUS
 62
    30
 10
837.5
 20
-18.000000000010001
 30
0.0
  0
POINT
  8
DEFPOINTS
  6
CONTINUOUS
 62
    30
 10
862.5
 20
-62.000000000010012
 30
0.0
  0
POINT
  8
DEFPOINTS
  6
CONTINUOUS
 62
    30
 10
862.5
 20
495.34994366405863
 30
0.0
  0
LINE
  8
SIZE
  6
CONTINUOUS
 62
    30
 10
-837.5
 20
16.999999999989988
 30
0.0
 11
-837.5
 21
515.34994366405851
 31
0.0
  0
LINE
  8
SIZE
  6
CONTINUOUS
 62
    30
 10
-562.5057337022663
 20
16.106932358005899
 30
0.0
 11
-562.5057337022663
 21
515.34994366405851
 31
0.0
  0
LINE
  8
SIZE
  6
CONTINUOUS
 62
    30
 10
-837.5
 20
495.34994366405863
 30
0.0
 11
-562.5057337022663
 21
495.34994366405863
 31
0.0
  0
CIRCLE
  8
SIZE
  6
CONTINUOUS
 62
    30
 10
-837.5
 20
495.34994366405863
 30
0.0
 40
7.5
  0
CIRCLE
  8
SIZE
  6
CONTINUOUS
 62
    30
 10
-562.5057337022663
 20
495.34994366405863
 30
0.0
 40
7.5
  0
TEXT
  8
SIZE
  6
CONTINUOUS
 62
    30
 10
-750.22286685113318
 20
515.34994366405863
 30
0.0
 40
40.0
  1
275
 50
0.0
 41
0.9
 51
0.0
  7
STANDARD
 71
     0
 72
     1
 11
-700.00286685113315
 21
515.34994366405863
 31
0.0
210
0.0
220
0.0
230
1.0
  0
POINT
  8
DEFPOINTS
  6
CONTINUOUS
 62
    30
 10
-837.5
 20
-3.000000000010004
 30
0.0
  0
POINT
  8
DEFPOINTS
  6
CONTINUOUS
 62
    30
 10
-562.5057337022663
 20
-3.8930676419940928
 30
0.0
  0
POINT
  8
DEFPOINTS
  6
CONTINUOUS
 62
    30
 10
-562.5057337022663
 20
495.34994366405863
 30
0.0
  0
LINE
  8
SIZE
  6
CONTINUOUS
 62
    30
 10
-862.5
 20
-18.000000000010001
 30
0.0
 11
-862.5
 21
515.34994366405851
 31
0.0
  0
LINE
  8
SIZE
  6
CONTINUOUS
 62
    30
 10
-837.5
 20
16.999999999989988
 30
0.0
 11
-837.5
 21
515.34994366405851
 31
0.0
  0
LINE
  8
SIZE
  6
CONTINUOUS
 62
    30
 10
-837.5
 20
495.34994366405863
 30
0.0
 11
-807.49999999999989
 21
495.34994366405863
 31
0.0
  0
LINE
  8
SIZE
  6
CONTINUOUS
 62
    30
 10
-862.5
 20
495.34994366405863
 30
0.0
 11
-1020.785714285714
 21
495.34994366405863
 31
0.0
  0
LINE
  8
SIZE
  6
CONTINUOUS
 62
    30
 10
-837.5
 20
495.34994366405863
 30
0.0
 11
-862.5
 21
495.34994366405863
 31
0.0
  0
CIRCLE
  8
SIZE
  6
CONTINUOUS
 62
    30
 10
-837.5
 20
495.34994366405863
 30
0.0
 40
7.5
  0
CIRCLE
  8
SIZE
  6
CONTINUOUS
 62
    30
 10
-862.5
 20
495.34994366405863
 30
0.0
 40
7.5
  0
TEXT
  8
SIZE
  6
CONTINUOUS
 62
    30
 10
-1005.1228571428575
 20
515.34994366405863
 30
0.0
 40
40.0
  1
25
 50
0.0
 41
0.9
 51
0.0
  7
STANDARD
 71
     0
 72
     1
 11
-971.64285714285745
 21
515.34994366405863
 31
0.0
210
0.0
220
0.0
230
1.0
  0
POINT
  8
DEFPOINTS
  6
CONTINUOUS
 62
    30
 10
-862.5
 20
-38.000000000010012
 30
0.0
  0
POINT
  8
DEFPOINTS
  6
CONTINUOUS
 62
    30
 10
-837.5
 20
-3.000000000010004
 30
0.0
  0
POINT
  8
DEFPOINTS
  6
CONTINUOUS
 62
    30
 10
-837.5
 20
495.34994366405863
 30
0.0
  0
LINE
  8
SIZE
  6
CONTINUOUS
 62
    30
 10
806.49999999999989
 20
-5.3000000000101863
 30
0.0
 11
806.49999999999989
 21
378.89407490761641
 31
0.0
  0
LINE
  8
SIZE
  6
CONTINUOUS
 62
    30
 10
836.70000000000073
 20
1.9999999999899949
 30
0.0
 11
836.70000000000073
 21
378.89407490761641
 31
0.0
  0
LINE
  8
SIZE
  6
CONTINUOUS
 62
    30
 10
806.49999999999989
 20
358.89407490761641
 30
0.0
 11
776.5
 21
358.89407490761641
 31
0.0
  0
LINE
  8
SIZE
  6
CONTINUOUS
 62
    30
 10
836.70000000000073
 20
358.89407490761641
 30
0.0
 11
1021.925035393406
 21
358.89407490761641
 31
0.0
  0
LINE
  8
SIZE
  6
CONTINUOUS
 62
    30
 10
806.49999999999989
 20
358.89407490761641
 30
0.0
 11
836.70000000000073
 21
358.89407490761641
 31
0.0
  0
CIRCLE
  8
SIZE
  6
CONTINUOUS
 62
    30
 10
806.49999999999989
 20
358.89407490761641
 30
0.0
 40
7.5
  0
CIRCLE
  8
SIZE
  6
CONTINUOUS
 62
    30
 10
836.70000000000073
 20
358.89407490761641
 30
0.0
 40
7.5
  0
TEXT
  8
SIZE
  6
CONTINUOUS
 62
    30
 10
938.94217825054875
 20
378.89407490761641
 30
0.0
 40
40.0
  1
30
 50
0.0
 41
0.9
 51
0.0
  7
STANDARD
 71
     0
 72
     1
 11
972.78217825054878
 21
378.89407490761641
 31
0.0
210
0.0
220
0.0
230
1.0
  0
POINT
  8
DEFPOINTS
  6
CONTINUOUS
 62
    30
 10
806.49999999999989
 20
-25.30000000001019
 30
0.0
  0
POINT
  8
DEFPOINTS
  6
CONTINUOUS
 62
    30
 10
836.70000000000073
 20
-18.000000000010001
 30
0.0
  0
POINT
  8
DEFPOINTS
  6
CONTINUOUS
 62
    30
 10
836.70000000000073
 20
358.89407490761641
 30
0.0
  0
LINE
  8
NOTE
  6
CONTINUOUS
 62
     4
 10
233.49999999999091
 20
-287.00000000000551
 30
0.0
 11
233.49999999999091
 21
-349.00000000000551
 31
0.0
  0
LINE
  8
NOTE
  6
CONTINUOUS
 62
     4
 10
202.49999999999091
 20
-318.00000000000551
 30
0.0
 11
264.49999999999091
 21
-318.00000000000551
 31
0.0
  0
LINE
  8
NOTE
  6
CONTINUOUS
 62
     4
 10
137.49999999999091
 20
-255.0000000000054
 30
0.0
 11
137.49999999999091
 21
-301.00000000000551
 31
0.0
  0
LINE
  8
NOTE
  6
CONTINUOUS
 62
     4
 10
114.49999999999091
 20
-278.0000000000054
 30
0.0
 11
160.49999999999091
 21
-278.0000000000054
 31
0.0
  0
LINE
  8
NOTE
  6
CONTINUOUS
 62
     4
 10
124.8021289981475
 20
-249.65602068163849
 30
0.0
 11
137.49999999999091
 21
-278.0000000000054
 31
0.0
  0
LINE
  8
NOTE
  6
CONTINUOUS
 62
     4
 10
137.49999999999091
 20
-278.0000000000054
 30
0.0
 11
112.33133156178739
 21
-259.80232925270138
 31
0.0
  0
LINE
  8
NOTE
  6
CONTINUOUS
 62
     4
 10
137.49999999999091
 20
-278.0000000000054
 30
0.0
 11
118.5667302799675
 21
-254.7291749671694
 31
0.0
  0
LINE
  8
NOTE
  6
CONTINUOUS
 62
     4
 10
118.5667302799675
 20
-254.7291749671694
 30
0.0
 11
-118.3161682357804
 21
36.422885197117473
 31
0.0
  0
LINE
  8
NOTE
  6
CONTINUOUS
 62
     4
 10
-118.3161682357804
 20
36.422885197117473
 30
0.0
 11
-514.5898761604094
 21
36.422885197117473
 31
0.0
  0
TEXT
  8
NOTE
  6
CONTINUOUS
 62
     4
 10
-506.93107641852652
 20
211.54086629469111
 30
0.0
 40
64.0
  1
 RG %%C22.2
 41
0.9
  0
LINE
  8
NOTE
  6
CONTINUOUS
 62
     4
 10
-551.66533497988485
 20
-1.6784768330116999
 30
0.0
 11
-531.50000000000898
 21
-25.300000000006548
 31
0.0
  0
LINE
  8
NOTE
  6
CONTINUOUS
 62
     4
 10
-531.50000000000898
 20
-25.300000000006548
 30
0.0
 11
-560.77445390483911
 21
-14.925828218439159
 31
0.0
  0
LINE
  8
NOTE
  6
CONTINUOUS
 62
     4
 10
-531.50000000000898
 20
-25.300000000006548
 30
0.0
 11
-556.21989444236215
 21
-8.3021525257254325
 31
0.0
  0
LINE
  8
NOTE
  6
CONTINUOUS
 62
     4
 10
-556.21989444236215
 20
-8.3021525257254325
 30
0.0
 11
-914.26323737257007
 21
237.8949397192236
 31
0.0
  0
LINE
  8
NOTE
  6
CONTINUOUS
 62
     4
 10
-914.26323737257007
 20
237.8949397192236
 30
0.0
 11
-1718.779543931063
 21
237.8949397192236
 31
0.0
  0
TEXT
  8
NOTE
  6
CONTINUOUS
 62
     4
 10
-1698.488423002889
 20
256.10525564201538
 30
0.0
 40
64.0
  1
AH 2x2 M10ボルト用
 41
0.9
  0
TEXT
  8
NOTE
  6
CONTINUOUS
 62
     4
 10
-504.89251878165851
 20
52.889742972992281
 30
0.0
 40
64.0
  1
 RL %%C9.52
 41
0.9
  0
LINE
  8
NOTE
  6
CONTINUOUS
 62
     4
 10
225.56055483067959
 20
-287.97363988122021
 30
0.0
 11
233.49999999999091
 21
-318.00000000000551
 31
0.0
  0
LINE
  8
NOTE
  6
CONTINUOUS
 62
     4
 10
233.49999999999091
 20
-318.00000000000551
 30
0.0
 11
211.6110588319784
 21
-295.96613183931271
 31
0.0
  0
LINE
  8
NOTE
  6
CONTINUOUS
 62
     4
 10
233.49999999999091
 20
-318.00000000000551
 30
0.0
 11
218.58580683132899
 21
-291.9698858602664
 31
0.0
  0
LINE
  8
NOTE
  6
CONTINUOUS
 62
     4
 10
218.58580683132899
 20
-291.9698858602664
 30
0.0
 11
-54.623831655937458
 21
184.86972547342609
 31
0.0
  0
LINE
  8
NOTE
  6
CONTINUOUS
 62
     4
 10
-54.623831655937458
 20
184.86972547342609
 30
0.0
 11
-520.55173886621731
 21
184.86972547342609
 31
0.0
  0
LINE
  8
NOTE
  6
CONTINUOUS
 62
     4
 10
806.49999999999079
 20
-12.25409156539717
 30
0.0
 11
806.49999999999079
 21
-38.345908434616831
 31
0.0
  0
LINE
  8
NOTE
  6
CONTINUOUS
 62
     4
 10
819.54590843460028
 20
-25.300000000005639
 30
0.0
 11
793.45409156538153
 21
-25.300000000005639
 31
0.0
  0
LINE
  8
NOTE
  6
CONTINUOUS
 62
     4
 10
-531.50000000000898
 20
-12.25409156539717
 30
0.0
 11
-531.50000000000898
 21
-38.345908434616831
 31
0.0
  0
LINE
  8
NOTE
  6
CONTINUOUS
 62
     4
 10
-518.45409156539972
 20
-25.300000000005639
 30
0.0
 11
-544.54590843461835
 21
-25.300000000005639
 31
0.0
  0
LINE
  8
OUTLINE
  6
CONTINUOUS
 62
     3
 10
862.49999999999636
 20
-58.0
 30
0.0
 11
862.49999999999636
 21
-62.0
 31
0.0
  0
LINE
  8
OUTLINE
  6
CONTINUOUS
 62
     3
 10
862.49999999999636
 20
-62.0
 30
0.0
 11
862.49999999999636
 21
-354.0
 31
0.0
  0
LINE
  8
OUTLINE
  6
CONTINUOUS
 62
     3
 10
862.49999999999636
 20
-358.0
 30
0.0
 11
862.49999999999636
 21
-354.0
 31
0.0
  0
LINE
  8
OUTLINE
  6
CONTINUOUS
 62
     3
 10
842.49999999999625
 20
-458.0
 30
0.0
 11
842.49999999999625
 21
-358.0
 31
0.0
  0
LINE
  8
OUTLINE
  6
CONTINUOUS
 62
     3
 10
842.49999999999625
 20
-58.0
 30
0.0
 11
842.49999999999625
 21
0.0
 31
0.0
  0
LINE
  8
OUTLINE
  6
CONTINUOUS
 62
     3
 10
838.29999999999563
 20
-458.0
 30
0.0
 11
838.29999999999563
 21
-476.0
 31
0.0
  0
LINE
  8
OUTLINE
  6
CONTINUOUS
 62
     3
 10
794.99999999999625
 20
-476.0
 30
0.0
 11
794.99999999999625
 21
-479.0
 31
0.0
  0
LINE
  8
OUTLINE
  6
CONTINUOUS
 62
     3
 10
779.99999999999625
 20
-476.0
 30
0.0
 11
779.99999999999625
 21
-479.0
 31
0.0
  0
LINE
  8
OUTLINE
  6
CONTINUOUS
 62
     3
 10
-60.000000000003638
 20
-479.0
 30
0.0
 11
-45.000000000003638
 21
-479.0
 31
0.0
  0
LINE
  8
OUTLINE
  6
CONTINUOUS
 62
     3
 10
359.99999999999642
 20
-479.0
 30
0.0
 11
374.99999999999642
 21
-479.0
 31
0.0
  0
LINE
  8
OUTLINE
  6
CONTINUOUS
 62
     3
 10
779.99999999999625
 20
-479.0
 30
0.0
 11
794.99999999999625
 21
-479.0
 31
0.0
  0
LINE
  8
OUTLINE
  6
CONTINUOUS
 62
     3
 10
-132.50000000000361
 20
-477.19999999999982
 30
0.0
 11
-107.5000000000036
 21
-477.19999999999982
 31
0.0
  0
LINE
  8
OUTLINE
  6
CONTINUOUS
 62
     3
 10
-563.50000000000364
 20
-476.0
 30
0.0
 11
-443.50000000000358
 21
-476.0
 31
0.0
  0
LINE
  8
OUTLINE
  6
CONTINUOUS
 62
     3
 10
-251.9000000000033
 20
-476.0
 30
0.0
 11
-132.50000000000361
 21
-476.0
 31
0.0
  0
LINE
  8
OUTLINE
  6
CONTINUOUS
 62
     3
 10
838.29999999999563
 20
-476.0
 30
0.0
 11
794.99999999999625
 21
-476.0
 31
0.0
  0
LINE
  8
OUTLINE
  6
CONTINUOUS
 62
     3
 10
779.99999999999625
 20
-476.0
 30
0.0
 11
374.99999999999642
 21
-476.0
 31
0.0
  0
LINE
  8
OUTLINE
  6
CONTINUOUS
 62
     3
 10
359.99999999999642
 20
-476.0
 30
0.0
 11
-45.000000000003638
 21
-476.0
 31
0.0
  0
LINE
  8
OUTLINE
  6
CONTINUOUS
 62
     3
 10
-60.000000000003638
 20
-476.0
 30
0.0
 11
-107.5000000000036
 21
-476.0
 31
0.0
  0
LINE
  8
OUTLINE
  6
CONTINUOUS
 62
     3
 10
-589.10000000000389
 20
-476.0
 30
0.0
 11
-842.50000000000364
 21
-476.0
 31
0.0
  0
LINE
  8
OUTLINE
  6
CONTINUOUS
 62
     3
 10
-589.10000000000389
 20
-473.0
 30
0.0
 11
-588.50000000000364
 21
-473.0
 31
0.0
  0
LINE
  8
OUTLINE
  6
CONTINUOUS
 62
     3
 10
-588.50000000000364
 20
-473.0
 30
0.0
 11
-587.50000000000364
 21
-473.0
 31
0.0
  0
LINE
  8
OUTLINE
  6
CONTINUOUS
 62
     3
 10
-563.50000000000364
 20
-473.0
 30
0.0
 11
-562.50000000000364
 21
-473.0
 31
0.0
  0
LINE
  8
OUTLINE
  6
CONTINUOUS
 62
     3
 10
-251.9000000000033
 20
-473.0
 30
0.0
 11
-443.50000000000358
 21
-473.0
 31
0.0
  0
LINE
  8
OUTLINE
  6
CONTINUOUS
 62
     3
 10
-563.50000000000364
 20
-463.0
 30
0.0
 11
-567.50000000000364
 21
-463.0
 31
0.0
  0
LINE
  8
OUTLINE
  6
CONTINUOUS
 62
     3
 10
-587.50000000000364
 20
-458.0
 30
0.0
 11
-567.50000000000364
 21
-458.0
 31
0.0
  0
LINE
  8
OUTLINE
  6
CONTINUOUS
 62
     3
 10
842.49999999999625
 20
-458.0
 30
0.0
 11
838.29999999999563
 21
-458.0
 31
0.0
  0
LINE
  8
OUTLINE
  6
CONTINUOUS
 62
     3
 10
374.99999999999642
 20
-476.0
 30
0.0
 11
374.99999999999642
 21
-479.0
 31
0.0
  0
LINE
  8
OUTLINE
  6
CONTINUOUS
 62
     3
 10
359.99999999999642
 20
-476.0
 30
0.0
 11
359.99999999999642
 21
-479.0
 31
0.0
  0
LINE
  8
OUTLINE
  6
CONTINUOUS
 62
     3
 10
842.49999999999625
 20
-358.0
 30
0.0
 11
862.49999999999636
 21
-358.0
 31
0.0
  0
LINE
  8
OUTLINE
  6
CONTINUOUS
 62
     3
 10
862.49999999999636
 20
-58.0
 30
0.0
 11
842.49999999999625
 21
-58.0
 31
0.0
  0
LINE
  8
OUTLINE
  6
CONTINUOUS
 62
     3
 10
-841.70000000000437
 20
-37.800000000000182
 30
0.0
 11
-837.09429404880382
 21
-37.800000000000182
 31
0.0
  0
LINE
  8
OUTLINE
  6
CONTINUOUS
 62
     3
 10
-837.50000000000375
 20
-37.0
 30
0.0
 11
-842.50000000000364
 21
-37.0
 31
0.0
  0
LINE
  8
OUTLINE
  6
CONTINUOUS
 62
     3
 10
-151.70000000000431
 20
-3.800000000000181
 30
0.0
 11
-152.52020410288969
 21
-3.800000000000181
 31
0.0
  0
LINE
  8
OUTLINE
  6
CONTINUOUS
 62
     3
 10
-133.30000000000291
 20
-3.0
 30
0.0
 11
-151.70000000000431
 21
-3.0
 31
0.0
  0
LINE
  8
OUTLINE
  6
CONTINUOUS
 62
     3
 10
842.49999999999625
 20
0.0
 30
0.0
 11
-133.30000000000291
 21
0.0
 31
0.0
  0
LINE
  8
OUTLINE
  6
CONTINUOUS
 62
     3
 10
-153.50000000000361
 20
0.0
 30
0.0
 11
-842.50000000000364
 21
0.0
 31
0.0
  0
LINE
  8
OUTLINE
  6
CONTINUOUS
 62
     3
 10
-45.000000000003638
 20
-476.0
 30
0.0
 11
-45.000000000003638
 21
-479.0
 31
0.0
  0
LINE
  8
OUTLINE
  6
CONTINUOUS
 62
     3
 10
-60.000000000003638
 20
-476.0
 30
0.0
 11
-60.000000000003638
 21
-479.0
 31
0.0
  0
LINE
  8
OUTLINE
  6
CONTINUOUS
 62
     3
 10
-107.5000000000036
 20
-477.19999999999982
 30
0.0
 11
-107.5000000000036
 21
-476.0
 31
0.0
  0
LINE
  8
OUTLINE
  6
CONTINUOUS
 62
     3
 10
-132.50000000000361
 20
-477.19999999999982
 30
0.0
 11
-132.50000000000361
 21
-476.0
 31
0.0
  0
LINE
  8
OUTLINE
  6
CONTINUOUS
 62
     3
 10
-133.30000000000291
 20
-3.0
 30
0.0
 11
-133.30000000000291
 21
0.0
 31
0.0
  0
LINE
  8
OUTLINE
  6
CONTINUOUS
 62
     3
 10
-151.70000000000431
 20
-3.0
 30
0.0
 11
-151.70000000000431
 21
-3.800000000000181
 31
0.0
  0
LINE
  8
OUTLINE
  6
CONTINUOUS
 62
     3
 10
-153.50000000000361
 20
-3.0
 30
0.0
 11
-153.50000000000361
 21
-3.0
 31
0.0
  0
LINE
  8
OUTLINE
  6
CONTINUOUS
 62
     3
 10
-153.50000000000361
 20
-3.0
 30
0.0
 11
-153.50000000000361
 21
0.0
 31
0.0
  0
LINE
  8
OUTLINE
  6
CONTINUOUS
 62
     3
 10
-251.9000000000033
 20
-473.0
 30
0.0
 11
-251.9000000000033
 21
-476.0
 31
0.0
  0
LINE
  8
OUTLINE
  6
CONTINUOUS
 62
     3
 10
-443.50000000000358
 20
-473.0
 30
0.0
 11
-443.50000000000358
 21
-476.0
 31
0.0
  0
LINE
  8
OUTLINE
  6
CONTINUOUS
 62
     3
 10
-563.50000000000364
 20
-473.0
 30
0.0
 11
-563.50000000000364
 21
-476.0
 31
0.0
  0
LINE
  8
OUTLINE
  6
CONTINUOUS
 62
     3
 10
-563.50000000000364
 20
-472.0
 30
0.0
 11
-563.50000000000364
 21
-463.0
 31
0.0
  0
LINE
  8
OUTLINE
  6
CONTINUOUS
 62
     3
 10
-567.50000000000364
 20
-458.0
 30
0.0
 11
-567.50000000000364
 21
-463.0
 31
0.0
  0
LINE
  8
OUTLINE
  6
CONTINUOUS
 62
     3
 10
-587.50000000000364
 20
-473.0
 30
0.0
 11
-587.50000000000364
 21
-472.0
 31
0.0
  0
LINE
  8
OUTLINE
  6
CONTINUOUS
 62
     3
 10
-587.50000000000364
 20
-472.0
 30
0.0
 11
-587.50000000000364
 21
-458.0
 31
0.0
  0
LINE
  8
OUTLINE
  6
CONTINUOUS
 62
     3
 10
-589.10000000000389
 20
-473.0
 30
0.0
 11
-589.10000000000389
 21
-476.0
 31
0.0
  0
LINE
  8
OUTLINE
  6
CONTINUOUS
 62
     3
 10
-841.70000000000437
 20
-37.800000000000182
 30
0.0
 11
-841.70000000000437
 21
-38.0
 31
0.0
  0
LINE
  8
OUTLINE
  6
CONTINUOUS
 62
     3
 10
-842.50000000000364
 20
0.0
 30
0.0
 11
-842.50000000000364
 21
-37.0
 31
0.0
  0
LINE
  8
OUTLINE
  6
CONTINUOUS
 62
     3
 10
-842.50000000000364
 20
-458.0
 30
0.0
 11
-842.50000000000364
 21
-476.0
 31
0.0
  0
ARC
  8
OUTLINE
  6
CONTINUOUS
 62
     3
 10
-562.50000000000364
 20
-472.0
 30
0.0
 40
1.0
 50
180.0
 51
270.0
  0
ARC
  8
OUTLINE
  6
CONTINUOUS
 62
     3
 10
-836.50000000000352
 20
-37.0
 30
0.0
 40
0.9999999999998593
 50
180.0
 51
233.13010235414549
  0
ARC
  8
OUTLINE
  6
CONTINUOUS
 62
     3
 10
-153.50000000000361
 20
-4.0
 30
0.0
 40
1.0
 50
11.53695903280537
 51
90.0
  0
LINE
  8
OUTLINE
  6
CONTINUOUS
 62
     3
 10
-842.50000000000364
 20
-458.0
 30
0.0
 11
-843.30000000000302
 21
-458.0
 31
0.0
  0
LINE
  8
OUTLINE
  6
CONTINUOUS
 62
     3
 10
-843.30000000000302
 20
-438.0
 30
0.0
 11
-862.50000000000375
 21
-438.0
 31
0.0
  0
LINE
  8
OUTLINE
  6
CONTINUOUS
 62
     3
 10
-841.70000000000437
 20
-38.0
 30
0.0
 11
-862.50000000000375
 21
-38.0
 31
0.0
  0
LINE
  8
OUTLINE
  6
CONTINUOUS
 62
     3
 10
-843.30000000000302
 20
-438.0
 30
0.0
 11
-843.30000000000302
 21
-458.0
 31
0.0
  0
LINE
  8
OUTLINE
  6
CONTINUOUS
 62
     3
 10
-862.50000000000375
 20
-438.0
 30
0.0
 11
-862.50000000000375
 21
-38.0
 31
0.0
  0
LINE
  8
NOTE
  6
CONTINUOUS
 62
     4
 10
-989.1006517593886
 20
-172.47145296810319
 30
0.0
 11
-989.1006517593886
 21
-192.7146596029188
 31
0.0
  0
LINE
  8
NOTE
  6
CONTINUOUS
 62
     4
 10
-989.1006517593886
 20
-118.62676932669
 30
0.0
 11
-989.1006517593886
 21
-138.86997596150741
 31
0.0
  0
LINE
  8
NOTE
  6
CONTINUOUS
 62
     4
 10
-989.1006517593886
 20
-192.7146596029188
 30
0.0
 11
-953.24401255515841
 21
-155.67071446480529
 31
0.0
  0
LINE
  8
NOTE
  6
CONTINUOUS
 62
     4
 10
-989.1006517593886
 20
-118.62676932669
 30
0.0
 11
-953.24401255515841
 21
-155.67071446480529
 31
0.0
  0
LINE
  8
NOTE
  6
CONTINUOUS
 62
     4
 10
-989.1006517593886
 20
-172.47145296810319
 30
0.0
 11
-1024.818586530022
 21
-172.47145296810319
 31
0.0
  0
LINE
  8
NOTE
  6
CONTINUOUS
 62
     4
 10
-989.1006517593886
 20
-138.86997596150741
 30
0.0
 11
-1024.818586530022
 21
-138.86997596150741
 31
0.0
  0
LINE
  8
NOTE
  6
CONTINUOUS
 62
     4
 10
-1024.818586530022
 20
-138.86997596150741
 30
0.0
 11
-1024.818586530022
 21
-172.47145296810319
 31
0.0
  0
LINE
  8
NOTE
  6
CONTINUOUS
 62
     4
 10
941.78108754078846
 20
-173.70580776818579
 30
0.0
 11
941.78108754078846
 21
-193.9490144030014
 31
0.0
  0
LINE
  8
NOTE
  6
CONTINUOUS
 62
     4
 10
941.78108754078846
 20
-119.86112412677269
 30
0.0
 11
941.78108754078846
 21
-140.10433076159001
 31
0.0
  0
LINE
  8
NOTE
  6
CONTINUOUS
 62
     4
 10
941.78108754078846
 20
-193.9490144030014
 30
0.0
 11
977.63772674501877
 21
-156.90506926488791
 31
0.0
  0
LINE
  8
NOTE
  6
CONTINUOUS
 62
     4
 10
941.78108754078846
 20
-119.86112412677269
 30
0.0
 11
977.63772674501877
 21
-156.90506926488791
 31
0.0
  0
LINE
  8
NOTE
  6
CONTINUOUS
 62
     4
 10
941.78108754078846
 20
-173.70580776818579
 30
0.0
 11
906.06315277015517
 21
-173.70580776818579
 31
0.0
  0
LINE
  8
NOTE
  6
CONTINUOUS
 62
     4
 10
941.78108754078846
 20
-140.10433076159001
 30
0.0
 11
906.06315277015517
 21
-140.10433076159001
 31
0.0
  0
LINE
  8
NOTE
  6
CONTINUOUS
 62
     4
 10
906.06315277015517
 20
-140.10433076159001
 30
0.0
 11
906.06315277015517
 21
-173.70580776818579
 31
0.0
  0
CIRCLE
  8
FIX
  6
CONTINUOUS
 62
    11
 10
-531.50000000000364
 20
-25.300000000000178
 30
0.0
 40
10.63443637122327
  0
CIRCLE
  8
FIX
  6
CONTINUOUS
 62
    11
 10
806.49999999999625
 20
-25.300000000001091
 30
0.0
 40
10.63443637122327
  0
TEXT
  8
ETC
  6
CONTINUOUS
 62
    61
 10
-1287.4563040405881
 20
924.51336798715693
 30
0.0
 40
64.0
  1
フィルターボックス組込
 41
0.9
  0
ENDSEC
  0
EOF
