  0
SECTION
  2
HEADER
  9
$ACADVER
  1
AC1009
  9
$INSBASE
 10
0.0
 20
0.0
 30
0.0
  9
$EXTMIN
 10
-915.43577479365911
 20
-862.2894174911653
 30
-0.0000000000112498
  9
$EXTMAX
 10
1202.3025630418001
 20
881.19507671938675
 30
0.0000000000002956
  9
$LIMMIN
 10
-2970.0
 20
-2100.0
  9
$LIMMAX
 10
2970.0
 20
2100.0
  9
$ORTHOMODE
 70
     1
  9
$REGENMODE
 70
     0
  9
$FILLMODE
 70
     1
  9
$QTEXTMODE
 70
     0
  9
$MIRRTEXT
 70
     0
  9
$DRAGMODE
 70
     2
  9
$LTSCALE
 40
20.0
  9
$OSMODE
 70
   431
  9
$ATTMODE
 70
     1
  9
$TEXTSIZE
 40
64.0
  9
$TRACEWID
 40
0.05
  9
$TEXTSTYLE
  7
STANDARD
  9
$CLAYER
  8
0
  9
$CELTYPE
  6
CONTINUOUS
  9
$CECOLOR
 62
     1
  9
$DIMSCALE
 40
1.0
  9
$DIMASZ
 40
2.0
  9
$DIMEXO
 40
20.0
  9
$DIMDLI
 40
200.0
  9
$DIMRND
 40
0.0
  9
$DIMDLE
 40
0.0
  9
$DIMEXE
 40
30.0
  9
$DIMTP
 40
0.0
  9
$DIMTM
 40
0.0
  9
$DIMTXT
 40
64.0
  9
$DIMCEN
 40
0.09
  9
$DIMTSZ
 40
0.0
  9
$DIMTOL
 70
     0
  9
$DIMLIM
 70
     0
  9
$DIMTIH
 70
     0
  9
$DIMTOH
 70
     0
  9
$DIMSE1
 70
     0
  9
$DIMSE2
 70
     0
  9
$DIMTAD
 70
     1
  9
$DIMZIN
 70
     8
  9
$DIMBLK
  1

  9
$DIMASO
 70
     1
  9
$DIMSHO
 70
     0
  9
$DIMPOST
  1

  9
$DIMAPOST
  1

  9
$DIMALT
 70
     0
  9
$DIMALTD
 70
     2
  9
$DIMALTF
 40
25.399999999999999
  9
$DIMLFAC
 40
1.0
  9
$DIMTOFL
 70
     1
  9
$DIMTVP
 40
0.0
  9
$DIMTIX
 70
     1
  9
$DIMSOXD
 70
     0
  9
$DIMSAH
 70
     0
  9
$DIMBLK1
  1

  9
$DIMBLK2
  1

  9
$DIMSTYLE
  2
STANDARD
  9
$DIMCLRD
 70
     0
  9
$DIMCLRE
 70
     0
  9
$DIMCLRT
 70
     0
  9
$DIMTFAC
 40
1.0
  9
$DIMGAP
 40
0.09
  9
$LUNITS
 70
     2
  9
$LUPREC
 70
     4
  9
$SKETCHINC
 40
0.1
  9
$FILLETRAD
 40
0.0
  9
$AUNITS
 70
     1
  9
$AUPREC
 70
     3
  9
$MENU
  1
ACAD
  9
$ELEVATION
 40
0.0
  9
$PELEVATION
 40
0.0
  9
$THICKNESS
 40
0.0
  9
$LIMCHECK
 70
     0
  9
$BLIPMODE
 70
     0
  9
$CHAMFERA
 40
0.0
  9
$CHAMFERB
 40
0.0
  9
$SKPOLY
 70
     0
  9
$TDCREATE
 40
2449761.7117129629
  9
$TDUPDATE
 40
2456800.6270819679
  9
$TDINDWG
 40
0.024310463
  9
$TDUSRTIMER
 40
0.0243093981
  9
$USRTIMER
 70
     1
  9
$ANGBASE
 50
0.0
  9
$ANGDIR
 70
     0
  9
$PDMODE
 70
     3
  9
$PDSIZE
 40
-2.0
  9
$PLINEWID
 40
0.0
  9
$COORDS
 70
     1
  9
$SPLFRAME
 70
     0
  9
$SPLINETYPE
 70
     6
  9
$SPLINESEGS
 70
     8
  9
$ATTDIA
 70
     0
  9
$ATTREQ
 70
     1
  9
$HANDLING
 70
     1
  9
$HANDSEED
  5
30D
  9
$SURFTAB1
 70
     6
  9
$SURFTAB2
 70
     6
  9
$SURFTYPE
 70
     6
  9
$SURFU
 70
     6
  9
$SURFV
 70
     6
  9
$UCSNAME
  2

  9
$UCSORG
 10
0.0
 20
0.0
 30
0.0
  9
$UCSXDIR
 10
1.0
 20
0.0
 30
0.0
  9
$UCSYDIR
 10
0.0
 20
1.0
 30
0.0
  9
$PUCSNAME
  2

  9
$PUCSORG
 10
0.0
 20
0.0
 30
0.0
  9
$PUCSXDIR
 10
1.0
 20
0.0
 30
0.0
  9
$PUCSYDIR
 10
0.0
 20
1.0
 30
0.0
  9
$USERI1
 70
     0
  9
$USERI2
 70
     0
  9
$USERI3
 70
     0
  9
$USERI4
 70
     0
  9
$USERI5
 70
     0
  9
$USERR1
 40
20.0
  9
$USERR2
 40
0.0
  9
$USERR3
 40
0.0
  9
$USERR4
 40
0.0
  9
$USERR5
 40
0.0
  9
$WORLDVIEW
 70
     1
  9
$SHADEDGE
 70
     3
  9
$SHADEDIF
 70
    70
  9
$TILEMODE
 70
     1
  9
$MAXACTVP
 70
    64
  9
$PLIMCHECK
 70
     0
  9
$PEXTMIN
 10
1.0000000000000000E+020
 20
1.0000000000000000E+020
 30
1.0000000000000000E+020
  9
$PEXTMAX
 10
-1.0000000000000000E+020
 20
-1.0000000000000000E+020
 30
-1.0000000000000000E+020
  9
$PLIMMIN
 10
0.0
 20
0.0
  9
$PLIMMAX
 10
12.0
 20
9.0
  9
$UNITMODE
 70
     0
  9
$VISRETAIN
 70
     1
  9
$PLINEGEN
 70
     0
  9
$PSLTSCALE
 70
     1
  0
ENDSEC
  0
SECTION
  2
TABLES
  0
TABLE
  2
VPORT
 70
     1
  0
VPORT
  2
*ACTIVE
 70
     0
 10
0.0
 20
0.0
 11
1.0
 21
1.0
 12
143.43339412407039
 22
9.4528296141106694
 13
0.0
 23
0.0
 14
50.0
 24
50.0
 15
100.0
 25
100.0
 16
0.0
 26
0.0
 36
1.0
 17
0.0
 27
0.0
 37
0.0
 40
1756.7597568568251
 41
1.5540025412960601
 42
50.0
 43
0.0
 44
0.0
 50
0.0
 51
0.0
 71
     0
 72
  1000
 73
     1
 74
     0
 75
     0
 76
     0
 77
     0
 78
     0
  0
ENDTAB
  0
TABLE
  2
LTYPE
 70
     8
  0
LTYPE
  2
CONTINUOUS
 70
     0
  3
実線
 72
    65
 73
     0
 40
0.0
  0
LTYPE
  2
DASHDOT
 70
     0
  3
____ _ ____ _ ____ _ ____ _ ____ _ ____ _ ____
 72
    65
 73
     4
 40
5.5
 49
4.0
 49
-0.6
 49
0.3
 49
-0.6
  0
LTYPE
  2
DASHED
 70
     0
  3
_ _ _ _ _ _ _ _ _ _ _ _ _ _ _ _ _ _ _ _ _ _ _
 72
    65
 73
     2
 40
2.0
 49
1.1999999999999991
 49
-0.8
  0
LTYPE
  2
DOT
 70
     0
  3
...............................................
 72
    65
 73
     2
 40
0.8
 49
0.5
 49
-0.3
  0
LTYPE
  2
DASHDOT1
 70
     0
  3
____ _ ____ _ ____ _ ____ _ ____ _ ____ _ ____
 72
    65
 73
     4
 40
2.0
 49
1.5
 49
-0.2
 49
0.1
 49
-0.2
  0
LTYPE
  2
DIVIDE
 70
     0
  3
_____ _ _ _____ _ _ _____ _ _ _____ _ _ ____
 72
    65
 73
     6
 40
6.4000000000000004
 49
4.0
 49
-0.6
 49
0.3
 49
-0.6
 49
0.3
 49
-0.6
  0
LTYPE
  2
DIVIDE1
 70
     0
  3
_____ _ _ _____ _ _ _____ _ _ _____ _ _ ____
 72
    65
 73
     6
 40
3.2000000000000002
 49
2.0
 49
-0.3
 49
0.15
 49
-0.3
 49
0.15
 49
-0.3
  0
ENDTAB
  0
TABLE
  2
LAYER
 70
    12
  0
LAYER
  2
0
 70
     0
 62
     7
  6
CONTINUOUS
  0
LAYER
  2
OUTLINE
 70
     0
 62
     7
  6
CONTINUOUS
  0
LAYER
  2
DETAIL
 70
     0
 62
     7
  6
CONTINUOUS
  0
LAYER
  2
BASIS
 70
     0
 62
     7
  6
CONTINUOUS
  0
LAYER
  2
NOTE
 70
     0
 62
     7
  6
CONTINUOUS
  0
LAYER
  2
DEFPOINTS
 70
     0
 62
     7
  6
CONTINUOUS
  0
LAYER
  2
SIZE
 70
     0
 62
     7
  6
CONTINUOUS
  0
LAYER
  2
ARRANGE
 70
     0
 62
     7
  6
CONTINUOUS
  0
LAYER
  2
FIX
 70
     0
 62
     7
  6
CONTINUOUS
  0
LAYER
  2
ETC
 70
     0
 62
     7
  6
CONTINUOUS
  0
LAYER
  2
SERVICESPACE
 70
     0
 62
     7
  6
CONTINUOUS
  0
LAYER
  2
SYMBOLLINE
 70
     0
 62
     7
  6
CONTINUOUS
  0
ENDTAB
  0
TABLE
  2
STYLE
 70
     3
  0
STYLE
  2
STANDARD
 70
     0
 40
0.0
 41
0.9
 50
0.0
 71
     0
 42
64.0
  3
SIMPLEX
  4
BIGFONT
  0
STYLE
  2
ANNOTATIVE
 70
     0
 40
0.0
 41
1.0
 50
0.0
 71
     0
 42
0.2
  3
txt
  4

  0
STYLE
  2
STANDARD1
 70
     0
 40
0.0
 41
1.0
 50
0.0
 71
     0
 42
64.0
  3
MONOTXT
  4
BIGFONT
  0
ENDTAB
  0
TABLE
  2
VIEW
 70
     1
  0
VIEW
  2
ALL
 70
     0
 40
4282.6198079999967
 10
0.0
 20
41.309903999999989
 41
5940.0
 11
0.0
 21
0.0
 31
1.0
 12
0.0
 22
0.0
 32
0.0
 42
50.0
 43
0.0
 44
0.0
 50
0.0
 71
     0
  0
ENDTAB
  0
TABLE
  2
UCS
 70
     0
  0
ENDTAB
  0
TABLE
  2
APPID
 70
     4
  0
APPID
  2
ACAD
 70
     0
  0
APPID
  2
ACADANNOTATIVE
 70
     0
  0
APPID
  2
ACAD_MLEADERVER
 70
     0
  0
APPID
  2
ACAD_EXEMPT_FROM_CAD_STANDARDS
 70
     0
  0
ENDTAB
  0
TABLE
  2
DIMSTYLE
 70
     3
  0
DIMSTYLE
  2
STANDARD
 70
     0
  3

  4

  5

  6

  7

 40
1.0
 41
0.18
 42
0.0625
 43
0.38
 44
0.18
 45
0.0
 46
0.0
 47
0.0
 48
0.0
140
0.18
141
0.09
142
0.0
143
25.399999999999999
144
1.0
145
0.0
146
1.0
147
0.09
 71
     0
 72
     0
 73
     1
 74
     1
 75
     0
 76
     0
 77
     0
 78
     0
170
     0
171
     2
172
     0
173
     0
174
     0
175
     0
176
     0
177
     0
178
     0
  0
DIMSTYLE
  2
ANNOTATIVE
 70
     0
  3

  4

  5

  6

  7

 40
1.0
 41
0.18
 42
0.0625
 43
0.38
 44
0.18
 45
0.0
 46
0.0
 47
0.0
 48
0.0
140
0.18
141
0.09
142
0.0
143
25.399999999999999
144
1.0
145
0.0
146
1.0
147
0.09
 71
     0
 72
     0
 73
     1
 74
     1
 75
     0
 76
     0
 77
     0
 78
     0
170
     0
171
     2
172
     0
173
     0
174
     0
175
     0
176
     0
177
     0
178
     0
  0
ENDTAB
  0
ENDSEC
  0
SECTION
  2
BLOCKS
  0
BLOCK
  8
0
  2
$MODEL_SPACE
 70
     0
 10
0.0
 20
0.0
 30
0.0
  3
$MODEL_SPACE
  1

  0
ENDBLK
  5
2B7
  8
0
  0
BLOCK
 67
     1
  8
0
  2
$PAPER_SPACE
 70
     0
 10
0.0
 20
0.0
 30
0.0
  3
$PAPER_SPACE
  1

  0
ENDBLK
  5
2B3
 67
     1
  8
0
  0
ENDSEC
  0
SECTION
  2
ENTITIES
  0
LINE
  5
8F
  8
SIZE
  6
CONTINUOUS
 62
     1
 10
-64.031856999999974
 20
-204.0
 30
0.0
 11
-64.031856999999974
 21
-285.85312699999997
 31
0.0
  0
LINE
  5
90
  8
SIZE
  6
CONTINUOUS
 62
     1
 10
93.404178999999999
 20
-283.0
 30
0.0
 11
93.404178999999999
 21
-542.27875300000005
 31
0.0
  0
LINE
  5
91
  8
SIZE
  6
CONTINUOUS
 62
     1
 10
319.0
 20
-832.201369
 30
0.0
 11
456.83026999999998
 21
-832.201369
 31
0.0
  0
LINE
  5
92
  8
SIZE
  6
CONTINUOUS
 62
     1
 10
-315.0
 20
-832.201369
 30
0.0
 11
-452.80685699999998
 21
-832.201369
 31
0.0
  0
LINE
  5
93
  8
SIZE
  6
CONTINUOUS
 62
     1
 10
313.00000399999999
 20
624.1624519999998
 30
0.0
 11
476.445357
 21
624.1624519999998
 31
0.0
  0
LINE
  5
94
  8
SIZE
  6
CONTINUOUS
 62
     1
 10
-313.0001180000001
 20
624.1624519999998
 30
0.0
 11
-472.23005699999987
 21
624.1624519999998
 31
0.0
  0
LINE
  5
95
  8
SIZE
  6
CONTINUOUS
 62
     1
 10
-421.01501099999979
 20
72.0
 30
0.0
 11
-421.01501099999979
 21
200.99179899999999
 31
0.0
  0
LINE
  5
96
  8
SIZE
  6
CONTINUOUS
 62
     1
 10
-556.83605599999999
 20
398.00009899999998
 30
0.0
 11
-556.83605599999999
 21
547.29610199999956
 31
0.0
  0
LINE
  5
97
  8
SIZE
  6
CONTINUOUS
 62
     1
 10
-689.70470799999998
 20
398.00009899999998
 30
0.0
 11
-689.70470799999998
 21
547.29610199999956
 31
0.0
  0
LINE
  5
98
  8
NOTE
  6
CONTINUOUS
 62
     1
 10
283.0
 20
370.0
 30
0.0
 11
243.0
 21
370.0
 31
0.0
  0
LINE
  5
99
  8
NOTE
  6
CONTINUOUS
 62
     1
 10
263.0
 20
350.0
 30
0.0
 11
263.0
 21
390.0
 31
0.0
  0
LINE
  5
9A
  8
NOTE
  6
CONTINUOUS
 62
     1
 10
-263.0
 20
350.0
 30
0.0
 11
-263.0
 21
390.0
 31
0.0
  0
LINE
  5
9B
  8
NOTE
  6
CONTINUOUS
 62
     1
 10
-283.0
 20
370.0
 30
0.0
 11
-243.0
 21
370.0
 31
0.0
  0
LINE
  5
9C
  8
NOTE
  6
CONTINUOUS
 62
     1
 10
-263.0
 20
-206.0
 30
0.0
 11
-263.0
 21
-246.0
 31
0.0
  0
LINE
  5
9D
  8
NOTE
  6
CONTINUOUS
 62
     1
 10
-283.0
 20
-226.0
 30
0.0
 11
-243.0
 21
-226.0
 31
0.0
  0
LINE
  5
9E
  8
NOTE
  6
CONTINUOUS
 62
     1
 10
263.0
 20
-206.0
 30
0.0
 11
263.0
 21
-246.0
 31
0.0
  0
LINE
  5
9F
  8
NOTE
  6
CONTINUOUS
 62
     1
 10
283.0
 20
-226.0
 30
0.0
 11
243.0
 21
-226.0
 31
0.0
  0
LINE
  5
A0
  8
NOTE
  6
CONTINUOUS
 62
     1
 10
132.0
 20
-265.00009899999998
 30
0.0
 11
132.0
 21
-305.00009899999998
 31
0.0
  0
LINE
  5
A1
  8
DETAIL
  6
CONTINUOUS
 62
     4
 10
152.0
 20
-285.00009899999998
 30
0.0
 11
112.0
 21
-285.00009899999998
 31
0.0
  0
LINE
  5
A2
  8
NOTE
  6
CONTINUOUS
 62
     1
 10
114.0
 20
-184.00009900000001
 30
0.0
 11
114.0
 21
-224.00009900000001
 31
0.0
  0
LINE
  5
A3
  8
NOTE
  6
CONTINUOUS
 62
     1
 10
134.0
 20
-204.00009900000001
 30
0.0
 11
94.0
 21
-204.00009900000001
 31
0.0
  0
TEXT
  5
A4
  8
NOTE
  6
CONTINUOUS
 62
     1
 10
523.93846900000005
 20
-384.37726300000008
 30
0.0
 40
64.0
  1
Ｄ
 50
0.000003
 41
0.572917
  7
STANDARD1
  0
LINE
  5
A5
  8
NOTE
  6
CONTINUOUS
 62
     1
 10
130.530888
 20
-285.0
 30
0.0
 11
164.93976499999999
 21
-305.396793
 31
0.0
  0
LINE
  5
A6
  8
NOTE
  6
CONTINUOUS
 62
     1
 10
130.530888
 20
-285.0
 30
0.0
 11
170.528246
 21
-285.45970199999999
 31
0.0
  0
LINE
  5
A7
  8
NOTE
  6
CONTINUOUS
 62
     1
 10
508.57617599999992
 20
-390.96826199999998
 30
0.0
 11
130.530888
 21
-285.0
 31
0.0
  0
LINE
  5
A8
  8
NOTE
  6
CONTINUOUS
 62
     1
 10
508.57617599999992
 20
-390.96826199999998
 30
0.0
 11
643.57617600000003
 21
-390.96826199999998
 31
0.0
  0
TEXT
  5
A9
  8
NOTE
  6
CONTINUOUS
 62
     1
 10
487.31254200000001
 20
-277.170255
 30
0.0
 40
64.0
  1
C,CR
 50
0.000003
 41
0.6845240000000004
  7
STANDARD1
  0
LINE
  5
AA
  8
NOTE
  6
CONTINUOUS
 62
     1
 10
113.9999999999999
 20
-204.00009900000001
 30
0.0
 11
148.41032300000001
 21
-224.394454
 31
0.0
  0
LINE
  5
AB
  8
NOTE
  6
CONTINUOUS
 62
     1
 10
113.9999999999999
 20
-204.00009900000001
 30
0.0
 11
153.99739099999999
 21
-204.45696599999999
 31
0.0
  0
LINE
  5
AC
  8
NOTE
  6
CONTINUOUS
 62
     1
 10
477.31449500000002
 20
-297.17023899999998
 30
0.0
 11
114.0
 21
-204.00009900000001
 31
0.0
  0
LINE
  5
AD
  8
NOTE
  6
CONTINUOUS
 62
     1
 10
477.31449500000002
 20
-297.17023899999998
 30
0.0
 11
661.05431299999987
 21
-297.17023899999998
 31
0.0
  0
LINE
  5
AE
  8
BASIS
  6
DASHDOT
 62
     1
 10
-453.36562400000003
 20
0.0
 30
0.0
 11
552.27245500000004
 21
0.0
 31
0.0
  0
LINE
  5
AF
  8
BASIS
  6
DASHDOT
 62
     1
 10
-385.45180099999999
 20
72.0
 30
0.0
 11
444.03809499999988
 21
72.0
 31
0.0
  0
LINE
  5
B0
  8
BASIS
  6
DASHDOT
 62
     1
 10
0.0
 20
-497.36985499999992
 30
0.0
 11
0.0
 21
499.29850699999992
 31
0.0
  0
POINT
  5
B1
  8
ARRANGE
  6
CONTINUOUS
 62
     2
 10
0.0
 20
0.0
 30
0.0
  0
LINE
  5
B2
  8
DETAIL
  6
CONTINUOUS
 62
     4
 10
-315.0
 20
-400.0
 30
0.0
 11
-315.0
 21
400.0
 31
0.0
  0
LINE
  5
B3
  8
DETAIL
  6
CONTINUOUS
 62
     4
 10
315.0
 20
-400.0
 30
0.0
 11
315.0
 21
400.0
 31
0.0
  0
LINE
  5
B4
  8
DETAIL
  6
CONTINUOUS
 62
     4
 10
-315.0
 20
-400.0
 30
0.0
 11
315.0
 21
-400.0
 31
0.0
  0
LINE
  5
B5
  8
DETAIL
  6
CONTINUOUS
 62
     4
 10
-315.0
 20
400.0
 30
0.0
 11
315.0
 21
400.0
 31
0.0
  0
LINE
  5
B6
  8
DETAIL
  6
CONTINUOUS
 62
     4
 10
-289.0
 20
339.0
 30
0.0
 11
289.0
 21
339.0
 31
0.0
  0
LINE
  5
B7
  8
DETAIL
  6
CONTINUOUS
 62
     4
 10
-289.0
 20
-195.0
 30
0.0
 11
289.0
 21
-195.0
 31
0.0
  0
LINE
  5
B8
  8
DETAIL
  6
CONTINUOUS
 62
     4
 10
-289.0
 20
-195.0
 30
0.0
 11
-289.0
 21
339.0
 31
0.0
  0
LINE
  5
B9
  8
DETAIL
  6
CONTINUOUS
 62
     4
 10
289.0
 20
-195.0
 30
0.0
 11
289.0
 21
339.0
 31
0.0
  0
LINE
  5
BA
  8
DETAIL
  6
CONTINUOUS
 62
     4
 10
112.0
 20
-204.00009900000001
 30
0.0
 11
112.0
 21
-285.00009899999998
 31
0.0
  0
LINE
  5
BB
  8
DETAIL
  6
CONTINUOUS
 62
     4
 10
152.0
 20
-195.00009900000001
 30
0.0
 11
152.0
 21
-285.00009899999998
 31
0.0
  0
LINE
  5
BC
  8
NOTE
  6
CONTINUOUS
 62
     1
 10
112.0
 20
-285.00009899999998
 30
0.0
 11
152.0
 21
-285.00009899999998
 31
0.0
  0
LINE
  5
BD
  8
DETAIL
  6
CONTINUOUS
 62
     4
 10
99.0
 20
-204.00009900000001
 30
0.0
 11
129.0
 21
-204.00009900000001
 31
0.0
  0
LINE
  5
BE
  8
DETAIL
  6
CONTINUOUS
 62
     4
 10
99.0
 20
-195.00009900000001
 30
0.0
 11
99.0
 21
-204.00009900000001
 31
0.0
  0
LINE
  5
BF
  8
DETAIL
  6
CONTINUOUS
 62
     4
 10
129.0
 20
-195.00009900000001
 30
0.0
 11
129.0
 21
-204.00009900000001
 31
0.0
  0
LINE
  5
C0
  8
DETAIL
  6
CONTINUOUS
 62
     4
 10
218.0
 20
-195.0
 30
0.0
 11
218.0
 21
339.0
 31
0.0
  0
LINE
  5
C1
  8
DETAIL
  6
CONTINUOUS
 62
     4
 10
52.0
 20
-195.00009900000001
 30
0.0
 11
52.0
 21
-255.00009900000001
 31
0.0
  0
LINE
  5
C2
  8
DETAIL
  6
CONTINUOUS
 62
     4
 10
212.0
 20
-195.00009900000001
 30
0.0
 11
212.0
 21
-255.00009900000001
 31
0.0
  0
LINE
  5
C3
  8
DETAIL
  6
CONTINUOUS
 62
     4
 10
52.0
 20
-255.00009900000001
 30
0.0
 11
112.0
 21
-255.00009900000001
 31
0.0
  0
LINE
  5
C4
  8
DETAIL
  6
CONTINUOUS
 62
     4
 10
152.0
 20
-255.00009900000001
 30
0.0
 11
212.0
 21
-255.00009900000001
 31
0.0
  0
TEXT
  5
C5
  8
ETC
  6
CONTINUOUS
 62
     2
 10
610.1603118797052
 20
654.02640520812145
 30
0.0
 40
64.0
  1
ファンコイル
 50
0.000003
 41
0.681424
  7
STANDARD1
  0
TEXT
  5
C6
  8
ETC
  6
CONTINUOUS
 62
     2
 10
610.1603118797052
 20
758.02640520812145
 30
0.0
 40
64.0
  1
LH-200_300WHR_1
 50
0.000003
 41
0.638021
  7
STANDARD1
  0
CIRCLE
  5
C7
  8
ARRANGE
  6
CONTINUOUS
 62
     2
 10
0.0
 20
0.0
 30
0.0
 40
40.0
  0
CIRCLE
  5
C8
  8
FIX
  6
CONTINUOUS
 62
     6
 10
263.0
 20
-226.0
 30
0.0
 40
40.0
  0
CIRCLE
  5
C9
  8
FIX
  6
CONTINUOUS
 62
     6
 10
-263.0
 20
-226.0
 30
0.0
 40
40.0
  0
CIRCLE
  5
CA
  8
FIX
  6
CONTINUOUS
 62
     6
 10
-263.0
 20
370.0
 30
0.0
 40
40.0
  0
CIRCLE
  5
CB
  8
FIX
  6
CONTINUOUS
 62
     6
 10
263.0
 20
370.0
 30
0.0
 40
40.0
  0
LINE
  5
CC
  8
OUTLINE
  6
CONTINUOUS
 62
     3
 10
-315.0
 20
400.0
 30
0.0
 11
315.0
 21
400.0
 31
0.0
  0
LINE
  5
CD
  8
OUTLINE
  6
CONTINUOUS
 62
     3
 10
-315.0
 20
-400.0
 30
0.0
 11
315.0
 21
-400.0
 31
0.0
  0
LINE
  5
CE
  8
OUTLINE
  6
CONTINUOUS
 62
     3
 10
315.0
 20
-400.0
 30
0.0
 11
315.0
 21
400.0
 31
0.0
  0
LINE
  5
CF
  8
OUTLINE
  6
CONTINUOUS
 62
     3
 10
-315.0
 20
-400.0
 30
0.0
 11
-315.0
 21
400.0
 31
0.0
  0
LINE
  5
D0
  8
SIZE
  6
BYBLOCK
 62
     1
 10
263.0
 20
-264.0
 30
0.0
 11
263.0
 21
-862.20136900000011
 31
0.0
  0
LINE
  5
D1
  8
SIZE
  6
BYBLOCK
 62
     1
 10
315.0
 20
-420.0
 30
0.0
 11
315.0
 21
-862.20136900000011
 31
0.0
  0
LINE
  5
D2
  8
SIZE
  6
BYBLOCK
 62
     1
 10
265.0
 20
-832.201369
 30
0.0
 11
289.0
 21
-832.201369
 31
0.0
  0
LINE
  5
D3
  8
SIZE
  6
BYBLOCK
 62
     1
 10
313.0
 20
-832.201369
 30
0.0
 11
289.0
 21
-832.201369
 31
0.0
  0
TEXT
  5
D4
  8
SIZE
  6
BYBLOCK
 62
     1
 10
355.21555799999999
 20
-800.201369
 30
0.0
 40
64.0
  1
52
 41
0.9
  0
LINE
  5
D5
  8
SIZE
  6
BYBLOCK
 62
     1
 10
-315.0
 20
-420.0
 30
0.0
 11
-315.0
 21
-862.20136900000011
 31
0.0
  0
LINE
  5
D6
  8
SIZE
  6
BYBLOCK
 62
     1
 10
-263.0
 20
-264.0
 30
0.0
 11
-263.0
 21
-862.20136900000011
 31
0.0
  0
LINE
  5
D7
  8
SIZE
  6
BYBLOCK
 62
     1
 10
-313.0
 20
-832.201369
 30
0.0
 11
-289.0
 21
-832.201369
 31
0.0
  0
LINE
  5
D8
  8
SIZE
  6
BYBLOCK
 62
     1
 10
-265.0
 20
-832.201369
 30
0.0
 11
-289.0
 21
-832.201369
 31
0.0
  0
TEXT
  5
D9
  8
SIZE
  6
BYBLOCK
 62
     1
 10
-429.66534599999989
 20
-800.201369
 30
0.0
 40
64.0
  1
52
 41
0.9
  0
LINE
  5
DA
  8
SIZE
  6
BYBLOCK
 62
     1
 10
-263.0
 20
-264.0
 30
0.0
 11
-263.0
 21
-862.20136900000011
 31
0.0
  0
LINE
  5
DB
  8
SIZE
  6
BYBLOCK
 62
     1
 10
263.0
 20
-264.0
 30
0.0
 11
263.0
 21
-862.20136900000011
 31
0.0
  0
LINE
  5
DC
  8
SIZE
  6
BYBLOCK
 62
     1
 10
-261.0
 20
-832.201369
 30
0.0
 11
261.0
 21
-832.201369
 31
0.0
  0
TEXT
  5
DD
  8
SIZE
  6
BYBLOCK
 62
     1
 10
-72.685714000000004
 20
-800.201369
 30
0.0
 40
64.0
  1
526
 41
0.9
  0
LINE
  5
DE
  8
SIZE
  6
BYBLOCK
 62
     1
 10
114.0
 20
-242.0
 30
0.0
 11
114.0
 21
-728.97675400000003
 31
0.0
  0
LINE
  5
DF
  8
SIZE
  6
BYBLOCK
 62
     1
 10
288.0
 20
-213.0
 30
0.0
 11
288.0
 21
-728.97675400000003
 31
0.0
  0
LINE
  5
E0
  8
SIZE
  6
BYBLOCK
 62
     1
 10
116.0
 20
-698.97675400000003
 30
0.0
 11
201.0
 21
-698.97675400000003
 31
0.0
  0
LINE
  5
E1
  8
SIZE
  6
BYBLOCK
 62
     1
 10
286.0
 20
-698.97675400000003
 30
0.0
 11
201.0
 21
-698.97675400000003
 31
0.0
  0
TEXT
  5
E2
  8
SIZE
  6
BYBLOCK
 62
     1
 10
118.55597400000001
 20
-683.64518899999985
 30
0.0
 40
64.0
  1
174
 41
0.9
  0
LINE
  5
E3
  8
SIZE
  6
BYBLOCK
 62
     1
 10
132.0
 20
-323.0
 30
0.0
 11
132.0
 21
-599.79638699999975
 31
0.0
  0
LINE
  5
E4
  8
SIZE
  6
BYBLOCK
 62
     1
 10
288.0
 20
-213.0
 30
0.0
 11
288.0
 21
-599.79638699999975
 31
0.0
  0
LINE
  5
E5
  8
SIZE
  6
BYBLOCK
 62
     1
 10
134.0
 20
-569.79638699999975
 30
0.0
 11
210.0
 21
-569.79638699999975
 31
0.0
  0
LINE
  5
E6
  8
SIZE
  6
BYBLOCK
 62
     1
 10
286.0
 20
-569.79638699999975
 30
0.0
 11
210.0
 21
-569.79638699999975
 31
0.0
  0
TEXT
  5
E7
  8
SIZE
  6
BYBLOCK
 62
     1
 10
128.21530300000001
 20
-537.79638699999998
 30
0.0
 40
64.0
  1
156
 41
0.9
  0
LINE
  5
E8
  8
SIZE
  6
BYBLOCK
 62
     1
 10
315.0
 20
420.0
 30
0.0
 11
315.0
 21
654.1624519999998
 31
0.0
  0
LINE
  5
E9
  8
SIZE
  6
BYBLOCK
 62
     1
 10
289.0
 20
357.0
 30
0.0
 11
289.0
 21
654.1624519999998
 31
0.0
  0
LINE
  5
EA
  8
SIZE
  6
BYBLOCK
 62
     1
 10
313.0
 20
624.1624519999998
 30
0.0
 11
301.5
 21
624.1624519999998
 31
0.0
  0
LINE
  5
EB
  8
SIZE
  6
BYBLOCK
 62
     1
 10
291.0
 20
624.1624519999998
 30
0.0
 11
302.5
 21
624.1624519999998
 31
0.0
  0
TEXT
  5
EC
  8
SIZE
  6
BYBLOCK
 62
     1
 10
346.04701999999997
 20
656.16245199999958
 30
0.0
 40
64.0
  1
26
 41
0.9
  0
LINE
  5
ED
  8
SIZE
  6
BYBLOCK
 62
     1
 10
-289.0
 20
357.0
 30
0.0
 11
-289.0
 21
654.1624519999998
 31
0.0
  0
LINE
  5
EE
  8
SIZE
  6
BYBLOCK
 62
     1
 10
-315.0
 20
420.0
 30
0.0
 11
-315.0
 21
654.1624519999998
 31
0.0
  0
LINE
  5
EF
  8
SIZE
  6
BYBLOCK
 62
     1
 10
-291.0
 20
624.1624519999998
 30
0.0
 11
-302.5
 21
624.1624519999998
 31
0.0
  0
LINE
  5
F0
  8
SIZE
  6
BYBLOCK
 62
     1
 10
-313.0
 20
624.1624519999998
 30
0.0
 11
-301.5
 21
624.1624519999998
 31
0.0
  0
TEXT
  5
F1
  8
SIZE
  6
BYBLOCK
 62
     1
 10
-444.66743300000002
 20
656.16245199999958
 30
0.0
 40
64.0
  1
26
 41
0.9
  0
LINE
  5
F2
  8
SIZE
  6
BYBLOCK
 62
     1
 10
-336.0001180000001
 20
-399.99990100000002
 30
0.0
 11
-849.22033299999998
 21
-399.99990100000002
 31
0.0
  0
LINE
  5
F3
  8
SIZE
  6
BYBLOCK
 62
     1
 10
-336.0001180000001
 20
400.00009899999998
 30
0.0
 11
-849.22033299999998
 21
400.00009899999998
 31
0.0
  0
LINE
  5
F4
  8
SIZE
  6
BYBLOCK
 62
     1
 10
-819.22033299999964
 20
-397.99990100000002
 30
0.0
 11
-819.22033299999964
 21
398.00009899999998
 31
0.0
  0
TEXT
  5
F5
  8
SIZE
  6
BYBLOCK
 62
     1
 10
-851.22033299999998
 20
-74.057043999999976
 30
0.0
 40
64.0
  1
800
 50
90.0
 41
0.9
  0
LINE
  5
F6
  8
SIZE
  6
BYBLOCK
 62
     1
 10
-304.00011799999999
 20
-225.99990099999999
 30
0.0
 11
-719.70470799999987
 21
-225.99990099999999
 31
0.0
  0
LINE
  5
F7
  8
SIZE
  6
BYBLOCK
 62
     1
 10
-304.00011799999999
 20
370.00009899999998
 30
0.0
 11
-719.70470799999987
 21
370.00009899999998
 31
0.0
  0
LINE
  5
F8
  8
SIZE
  6
BYBLOCK
 62
     1
 10
-689.70470799999998
 20
-223.99990099999999
 30
0.0
 11
-689.70470799999998
 21
368.00009899999998
 31
0.0
  0
TEXT
  5
F9
  8
SIZE
  6
BYBLOCK
 62
     1
 10
-722.70470799999998
 20
-2.0570439999999981
 30
0.0
 40
64.0
  1
596
 50
90.0
 41
0.9
  0
LINE
  5
FA
  8
SIZE
  6
BYBLOCK
 62
     1
 10
-324.0001180000001
 20
370.00009899999998
 30
0.0
 11
-719.70470799999987
 21
370.00009899999998
 31
0.0
  0
LINE
  5
FB
  8
SIZE
  6
BYBLOCK
 62
     1
 10
-356.00011799999999
 20
400.00009899999998
 30
0.0
 11
-719.70470799999987
 21
400.00009899999998
 31
0.0
  0
LINE
  5
FC
  8
SIZE
  6
BYBLOCK
 62
     1
 10
-689.70470799999998
 20
372.00009899999998
 30
0.0
 11
-689.70470799999998
 21
386.00009900000009
 31
0.0
  0
LINE
  5
FD
  8
SIZE
  6
BYBLOCK
 62
     1
 10
-689.70470799999998
 20
398.00009899999998
 30
0.0
 11
-689.70470799999998
 21
384.00009899999998
 31
0.0
  0
TEXT
  5
FE
  8
SIZE
  6
BYBLOCK
 62
     1
 10
-721.70470799999998
 20
425.06588699999992
 30
0.0
 40
64.0
  1
30
 50
90.0
 41
0.9
  0
LINE
  5
FF
  8
SIZE
  6
BYBLOCK
 62
     1
 10
-309.0001180000001
 20
-194.99990099999999
 30
0.0
 11
-586.83605599999999
 21
-194.99990099999999
 31
0.0
  0
LINE
  5
100
  8
SIZE
  6
BYBLOCK
 62
     1
 10
-309.0001180000001
 20
339.00009899999998
 30
0.0
 11
-586.83605599999999
 21
339.00009899999998
 31
0.0
  0
LINE
  5
101
  8
SIZE
  6
BYBLOCK
 62
     1
 10
-556.83605599999999
 20
-192.99990099999999
 30
0.0
 11
-556.83605599999999
 21
337.00009899999998
 31
0.0
  0
TEXT
  5
102
  8
SIZE
  6
BYBLOCK
 62
     1
 10
-588.83605599999964
 20
-2.0570439999999981
 30
0.0
 40
64.0
  1
534
 50
90.0
 41
0.9
  0
LINE
  5
103
  8
SIZE
  6
BYBLOCK
 62
     1
 10
-329.00011799999999
 20
339.00009899999998
 30
0.0
 11
-586.83605599999999
 21
339.00009899999998
 31
0.0
  0
LINE
  5
104
  8
SIZE
  6
BYBLOCK
 62
     1
 10
-356.00011799999999
 20
400.00009899999998
 30
0.0
 11
-586.83605599999999
 21
400.00009899999998
 31
0.0
  0
LINE
  5
105
  8
SIZE
  6
BYBLOCK
 62
     1
 10
-556.83605599999999
 20
341.00009899999998
 30
0.0
 11
-556.83605599999999
 21
370.50009899999998
 31
0.0
  0
LINE
  5
106
  8
SIZE
  6
BYBLOCK
 62
     1
 10
-556.83605599999999
 20
398.00009899999998
 30
0.0
 11
-556.83605599999999
 21
368.50009899999998
 31
0.0
  0
TEXT
  5
107
  8
SIZE
  6
BYBLOCK
 62
     1
 10
-588.83605599999964
 20
425.06588699999992
 30
0.0
 40
64.0
  1
61
 50
90.0
 41
0.9
  0
LINE
  5
108
  8
SIZE
  6
BYBLOCK
 62
     1
 10
-335.0
 20
0.0
 30
0.0
 11
-451.01501100000002
 21
0.0
 31
0.0
  0
LINE
  5
109
  8
SIZE
  6
BYBLOCK
 62
     1
 10
-405.45180099999988
 20
72.0
 30
0.0
 11
-451.01501100000002
 21
72.0
 31
0.0
  0
LINE
  5
10A
  8
SIZE
  6
BYBLOCK
 62
     1
 10
-421.01501099999979
 20
2.0
 30
0.0
 11
-421.01501099999979
 21
36.0
 31
0.0
  0
LINE
  5
10B
  8
SIZE
  6
BYBLOCK
 62
     1
 10
-421.01501099999979
 20
70.0
 30
0.0
 11
-421.01501099999979
 21
36.0
 31
0.0
  0
TEXT
  5
10C
  8
SIZE
  6
BYBLOCK
 62
     1
 10
-453.01501100000002
 20
98.271686000000003
 30
0.0
 40
64.0
  1
72
 50
90.0
 41
0.9
  0
LINE
  5
10D
  8
SIZE
  6
BYBLOCK
 62
     1
 10
-315.00011799999999
 20
421.00009899999998
 30
0.0
 11
-315.00011799999999
 21
815.14096799999982
 31
0.0
  0
LINE
  5
10E
  8
SIZE
  6
BYBLOCK
 62
     1
 10
315.00000399999999
 20
421.00009899999998
 30
0.0
 11
315.00000399999999
 21
815.14096799999982
 31
0.0
  0
LINE
  5
10F
  8
SIZE
  6
BYBLOCK
 62
     1
 10
-313.0001180000001
 20
785.1409679999997
 30
0.0
 11
313.00000399999999
 21
785.1409679999997
 31
0.0
  0
TEXT
  5
110
  8
SIZE
  6
BYBLOCK
 62
     1
 10
-74.05719999999998
 20
817.14096800000004
 30
0.0
 40
64.0
  1
630
 41
0.9
  0
LINE
  5
111
  8
SIZE
  6
BYBLOCK
 62
     1
 10
-289.00011799999999
 20
378.00009899999998
 30
0.0
 11
-289.00011799999999
 21
654.1624519999998
 31
0.0
  0
LINE
  5
112
  8
SIZE
  6
BYBLOCK
 62
     1
 10
289.00000399999999
 20
358.00009899999998
 30
0.0
 11
289.00000399999999
 21
654.1624519999998
 31
0.0
  0
LINE
  5
113
  8
SIZE
  6
BYBLOCK
 62
     1
 10
-286.0001180000001
 20
624.1624519999998
 30
0.0
 11
286.00000399999999
 21
624.1624519999998
 31
0.0
  0
TEXT
  5
114
  8
SIZE
  6
BYBLOCK
 62
     1
 10
-72.685772
 20
656.16245199999958
 30
0.0
 40
64.0
  1
578
 41
0.9
  0
LINE
  5
115
  8
SIZE
  6
BYBLOCK
 62
     1
 10
72.999881999999999
 20
-204.0
 30
0.0
 11
-94.031856999999988
 21
-204.0
 31
0.0
  0
LINE
  5
117
  8
SIZE
  6
BYBLOCK
 62
     1
 10
-64.031856999999974
 20
-202.0
 30
0.0
 11
-64.031856999999974
 21
-199.5
 31
0.0
  0
LINE
  5
118
  8
SIZE
  6
BYBLOCK
 62
     1
 10
-64.031856999999974
 20
-197.0
 30
0.0
 11
-64.031856999999974
 21
-199.5
 31
0.0
  0
TEXT
  5
119
  8
SIZE
  6
BYBLOCK
 62
     1
 10
-96.031857000000002
 20
-272.446732
 30
0.0
 40
64.0
  1
9
 50
90.0
 41
0.9
  0
LINE
  5
11A
  8
SIZE
  6
BYBLOCK
 62
     1
 10
90.999881999999999
 20
-285.0
 30
0.0
 11
63.404179000000013
 21
-285.0
 31
0.0
  0
LINE
  5
11C
  8
SIZE
  6
BYBLOCK
 62
     1
 10
93.404178999999999
 20
-283.0
 30
0.0
 11
93.404178999999999
 21
-240.0
 31
0.0
  0
LINE
  5
11D
  8
SIZE
  6
BYBLOCK
 62
     1
 10
93.404178999999999
 20
-197.0
 30
0.0
 11
93.404178999999999
 21
-240.0
 31
0.0
  0
TEXT
  5
11E
  8
SIZE
  6
BYBLOCK
 62
     1
 10
77.493988999999999
 20
-533.98798999999985
 30
0.0
 40
64.0
  1
90
 50
90.0
 41
0.9
  0
CIRCLE
  5
11F
  8
SIZE
  6
CONTINUOUS
 62
     1
 10
93.404178999999999
 20
-195.0
 30
0.0
 40
6.0
  0
CIRCLE
  5
120
  8
SIZE
  6
CONTINUOUS
 62
     1
 10
93.404178999999999
 20
-285.0
 30
0.0
 40
6.0
  0
CIRCLE
  5
121
  8
SIZE
  6
CONTINUOUS
 62
     1
 10
-64.031856999999974
 20
-195.0
 30
0.0
 40
6.0
  0
CIRCLE
  5
122
  8
SIZE
  6
CONTINUOUS
 62
     1
 10
-64.031856999999974
 20
-204.0
 30
0.0
 40
6.0
  0
CIRCLE
  5
123
  8
SIZE
  6
CONTINUOUS
 62
     1
 10
289.00000399999999
 20
624.1624519999998
 30
0.0
 40
6.0
  0
CIRCLE
  5
124
  8
SIZE
  6
CONTINUOUS
 62
     1
 10
-289.00011799999999
 20
624.1624519999998
 30
0.0
 40
6.0
  0
CIRCLE
  5
125
  8
SIZE
  6
CONTINUOUS
 62
     1
 10
315.00000399999999
 20
785.1409679999997
 30
0.0
 40
6.0
  0
CIRCLE
  5
126
  8
SIZE
  6
CONTINUOUS
 62
     1
 10
-315.00011799999999
 20
785.1409679999997
 30
0.0
 40
6.0
  0
CIRCLE
  5
127
  8
SIZE
  6
CONTINUOUS
 62
     1
 10
-421.01501099999979
 20
72.0
 30
0.0
 40
6.0
  0
CIRCLE
  5
128
  8
SIZE
  6
CONTINUOUS
 62
     1
 10
-421.01501099999979
 20
0.0
 30
0.0
 40
6.0
  0
CIRCLE
  5
129
  8
SIZE
  6
CONTINUOUS
 62
     1
 10
-556.83605599999999
 20
400.00009899999998
 30
0.0
 40
6.0
  0
CIRCLE
  5
12A
  8
SIZE
  6
CONTINUOUS
 62
     1
 10
-556.83605599999999
 20
339.00009899999998
 30
0.0
 40
6.0
  0
CIRCLE
  5
12B
  8
SIZE
  6
CONTINUOUS
 62
     1
 10
-556.83605599999999
 20
339.00009899999998
 30
0.0
 40
6.0
  0
CIRCLE
  5
12C
  8
SIZE
  6
CONTINUOUS
 62
     1
 10
-556.83605599999999
 20
-194.99990099999999
 30
0.0
 40
6.0
  0
CIRCLE
  5
12D
  8
SIZE
  6
CONTINUOUS
 62
     1
 10
-689.70470799999998
 20
400.00009899999998
 30
0.0
 40
6.0
  0
CIRCLE
  5
12E
  8
SIZE
  6
CONTINUOUS
 62
     1
 10
-689.70470799999998
 20
370.00009899999998
 30
0.0
 40
6.0
  0
CIRCLE
  5
12F
  8
SIZE
  6
CONTINUOUS
 62
     1
 10
-689.70470799999998
 20
370.00009899999998
 30
0.0
 40
6.0
  0
CIRCLE
  5
130
  8
SIZE
  6
CONTINUOUS
 62
     1
 10
-689.70470799999998
 20
-225.99990099999999
 30
0.0
 40
6.0
  0
CIRCLE
  5
131
  8
SIZE
  6
CONTINUOUS
 62
     1
 10
-819.22033299999964
 20
400.00009899999998
 30
0.0
 40
6.0
  0
CIRCLE
  5
132
  8
SIZE
  6
CONTINUOUS
 62
     1
 10
-819.22033299999964
 20
-399.99990100000002
 30
0.0
 40
6.0
  0
CIRCLE
  5
133
  8
SIZE
  6
CONTINUOUS
 62
     1
 10
-315.0
 20
624.1624519999998
 30
0.0
 40
6.0
  0
CIRCLE
  5
134
  8
SIZE
  6
CONTINUOUS
 62
     1
 10
-289.0
 20
624.1624519999998
 30
0.0
 40
6.0
  0
CIRCLE
  5
135
  8
SIZE
  6
CONTINUOUS
 62
     1
 10
289.0
 20
624.1624519999998
 30
0.0
 40
6.0
  0
CIRCLE
  5
136
  8
SIZE
  6
CONTINUOUS
 62
     1
 10
315.0
 20
624.1624519999998
 30
0.0
 40
6.0
  0
CIRCLE
  5
137
  8
SIZE
  6
CONTINUOUS
 62
     1
 10
288.0
 20
-569.79638699999975
 30
0.0
 40
6.0
  0
CIRCLE
  5
138
  8
SIZE
  6
CONTINUOUS
 62
     1
 10
132.0
 20
-569.79638699999975
 30
0.0
 40
6.0
  0
CIRCLE
  5
139
  8
SIZE
  6
CONTINUOUS
 62
     1
 10
288.0
 20
-698.97675400000003
 30
0.0
 40
6.0
  0
CIRCLE
  5
13A
  8
SIZE
  6
CONTINUOUS
 62
     1
 10
114.0
 20
-698.97675400000003
 30
0.0
 40
6.0
  0
CIRCLE
  5
13B
  8
SIZE
  6
CONTINUOUS
 62
     1
 10
263.0
 20
-832.201369
 30
0.0
 40
6.0
  0
CIRCLE
  5
13C
  8
SIZE
  6
CONTINUOUS
 62
     1
 10
-263.0
 20
-832.201369
 30
0.0
 40
6.0
  0
CIRCLE
  5
13D
  8
SIZE
  6
CONTINUOUS
 62
     1
 10
-263.0
 20
-832.201369
 30
0.0
 40
6.0
  0
CIRCLE
  5
13E
  8
SIZE
  6
CONTINUOUS
 62
     1
 10
-315.0
 20
-832.201369
 30
0.0
 40
6.0
  0
CIRCLE
  5
13F
  8
SIZE
  6
CONTINUOUS
 62
     1
 10
315.0
 20
-832.201369
 30
0.0
 40
6.0
  0
CIRCLE
  5
140
  8
SIZE
  6
CONTINUOUS
 62
     1
 10
263.0
 20
-832.201369
 30
0.0
 40
6.0
  0
LINE
  5
2DC
  8
SIZE
  6
BYBLOCK
 62
     1
 10
72.999881999999999
 20
-195.0
 30
0.0
 11
-94.031856999999988
 21
-195.0
 31
0.0
  0
ENDSEC
  0
EOF
