  0
SECTION
  2
HEADER
  9
$ACADVER
  1
AC1009
  9
$INSBASE
 10
0.0
 20
0.0
 30
0.0
  9
$EXTMIN
 10
-674.9727981515897
 20
-520.75365639352015
 30
0.0
  9
$EXTMAX
 10
823.6895541837041
 20
421.6767794607145
 30
0.0
  9
$LIMMIN
 10
-4267.1522210604826
 20
-2696.083210198412
  9
$LIMMAX
 10
7190.7174225864646
 20
5141.155363923066
  9
$ORTHOMODE
 70
     0
  9
$REGENMODE
 70
     1
  9
$FILLMODE
 70
     1
  9
$QTEXTMODE
 70
     0
  9
$MIRRTEXT
 70
     0
  9
$DRAGMODE
 70
     2
  9
$LTSCALE
 40
20.0
  9
$OSMODE
 70
   431
  9
$ATTMODE
 70
     1
  9
$TEXTSIZE
 40
361.62496667750372
  9
$TRACEWID
 40
0.05
  9
$TEXTSTYLE
  7
NOTE
  9
$CLAYER
  8
SYMBOLLINE
  9
$CELTYPE
  6
CONTINUOUS
  9
$CECOLOR
 62
     7
  9
$DIMSCALE
 40
1.0
  9
$DIMASZ
 40
20.0
  9
$DIMEXO
 40
10.0
  9
$DIMDLI
 40
80.0
  9
$DIMRND
 40
0.0
  9
$DIMDLE
 40
0.0
  9
$DIMEXE
 40
10.0
  9
$DIMTP
 40
0.0
  9
$DIMTM
 40
0.0
  9
$DIMTXT
 40
40.0
  9
$DIMCEN
 40
0.09
  9
$DIMTSZ
 40
0.0
  9
$DIMTOL
 70
     0
  9
$DIMLIM
 70
     0
  9
$DIMTIH
 70
     0
  9
$DIMTOH
 70
     0
  9
$DIMSE1
 70
     0
  9
$DIMSE2
 70
     0
  9
$DIMTAD
 70
     1
  9
$DIMZIN
 70
     8
  9
$DIMBLK
  1
SMALL
  9
$DIMASO
 70
     1
  9
$DIMSHO
 70
     0
  9
$DIMPOST
  1

  9
$DIMAPOST
  1

  9
$DIMALT
 70
     0
  9
$DIMALTD
 70
     2
  9
$DIMALTF
 40
25.399999999999999
  9
$DIMLFAC
 40
1.0
  9
$DIMTOFL
 70
     1
  9
$DIMTVP
 40
0.0
  9
$DIMTIX
 70
     0
  9
$DIMSOXD
 70
     0
  9
$DIMSAH
 70
     0
  9
$DIMBLK1
  1

  9
$DIMBLK2
  1

  9
$DIMSTYLE
  2
STANDARD
  9
$DIMCLRD
 70
     0
  9
$DIMCLRE
 70
     0
  9
$DIMCLRT
 70
     0
  9
$DIMTFAC
 40
1.0
  9
$DIMGAP
 40
0.09
  9
$LUNITS
 70
     2
  9
$LUPREC
 70
     4
  9
$SKETCHINC
 40
0.1
  9
$FILLETRAD
 40
30.0
  9
$AUNITS
 70
     1
  9
$AUPREC
 70
     3
  9
$MENU
  1
ACAD
  9
$ELEVATION
 40
0.0
  9
$PELEVATION
 40
0.0
  9
$THICKNESS
 40
0.0
  9
$LIMCHECK
 70
     0
  9
$BLIPMODE
 70
     0
  9
$CHAMFERA
 40
0.0
  9
$CHAMFERB
 40
0.0
  9
$SKPOLY
 70
     0
  9
$TDCREATE
 40
2450330.4399309959
  9
$TDUPDATE
 40
2455244.4460816439
  9
$TDINDWG
 40
5.0892688657000003
  9
$TDUSRTIMER
 40
5.0892679630000002
  9
$USRTIMER
 70
     1
  9
$ANGBASE
 50
0.0
  9
$ANGDIR
 70
     0
  9
$PDMODE
 70
     3
  9
$PDSIZE
 40
-2.0
  9
$PLINEWID
 40
0.0
  9
$COORDS
 70
     0
  9
$SPLFRAME
 70
     0
  9
$SPLINETYPE
 70
     6
  9
$SPLINESEGS
 70
     8
  9
$ATTDIA
 70
     0
  9
$ATTREQ
 70
     1
  9
$HANDLING
 70
     1
  9
$HANDSEED
  5
2A5
  9
$SURFTAB1
 70
     6
  9
$SURFTAB2
 70
     6
  9
$SURFTYPE
 70
     6
  9
$SURFU
 70
     6
  9
$SURFV
 70
     6
  9
$UCSNAME
  2

  9
$UCSORG
 10
0.0
 20
0.0
 30
0.0
  9
$UCSXDIR
 10
1.0
 20
0.0
 30
0.0
  9
$UCSYDIR
 10
0.0
 20
1.0
 30
0.0
  9
$PUCSNAME
  2

  9
$PUCSORG
 10
0.0
 20
0.0
 30
0.0
  9
$PUCSXDIR
 10
1.0
 20
0.0
 30
0.0
  9
$PUCSYDIR
 10
0.0
 20
1.0
 30
0.0
  9
$USERI1
 70
     0
  9
$USERI2
 70
     0
  9
$USERI3
 70
     0
  9
$USERI4
 70
     0
  9
$USERI5
 70
     0
  9
$USERR1
 40
20.0
  9
$USERR2
 40
0.0
  9
$USERR3
 40
0.0
  9
$USERR4
 40
0.0
  9
$USERR5
 40
0.0
  9
$WORLDVIEW
 70
     1
  9
$SHADEDGE
 70
     3
  9
$SHADEDIF
 70
    70
  9
$TILEMODE
 70
     1
  9
$MAXACTVP
 70
    64
  9
$PLIMCHECK
 70
     0
  9
$PEXTMIN
 10
1.0000000000000000E+020
 20
1.0000000000000000E+020
 30
1.0000000000000000E+020
  9
$PEXTMAX
 10
-1.0000000000000000E+020
 20
-1.0000000000000000E+020
 30
-1.0000000000000000E+020
  9
$PLIMMIN
 10
0.0
 20
0.0
  9
$PLIMMAX
 10
12.0
 20
9.0
  9
$UNITMODE
 70
     0
  9
$VISRETAIN
 70
     1
  9
$PLINEGEN
 70
     0
  9
$PSLTSCALE
 70
     1
  0
ENDSEC
  0
SECTION
  2
TABLES
  0
TABLE
  2
VPORT
 70
     1
  0
VPORT
  2
*ACTIVE
 70
     0
 10
0.0
 20
0.0
 11
1.0
 21
1.0
 12
1461.782600762991
 22
1222.536076862327
 13
0.0
 23
0.0
 14
50.0
 24
50.0
 15
100.0
 25
100.0
 16
0.0
 26
0.0
 36
1.0
 17
0.0
 27
0.0
 37
0.0
 40
7896.6866543297328
 41
1.548101265822784
 42
50.0
 43
0.0
 44
0.0
 50
0.0
 51
0.0
 71
     0
 72
  1000
 73
     1
 74
     0
 75
     0
 76
     0
 77
     0
 78
     0
  0
ENDTAB
  0
TABLE
  2
LTYPE
 70
     3
  0
LTYPE
  2
CONTINUOUS
 70
     0
  3
実線
 72
    65
 73
     0
 40
0.0
  0
LTYPE
  2
DASHDOT
 70
     0
  3
____ _ ____ _ ____ _ ____ _ ____ _ ____ _ ____
 72
    65
 73
     4
 40
5.5
 49
4.0
 49
-0.6
 49
0.3
 49
-0.6
  0
ENDTAB
  0
TABLE
  2
LAYER
 70
    12
  0
LAYER
  2
0
 70
     0
 62
     7
  6
CONTINUOUS
  0
LAYER
  2
NOTE
 70
     0
 62
     4
  6
CONTINUOUS
  0
LAYER
  2
OUTLINE
 70
     0
 62
     3
  6
CONTINUOUS
  0
LAYER
  2
DETAIL
 70
     0
 62
     5
  6
CONTINUOUS
  0
LAYER
  2
BASIS
 70
     0
 62
     6
  6
DASHDOT
  0
LAYER
  2
SIZE
 70
     0
 62
    30
  6
CONTINUOUS
  0
LAYER
  2
ARRANGE
 70
     0
 62
     1
  6
CONTINUOUS
  0
LAYER
  2
FIX
 70
     0
 62
    11
  6
CONTINUOUS
  0
LAYER
  2
SERVICESPACE
 70
     0
 62
     2
  6
DASHDOT
  0
LAYER
  2
ETC
 70
     0
 62
    61
  6
CONTINUOUS
  0
LAYER
  2
SYMBOLLINE
 70
     0
 62
    15
  6
CONTINUOUS
  0
LAYER
  2
DEFPOINTS
 70
     0
 62
     7
  6
CONTINUOUS
  0
ENDTAB
  0
TABLE
  2
STYLE
 70
     4
  0
STYLE
  2
STANDARD
 70
     0
 40
0.0
 41
0.9
 50
0.0
 71
     0
 42
64.0
  3
SIMPLEX
  4
BIGFONT
  0
STYLE
  2
ANNOTATIVE
 70
     0
 40
0.0
 41
1.0
 50
0.0
 71
     0
 42
0.2
  3
txt
  4

  0
STYLE
  2
NOTE
 70
     0
 40
0.0
 41
0.7
 50
0.0
 71
     0
 42
361.62496667750372
  3
SIMPLEX.shx
  4
BIGFONT.shx
  0
STYLE
  2
STANDARD1
 70
     0
 40
0.0
 41
1.0
 50
0.0
 71
     0
 42
64.0
  3
MONOTXT
  4
BIGFONT
  0
ENDTAB
  0
TABLE
  2
VIEW
 70
    10
  0
VIEW
  2
ALL
 70
     0
 40
9000.0
 10
241.50664699999999
 20
0.0
 41
12483.01
 11
0.0
 21
0.0
 31
1.0
 12
0.0
 22
0.0
 32
0.0
 42
50.0
 43
0.0
 44
0.0
 50
0.0
 71
     0
  0
ENDTAB
  0
TABLE
  2
UCS
 70
     0
  0
ENDTAB
  0
TABLE
  2
APPID
 70
     3
  0
APPID
  2
ACAD
 70
     0
  0
APPID
  2
ACADANNOTATIVE
 70
     0
  0
APPID
  2
ACAD_MLEADERVER
 70
     0
  0
ENDTAB
  0
TABLE
  2
DIMSTYLE
 70
     3
  0
DIMSTYLE
  2
STANDARD
 70
     0
  3

  4

  5

  6

  7

 40
1.0
 41
0.18
 42
0.0625
 43
0.38
 44
0.18
 45
0.0
 46
0.0
 47
0.0
 48
0.0
140
0.18
141
0.09
142
0.0
143
25.399999999999999
144
1.0
145
0.0
146
1.0
147
0.09
 71
     0
 72
     0
 73
     1
 74
     1
 75
     0
 76
     0
 77
     0
 78
     0
170
     0
171
     2
172
     0
173
     0
174
     0
175
     0
176
     0
177
     0
178
     0
  0
DIMSTYLE
  2
ANNOTATIVE
 70
     0
  3

  4

  5

  6

  7

 40
1.0
 41
0.18
 42
0.0625
 43
0.38
 44
0.18
 45
0.0
 46
0.0
 47
0.0
 48
0.0
140
0.18
141
0.09
142
0.0
143
25.399999999999999
144
1.0
145
0.0
146
1.0
147
0.09
 71
     0
 72
     0
 73
     1
 74
     1
 75
     0
 76
     0
 77
     0
 78
     0
170
     0
171
     2
172
     0
173
     0
174
     0
175
     0
176
     0
177
     0
178
     0
  0
ENDTAB
  0
ENDSEC
  0
SECTION
  2
BLOCKS
  0
BLOCK
  8
0
  2
$MODEL_SPACE
 70
     0
 10
0.0
 20
0.0
 30
0.0
  3
$MODEL_SPACE
  1

  0
ENDBLK
  5
76
  8
0
  0
BLOCK
 67
     1
  8
0
  2
$PAPER_SPACE
 70
     0
 10
0.0
 20
0.0
 30
0.0
  3
$PAPER_SPACE
  1

  0
ENDBLK
  5
72
 67
     1
  8
0
  0
BLOCK
  8
0
  2
_SMALL
 70
     0
 10
0.0
 20
0.0
 30
0.0
  3
_SMALL
  1

  0
CIRCLE
  5
8D
  8
0
  6
CONTINUOUS
 62
     7
 10
0.0
 20
0.0
 30
0.0
 40
0.25
  0
ENDBLK
  5
8E
  8
0
  0
ENDSEC
  0
SECTION
  2
ENTITIES
  0
LINE
  5
8F
  8
DETAIL
  6
CONTINUOUS
 62
     5
 10
-300.00000000000182
 20
-253.06212738611791
 30
0.0
 11
-275.00000000000182
 21
-253.06212738611791
 31
0.0
  0
LINE
  5
91
  8
DETAIL
  6
CONTINUOUS
 62
     5
 10
274.99999999999812
 20
0.0
 30
0.0
 11
-275.00000000000182
 21
0.0
 31
0.0
  0
LINE
  5
92
  8
DETAIL
  6
CONTINUOUS
 62
     5
 10
274.99999999999812
 20
-247.6696187799825
 30
0.0
 11
274.99999999999812
 21
0.000000000001819
 31
0.0
  0
LINE
  5
93
  8
DETAIL
  6
CONTINUOUS
 62
     5
 10
295.97145135477331
 20
-253.062750554378
 30
0.0
 11
295.97145135477331
 21
-110.05218509091171
 31
0.0
  0
LINE
  5
94
  8
DETAIL
  6
CONTINUOUS
 62
     5
 10
284.48637051904961
 20
-130.82461208397399
 30
0.0
 11
284.48637051904961
 21
-167.77529591974761
 31
0.0
  0
LINE
  5
95
  8
DETAIL
  6
CONTINUOUS
 62
     5
 10
454.75990603256997
 20
-299.00000599200212
 30
0.0
 11
454.75990603256997
 21
-253.06212738611791
 31
0.0
  0
LINE
  5
96
  8
DETAIL
  6
CONTINUOUS
 62
     5
 10
483.02265570118692
 20
-263.41812575935182
 30
0.0
 11
483.02265570118692
 21
-290.58187424065892
 31
0.0
  0
LINE
  5
97
  8
DETAIL
  6
CONTINUOUS
 62
     5
 10
499.99999999999818
 20
-264.92721757097189
 30
0.0
 11
499.99999999999818
 21
-289.07278242902601
 31
0.0
  0
LINE
  5
98
  8
DETAIL
  6
CONTINUOUS
 62
     5
 10
454.75990603256997
 20
-290.58187424065892
 30
0.0
 11
483.02265570118692
 21
-290.58187424065892
 31
0.0
  0
LINE
  5
99
  8
DETAIL
  6
CONTINUOUS
 62
     5
 10
499.99999999999818
 20
-289.07278242902601
 30
0.0
 11
483.02265570118692
 21
-290.58187424065892
 31
0.0
  0
LINE
  5
9A
  8
DETAIL
  6
CONTINUOUS
 62
     5
 10
454.75990603256997
 20
-299.00000599200212
 30
0.0
 11
444.77323326809238
 21
-299.00000599200212
 31
0.0
  0
LINE
  5
9B
  8
DETAIL
  6
CONTINUOUS
 62
     5
 10
454.75990603256997
 20
-263.41812575935182
 30
0.0
 11
483.02265570118692
 21
-263.41812575935182
 31
0.0
  0
LINE
  5
9C
  8
DETAIL
  6
CONTINUOUS
 62
     5
 10
483.02265570118692
 20
-263.41812575935182
 30
0.0
 11
499.99999999999818
 21
-264.92721757097189
 31
0.0
  0
ARC
  5
9D
  8
DETAIL
  6
CONTINUOUS
 62
     5
 10
282.48903237095732
 20
-201.72966993725259
 30
0.0
 40
1.99733215609522
 50
0.000000000000007
 51
90.0
  0
LINE
  5
9E
  8
DETAIL
  6
CONTINUOUS
 62
     5
 10
284.48637051904961
 20
-201.72966993725259
 30
0.0
 11
284.48637051904961
 21
-238.6803477810335
 31
0.0
  0
LINE
  5
9F
  8
DETAIL
  6
CONTINUOUS
 62
     5
 10
282.48903237095732
 20
-240.6776859291256
 30
0.0
 11
274.99999999999812
 21
-240.6776859291256
 31
0.0
  0
ARC
  5
A0
  8
DETAIL
  6
CONTINUOUS
 62
     5
 10
282.48903237095732
 20
-238.6803477810335
 30
0.0
 40
1.99733215609522
 50
270.0
 51
0.000000000000007
  0
LINE
  5
A1
  8
DETAIL
  6
CONTINUOUS
 62
     5
 10
274.99983222392621
 20
-239.08061054937389
 30
0.0
 11
274.99983222392621
 21
-286.99999999999812
 31
0.0
  0
LINE
  5
A2
  8
DETAIL
  6
CONTINUOUS
 62
     5
 10
274.99983222392621
 20
-205.22500270842281
 30
0.0
 11
276.99636744368979
 21
-205.22500270842281
 31
0.0
  0
LINE
  5
A3
  8
DETAIL
  6
CONTINUOUS
 62
     5
 10
278.99369959978731
 20
-207.222334864522
 30
0.0
 11
278.99369959978731
 21
-233.18768285376589
 31
0.0
  0
LINE
  5
A4
  8
DETAIL
  6
CONTINUOUS
 62
     5
 10
276.99636744368979
 20
-235.18501500986349
 30
0.0
 11
274.99983222392621
 21
-235.18501500986349
 31
0.0
  0
ARC
  5
A5
  8
DETAIL
  6
CONTINUOUS
 62
     5
 10
276.99636744368979
 20
-233.18768285376589
 30
0.0
 40
1.99733215609522
 50
270.0
 51
0.000000000000007
  0
ARC
  5
A6
  8
DETAIL
  6
CONTINUOUS
 62
     5
 10
276.99636744368979
 20
-207.222334864522
 30
0.0
 40
1.99733215609522
 50
0.000000000000007
 51
90.0
  0
LINE
  5
A7
  8
DETAIL
  6
CONTINUOUS
 62
     5
 10
274.99983222392621
 20
-199.73233178916229
 30
0.0
 11
282.48903237095732
 21
-199.73233178916229
 31
0.0
  0
LINE
  5
A8
  8
DETAIL
  6
CONTINUOUS
 62
     5
 10
282.48903237095732
 20
-169.772628075847
 30
0.0
 11
274.99983222392621
 21
-169.772628075847
 31
0.0
  0
ARC
  5
A9
  8
DETAIL
  6
CONTINUOUS
 62
     5
 10
282.48903237095732
 20
-167.77529591974761
 30
0.0
 40
1.99733215609522
 50
270.0
 51
0.000000000000007
  0
LINE
  5
AA
  8
DETAIL
  6
CONTINUOUS
 62
     5
 10
274.99983222392621
 20
-134.31995084713691
 30
0.0
 11
276.99636744368979
 21
-134.31995084713691
 31
0.0
  0
LINE
  5
AB
  8
DETAIL
  6
CONTINUOUS
 62
     5
 10
278.99369959978731
 20
-136.3172830032363
 30
0.0
 11
278.99369959978731
 21
-162.28262500048541
 31
0.0
  0
LINE
  5
AC
  8
DETAIL
  6
CONTINUOUS
 62
     5
 10
276.99636744368979
 20
-164.27996314857759
 30
0.0
 11
274.99983222392621
 21
-164.27996314857759
 31
0.0
  0
ARC
  5
AD
  8
DETAIL
  6
CONTINUOUS
 62
     5
 10
276.99636744368979
 20
-162.28262500048541
 30
0.0
 40
1.99733215609522
 50
270.0
 51
0.000000000000007
  0
ARC
  5
AE
  8
DETAIL
  6
CONTINUOUS
 62
     5
 10
276.99636744368979
 20
-136.3172830032363
 30
0.0
 40
1.99733215609522
 50
0.000000000000007
 51
90.0
  0
LINE
  5
AF
  8
DETAIL
  6
CONTINUOUS
 62
     5
 10
276.9971464040122
 20
-95.371797039217213
 30
0.0
 11
276.9971464040122
 21
-110.05218509091171
 31
0.0
  0
LINE
  5
B0
  8
DETAIL
  6
CONTINUOUS
 62
     5
 10
281.99047979025312
 20
-95.371797039217213
 30
0.0
 11
281.99047979025312
 21
-110.05218509091171
 31
0.0
  0
LINE
  5
B1
  8
DETAIL
  6
CONTINUOUS
 62
     5
 10
282.9891488642993
 20
-96.370460121257565
 30
0.0
 11
282.9891488642993
 21
-110.05218509091171
 31
0.0
  0
LINE
  5
B2
  8
DETAIL
  6
CONTINUOUS
 62
     5
 10
274.99999999999812
 20
-110.05218509091171
 30
0.0
 11
295.97145135477331
 21
-110.05218509091171
 31
0.0
  0
LINE
  5
B3
  8
DETAIL
  6
CONTINUOUS
 62
     5
 10
274.99983222392621
 20
-128.8272799278746
 30
0.0
 11
282.48903237095732
 21
-128.8272799278746
 31
0.0
  0
ARC
  5
B4
  8
DETAIL
  6
CONTINUOUS
 62
     5
 10
282.48903237095732
 20
-130.82461208397399
 30
0.0
 40
1.99733215609522
 50
0.000000000000007
 51
90.0
  0
ARC
  5
B5
  8
DETAIL
  6
CONTINUOUS
 62
     5
 10
278.99447856010909
 20
-102.3624625815463
 30
0.0
 40
6.9906715343369612
 50
106.6015310000279
 51
124.8448289999985
  0
ARC
  5
B6
  8
DETAIL
  6
CONTINUOUS
 62
     5
 10
281.99047979025312
 20
-96.370460121257565
 30
0.0
 40
0.9986690740488408
 50
359.99998199998771
 51
90.0
  0
LINE
  5
B7
  8
DETAIL
  6
CONTINUOUS
 62
     5
 10
281.99047979025312
 20
-95.371797039217213
 30
0.0
 11
276.9971464040122
 21
-95.371797039217213
 31
0.0
  0
LINE
  5
B8
  8
DETAIL
  6
CONTINUOUS
 62
     5
 10
-275.00000000000182
 20
-286.99999999999812
 30
0.0
 11
-275.00000000000182
 21
0.0
 31
0.0
  0
LINE
  5
B9
  8
DETAIL
  6
CONTINUOUS
 62
     5
 10
-300.00000000000182
 20
-281.03103322202151
 30
0.0
 11
-300.00000000000182
 21
-253.062750554378
 31
0.0
  0
LINE
  5
BA
  8
DETAIL
  6
CONTINUOUS
 62
     5
 10
-300.00000000000182
 20
-281.03103322202151
 30
0.0
 11
-288.92716652873872
 21
-281.03103322202151
 31
0.0
  0
LINE
  5
BB
  8
NOTE
  6
CONTINUOUS
 62
     4
 10
499.99999999999818
 20
-261.42079360324709
 30
0.0
 11
499.99999999999818
 21
-292.57920639673819
 31
0.0
  0
LINE
  5
BC
  8
NOTE
  6
CONTINUOUS
 62
     4
 10
484.4207936032476
 20
-276.99999999999801
 30
0.0
 11
515.57920639675115
 21
-276.99999999999801
 31
0.0
  0
LINE
  5
BD
  8
SIZE
  6
CONTINUOUS
 62
    30
 10
284.99999999999801
 20
-0.0000000000000028
 30
0.0
 11
661.94696591036245
 21
-0.0000000000001096
 31
0.0
  0
LINE
  5
BE
  8
SIZE
  6
CONTINUOUS
 62
    30
 10
464.75990603256997
 20
-299.00000599200212
 30
0.0
 11
661.94696591036245
 21
-299.00000599200212
 31
0.0
  0
LINE
  5
BF
  8
SIZE
  6
CONTINUOUS
 62
    30
 10
651.94696591036245
 20
-0.0000000000001068
 30
0.0
 11
651.94696591036245
 21
-299.00000599200212
 31
0.0
  0
CIRCLE
  5
C0
  8
SIZE
  6
CONTINUOUS
 62
    30
 10
651.94696591036245
 20
-0.0000000000001068
 30
0.0
 40
5.0
  0
CIRCLE
  5
C1
  8
SIZE
  6
CONTINUOUS
 62
    30
 10
651.94696591036245
 20
-299.00000599200212
 30
0.0
 40
5.0
  0
TEXT
  5
C2
  8
SIZE
  6
CONTINUOUS
 62
    30
 10
641.94696591036245
 20
-194.92857442457239
 30
0.0
 40
40.0
  1
299
 50
90.0
 41
0.9
 72
     1
 11
641.94696591036245
 21
-149.500002996001
 31
0.0
  0
POINT
  5
C3
  8
DEFPOINTS
  6
CONTINUOUS
 62
     7
 10
274.99999999999812
 20
0.0
 30
0.0
  0
POINT
  5
C4
  8
DEFPOINTS
  6
CONTINUOUS
 62
     7
 10
454.75990603256997
 20
-299.00000599200212
 30
0.0
  0
POINT
  5
C5
  8
DEFPOINTS
  6
CONTINUOUS
 62
     7
 10
651.94696591036245
 20
-299.00000599200212
 30
0.0
  0
LINE
  5
C6
  8
DETAIL
  6
CONTINUOUS
 62
     5
 10
-288.92716652873872
 20
-281.03103322202151
 30
0.0
 11
-288.92716652873872
 21
-253.06212738611791
 31
0.0
  0
LINE
  5
C7
  8
DETAIL
  6
CONTINUOUS
 62
     5
 10
444.77323326809238
 20
-299.00000599200212
 30
0.0
 11
444.77323326809238
 21
-253.06212738611791
 31
0.0
  0
LINE
  5
C8
  8
NOTE
  6
CONTINUOUS
 62
     4
 10
259.99999999999801
 20
-14.416724963439259
 30
0.0
 11
259.99999999999801
 21
14.416724963439259
 31
0.0
  0
LINE
  5
C9
  8
NOTE
  6
CONTINUOUS
 62
     4
 10
245.58327503655929
 20
0.0
 30
0.0
 11
274.41672496343779
 21
0.0
 31
0.0
  0
CIRCLE
  5
CA
  8
FIX
  6
CONTINUOUS
 62
    11
 10
259.99999999999801
 20
0.0
 30
0.0
 40
12.55406000627733
  0
LINE
  5
CB
  8
NOTE
  6
CONTINUOUS
 62
     4
 10
-260.00000000000182
 20
-14.416724963439259
 30
0.0
 11
-260.00000000000182
 21
14.416724963439259
 31
0.0
  0
LINE
  5
CC
  8
NOTE
  6
CONTINUOUS
 62
     4
 10
-274.41672496344057
 20
0.0
 30
0.0
 11
-245.5832750365625
 21
0.0
 31
0.0
  0
CIRCLE
  5
CD
  8
FIX
  6
CONTINUOUS
 62
    11
 10
-260.00000000000182
 20
0.0
 30
0.0
 40
12.55406000627733
  0
LINE
  5
CE
  8
SIZE
  6
CONTINUOUS
 62
    30
 10
-274.97334552896058
 20
-40.999999999999993
 30
0.0
 11
-425.61920466811171
 21
-40.999999999999957
 31
0.0
  0
LINE
  5
CF
  8
SIZE
  6
CONTINUOUS
 62
    30
 10
-285.00000000000182
 20
0.0000000000000028
 30
0.0
 11
-425.61920466811171
 21
0.0000000000000427
 31
0.0
  0
LINE
  5
D0
  8
SIZE
  6
CONTINUOUS
 62
    30
 10
-415.61920466811171
 20
-40.999999999999957
 30
0.0
 11
-415.61920466811171
 21
0.0000000000000398
 31
0.0
  0
LINE
  5
D1
  8
SIZE
  6
CONTINUOUS
 62
    30
 10
-415.61920466811171
 20
0.0000000000000398
 30
0.0
 11
-415.61920466811171
 21
82.857142857142904
 31
0.0
  0
CIRCLE
  5
D2
  8
SIZE
  6
CONTINUOUS
 62
    30
 10
-415.61920466811171
 20
-40.999999999999957
 30
0.0
 40
5.0
  0
CIRCLE
  5
D3
  8
SIZE
  6
CONTINUOUS
 62
    30
 10
-415.61920466811171
 20
0.0000000000000398
 30
0.0
 40
5.0
  0
TEXT
  5
D4
  8
SIZE
  6
CONTINUOUS
 62
    30
 10
-425.61920466811171
 20
29.999999999999972
 30
0.0
 40
40.0
  1
41
 50
90.0
 41
0.9
 72
     1
 11
-425.61920466811171
 21
51.428571428571388
 31
0.0
  0
POINT
  5
D5
  8
DEFPOINTS
  6
CONTINUOUS
 62
     7
 10
-264.97334552896058
 20
-41.0
 30
0.0
  0
POINT
  5
D6
  8
DEFPOINTS
  6
CONTINUOUS
 62
     7
 10
-275.00000000000182
 20
0.0
 30
0.0
  0
POINT
  5
D7
  8
DEFPOINTS
  6
CONTINUOUS
 62
     7
 10
-415.61920466811171
 20
0.0000000000000398
 30
0.0
  0
LINE
  5
D8
  8
SIZE
  6
CONTINUOUS
 62
    30
 10
-274.97334552896058
 20
-40.999999999999993
 30
0.0
 11
-425.61920466811159
 21
-40.999999999999957
 31
0.0
  0
LINE
  5
D9
  8
SIZE
  6
CONTINUOUS
 62
    30
 10
-274.97334552896058
 20
-216.0
 30
0.0
 11
-425.61920466811171
 21
-215.99999999999989
 31
0.0
  0
LINE
  5
DA
  8
SIZE
  6
CONTINUOUS
 62
    30
 10
-415.61920466811159
 20
-40.999999999999957
 30
0.0
 11
-415.61920466811171
 21
-215.99999999999989
 31
0.0
  0
CIRCLE
  5
DB
  8
SIZE
  6
CONTINUOUS
 62
    30
 10
-415.61920466811159
 20
-40.999999999999957
 30
0.0
 40
5.0
  0
CIRCLE
  5
DC
  8
SIZE
  6
CONTINUOUS
 62
    30
 10
-415.61920466811171
 20
-215.99999999999989
 30
0.0
 40
5.0
  0
TEXT
  5
DD
  8
SIZE
  6
CONTINUOUS
 62
    30
 10
-425.61920466811159
 20
-171.3571428571428
 30
0.0
 40
40.0
  1
175
 50
90.0
 41
0.9
 72
     1
 11
-425.61920466811159
 21
-128.5
 31
0.0
  0
POINT
  5
DE
  8
DEFPOINTS
  6
CONTINUOUS
 62
     7
 10
-264.97334552896058
 20
-41.0
 30
0.0
  0
POINT
  5
DF
  8
DEFPOINTS
  6
CONTINUOUS
 62
     7
 10
-264.97334552896058
 20
-216.0
 30
0.0
  0
POINT
  5
E0
  8
DEFPOINTS
  6
CONTINUOUS
 62
     7
 10
-415.61920466811171
 20
-215.99999999999989
 30
0.0
  0
LINE
  5
E1
  8
SIZE
  6
CONTINUOUS
 62
    30
 10
499.99999999999818
 20
-251.42079360324701
 30
0.0
 11
499.99999999999818
 21
332.69349708509247
 31
0.0
  0
LINE
  5
E2
  8
SIZE
  6
CONTINUOUS
 62
    30
 10
-300.00000000000182
 20
-243.062750554378
 30
0.0
 11
-300.00000000000171
 21
332.69349708509247
 31
0.0
  0
LINE
  5
E3
  8
SIZE
  6
CONTINUOUS
 62
    30
 10
499.99999999999818
 20
322.69349708509247
 30
0.0
 11
-300.00000000000171
 21
322.69349708509247
 31
0.0
  0
CIRCLE
  5
E4
  8
SIZE
  6
CONTINUOUS
 62
    30
 10
499.99999999999818
 20
322.69349708509247
 30
0.0
 40
5.0
  0
CIRCLE
  5
E5
  8
SIZE
  6
CONTINUOUS
 62
    30
 10
-300.00000000000171
 20
322.69349708509247
 30
0.0
 40
5.0
  0
TEXT
  5
E6
  8
SIZE
  6
CONTINUOUS
 62
    30
 10
53.714285714283911
 20
332.69349708509247
 30
0.0
 40
40.0
  1
800
 41
0.9
 72
     1
 11
99.999999999998181
 21
332.69349708509247
 31
0.0
  0
POINT
  5
E7
  8
DEFPOINTS
  6
CONTINUOUS
 62
     7
 10
499.99999999999818
 20
-261.42079360324709
 30
0.0
  0
POINT
  5
E8
  8
DEFPOINTS
  6
CONTINUOUS
 62
     7
 10
-300.00000000000182
 20
-253.062750554378
 30
0.0
  0
POINT
  5
E9
  8
DEFPOINTS
  6
CONTINUOUS
 62
     7
 10
-300.00000000000171
 20
322.69349708509247
 30
0.0
  0
LINE
  5
EA
  8
SIZE
  6
CONTINUOUS
 62
    30
 10
-273.44540141466672
 20
-70.0
 30
0.0
 11
-349.14626180526278
 21
-69.999999999999986
 31
0.0
  0
LINE
  5
EB
  8
SIZE
  6
CONTINUOUS
 62
    30
 10
-285.00000000000182
 20
0.0000000000000028
 30
0.0
 11
-349.14626180526278
 21
0.000000000000021
 31
0.0
  0
LINE
  5
EC
  8
SIZE
  6
CONTINUOUS
 62
    30
 10
-339.14626180526278
 20
-69.999999999999986
 30
0.0
 11
-339.14626180526278
 21
0.0000000000000182
 31
0.0
  0
LINE
  5
ED
  8
SIZE
  6
CONTINUOUS
 62
    30
 10
-339.14626180526278
 20
0.0000000000000182
 30
0.0
 11
-339.14626180526278
 21
98.28571428571432
 31
0.0
  0
CIRCLE
  5
EE
  8
SIZE
  6
CONTINUOUS
 62
    30
 10
-339.14626180526278
 20
-69.999999999999986
 30
0.0
 40
5.0
  0
CIRCLE
  5
EF
  8
SIZE
  6
CONTINUOUS
 62
    30
 10
-339.14626180526278
 20
0.0000000000000182
 30
0.0
 40
5.0
  0
TEXT
  5
F0
  8
SIZE
  6
CONTINUOUS
 62
    30
 10
-349.14626180526278
 20
29.999999999999972
 30
0.0
 40
40.0
  1
70
 50
90.0
 41
0.9
 72
     1
 11
-349.14626180526278
 21
59.14285714285711
 31
0.0
  0
POINT
  5
F1
  8
DEFPOINTS
  6
CONTINUOUS
 62
     7
 10
-263.44540141466672
 20
-70.0
 30
0.0
  0
POINT
  5
F2
  8
DEFPOINTS
  6
CONTINUOUS
 62
     7
 10
-275.00000000000182
 20
0.0
 30
0.0
  0
POINT
  5
F3
  8
DEFPOINTS
  6
CONTINUOUS
 62
     7
 10
-339.14626180526278
 20
0.0000000000000182
 30
0.0
  0
LINE
  5
F4
  8
SIZE
  6
CONTINUOUS
 62
    30
 10
-273.44540141466672
 20
-70.0
 30
0.0
 11
-349.14626180526278
 21
-69.999999999999986
 31
0.0
  0
LINE
  5
F5
  8
SIZE
  6
CONTINUOUS
 62
    30
 10
-273.44540141466672
 20
-187.0
 30
0.0
 11
-349.14626180526278
 21
-186.99999999999989
 31
0.0
  0
LINE
  5
F6
  8
SIZE
  6
CONTINUOUS
 62
    30
 10
-339.14626180526278
 20
-69.999999999999986
 30
0.0
 11
-339.14626180526278
 21
-186.99999999999989
 31
0.0
  0
CIRCLE
  5
F7
  8
SIZE
  6
CONTINUOUS
 62
    30
 10
-339.14626180526278
 20
-69.999999999999986
 30
0.0
 40
5.0
  0
CIRCLE
  5
F8
  8
SIZE
  6
CONTINUOUS
 62
    30
 10
-339.14626180526278
 20
-186.99999999999989
 30
0.0
 40
5.0
  0
TEXT
  5
F9
  8
SIZE
  6
CONTINUOUS
 62
    30
 10
-349.14626180526278
 20
-167.92857142857139
 30
0.0
 40
40.0
  1
117
 50
90.0
 41
0.9
 72
     1
 11
-349.14626180526278
 21
-128.5
 31
0.0
  0
POINT
  5
FA
  8
DEFPOINTS
  6
CONTINUOUS
 62
     7
 10
-263.44540141466672
 20
-70.0
 30
0.0
  0
POINT
  5
FB
  8
DEFPOINTS
  6
CONTINUOUS
 62
     7
 10
-263.44540141466672
 20
-187.0
 30
0.0
  0
POINT
  5
FC
  8
DEFPOINTS
  6
CONTINUOUS
 62
     7
 10
-339.14626180526278
 20
-186.99999999999989
 30
0.0
  0
LINE
  5
FD
  8
SIZE
  6
CONTINUOUS
 62
    30
 10
284.99999999999801
 20
-0.0000000000000028
 30
0.0
 11
594.23022403925097
 21
-0.0000000000000904
 31
0.0
  0
LINE
  5
FE
  8
SIZE
  6
CONTINUOUS
 62
    30
 10
525.57920639675115
 20
-276.99999999999801
 30
0.0
 11
594.23022403925097
 21
-276.99999999999801
 31
0.0
  0
LINE
  5
FF
  8
SIZE
  6
CONTINUOUS
 62
    30
 10
584.23022403925108
 20
-0.0000000000000876
 30
0.0
 11
584.23022403925086
 21
-276.99999999999801
 31
0.0
  0
CIRCLE
  5
100
  8
SIZE
  6
CONTINUOUS
 62
    30
 10
584.23022403925108
 20
-0.0000000000000876
 30
0.0
 40
5.0
  0
CIRCLE
  5
101
  8
SIZE
  6
CONTINUOUS
 62
    30
 10
584.23022403925086
 20
-276.99999999999801
 30
0.0
 40
5.0
  0
TEXT
  5
102
  8
SIZE
  6
CONTINUOUS
 62
    30
 10
574.23022403925086
 20
-184.78571428571311
 30
0.0
 40
40.0
  1
277
 50
90.0
 41
0.9
 72
     1
 11
574.23022403925086
 21
-138.49999999999881
 31
0.0
  0
POINT
  5
103
  8
DEFPOINTS
  6
CONTINUOUS
 62
     7
 10
274.99999999999812
 20
0.0
 30
0.0
  0
POINT
  5
104
  8
DEFPOINTS
  6
CONTINUOUS
 62
     7
 10
515.57920639675115
 20
-276.99999999999801
 30
0.0
  0
POINT
  5
105
  8
DEFPOINTS
  6
CONTINUOUS
 62
     7
 10
584.23022403925086
 20
-276.99999999999801
 30
0.0
  0
LINE
  5
106
  8
SIZE
  6
CONTINUOUS
 62
    30
 10
259.99999999999801
 20
-66.474007995933775
 30
0.0
 11
259.99999999999801
 21
-511.56749264305449
 31
0.0
  0
LINE
  5
107
  8
SIZE
  6
CONTINUOUS
 62
    30
 10
274.99983222392621
 20
-296.99999999999812
 30
0.0
 11
274.99983222392621
 21
-511.56749264305449
 31
0.0
  0
LINE
  5
108
  8
SIZE
  6
CONTINUOUS
 62
    30
 10
259.99999999999801
 20
-501.56749264305472
 30
0.0
 11
239.9999999999981
 21
-501.56749264305472
 31
0.0
  0
LINE
  5
109
  8
SIZE
  6
CONTINUOUS
 62
    30
 10
274.99983222392621
 20
-501.56749264305472
 30
0.0
 11
386.42840365249759
 21
-501.56749264305472
 31
0.0
  0
LINE
  5
10A
  8
SIZE
  6
CONTINUOUS
 62
    30
 10
259.99999999999801
 20
-501.56749264305472
 30
0.0
 11
274.99983222392621
 21
-501.56749264305472
 31
0.0
  0
CIRCLE
  5
10B
  8
SIZE
  6
CONTINUOUS
 62
    30
 10
259.99999999999801
 20
-501.56749264305472
 30
0.0
 40
5.0
  0
CIRCLE
  5
10C
  8
SIZE
  6
CONTINUOUS
 62
    30
 10
274.99983222392621
 20
-501.56749264305472
 30
0.0
 40
5.0
  0
TEXT
  5
10D
  8
SIZE
  6
CONTINUOUS
 62
    30
 10
324.99983222392621
 20
-491.56749264305461
 30
0.0
 40
40.0
  1
15
 41
0.9
 72
     1
 11
350.71411793821198
 21
-491.56749264305461
 31
0.0
  0
POINT
  5
10E
  8
DEFPOINTS
  6
CONTINUOUS
 62
     7
 10
259.99999999999801
 20
-56.474007995933782
 30
0.0
  0
POINT
  5
10F
  8
DEFPOINTS
  6
CONTINUOUS
 62
     7
 10
274.99983222392621
 20
-286.99999999999812
 30
0.0
  0
POINT
  5
110
  8
DEFPOINTS
  6
CONTINUOUS
 62
     7
 10
274.99983222392621
 20
-501.56749264305472
 30
0.0
  0
LINE
  5
111
  8
SIZE
  6
CONTINUOUS
 62
    30
 10
244.9999999999981
 20
-31.0
 30
0.0
 11
244.9999999999981
 21
141.87247188765451
 31
0.0
  0
LINE
  5
112
  8
SIZE
  6
CONTINUOUS
 62
    30
 10
274.99999999999812
 20
10.0
 30
0.0
 11
274.99999999999812
 21
141.87247188765451
 31
0.0
  0
LINE
  5
113
  8
SIZE
  6
CONTINUOUS
 62
    30
 10
244.9999999999981
 20
131.8724718876546
 30
0.0
 11
274.99999999999812
 21
131.8724718876546
 31
0.0
  0
LINE
  5
114
  8
SIZE
  6
CONTINUOUS
 62
    30
 10
274.99999999999812
 20
131.8724718876546
 30
0.0
 11
373.28571428571229
 21
131.8724718876546
 31
0.0
  0
CIRCLE
  5
115
  8
SIZE
  6
CONTINUOUS
 62
    30
 10
244.9999999999981
 20
131.8724718876546
 30
0.0
 40
5.0
  0
CIRCLE
  5
116
  8
SIZE
  6
CONTINUOUS
 62
    30
 10
274.99999999999812
 20
131.8724718876546
 30
0.0
 40
5.0
  0
TEXT
  5
117
  8
SIZE
  6
CONTINUOUS
 62
    30
 10
304.99999999999801
 20
141.8724718876546
 30
0.0
 40
40.0
  1
30
 41
0.9
 72
     1
 11
334.14285714285518
 21
141.8724718876546
 31
0.0
  0
POINT
  5
118
  8
DEFPOINTS
  6
CONTINUOUS
 62
     7
 10
244.9999999999981
 20
-41.0
 30
0.0
  0
POINT
  5
119
  8
DEFPOINTS
  6
CONTINUOUS
 62
     7
 10
274.99999999999812
 20
0.0
 30
0.0
  0
POINT
  5
11A
  8
DEFPOINTS
  6
CONTINUOUS
 62
     7
 10
274.99999999999812
 20
131.8724718876546
 30
0.0
  0
LINE
  5
11B
  8
SIZE
  6
CONTINUOUS
 62
    30
 10
244.9999999999981
 20
-31.0
 30
0.0
 11
244.9999999999981
 21
141.87247188765451
 31
0.0
  0
LINE
  5
11C
  8
SIZE
  6
CONTINUOUS
 62
    30
 10
-245.00000000000361
 20
-31.000000000003631
 30
0.0
 11
-245.00000000000361
 21
141.87247188765451
 31
0.0
  0
LINE
  5
11D
  8
SIZE
  6
CONTINUOUS
 62
    30
 10
244.9999999999981
 20
131.8724718876546
 30
0.0
 11
-245.00000000000361
 21
131.8724718876546
 31
0.0
  0
CIRCLE
  5
11E
  8
SIZE
  6
CONTINUOUS
 62
    30
 10
244.9999999999981
 20
131.8724718876546
 30
0.0
 40
5.0
  0
CIRCLE
  5
11F
  8
SIZE
  6
CONTINUOUS
 62
    30
 10
-245.00000000000361
 20
131.8724718876546
 30
0.0
 40
5.0
  0
TEXT
  5
120
  8
SIZE
  6
CONTINUOUS
 62
    30
 10
-188.2285714285741
 20
141.8724718876546
 30
0.0
 40
40.0
  1
490（吸込口開口）
 41
0.9
 72
     1
 11
-0.0000000000027285
 21
141.8724718876546
 31
0.0
  0
POINT
  5
121
  8
DEFPOINTS
  6
CONTINUOUS
 62
     7
 10
244.9999999999981
 20
-41.0
 30
0.0
  0
POINT
  5
122
  8
DEFPOINTS
  6
CONTINUOUS
 62
     7
 10
-245.00000000000361
 20
-41.000000000003617
 30
0.0
  0
POINT
  5
123
  8
DEFPOINTS
  6
CONTINUOUS
 62
     7
 10
-245.00000000000361
 20
131.8724718876546
 30
0.0
  0
LINE
  5
124
  8
SIZE
  6
CONTINUOUS
 62
    30
 10
259.99999999999801
 20
24.416724963439261
 30
0.0
 11
259.99999999999801
 21
208.78759657845501
 31
0.0
  0
LINE
  5
125
  8
SIZE
  6
CONTINUOUS
 62
    30
 10
274.99999999999812
 20
10.0
 30
0.0
 11
274.99999999999812
 21
208.78759657845501
 31
0.0
  0
LINE
  5
126
  8
SIZE
  6
CONTINUOUS
 62
    30
 10
259.99999999999801
 20
198.78759657845509
 30
0.0
 11
239.9999999999981
 21
198.78759657845509
 31
0.0
  0
LINE
  5
127
  8
SIZE
  6
CONTINUOUS
 62
    30
 10
274.99999999999812
 20
198.78759657845509
 30
0.0
 11
386.42857142856968
 21
198.78759657845509
 31
0.0
  0
LINE
  5
128
  8
SIZE
  6
CONTINUOUS
 62
    30
 10
259.99999999999801
 20
198.78759657845509
 30
0.0
 11
274.99999999999812
 21
198.78759657845509
 31
0.0
  0
CIRCLE
  5
129
  8
SIZE
  6
CONTINUOUS
 62
    30
 10
259.99999999999801
 20
198.78759657845509
 30
0.0
 40
5.0
  0
CIRCLE
  5
12A
  8
SIZE
  6
CONTINUOUS
 62
    30
 10
274.99999999999812
 20
198.78759657845509
 30
0.0
 40
5.0
  0
TEXT
  5
12B
  8
SIZE
  6
CONTINUOUS
 62
    30
 10
324.99999999999801
 20
208.78759657845509
 30
0.0
 40
40.0
  1
15
 41
0.9
 72
     1
 11
350.71428571428379
 21
208.78759657845509
 31
0.0
  0
POINT
  5
12C
  8
DEFPOINTS
  6
CONTINUOUS
 62
     7
 10
259.99999999999801
 20
14.416724963439259
 30
0.0
  0
POINT
  5
12D
  8
DEFPOINTS
  6
CONTINUOUS
 62
     7
 10
274.99999999999812
 20
0.0
 30
0.0
  0
POINT
  5
12E
  8
DEFPOINTS
  6
CONTINUOUS
 62
     7
 10
274.99999999999812
 20
198.78759657845509
 30
0.0
  0
LINE
  5
12F
  8
SIZE
  6
CONTINUOUS
 62
    30
 10
259.99999999999801
 20
24.416724963439261
 30
0.0
 11
259.99999999999801
 21
208.78759657845501
 31
0.0
  0
LINE
  5
130
  8
SIZE
  6
CONTINUOUS
 62
    30
 10
-260.00000000000182
 20
24.416724963439261
 30
0.0
 11
-260.00000000000182
 21
208.78759657845501
 31
0.0
  0
LINE
  5
131
  8
SIZE
  6
CONTINUOUS
 62
    30
 10
259.99999999999801
 20
198.78759657845509
 30
0.0
 11
-260.00000000000182
 21
198.78759657845509
 31
0.0
  0
CIRCLE
  5
132
  8
SIZE
  6
CONTINUOUS
 62
    30
 10
259.99999999999801
 20
198.78759657845509
 30
0.0
 40
5.0
  0
CIRCLE
  5
133
  8
SIZE
  6
CONTINUOUS
 62
    30
 10
-260.00000000000182
 20
198.78759657845509
 30
0.0
 40
5.0
  0
TEXT
  5
134
  8
SIZE
  6
CONTINUOUS
 62
    30
 10
-46.285714285716097
 20
208.78759657845509
 30
0.0
 40
40.0
  1
520
 41
0.9
 72
     1
 11
-0.000000000001819
 21
208.78759657845509
 31
0.0
  0
POINT
  5
135
  8
DEFPOINTS
  6
CONTINUOUS
 62
     7
 10
259.99999999999801
 20
14.416724963439259
 30
0.0
  0
POINT
  5
136
  8
DEFPOINTS
  6
CONTINUOUS
 62
     7
 10
-260.00000000000182
 20
14.416724963439259
 30
0.0
  0
POINT
  5
137
  8
DEFPOINTS
  6
CONTINUOUS
 62
     7
 10
-260.00000000000182
 20
198.78759657845509
 30
0.0
  0
LINE
  5
138
  8
SIZE
  6
CONTINUOUS
 62
    30
 10
274.99999999999812
 20
10.0
 30
0.0
 11
274.99999999999812
 21
275.64182984854398
 31
0.0
  0
LINE
  5
139
  8
SIZE
  6
CONTINUOUS
 62
    30
 10
499.99999999999818
 20
-251.42079360324701
 30
0.0
 11
499.99999999999818
 21
275.64182984854398
 31
0.0
  0
LINE
  5
13A
  8
SIZE
  6
CONTINUOUS
 62
    30
 10
274.99999999999812
 20
265.64182984854398
 30
0.0
 11
499.99999999999818
 21
265.64182984854398
 31
0.0
  0
CIRCLE
  5
13B
  8
SIZE
  6
CONTINUOUS
 62
    30
 10
274.99999999999812
 20
265.64182984854398
 30
0.0
 40
5.0
  0
CIRCLE
  5
13C
  8
SIZE
  6
CONTINUOUS
 62
    30
 10
499.99999999999818
 20
265.64182984854398
 30
0.0
 40
5.0
  0
TEXT
  5
13D
  8
SIZE
  6
CONTINUOUS
 62
    30
 10
341.2142857142839
 20
275.64182984854409
 30
0.0
 40
40.0
  1
225
 41
0.9
 72
     1
 11
387.49999999999818
 21
275.64182984854409
 31
0.0
  0
POINT
  5
13E
  8
DEFPOINTS
  6
CONTINUOUS
 62
     7
 10
274.99999999999812
 20
0.0
 30
0.0
  0
POINT
  5
13F
  8
DEFPOINTS
  6
CONTINUOUS
 62
     7
 10
499.99999999999818
 20
-261.42079360324709
 30
0.0
  0
POINT
  5
140
  8
DEFPOINTS
  6
CONTINUOUS
 62
     7
 10
499.99999999999818
 20
265.64182984854398
 30
0.0
  0
LINE
  5
141
  8
SIZE
  6
CONTINUOUS
 62
    30
 10
274.99999999999812
 20
10.0
 30
0.0
 11
274.99999999999812
 21
275.64182984854398
 31
0.0
  0
LINE
  5
142
  8
SIZE
  6
CONTINUOUS
 62
    30
 10
-275.00000000000182
 20
10.0
 30
0.0
 11
-275.00000000000182
 21
275.64182984854398
 31
0.0
  0
LINE
  5
143
  8
SIZE
  6
CONTINUOUS
 62
    30
 10
274.99999999999812
 20
265.64182984854398
 30
0.0
 11
-275.00000000000182
 21
265.64182984854398
 31
0.0
  0
CIRCLE
  5
144
  8
SIZE
  6
CONTINUOUS
 62
    30
 10
274.99999999999812
 20
265.64182984854398
 30
0.0
 40
5.0
  0
CIRCLE
  5
145
  8
SIZE
  6
CONTINUOUS
 62
    30
 10
-275.00000000000182
 20
265.64182984854398
 30
0.0
 40
5.0
  0
TEXT
  5
146
  8
SIZE
  6
CONTINUOUS
 62
    30
 10
-46.285714285716089
 20
275.64182984854409
 30
0.0
 40
40.0
  1
550
 41
0.9
 72
     1
 11
-0.000000000001819
 21
275.64182984854409
 31
0.0
  0
POINT
  5
147
  8
DEFPOINTS
  6
CONTINUOUS
 62
     7
 10
274.99999999999812
 20
0.0
 30
0.0
  0
POINT
  5
148
  8
DEFPOINTS
  6
CONTINUOUS
 62
     7
 10
-275.00000000000182
 20
0.0
 30
0.0
  0
POINT
  5
149
  8
DEFPOINTS
  6
CONTINUOUS
 62
     7
 10
-275.00000000000182
 20
265.64182984854398
 30
0.0
  0
LINE
  5
14A
  8
SIZE
  6
CONTINUOUS
 62
    30
 10
-275.00000000000182
 20
10.0
 30
0.0
 11
-275.00000000000182
 21
275.64182984854398
 31
0.0
  0
LINE
  5
14B
  8
SIZE
  6
CONTINUOUS
 62
    30
 10
-300.00000000000182
 20
-243.062750554378
 30
0.0
 11
-300.00000000000171
 21
275.64182984854409
 31
0.0
  0
LINE
  5
14C
  8
SIZE
  6
CONTINUOUS
 62
    30
 10
-275.00000000000182
 20
265.64182984854398
 30
0.0
 11
-300.00000000000171
 21
265.64182984854398
 31
0.0
  0
LINE
  5
14D
  8
SIZE
  6
CONTINUOUS
 62
    30
 10
-300.00000000000171
 20
265.64182984854398
 30
0.0
 11
-444.5714285714302
 21
265.64182984854398
 31
0.0
  0
CIRCLE
  5
14E
  8
SIZE
  6
CONTINUOUS
 62
    30
 10
-275.00000000000182
 20
265.64182984854398
 30
0.0
 40
5.0
  0
CIRCLE
  5
14F
  8
SIZE
  6
CONTINUOUS
 62
    30
 10
-300.00000000000171
 20
265.64182984854398
 30
0.0
 40
5.0
  0
TEXT
  5
150
  8
SIZE
  6
CONTINUOUS
 62
    30
 10
-434.5714285714302
 20
286.11802032473452
 30
0.0
 40
40.0
  1
(25)
 41
0.9
 72
     1
 11
-382.28571428571598
 21
286.11802032473452
 31
0.0
  0
POINT
  5
151
  8
DEFPOINTS
  6
CONTINUOUS
 62
     7
 10
-275.00000000000182
 20
0.0
 30
0.0
  0
POINT
  5
152
  8
DEFPOINTS
  6
CONTINUOUS
 62
     7
 10
-300.00000000000182
 20
-253.062750554378
 30
0.0
  0
POINT
  5
153
  8
DEFPOINTS
  6
CONTINUOUS
 62
     7
 10
-300.00000000000171
 20
265.64182984854398
 30
0.0
  0
LINE
  5
154
  8
BASIS
  6
DASHDOT
 62
     6
 10
-0.000000000001819
 20
18.12542923908039
 30
0.0
 11
-0.000000000001819
 21
-312.98309167991818
 31
0.0
  0
CIRCLE
  5
155
  8
ARRANGE
  6
CONTINUOUS
 62
     1
 10
-0.000000000001819
 20
0.0
 30
0.0
 40
28.800000000000001
  0
LINE
  5
156
  8
ARRANGE
  6
CONTINUOUS
 62
     1
 10
-28.821513618047451
 20
-28.524875414586841
 30
0.0
 11
28.821513618044261
 21
28.524875414586841
 31
0.0
  0
LINE
  5
157
  8
ARRANGE
  6
CONTINUOUS
 62
     1
 10
-28.779127666850851
 20
28.567638603641171
 30
0.0
 11
28.779127666847209
 21
-28.56763860363754
 31
0.0
  0
TEXT
  5
158
  8
NOTE
  6
CONTINUOUS
 62
     4
 10
-651.43414457333245
 20
123.5120185320355
 30
0.0
 40
40.0
  1
AH 4-14×22長穴
 50
359.99999749558327
 41
0.7
  7
STANDARD1
  0
LINE
  5
159
  8
NOTE
  6
CONTINUOUS
 62
     4
 10
-654.50547502879454
 20
115.8596592586927
 30
0.0
 11
-313.05342757412478
 21
115.8596592586927
 31
0.0
  0
LINE
  5
15A
  8
NOTE
  6
CONTINUOUS
 62
     4
 10
-313.05342757412478
 20
115.8596592586927
 30
0.0
 11
-260.00000000000182
 21
0.0
 31
0.0
  0
LINE
  5
15B
  8
OUTLINE
  6
CONTINUOUS
 62
     3
 10
274.99999999999812
 20
0.0
 30
0.0
 11
-275.00000000000182
 21
0.0
 31
0.0
  0
LINE
  5
15C
  8
OUTLINE
  6
CONTINUOUS
 62
     3
 10
-275.00000000000182
 20
0.0
 30
0.0
 11
-275.00000000000182
 21
-286.99999999999812
 31
0.0
  0
LINE
  5
15D
  8
OUTLINE
  6
CONTINUOUS
 62
     3
 10
-300.00000000000182
 20
-253.06212738611791
 30
0.0
 11
-275.00000000000182
 21
-253.06212738611791
 31
0.0
  0
LINE
  5
15E
  8
OUTLINE
  6
CONTINUOUS
 62
     3
 10
-288.92716652873872
 20
-281.03103322202151
 30
0.0
 11
-275.00000000000182
 21
-281.28806657955272
 31
0.0
  0
LINE
  5
15F
  8
OUTLINE
  6
CONTINUOUS
 62
     3
 10
454.75990603256997
 20
-299.00000599200212
 30
0.0
 11
454.75990603256997
 21
-253.06212738611791
 31
0.0
  0
LINE
  5
160
  8
OUTLINE
  6
CONTINUOUS
 62
     3
 10
454.75990603256997
 20
-299.00000599200212
 30
0.0
 11
444.77323326809238
 21
-299.00000599200212
 31
0.0
  0
LINE
  5
161
  8
OUTLINE
  6
CONTINUOUS
 62
     3
 10
-300.00000000000182
 20
-281.03103322202151
 30
0.0
 11
-300.00000000000182
 21
-253.062750554378
 31
0.0
  0
LINE
  5
162
  8
OUTLINE
  6
CONTINUOUS
 62
     3
 10
-300.00000000000182
 20
-281.03103322202151
 30
0.0
 11
-288.92716652873872
 21
-281.03103322202151
 31
0.0
  0
LINE
  5
163
  8
OUTLINE
  6
CONTINUOUS
 62
     3
 10
295.97145135477331
 20
-253.062750554378
 30
0.0
 11
295.97145135477331
 21
-110.05218509091171
 31
0.0
  0
LINE
  5
164
  8
OUTLINE
  6
CONTINUOUS
 62
     3
 10
295.97145135477331
 20
-110.05218509091171
 30
0.0
 11
274.99992703738138
 21
-110.05217118716421
 31
0.0
  0
LINE
  5
165
  8
OUTLINE
  6
CONTINUOUS
 62
     3
 10
274.99999999999812
 20
0.0
 30
0.0
 11
274.99983222392621
 21
-286.99999999999812
 31
0.0
  0
LINE
  5
166
  8
DETAIL
  6
CONTINUOUS
 62
     5
 10
-275.00000000000182
 20
-286.99999999999812
 30
0.0
 11
274.99983222392621
 21
-286.99999999999812
 31
0.0
  0
LINE
  5
167
  8
DETAIL
  6
CONTINUOUS
 62
     5
 10
264.97334552895558
 20
-41.0
 30
0.0
 11
-264.97334552896058
 21
-41.000000000003617
 31
0.0
  0
LINE
  5
168
  8
DETAIL
  6
CONTINUOUS
 62
     5
 10
-264.97334552896058
 20
-216.0
 30
0.0
 11
264.97334552895558
 21
-216.0
 31
0.0
  0
LINE
  5
169
  8
DETAIL
  6
CONTINUOUS
 62
     5
 10
-245.00000000000361
 20
-216.0
 30
0.0
 11
-245.00000000000361
 21
-41.000000000003617
 31
0.0
  0
LINE
  5
16A
  8
DETAIL
  6
CONTINUOUS
 62
     5
 10
-269.96667891520292
 20
-286.99999999999812
 30
0.0
 11
-269.96667891520292
 21
-220.99333338623899
 31
0.0
  0
ARC
  5
16B
  8
DETAIL
  6
CONTINUOUS
 62
     5
 10
-264.97334552896058
 20
-220.99333338623899
 30
0.0
 40
4.993333386239283
 50
90.0
 51
180.0
  0
LINE
  5
16C
  8
DETAIL
  6
CONTINUOUS
 62
     5
 10
-269.96667891520292
 20
-36.006666613760899
 30
0.0
 11
-269.96667891520292
 21
0.0
 31
0.0
  0
ARC
  5
16D
  8
DETAIL
  6
CONTINUOUS
 62
     5
 10
-264.97334552896058
 20
-36.006666613760899
 30
0.0
 40
4.993333386239283
 50
180.0
 51
270.0
  0
CIRCLE
  5
16E
  8
DETAIL
  6
CONTINUOUS
 62
     5
 10
-220.00000000000171
 20
-32.000000000007269
 30
0.0
 40
1.5
  0
LINE
  5
16F
  8
NOTE
  6
CONTINUOUS
 62
     4
 10
-220.00000000000171
 20
-28.554598585336858
 30
0.0
 11
-220.00000000000171
 21
-35.445401414664957
 31
0.0
  0
LINE
  5
170
  8
NOTE
  6
CONTINUOUS
 62
     4
 10
-216.5545985853436
 20
-32.000000000007269
 30
0.0
 11
-223.4454014146736
 21
-32.000000000007269
 31
0.0
  0
LINE
  5
171
  8
DETAIL
  6
CONTINUOUS
 62
     5
 10
244.9999999999981
 20
-216.0
 30
0.0
 11
244.9999999999981
 21
-41.0
 31
0.0
  0
LINE
  5
172
  8
DETAIL
  6
CONTINUOUS
 62
     5
 10
269.96667891519832
 20
-286.99999999999812
 30
0.0
 11
269.96667891519832
 21
-220.99333338623899
 31
0.0
  0
ARC
  5
173
  8
DETAIL
  6
CONTINUOUS
 62
     5
 10
264.97334552895558
 20
-220.99333338623899
 30
0.0
 40
4.993333386239283
 50
0.0
 51
90.0
  0
LINE
  5
174
  8
DETAIL
  6
CONTINUOUS
 62
     5
 10
269.96667891519832
 20
-36.006666613760899
 30
0.0
 11
269.96667891519832
 21
0.0
 31
0.0
  0
ARC
  5
175
  8
DETAIL
  6
CONTINUOUS
 62
     5
 10
264.97334552895558
 20
-36.006666613760899
 30
0.0
 40
4.993333386239283
 50
270.0
 51
0.0
  0
LINE
  5
176
  8
NOTE
  6
CONTINUOUS
 62
     4
 10
-260.00000000000182
 20
0.0
 30
0.0
 11
-278.07485363485603
 21
20.736524657550031
 31
0.0
  0
LINE
  5
177
  8
NOTE
  6
CONTINUOUS
 62
     4
 10
-260.00000000000182
 20
0.0
 30
0.0
 11
-265.2850196953745
 21
26.995784034046661
 31
0.0
  0
CIRCLE
  5
178
  8
DETAIL
  6
CONTINUOUS
 62
     5
 10
-259.99999999999449
 20
-70.0
 30
0.0
 40
1.5
  0
LINE
  5
179
  8
NOTE
  6
CONTINUOUS
 62
     4
 10
-259.99999999999449
 20
-66.554598585329586
 30
0.0
 11
-259.99999999999449
 21
-73.445401414657695
 31
0.0
  0
LINE
  5
17A
  8
NOTE
  6
CONTINUOUS
 62
     4
 10
-256.55459858533681
 20
-70.0
 30
0.0
 11
-263.44540141466672
 21
-70.0
 31
0.0
  0
CIRCLE
  5
17B
  8
DETAIL
  6
CONTINUOUS
 62
     5
 10
-259.99999999999449
 20
-187.0
 30
0.0
 40
1.5
  0
LINE
  5
17C
  8
NOTE
  6
CONTINUOUS
 62
     4
 10
-259.99999999999449
 20
-183.5545985853293
 30
0.0
 11
-259.99999999999449
 21
-190.44540141465751
 31
0.0
  0
LINE
  5
17D
  8
NOTE
  6
CONTINUOUS
 62
     4
 10
-256.55459858533681
 20
-187.0
 30
0.0
 11
-263.44540141466672
 21
-187.0
 31
0.0
  0
CIRCLE
  5
17E
  8
DETAIL
  6
CONTINUOUS
 62
     5
 10
260.0000000000054
 20
-187.0
 30
0.0
 40
1.5
  0
LINE
  5
17F
  8
NOTE
  6
CONTINUOUS
 62
     4
 10
260.0000000000054
 20
-183.5545985853293
 30
0.0
 11
260.0000000000054
 21
-190.44540141465751
 31
0.0
  0
LINE
  5
180
  8
NOTE
  6
CONTINUOUS
 62
     4
 10
263.44540141466359
 20
-187.0
 30
0.0
 11
256.55459858533322
 21
-187.0
 31
0.0
  0
CIRCLE
  5
181
  8
DETAIL
  6
CONTINUOUS
 62
     5
 10
260.0000000000054
 20
-70.0
 30
0.0
 40
1.5
  0
LINE
  5
182
  8
NOTE
  6
CONTINUOUS
 62
     4
 10
260.0000000000054
 20
-66.554598585329586
 30
0.0
 11
260.0000000000054
 21
-73.445401414657695
 31
0.0
  0
LINE
  5
183
  8
NOTE
  6
CONTINUOUS
 62
     4
 10
263.44540141466359
 20
-70.0
 30
0.0
 11
256.55459858533322
 21
-70.0
 31
0.0
  0
CIRCLE
  5
184
  8
DETAIL
  6
CONTINUOUS
 62
     5
 10
-219.99999999999449
 20
-225.0
 30
0.0
 40
1.5
  0
LINE
  5
185
  8
NOTE
  6
CONTINUOUS
 62
     4
 10
-219.99999999999449
 20
-221.5545985853295
 30
0.0
 11
-219.99999999999449
 21
-228.44540141465771
 31
0.0
  0
LINE
  5
186
  8
NOTE
  6
CONTINUOUS
 62
     4
 10
-216.55459858533641
 20
-225.0
 30
0.0
 11
-223.44540141466669
 21
-225.0
 31
0.0
  0
CIRCLE
  5
187
  8
DETAIL
  6
CONTINUOUS
 62
     5
 10
0.000000000005457
 20
-225.0
 30
0.0
 40
1.5
  0
LINE
  5
188
  8
NOTE
  6
CONTINUOUS
 62
     4
 10
0.000000000005457
 20
-221.5545985853295
 30
0.0
 11
0.000000000005457
 21
-228.44540141465771
 31
0.0
  0
LINE
  5
189
  8
NOTE
  6
CONTINUOUS
 62
     4
 10
3.445401414663591
 20
-225.0
 30
0.0
 11
-3.4454014146667751
 21
-225.0
 31
0.0
  0
CIRCLE
  5
18A
  8
DETAIL
  6
CONTINUOUS
 62
     5
 10
220.0000000000054
 20
-225.0
 30
0.0
 40
1.5
  0
LINE
  5
18B
  8
NOTE
  6
CONTINUOUS
 62
     4
 10
220.0000000000054
 20
-221.5545985853295
 30
0.0
 11
220.0000000000054
 21
-228.44540141465771
 31
0.0
  0
LINE
  5
18C
  8
NOTE
  6
CONTINUOUS
 62
     4
 10
223.44540141466351
 20
-225.0
 30
0.0
 11
216.5545985853332
 21
-225.0
 31
0.0
  0
CIRCLE
  5
18D
  8
DETAIL
  6
CONTINUOUS
 62
     5
 10
220.0000000000054
 20
-32.0
 30
0.0
 40
1.5
  0
LINE
  5
18E
  8
NOTE
  6
CONTINUOUS
 62
     4
 10
220.0000000000054
 20
-28.554598585329579
 30
0.0
 11
220.0000000000054
 21
-35.445401414657681
 31
0.0
  0
LINE
  5
18F
  8
NOTE
  6
CONTINUOUS
 62
     4
 10
223.44540141466351
 20
-32.0
 30
0.0
 11
216.5545985853332
 21
-32.0
 31
0.0
  0
CIRCLE
  5
190
  8
DETAIL
  6
CONTINUOUS
 62
     5
 10
0.000000000005457
 20
-32.0
 30
0.0
 40
1.5
  0
LINE
  5
191
  8
NOTE
  6
CONTINUOUS
 62
     4
 10
0.000000000005457
 20
-28.554598585329579
 30
0.0
 11
0.000000000005457
 21
-35.445401414657681
 31
0.0
  0
LINE
  5
192
  8
NOTE
  6
CONTINUOUS
 62
     4
 10
3.445401414663591
 20
-32.0
 30
0.0
 11
-3.4454014146667751
 21
-32.0
 31
0.0
  0
LINE
  5
193
  8
DETAIL
  6
CONTINUOUS
 62
     5
 10
274.99983222392621
 20
-253.06212738611791
 30
0.0
 11
454.75990603256997
 21
-253.06212738611791
 31
0.0
  0
LINE
  5
194
  8
DETAIL
  6
CONTINUOUS
 62
     5
 10
-288.92716652873872
 20
-281.03103322202151
 30
0.0
 11
-275.00000000000182
 21
-281.37214450267328
 31
0.0
  0
LINE
  5
195
  8
OUTLINE
  6
CONTINUOUS
 62
     3
 10
274.99983222392621
 20
-253.06212738611791
 30
0.0
 11
454.75990603256997
 21
-253.06212738611791
 31
0.0
  0
LINE
  5
198
  8
SIZE
  6
CONTINUOUS
 62
    30
 10
260.0000000000054
 20
-200.44540141465751
 30
0.0
 11
260.0000000000054
 21
-511.56749264305438
 31
0.0
  0
LINE
  5
199
  8
SIZE
  6
CONTINUOUS
 62
    30
 10
-259.99999999999449
 20
-200.44540141465751
 30
0.0
 11
-259.99999999999449
 21
-511.56749264305438
 31
0.0
  0
LINE
  5
19A
  8
SIZE
  6
CONTINUOUS
 62
    30
 10
260.0000000000054
 20
-501.56749264305472
 30
0.0
 11
-259.99999999999449
 21
-501.56749264305472
 31
0.0
  0
CIRCLE
  5
19B
  8
SIZE
  6
CONTINUOUS
 62
    30
 10
260.0000000000054
 20
-501.56749264305472
 30
0.0
 40
5.0
  0
CIRCLE
  5
19C
  8
SIZE
  6
CONTINUOUS
 62
    30
 10
-259.99999999999449
 20
-501.56749264305472
 30
0.0
 40
5.0
  0
TEXT
  5
19D
  8
SIZE
  6
CONTINUOUS
 62
    30
 10
-46.285714285708821
 20
-491.56749264305461
 30
0.0
 40
40.0
  1
520
 41
0.9
 72
     1
 11
0.000000000005457
 21
-491.56749264305461
 31
0.0
  0
POINT
  5
19E
  8
DEFPOINTS
  6
CONTINUOUS
 62
     7
 10
260.0000000000054
 20
-190.44540141465751
 30
0.0
  0
POINT
  5
19F
  8
DEFPOINTS
  6
CONTINUOUS
 62
     7
 10
-259.99999999999449
 20
-190.44540141465751
 30
0.0
  0
POINT
  5
1A0
  8
DEFPOINTS
  6
CONTINUOUS
 62
     7
 10
-259.99999999999449
 20
-501.56749264305472
 30
0.0
  0
LINE
  5
1A1
  8
SIZE
  6
CONTINUOUS
 62
    30
 10
-285.00000000000182
 20
0.0000000000000028
 30
0.0
 11
-626.17043088671369
 21
0.0000000000000995
 31
0.0
  0
LINE
  5
1A2
  8
SIZE
  6
CONTINUOUS
 62
    30
 10
-285.00000000000182
 20
-286.99999999999812
 30
0.0
 11
-626.17043088671369
 21
-286.99999999999801
 31
0.0
  0
LINE
  5
1A3
  8
SIZE
  6
CONTINUOUS
 62
    30
 10
-616.17043088671358
 20
0.0000000000000966
 30
0.0
 11
-616.17043088671358
 21
-286.99999999999801
 31
0.0
  0
CIRCLE
  5
1A4
  8
SIZE
  6
CONTINUOUS
 62
    30
 10
-616.17043088671358
 20
0.0000000000000966
 30
0.0
 40
5.0
  0
CIRCLE
  5
1A5
  8
SIZE
  6
CONTINUOUS
 62
    30
 10
-616.17043088671358
 20
-286.99999999999801
 30
0.0
 40
5.0
  0
TEXT
  5
1A6
  8
SIZE
  6
CONTINUOUS
 62
    30
 10
-626.17043088671369
 20
-189.78571428571331
 30
0.0
 40
40.0
  1
287
 50
90.0
 41
0.9
 72
     1
 11
-626.17043088671369
 21
-143.49999999999901
 31
0.0
  0
POINT
  5
1A7
  8
DEFPOINTS
  6
CONTINUOUS
 62
     7
 10
-275.00000000000182
 20
0.0
 30
0.0
  0
POINT
  5
1A9
  8
DEFPOINTS
  6
CONTINUOUS
 62
     7
 10
-616.17043088671358
 20
-286.99999999999801
 30
0.0
  0
LINE
  5
1AA
  8
SIZE
  6
CONTINUOUS
 62
    30
 10
-233.44540141466661
 20
-31.999999999999989
 30
0.0
 11
-557.16178612606882
 21
-31.999999999999901
 31
0.0
  0
LINE
  5
1AB
  8
SIZE
  6
CONTINUOUS
 62
    30
 10
-285.00000000000182
 20
0.0000000000000028
 30
0.0
 11
-557.16178612606882
 21
0.0000000000000799
 31
0.0
  0
LINE
  5
1AC
  8
SIZE
  6
CONTINUOUS
 62
    30
 10
-547.16178612606882
 20
-31.999999999999901
 30
0.0
 11
-547.16178612606882
 21
0.0000000000000771
 31
0.0
  0
LINE
  5
1AD
  8
SIZE
  6
CONTINUOUS
 62
    30
 10
-547.16178612606882
 20
0.0000000000000771
 30
0.0
 11
-547.16178612606882
 21
98.285714285714363
 31
0.0
  0
CIRCLE
  5
1AE
  8
SIZE
  6
CONTINUOUS
 62
    30
 10
-547.16178612606882
 20
-31.999999999999901
 30
0.0
 40
5.0
  0
CIRCLE
  5
1AF
  8
SIZE
  6
CONTINUOUS
 62
    30
 10
-547.16178612606882
 20
0.0000000000000771
 30
0.0
 40
5.0
  0
TEXT
  5
1B0
  8
SIZE
  6
CONTINUOUS
 62
    30
 10
-557.16178612606882
 20
29.999999999999989
 30
0.0
 40
40.0
  1
32
 50
90.0
 41
0.9
 72
     1
 11
-557.16178612606882
 21
59.142857142857132
 31
0.0
  0
POINT
  5
1B1
  8
DEFPOINTS
  6
CONTINUOUS
 62
     7
 10
-223.44540141466669
 20
-32.0
 30
0.0
  0
POINT
  5
1B2
  8
DEFPOINTS
  6
CONTINUOUS
 62
     7
 10
-275.00000000000182
 20
0.0
 30
0.0
  0
POINT
  5
1B3
  8
DEFPOINTS
  6
CONTINUOUS
 62
     7
 10
-547.16178612606882
 20
0.0000000000000771
 30
0.0
  0
LINE
  5
1B4
  8
SIZE
  6
CONTINUOUS
 62
    30
 10
-233.44540141466661
 20
-31.999999999999989
 30
0.0
 11
-557.16178612606882
 21
-31.999999999999901
 31
0.0
  0
LINE
  5
1B5
  8
SIZE
  6
CONTINUOUS
 62
    30
 10
-233.44540141466661
 20
-225.0
 30
0.0
 11
-557.16178612606882
 21
-224.99999999999989
 31
0.0
  0
LINE
  5
1B6
  8
SIZE
  6
CONTINUOUS
 62
    30
 10
-547.16178612606882
 20
-31.999999999999901
 30
0.0
 11
-547.16178612606882
 21
-224.99999999999989
 31
0.0
  0
CIRCLE
  5
1B7
  8
SIZE
  6
CONTINUOUS
 62
    30
 10
-547.16178612606882
 20
-31.999999999999901
 30
0.0
 40
5.0
  0
CIRCLE
  5
1B8
  8
SIZE
  6
CONTINUOUS
 62
    30
 10
-547.16178612606882
 20
-224.99999999999989
 30
0.0
 40
5.0
  0
TEXT
  5
1B9
  8
SIZE
  6
CONTINUOUS
 62
    30
 10
-557.16178612606882
 20
-171.35714285714269
 30
0.0
 40
40.0
  1
193
 50
90.0
 41
0.9
 72
     1
 11
-557.16178612606882
 21
-128.4999999999998
 31
0.0
  0
POINT
  5
1BA
  8
DEFPOINTS
  6
CONTINUOUS
 62
     7
 10
-223.44540141466669
 20
-32.0
 30
0.0
  0
POINT
  5
1BB
  8
DEFPOINTS
  6
CONTINUOUS
 62
     7
 10
-223.44540141466669
 20
-225.0
 30
0.0
  0
POINT
  5
1BC
  8
DEFPOINTS
  6
CONTINUOUS
 62
     7
 10
-547.16178612606882
 20
-224.99999999999989
 30
0.0
  0
TEXT
  5
1BD
  8
SIZE
  6
CONTINUOUS
 62
    30
 10
-474.71521110022468
 20
-233.1816769752476
 30
0.0
 40
40.0
  1
（吸込口開口）
 50
89.999997495583386
 41
0.65
  7
STANDARD1
  0
TEXT
  5
1BE
  8
NOTE
  6
CONTINUOUS
 62
     4
 10
541.30883718449513
 20
-379.65526101482629
 30
0.0
 40
40.0
  1
D PT3/4オネジ
 50
359.99999749558327
 41
0.7
  7
STANDARD1
  0
LINE
  5
1BF
  8
NOTE
  6
CONTINUOUS
 62
     4
 10
538.65882262891046
 20
-387.30761784039169
 30
0.0
 11
823.6895541837041
 21
-387.30761784039169
 31
0.0
  0
LINE
  5
1C0
  8
NOTE
  6
CONTINUOUS
 62
     4
 10
538.65882262891046
 20
-387.30761784039169
 30
0.0
 11
499.99999999999631
 21
-277.0
 31
0.0
  0
LINE
  5
1C1
  8
NOTE
  6
CONTINUOUS
 62
     4
 10
499.99999999999488
 20
-277.0
 30
0.0
 11
515.89732066938541
 21
-299.44947625957508
 31
0.0
  0
LINE
  5
1C2
  8
NOTE
  6
CONTINUOUS
 62
     4
 10
499.99999999999488
 20
-277.0
 30
0.0
 11
502.54274502293811
 21
-304.39047711416418
 31
0.0
  0
LINE
  5
1C3
  8
SIZE
  6
CONTINUOUS
 62
    30
 10
220.0000000000054
 20
-238.4454014146576
 30
0.0
 11
220.0000000000054
 21
-451.94823913299479
 31
0.0
  0
LINE
  5
1C4
  8
SIZE
  6
CONTINUOUS
 62
    30
 10
274.99983222392621
 20
-296.99999999999812
 30
0.0
 11
274.99983222392621
 21
-451.94823913299479
 31
0.0
  0
LINE
  5
1C5
  8
SIZE
  6
CONTINUOUS
 62
    30
 10
220.0000000000054
 20
-441.94823913299479
 30
0.0
 11
274.99983222392621
 21
-441.94823913299479
 31
0.0
  0
LINE
  5
1C6
  8
SIZE
  6
CONTINUOUS
 62
    30
 10
274.99983222392621
 20
-441.94823913299479
 30
0.0
 11
373.28554650964043
 21
-441.94823913299479
 31
0.0
  0
CIRCLE
  5
1C7
  8
SIZE
  6
CONTINUOUS
 62
    30
 10
220.0000000000054
 20
-441.94823913299479
 30
0.0
 40
5.0
  0
CIRCLE
  5
1C8
  8
SIZE
  6
CONTINUOUS
 62
    30
 10
274.99983222392621
 20
-441.94823913299479
 30
0.0
 40
5.0
  0
TEXT
  5
1C9
  8
SIZE
  6
CONTINUOUS
 62
    30
 10
304.99983222392609
 20
-431.94823913299479
 30
0.0
 40
40.0
  1
55
 41
0.9
 72
     1
 11
334.14268936678332
 21
-431.94823913299479
 31
0.0
  0
POINT
  5
1CA
  8
DEFPOINTS
  6
CONTINUOUS
 62
     7
 10
220.0000000000054
 20
-228.44540141465771
 30
0.0
  0
POINT
  5
1CB
  8
DEFPOINTS
  6
CONTINUOUS
 62
     7
 10
274.99983222392621
 20
-286.99999999999812
 30
0.0
  0
POINT
  5
1CC
  8
DEFPOINTS
  6
CONTINUOUS
 62
     7
 10
274.99983222392621
 20
-441.94823913299479
 30
0.0
  0
LINE
  5
1CD
  8
SIZE
  6
CONTINUOUS
 62
    30
 10
220.0000000000054
 20
-235.0
 30
0.0
 11
220.0000000000054
 21
-382.90500809789199
 31
0.0
  0
LINE
  5
1CE
  8
SIZE
  6
CONTINUOUS
 62
    30
 10
0.0000000000054564
 20
-238.4454014146576
 30
0.0
 11
0.0000000000054475
 21
-382.90500809789199
 31
0.0
  0
LINE
  5
1CF
  8
SIZE
  6
CONTINUOUS
 62
    30
 10
220.0000000000054
 20
-372.90500809789199
 30
0.0
 11
0.0000000000054481
 21
-372.90500809789199
 31
0.0
  0
CIRCLE
  5
1D0
  8
SIZE
  6
CONTINUOUS
 62
    30
 10
220.0000000000054
 20
-372.90500809789199
 30
0.0
 40
5.0
  0
CIRCLE
  5
1D1
  8
SIZE
  6
CONTINUOUS
 62
    30
 10
0.0000000000054481
 20
-372.90500809789199
 30
0.0
 40
5.0
  0
TEXT
  5
1D2
  8
SIZE
  6
CONTINUOUS
 62
    30
 10
63.714285714291627
 20
-362.90500809789211
 30
0.0
 40
40.0
  1
220
 41
0.9
 72
     1
 11
110.0000000000059
 21
-362.90500809789211
 31
0.0
  0
POINT
  5
1D3
  8
DEFPOINTS
  6
CONTINUOUS
 62
     7
 10
220.0000000000054
 20
-225.0
 30
0.0
  0
POINT
  5
1D4
  8
DEFPOINTS
  6
CONTINUOUS
 62
     7
 10
0.000000000005457
 20
-228.44540141465771
 30
0.0
  0
POINT
  5
1D5
  8
DEFPOINTS
  6
CONTINUOUS
 62
     7
 10
0.0000000000054481
 20
-372.90500809789199
 30
0.0
  0
LINE
  5
1D6
  8
SIZE
  6
CONTINUOUS
 62
    30
 10
220.0000000000054
 20
-238.4454014146576
 30
0.0
 11
220.0000000000054
 21
-451.94823913299479
 31
0.0
  0
LINE
  5
1D7
  8
SIZE
  6
CONTINUOUS
 62
    30
 10
-219.99999999999449
 20
-238.4454014146576
 30
0.0
 11
-219.99999999999449
 21
-451.94823913299479
 31
0.0
  0
LINE
  5
1D8
  8
SIZE
  6
CONTINUOUS
 62
    30
 10
220.0000000000054
 20
-441.94823913299479
 30
0.0
 11
-219.99999999999449
 21
-441.94823913299479
 31
0.0
  0
CIRCLE
  5
1D9
  8
SIZE
  6
CONTINUOUS
 62
    30
 10
220.0000000000054
 20
-441.94823913299479
 30
0.0
 40
5.0
  0
CIRCLE
  5
1DA
  8
SIZE
  6
CONTINUOUS
 62
    30
 10
-219.99999999999449
 20
-441.94823913299479
 30
0.0
 40
5.0
  0
TEXT
  5
1DB
  8
SIZE
  6
CONTINUOUS
 62
    30
 10
-158.7428571428517
 20
-431.94823913299479
 30
0.0
 40
40.0
  1
2×220=440
 41
0.9
 72
     1
 11
0.000000000005457
 21
-431.94823913299479
 31
0.0
  0
POINT
  5
1DC
  8
DEFPOINTS
  6
CONTINUOUS
 62
     7
 10
220.0000000000054
 20
-228.44540141465771
 30
0.0
  0
POINT
  5
1DD
  8
DEFPOINTS
  6
CONTINUOUS
 62
     7
 10
-219.99999999999449
 20
-228.44540141465771
 30
0.0
  0
POINT
  5
1DE
  8
DEFPOINTS
  6
CONTINUOUS
 62
     7
 10
-219.99999999999449
 20
-441.94823913299479
 30
0.0
  0
LINE
  5
1DF
  8
NOTE
  6
CONTINUOUS
 62
     4
 10
240.52599200406121
 20
-201.99999999999801
 30
0.0
 11
279.47400799593242
 21
-201.99999999999801
 31
0.0
  0
LINE
  5
1E0
  8
NOTE
  6
CONTINUOUS
 62
     4
 10
259.99999999999801
 20
-182.52599200406061
 30
0.0
 11
259.99999999999801
 21
-221.47400799593359
 31
0.0
  0
LINE
  5
1E1
  8
NOTE
  6
CONTINUOUS
 62
     4
 10
240.52599200406121
 20
-36.999999999998181
 30
0.0
 11
279.47400799593242
 21
-36.999999999998181
 31
0.0
  0
LINE
  5
1E2
  8
NOTE
  6
CONTINUOUS
 62
     4
 10
259.99999999999801
 20
-17.52599200406075
 30
0.0
 11
259.99999999999801
 21
-56.474007995933782
 31
0.0
  0
LINE
  5
1E3
  8
NOTE
  6
CONTINUOUS
 62
     4
 10
458.12937695662811
 20
-466.50446329057559
 30
0.0
 11
259.99999999999631
 21
-201.99999999999801
 31
0.0
  0
TEXT
  5
1E4
  8
NOTE
  6
CONTINUOUS
 62
     4
 10
-89.508571314435827
 20
51.566602013457668
 30
0.0
 40
40.0
  1
CR PT3/4メネジ
 50
359.99999749558327
 41
0.7
  7
STANDARD1
  0
LINE
  5
1E5
  8
NOTE
  6
CONTINUOUS
 62
     4
 10
-94.238617100048941
 20
43.914243964003617
 30
0.0
 11
220.87214568477199
 21
43.914243964003617
 31
0.0
  0
LINE
  5
1E6
  8
NOTE
  6
CONTINUOUS
 62
     4
 10
220.87214568477199
 20
43.914243964003617
 30
0.0
 11
259.99999999999801
 21
-36.999999999998181
 31
0.0
  0
LINE
  5
1E7
  8
NOTE
  6
CONTINUOUS
 62
     4
 10
260.00000000000909
 20
-202.0000000000035
 30
0.0
 11
278.09255767287129
 21
-213.30482648351961
 31
0.0
  0
LINE
  5
1E8
  8
NOTE
  6
CONTINUOUS
 62
     4
 10
260.00000000000909
 20
-202.0000000000035
 30
0.0
 11
265.14851258782988
 21
-221.2219973673744
 31
0.0
  0
LINE
  5
1E9
  8
NOTE
  6
CONTINUOUS
 62
     4
 10
260.0000000000004
 20
-36.999999999998181
 30
0.0
 11
242.58460318446339
 21
-18.573729076329968
 31
0.0
  0
LINE
  5
1EA
  8
NOTE
  6
CONTINUOUS
 62
     4
 10
260.0000000000004
 20
-36.999999999998181
 30
0.0
 11
255.58083697975999
 21
-14.32860238019747
 31
0.0
  0
TEXT
  5
1EB
  8
NOTE
  6
CONTINUOUS
 62
     4
 10
471.85412186693651
 20
-458.85210646501042
 30
0.0
 40
40.0
  1
C PT3/4メネジ
 50
359.99999749558327
 41
0.7
  7
STANDARD1
  0
LINE
  5
1EC
  8
NOTE
  6
CONTINUOUS
 62
     4
 10
458.12937695662811
 20
-466.50446329057559
 30
0.0
 11
766.98129338215801
 21
-466.50446329057559
 31
0.0
  0
LINE
  5
1ED
  8
SIZE
  6
CONTINUOUS
 62
    30
 10
289.47400799593242
 20
-36.999999999998181
 30
0.0
 11
476.30580057619818
 21
-36.999999999998217
 31
0.0
  0
LINE
  5
1EE
  8
SIZE
  6
CONTINUOUS
 62
    30
 10
284.99999999999801
 20
0.0000000000018162
 30
0.0
 11
476.30580057619818
 21
0.000000000001762
 31
0.0
  0
LINE
  5
1EF
  8
SIZE
  6
CONTINUOUS
 62
    30
 10
466.30580057619801
 20
-36.999999999998217
 30
0.0
 11
466.30580057619801
 21
0.0000000000017648
 31
0.0
  0
LINE
  5
1F0
  8
SIZE
  6
CONTINUOUS
 62
    30
 10
466.30580057619801
 20
0.0000000000017648
 30
0.0
 11
466.30580057619801
 21
98.285714285716026
 31
0.0
  0
CIRCLE
  5
1F1
  8
SIZE
  6
CONTINUOUS
 62
    30
 10
466.30580057619801
 20
-36.999999999998217
 30
0.0
 40
5.0
  0
CIRCLE
  5
1F2
  8
SIZE
  6
CONTINUOUS
 62
    30
 10
466.30580057619801
 20
0.0000000000017648
 30
0.0
 40
5.0
  0
TEXT
  5
1F3
  8
SIZE
  6
CONTINUOUS
 62
    30
 10
456.30580057619801
 20
30.00000000000183
 30
0.0
 40
40.0
  1
37
 50
90.0
 41
0.9
 72
     1
 11
456.30580057619801
 21
59.142857142858972
 31
0.0
  0
POINT
  5
1F4
  8
DEFPOINTS
  6
CONTINUOUS
 62
     7
 10
279.47400799593242
 20
-36.999999999998181
 30
0.0
  0
POINT
  5
1F5
  8
DEFPOINTS
  6
CONTINUOUS
 62
     7
 10
274.99999999999812
 20
0.000000000001819
 30
0.0
  0
POINT
  5
1F6
  8
DEFPOINTS
  6
CONTINUOUS
 62
     7
 10
466.30580057619801
 20
0.0000000000017648
 30
0.0
  0
LINE
  5
1F7
  8
SIZE
  6
CONTINUOUS
 62
    30
 10
289.47400799593242
 20
-36.999999999998181
 30
0.0
 11
476.30580057619818
 21
-36.999999999998217
 31
0.0
  0
LINE
  5
1F8
  8
SIZE
  6
CONTINUOUS
 62
    30
 10
289.47400799593242
 20
-201.99999999999801
 30
0.0
 11
476.30580057619818
 21
-201.9999999999981
 31
0.0
  0
LINE
  5
1F9
  8
SIZE
  6
CONTINUOUS
 62
    30
 10
466.30580057619812
 20
-36.999999999998217
 30
0.0
 11
466.30580057619801
 21
-201.9999999999981
 31
0.0
  0
CIRCLE
  5
1FA
  8
SIZE
  6
CONTINUOUS
 62
    30
 10
466.30580057619812
 20
-36.999999999998217
 30
0.0
 40
5.0
  0
CIRCLE
  5
1FB
  8
SIZE
  6
CONTINUOUS
 62
    30
 10
466.30580057619801
 20
-201.9999999999981
 30
0.0
 40
5.0
  0
TEXT
  5
1FC
  8
SIZE
  6
CONTINUOUS
 62
    30
 10
456.30580057619812
 20
-162.3571428571409
 30
0.0
 40
40.0
  1
165
 50
90.0
 41
0.9
 72
     1
 11
456.30580057619812
 21
-119.4999999999981
 31
0.0
  0
POINT
  5
1FD
  8
DEFPOINTS
  6
CONTINUOUS
 62
     7
 10
279.47400799593242
 20
-36.999999999998181
 30
0.0
  0
POINT
  5
1FE
  8
DEFPOINTS
  6
CONTINUOUS
 62
     7
 10
279.47400799593242
 20
-201.99999999999801
 30
0.0
  0
POINT
  5
1FF
  8
DEFPOINTS
  6
CONTINUOUS
 62
     7
 10
466.30580057619801
 20
-201.9999999999981
 30
0.0
  0
TEXT
  5
200
  8
ETC
  6
CONTINUOUS
 62
    61
 10
206.42424200547521
 20
371.67675492734952
 30
0.0
 40
50.0
  1
LH-200WFRP_3
 50
0.0000029998804485
 41
0.8
  0
TEXT
  5
202
  8
NOTE
  6
CONTINUOUS
 62
     4
 10
-665.45633867442473
 20
-347.72825835633
 30
0.0
 40
40.0
  1
2×2-%%c3
 50
359.99999749558327
 41
0.7
  7
STANDARD1
  0
LINE
  5
203
  8
NOTE
  6
CONTINUOUS
 62
     4
 10
-674.9727981515897
 20
-355.38061518189522
 30
0.0
 11
-366.9395752440177
 21
-355.38061518189522
 31
0.0
  0
TEXT
  5
204
  8
NOTE
  6
CONTINUOUS
 62
     4
 10
-683.01311849124363
 20
-402.85678892055319
 30
0.0
 40
40.0
  1
（ダクトフランジ用）
 50
359.99999749558327
 41
0.7
  7
STANDARD1
  0
LINE
  5
205
  8
NOTE
  6
CONTINUOUS
 62
     4
 10
-259.99999999999449
 20
-186.99999999999361
 30
0.0
 11
-366.9395752440177
 21
-355.38061518189522
 31
0.0
  0
TEXT
  5
206
  8
NOTE
  6
CONTINUOUS
 62
     4
 10
-608.65903894663438
 20
-465.62511244811122
 30
0.0
 40
40.0
  1
2×3-%%c3
 50
359.99999749558327
 41
0.7
  7
STANDARD1
  0
LINE
  5
207
  8
NOTE
  6
CONTINUOUS
 62
     4
 10
-618.17549842379992
 20
-473.27746927367662
 30
0.0
 11
-310.14227551622793
 21
-473.27746927367662
 31
0.0
  0
TEXT
  5
208
  8
NOTE
  6
CONTINUOUS
 62
     4
 10
-626.21581876345363
 20
-520.75364301233446
 30
0.0
 40
40.0
  1
（ダクトフランジ用）
 50
359.99999749558327
 41
0.7
  7
STANDARD1
  0
LINE
  5
209
  8
NOTE
  6
CONTINUOUS
 62
     4
 10
-219.99999999999449
 20
-225.0
 30
0.0
 11
-310.14227551622793
 21
-473.27746927367662
 31
0.0
  0
LINE
  5
20A
  8
NOTE
  6
CONTINUOUS
 62
     4
 10
-259.99999999999449
 20
-187.0
 30
0.0
 11
-268.52729814211068
 21
-213.1531828883225
 31
0.0
  0
LINE
  5
20B
  8
NOTE
  6
CONTINUOUS
 62
     4
 10
-259.99999999999449
 20
-187.0
 30
0.0
 11
-280.46144852872652
 21
-205.38567140192021
 31
0.0
  0
LINE
  5
20C
  8
NOTE
  6
CONTINUOUS
 62
     4
 10
-219.99999999998499
 20
-224.9999999999944
 30
0.0
 11
-222.50512801717599
 21
-252.3939431701935
 31
0.0
  0
LINE
  5
20D
  8
NOTE
  6
CONTINUOUS
 62
     4
 10
-219.99999999998499
 20
-224.9999999999944
 30
0.0
 11
-235.86647641508799
 21
-247.47128645543259
 31
0.0
  0
LINE
  5
232
  8
OUTLINE
  6
CONTINUOUS
 62
     3
 10
-288.92716652873872
 20
-281.03103322202151
 30
0.0
 11
-275.00000000000182
 21
-281.37212186826878
 31
0.0
  0
LINE
  5
241
  8
OUTLINE
  6
CONTINUOUS
 62
     3
 10
275.00000068299221
 20
-286.9999995922189
 30
0.0
 11
-274.99999931700768
 21
-286.9999995922189
 31
0.0
  0
LINE
  5
254
  8
DETAIL
  6
CONTINUOUS
 62
     5
 10
-45.221375965263327
 20
-286.99999999999812
 30
0.0
 11
444.77323326809238
 21
-299.00119840049211
 31
0.0
  0
LINE
  5
268
  8
OUTLINE
  6
CONTINUOUS
 62
     3
 10
-45.205203819118417
 20
-286.99999999999812
 30
0.0
 11
444.77323326809238
 21
-299.00000599200212
 31
0.0
  0
ENDSEC
  0
EOF
