  0
SECTION
  2
HEADER
  9
$ACADVER
  1
AC1009
  9
$INSBASE
 10
0.0
 20
0.0
 30
0.0
  9
$EXTMIN
 10
-875.77394418025494
 20
-467.73661804583372
 30
0.0
  9
$EXTMAX
 10
735.17060981924965
 20
579.05382275839816
 30
0.0
  9
$LIMMIN
 10
-4267.1522210604826
 20
-2696.083210198412
  9
$LIMMAX
 10
7190.7174225864646
 20
5141.155363923066
  9
$ORTHOMODE
 70
     0
  9
$REGENMODE
 70
     1
  9
$FILLMODE
 70
     1
  9
$QTEXTMODE
 70
     0
  9
$MIRRTEXT
 70
     0
  9
$DRAGMODE
 70
     2
  9
$LTSCALE
 40
20.0
  9
$OSMODE
 70
   431
  9
$ATTMODE
 70
     1
  9
$TEXTSIZE
 40
361.62496667750372
  9
$TRACEWID
 40
0.05
  9
$TEXTSTYLE
  7
NOTE
  9
$CLAYER
  8
SYMBOLLINE
  9
$CELTYPE
  6
CONTINUOUS
  9
$CECOLOR
 62
     7
  9
$DIMSCALE
 40
1.0
  9
$DIMASZ
 40
20.0
  9
$DIMEXO
 40
10.0
  9
$DIMDLI
 40
80.0
  9
$DIMRND
 40
0.0
  9
$DIMDLE
 40
0.0
  9
$DIMEXE
 40
10.0
  9
$DIMTP
 40
0.0
  9
$DIMTM
 40
0.0
  9
$DIMTXT
 40
40.0
  9
$DIMCEN
 40
0.09
  9
$DIMTSZ
 40
0.0
  9
$DIMTOL
 70
     0
  9
$DIMLIM
 70
     0
  9
$DIMTIH
 70
     0
  9
$DIMTOH
 70
     0
  9
$DIMSE1
 70
     0
  9
$DIMSE2
 70
     0
  9
$DIMTAD
 70
     1
  9
$DIMZIN
 70
     8
  9
$DIMBLK
  1
SMALL
  9
$DIMASO
 70
     1
  9
$DIMSHO
 70
     0
  9
$DIMPOST
  1

  9
$DIMAPOST
  1

  9
$DIMALT
 70
     0
  9
$DIMALTD
 70
     2
  9
$DIMALTF
 40
25.399999999999999
  9
$DIMLFAC
 40
1.0
  9
$DIMTOFL
 70
     1
  9
$DIMTVP
 40
0.0
  9
$DIMTIX
 70
     0
  9
$DIMSOXD
 70
     0
  9
$DIMSAH
 70
     0
  9
$DIMBLK1
  1

  9
$DIMBLK2
  1

  9
$DIMSTYLE
  2
STANDARD
  9
$DIMCLRD
 70
     0
  9
$DIMCLRE
 70
     0
  9
$DIMCLRT
 70
     0
  9
$DIMTFAC
 40
1.0
  9
$DIMGAP
 40
0.09
  9
$LUNITS
 70
     2
  9
$LUPREC
 70
     4
  9
$SKETCHINC
 40
0.1
  9
$FILLETRAD
 40
30.0
  9
$AUNITS
 70
     1
  9
$AUPREC
 70
     3
  9
$MENU
  1
ACAD
  9
$ELEVATION
 40
0.0
  9
$PELEVATION
 40
0.0
  9
$THICKNESS
 40
0.0
  9
$LIMCHECK
 70
     0
  9
$BLIPMODE
 70
     0
  9
$CHAMFERA
 40
0.0
  9
$CHAMFERB
 40
0.0
  9
$SKPOLY
 70
     0
  9
$TDCREATE
 40
2450330.4399309959
  9
$TDUPDATE
 40
2455244.468463738
  9
$TDINDWG
 40
5.0732176620000002
  9
$TDUSRTIMER
 40
5.0732156828999999
  9
$USRTIMER
 70
     1
  9
$ANGBASE
 50
0.0
  9
$ANGDIR
 70
     0
  9
$PDMODE
 70
     3
  9
$PDSIZE
 40
-2.0
  9
$PLINEWID
 40
0.0
  9
$COORDS
 70
     0
  9
$SPLFRAME
 70
     0
  9
$SPLINETYPE
 70
     6
  9
$SPLINESEGS
 70
     8
  9
$ATTDIA
 70
     0
  9
$ATTREQ
 70
     1
  9
$HANDLING
 70
     1
  9
$HANDSEED
  5
252
  9
$SURFTAB1
 70
     6
  9
$SURFTAB2
 70
     6
  9
$SURFTYPE
 70
     6
  9
$SURFU
 70
     6
  9
$SURFV
 70
     6
  9
$UCSNAME
  2

  9
$UCSORG
 10
0.0
 20
0.0
 30
0.0
  9
$UCSXDIR
 10
1.0
 20
0.0
 30
0.0
  9
$UCSYDIR
 10
0.0
 20
1.0
 30
0.0
  9
$PUCSNAME
  2

  9
$PUCSORG
 10
0.0
 20
0.0
 30
0.0
  9
$PUCSXDIR
 10
1.0
 20
0.0
 30
0.0
  9
$PUCSYDIR
 10
0.0
 20
1.0
 30
0.0
  9
$USERI1
 70
     0
  9
$USERI2
 70
     0
  9
$USERI3
 70
     0
  9
$USERI4
 70
     0
  9
$USERI5
 70
     0
  9
$USERR1
 40
20.0
  9
$USERR2
 40
0.0
  9
$USERR3
 40
0.0
  9
$USERR4
 40
0.0
  9
$USERR5
 40
0.0
  9
$WORLDVIEW
 70
     1
  9
$SHADEDGE
 70
     3
  9
$SHADEDIF
 70
    70
  9
$TILEMODE
 70
     1
  9
$MAXACTVP
 70
    64
  9
$PLIMCHECK
 70
     0
  9
$PEXTMIN
 10
1.0000000000000000E+020
 20
1.0000000000000000E+020
 30
1.0000000000000000E+020
  9
$PEXTMAX
 10
-1.0000000000000000E+020
 20
-1.0000000000000000E+020
 30
-1.0000000000000000E+020
  9
$PLIMMIN
 10
0.0
 20
0.0
  9
$PLIMMAX
 10
12.0
 20
9.0
  9
$UNITMODE
 70
     0
  9
$VISRETAIN
 70
     1
  9
$PLINEGEN
 70
     0
  9
$PSLTSCALE
 70
     1
  0
ENDSEC
  0
SECTION
  2
TABLES
  0
TABLE
  2
VPORT
 70
     1
  0
VPORT
  2
*ACTIVE
 70
     0
 10
0.0
 20
0.0
 11
1.0
 21
1.0
 12
1461.782600762991
 22
1222.536076862327
 13
0.0
 23
0.0
 14
50.0
 24
50.0
 15
100.0
 25
100.0
 16
0.0
 26
0.0
 36
1.0
 17
0.0
 27
0.0
 37
0.0
 40
7896.6866543297328
 41
1.548101265822784
 42
50.0
 43
0.0
 44
0.0
 50
0.0
 51
0.0
 71
     0
 72
  1000
 73
     1
 74
     0
 75
     0
 76
     0
 77
     0
 78
     0
  0
ENDTAB
  0
TABLE
  2
LTYPE
 70
     3
  0
LTYPE
  2
CONTINUOUS
 70
     0
  3
実線
 72
    65
 73
     0
 40
0.0
  0
LTYPE
  2
DASHDOT
 70
     0
  3
____ _ ____ _ ____ _ ____ _ ____ _ ____ _ ____
 72
    65
 73
     4
 40
5.5
 49
4.0
 49
-0.6
 49
0.3
 49
-0.6
  0
ENDTAB
  0
TABLE
  2
LAYER
 70
    12
  0
LAYER
  2
0
 70
     0
 62
     7
  6
CONTINUOUS
  0
LAYER
  2
NOTE
 70
     0
 62
     4
  6
CONTINUOUS
  0
LAYER
  2
OUTLINE
 70
     0
 62
     3
  6
CONTINUOUS
  0
LAYER
  2
DETAIL
 70
     0
 62
     5
  6
CONTINUOUS
  0
LAYER
  2
BASIS
 70
     0
 62
     6
  6
DASHDOT
  0
LAYER
  2
SIZE
 70
     0
 62
    30
  6
CONTINUOUS
  0
LAYER
  2
ARRANGE
 70
     0
 62
     1
  6
CONTINUOUS
  0
LAYER
  2
FIX
 70
     0
 62
    11
  6
CONTINUOUS
  0
LAYER
  2
SERVICESPACE
 70
     0
 62
     2
  6
DASHDOT
  0
LAYER
  2
ETC
 70
     0
 62
    61
  6
CONTINUOUS
  0
LAYER
  2
SYMBOLLINE
 70
     0
 62
    15
  6
CONTINUOUS
  0
LAYER
  2
DEFPOINTS
 70
     0
 62
     7
  6
CONTINUOUS
  0
ENDTAB
  0
TABLE
  2
STYLE
 70
     4
  0
STYLE
  2
STANDARD
 70
     0
 40
0.0
 41
0.9
 50
0.0
 71
     0
 42
64.0
  3
SIMPLEX
  4
BIGFONT
  0
STYLE
  2
ANNOTATIVE
 70
     0
 40
0.0
 41
1.0
 50
0.0
 71
     0
 42
0.2
  3
txt
  4

  0
STYLE
  2
NOTE
 70
     0
 40
0.0
 41
0.7
 50
0.0
 71
     0
 42
361.62496667750372
  3
SIMPLEX.shx
  4
BIGFONT.shx
  0
STYLE
  2
STANDARD1
 70
     0
 40
0.0
 41
1.0
 50
0.0
 71
     0
 42
64.0
  3
MONOTXT
  4
BIGFONT
  0
ENDTAB
  0
TABLE
  2
VIEW
 70
     5
  0
VIEW
  2
ALL
 70
     0
 40
9000.0
 10
241.50664699999999
 20
0.0
 41
12483.01
 11
0.0
 21
0.0
 31
1.0
 12
0.0
 22
0.0
 32
0.0
 42
50.0
 43
0.0
 44
0.0
 50
0.0
 71
     0
  0
ENDTAB
  0
TABLE
  2
UCS
 70
     0
  0
ENDTAB
  0
TABLE
  2
APPID
 70
     3
  0
APPID
  2
ACAD
 70
     0
  0
APPID
  2
ACADANNOTATIVE
 70
     0
  0
APPID
  2
ACAD_MLEADERVER
 70
     0
  0
ENDTAB
  0
TABLE
  2
DIMSTYLE
 70
     3
  0
DIMSTYLE
  2
STANDARD
 70
     0
  3

  4

  5

  6

  7

 40
1.0
 41
0.18
 42
0.0625
 43
0.38
 44
0.18
 45
0.0
 46
0.0
 47
0.0
 48
0.0
140
0.18
141
0.09
142
0.0
143
25.399999999999999
144
1.0
145
0.0
146
1.0
147
0.09
 71
     0
 72
     0
 73
     1
 74
     1
 75
     0
 76
     0
 77
     0
 78
     0
170
     0
171
     2
172
     0
173
     0
174
     0
175
     0
176
     0
177
     0
178
     0
  0
DIMSTYLE
  2
ANNOTATIVE
 70
     0
  3

  4

  5

  6

  7

 40
1.0
 41
0.18
 42
0.0625
 43
0.38
 44
0.18
 45
0.0
 46
0.0
 47
0.0
 48
0.0
140
0.18
141
0.09
142
0.0
143
25.399999999999999
144
1.0
145
0.0
146
1.0
147
0.09
 71
     0
 72
     0
 73
     1
 74
     1
 75
     0
 76
     0
 77
     0
 78
     0
170
     0
171
     2
172
     0
173
     0
174
     0
175
     0
176
     0
177
     0
178
     0
  0
ENDTAB
  0
ENDSEC
  0
SECTION
  2
BLOCKS
  0
BLOCK
  8
0
  2
$MODEL_SPACE
 70
     0
 10
0.0
 20
0.0
 30
0.0
  3
$MODEL_SPACE
  1

  0
ENDBLK
  5
76
  8
0
  0
BLOCK
 67
     1
  8
0
  2
$PAPER_SPACE
 70
     0
 10
0.0
 20
0.0
 30
0.0
  3
$PAPER_SPACE
  1

  0
ENDBLK
  5
72
 67
     1
  8
0
  0
BLOCK
  8
0
  2
_SMALL
 70
     0
 10
0.0
 20
0.0
 30
0.0
  3
_SMALL
  1

  0
CIRCLE
  5
8D
  8
0
  6
CONTINUOUS
 62
     7
 10
0.0
 20
0.0
 30
0.0
 40
0.25
  0
ENDBLK
  5
8E
  8
0
  0
ENDSEC
  0
SECTION
  2
ENTITIES
  0
LINE
  5
8F
  8
DETAIL
  6
CONTINUOUS
 62
     5
 10
304.98581715062221
 20
268.28231932819801
 30
0.0
 11
-306.04110750161271
 21
268.28231932819801
 31
0.0
  0
LINE
  5
90
  8
DETAIL
  6
CONTINUOUS
 62
     5
 10
307.9818183807655
 20
250.97366522934499
 30
0.0
 11
-309.03448423467307
 21
250.97366522934499
 31
0.0
  0
LINE
  5
91
  8
DETAIL
  6
CONTINUOUS
 62
     5
 10
-334.99999999999989
 20
269.99999999999972
 30
0.0
 11
335.00000000000182
 21
269.99999999999972
 31
0.0
  0
LINE
  5
92
  8
DETAIL
  6
CONTINUOUS
 62
     5
 10
305.9835095282632
 20
-230.05331493407169
 30
0.0
 11
-307.03812278297482
 21
-230.05331493407169
 31
0.0
  0
LINE
  5
93
  8
DETAIL
  6
CONTINUOUS
 62
     5
 10
335.00000000000182
 20
-240.0
 30
0.0
 11
-334.99999999999989
 21
-240.0
 31
0.0
  0
LINE
  5
94
  8
DETAIL
  6
CONTINUOUS
 62
     5
 10
-305.0
 20
-270.0
 30
0.0
 11
305.00000000000182
 21
-270.0
 31
0.0
  0
LINE
  5
95
  8
DETAIL
  6
CONTINUOUS
 62
     5
 10
305.0
 20
65.752252682306903
 30
0.0
 11
-305.0
 21
65.752252682306903
 31
0.0
  0
LINE
  5
96
  8
DETAIL
  6
CONTINUOUS
 62
     5
 10
305.0
 20
57.762912073916027
 30
0.0
 11
-305.0
 21
57.762912073916027
 31
0.0
  0
LINE
  5
97
  8
DETAIL
  6
CONTINUOUS
 62
     5
 10
305.0
 20
-31.118455756359019
 30
0.0
 11
-305.0
 21
-31.118455756359019
 31
0.0
  0
LINE
  5
98
  8
DETAIL
  6
CONTINUOUS
 62
     5
 10
305.0
 20
-23.12912113997276
 30
0.0
 11
-305.0
 21
-23.12912113997276
 31
0.0
  0
LINE
  5
99
  8
DETAIL
  6
CONTINUOUS
 62
     5
 10
305.0
 20
-15.13978053158268
 30
0.0
 11
-305.0
 21
-15.13978053158268
 31
0.0
  0
LINE
  5
9A
  8
DETAIL
  6
CONTINUOUS
 62
     5
 10
305.0
 20
49.773577457530003
 30
0.0
 11
-305.0
 21
49.773577457530003
 31
0.0
  0
LINE
  5
9B
  8
DETAIL
  6
CONTINUOUS
 62
     5
 10
-355.97145135477518
 20
166.45861873000291
 30
0.0
 11
-355.97145135477518
 21
80.972714965893942
 31
0.0
  0
LINE
  5
9C
  8
DETAIL
  6
CONTINUOUS
 62
     5
 10
-330.00649284568129
 20
80.732258833027913
 30
0.0
 11
-330.00649284568129
 21
183.39562180212289
 31
0.0
  0
LINE
  5
9D
  8
DETAIL
  6
CONTINUOUS
 62
     5
 10
-334.99999999999989
 20
269.99999999999972
 30
0.0
 11
-334.99999999999989
 21
-240.0
 31
0.0
  0
LINE
  5
9E
  8
DETAIL
  6
CONTINUOUS
 62
     5
 10
-503.77456419403649
 20
-7.9090483365488353
 30
0.0
 11
-503.77456419403649
 21
-257.57581951255071
 31
0.0
  0
LINE
  5
9F
  8
DETAIL
  6
CONTINUOUS
 62
     5
 10
-514.75990603257196
 20
-7.9090483365488353
 30
0.0
 11
-514.75990603257196
 21
-257.57581951255071
 31
0.0
  0
LINE
  5
A1
  8
DETAIL
  6
CONTINUOUS
 62
     5
 10
-330.00649284568129
 20
-194.89985434022671
 30
0.0
 11
-330.00649284568129
 21
-46.098461907080363
 31
0.0
  0
LINE
  5
A2
  8
DETAIL
  6
CONTINUOUS
 62
     5
 10
-305.0
 20
-257.57581951255071
 30
0.0
 11
-514.75990603257196
 21
-257.57581951255071
 31
0.0
  0
LINE
  5
A3
  8
DETAIL
  6
CONTINUOUS
 62
     5
 10
-503.77456419403649
 20
-246.59048366602079
 30
0.0
 11
-305.0
 21
-246.59048366602079
 31
0.0
  0
LINE
  5
A4
  8
DETAIL
  6
CONTINUOUS
 62
     5
 10
-514.75990603257196
 20
-119.4181257593462
 30
0.0
 11
-543.02265570117743
 21
-119.4181257593462
 31
0.0
  0
LINE
  5
A5
  8
DETAIL
  6
CONTINUOUS
 62
     5
 10
-514.75990603257196
 20
-146.58186824864779
 30
0.0
 11
-543.02265570117743
 21
-146.58186824864779
 31
0.0
  0
LINE
  5
A6
  8
DETAIL
  6
CONTINUOUS
 62
     5
 10
-543.02265570117743
 20
-119.4181257593462
 30
0.0
 11
-559.99999999999966
 21
-120.9272175709792
 31
0.0
  0
LINE
  5
A7
  8
DETAIL
  6
CONTINUOUS
 62
     5
 10
-559.99999999999966
 20
-145.0727764370275
 30
0.0
 11
-543.02265570117743
 21
-146.58186824864779
 31
0.0
  0
LINE
  5
A8
  8
DETAIL
  6
CONTINUOUS
 62
     5
 10
-559.99999999999966
 20
-120.9272175709792
 30
0.0
 11
-559.99999999999966
 21
-145.0727764370275
 31
0.0
  0
LINE
  5
A9
  8
DETAIL
  6
CONTINUOUS
 62
     5
 10
-543.02265570117743
 20
-119.4181257593462
 30
0.0
 11
-543.02265570117743
 21
-146.58186824864779
 31
0.0
  0
LINE
  5
AA
  8
DETAIL
  6
CONTINUOUS
 62
     5
 10
-305.0
 20
-240.0
 30
0.0
 11
-305.0
 21
-270.0
 31
0.0
  0
LINE
  5
AB
  8
DETAIL
  6
CONTINUOUS
 62
     5
 10
-310.03412401311817
 20
-233.0493161642151
 30
0.0
 11
-327.01146231993692
 21
-233.0493161642151
 31
0.0
  0
LINE
  5
AC
  8
DETAIL
  6
CONTINUOUS
 62
     5
 10
-309.03448423467307
 20
-197.89585557037009
 30
0.0
 11
-327.01049161553777
 21
-197.89585557037009
 31
0.0
  0
ARC
  5
AD
  8
DETAIL
  6
CONTINUOUS
 62
     5
 10
-319.99999999999989
 20
-220.00932846566309
 30
0.0
 40
7.0
 50
180.0
 51
0.0
  0
ARC
  5
AE
  8
DETAIL
  6
CONTINUOUS
 62
     5
 10
-319.99999999999989
 20
-211.99067153433671
 30
0.0
 40
7.0
 50
0.0
 51
180.0
  0
LINE
  5
AF
  8
DETAIL
  6
CONTINUOUS
 62
     5
 10
-330.00746355008232
 20
-236.04531739435879
 30
0.0
 11
-330.00746355008232
 21
-240.0
 31
0.0
  0
ARC
  5
B0
  8
DETAIL
  6
CONTINUOUS
 62
     5
 10
-327.01146231993692
 20
-236.04531739435879
 30
0.0
 40
2.9960012301440591
 50
90.0
 51
180.0
  0
ARC
  5
B1
  8
DETAIL
  6
CONTINUOUS
 62
     5
 10
-327.01049161553777
 20
-194.89985434022671
 30
0.0
 40
2.9960012301440591
 50
180.0
 51
270.0
  0
LINE
  5
B2
  8
DETAIL
  6
CONTINUOUS
 62
     5
 10
-326.99999999999989
 20
-211.99067153433671
 30
0.0
 11
-326.99999999999989
 21
-220.00932846566309
 31
0.0
  0
LINE
  5
B3
  8
NOTE
  6
CONTINUOUS
 62
     4
 10
-319.99999999999989
 20
-230.41672496343921
 30
0.0
 11
-319.99999999999989
 21
-201.58327503656071
 31
0.0
  0
LINE
  5
B4
  8
DETAIL
  6
CONTINUOUS
 62
     5
 10
-309.03448423467307
 20
-230.81535983096529
 30
0.0
 11
-309.03448423467307
 21
-197.89585557037009
 31
0.0
  0
ARC
  5
B5
  8
DETAIL
  6
CONTINUOUS
 62
     5
 10
-307.03812278297482
 20
-233.0493161642151
 30
0.0
 40
2.9960012301440591
 50
90.0
 51
180.0
  0
LINE
  5
B6
  8
DETAIL
  6
CONTINUOUS
 62
     5
 10
-312.99999999999989
 20
-211.99067153433671
 30
0.0
 11
-312.99999999999989
 21
-220.00932846566309
 31
0.0
  0
LINE
  5
B7
  8
DETAIL
  6
CONTINUOUS
 62
     5
 10
-336.99714640401169
 20
-142.51532662043971
 30
0.0
 11
-336.99714640401169
 21
-165.484673379551
 31
0.0
  0
LINE
  5
B8
  8
DETAIL
  6
CONTINUOUS
 62
     5
 10
-341.99047979025443
 20
-142.51532662043971
 30
0.0
 11
-341.99047979025443
 21
-165.484673379551
 31
0.0
  0
LINE
  5
B9
  8
DETAIL
  6
CONTINUOUS
 62
     5
 10
-342.9891488643006
 20
-143.5139956944968
 30
0.0
 11
-342.9891488643006
 21
-164.48600430550479
 31
0.0
  0
ARC
  5
BA
  8
DETAIL
  6
CONTINUOUS
 62
     5
 10
-341.99047979025443
 20
-164.48600430550479
 30
0.0
 40
0.9986690740488408
 50
180.0000180000122
 51
270.0
  0
ARC
  5
BB
  8
DETAIL
  6
CONTINUOUS
 62
     5
 10
-338.99447856011102
 20
-158.49400184521781
 30
0.0
 40
6.9906715343369612
 50
286.60153000001912
 51
304.84799815903261
  0
LINE
  5
BC
  8
DETAIL
  6
CONTINUOUS
 62
     5
 10
-341.99047979025443
 20
-165.484673379551
 30
0.0
 11
-336.99714640401169
 21
-165.484673379551
 31
0.0
  0
ARC
  5
BD
  8
DETAIL
  6
CONTINUOUS
 62
     5
 10
-338.99447856011102
 20
-149.5059981547854
 30
0.0
 40
6.9906715343369612
 50
55.152001840967337
 51
73.398468999972053
  0
ARC
  5
BE
  8
DETAIL
  6
CONTINUOUS
 62
     5
 10
-341.99047979025443
 20
-143.5139956944968
 30
0.0
 40
0.9986690740488408
 50
90.0
 51
180.0000180000122
  0
LINE
  5
BF
  8
DETAIL
  6
CONTINUOUS
 62
     5
 10
-341.99047979025443
 20
-142.51532662043971
 30
0.0
 11
-336.99714640401169
 21
-142.51532662043971
 31
0.0
  0
LINE
  5
C0
  8
DETAIL
  6
CONTINUOUS
 62
     5
 10
-334.99983222392802
 20
-7.9090483365488353
 30
0.0
 11
-514.75990603257196
 21
-7.9090483365488353
 31
0.0
  0
LINE
  5
C1
  8
DETAIL
  6
CONTINUOUS
 62
     5
 10
-503.77456419403649
 20
-18.89439017507345
 30
0.0
 11
-334.99983222392802
 21
-18.89439017507345
 31
0.0
  0
LINE
  5
C2
  8
DETAIL
  6
CONTINUOUS
 62
     5
 10
-330.00649284568129
 20
-0.1597743808632686
 30
0.0
 11
-330.00649284568129
 21
34.793571306808978
 31
0.0
  0
LINE
  5
C3
  8
DETAIL
  6
CONTINUOUS
 62
     5
 10
-327.01049161553777
 20
-43.10246067693673
 30
0.0
 11
-305.0
 21
-43.10246067693673
 31
0.0
  0
LINE
  5
C4
  8
DETAIL
  6
CONTINUOUS
 62
     5
 10
-305.0
 20
-3.1557756110069022
 30
0.0
 11
-327.01049161553777
 21
-3.1557756110069022
 31
0.0
  0
ARC
  5
C5
  8
DETAIL
  6
CONTINUOUS
 62
     5
 10
-327.01049161553777
 20
-46.098461907080363
 30
0.0
 40
2.9960012301440591
 50
90.0
 51
180.0
  0
ARC
  5
C6
  8
DETAIL
  6
CONTINUOUS
 62
     5
 10
-327.01049161553777
 20
-0.1597743808632686
 30
0.0
 40
2.9960012301440591
 50
180.0
 51
270.0
  0
LINE
  5
C7
  8
DETAIL
  6
CONTINUOUS
 62
     5
 10
-305.0
 20
-3.1557756110069022
 30
0.0
 11
-305.0
 21
-43.10246067693673
 31
0.0
  0
LINE
  5
C8
  8
DETAIL
  6
CONTINUOUS
 62
     5
 10
-305.0
 20
77.736257602881892
 30
0.0
 11
-327.01049161553777
 21
77.736257602881892
 31
0.0
  0
LINE
  5
C9
  8
DETAIL
  6
CONTINUOUS
 62
     5
 10
-305.0
 20
37.789572536952051
 30
0.0
 11
-327.01049161553777
 21
37.789572536952051
 31
0.0
  0
ARC
  5
CA
  8
DETAIL
  6
CONTINUOUS
 62
     5
 10
-327.01049161553777
 20
34.793571306808978
 30
0.0
 40
2.9960012301440591
 50
90.0
 51
180.0
  0
LINE
  5
CB
  8
DETAIL
  6
CONTINUOUS
 62
     5
 10
-355.97145135477518
 20
80.972714965893942
 30
0.0
 11
-334.99999999999989
 21
80.972714965893942
 31
0.0
  0
LINE
  5
CC
  8
DETAIL
  6
CONTINUOUS
 62
     5
 10
-341.49075277706282
 20
80.972714965893942
 30
0.0
 11
-341.49075277706282
 21
80.273436294765943
 31
0.0
  0
LINE
  5
CD
  8
DETAIL
  6
CONTINUOUS
 62
     5
 10
-334.99999999999989
 20
77.277435064622864
 30
0.0
 11
-342.489421851109
 21
77.277435064622864
 31
0.0
  0
LINE
  5
CE
  8
DETAIL
  6
CONTINUOUS
 62
     5
 10
-334.99999999999989
 20
80.273436294765943
 30
0.0
 11
-344.48675400720629
 21
80.273436294765943
 31
0.0
  0
ARC
  5
CF
  8
DETAIL
  6
CONTINUOUS
 62
     5
 10
-342.489421851109
 20
79.274767220720037
 30
0.0
 40
1.99733215609522
 50
180.0
 51
270.0
  0
LINE
  5
D0
  8
DETAIL
  6
CONTINUOUS
 62
     5
 10
-344.48675400720629
 20
80.273436294765943
 30
0.0
 11
-344.48675400720629
 21
79.274767220720037
 31
0.0
  0
ARC
  5
D1
  8
DETAIL
  6
CONTINUOUS
 62
     5
 10
-327.01049161553777
 20
80.732258833027913
 30
0.0
 40
2.9960012301440591
 50
180.0
 51
270.0
  0
LINE
  5
D2
  8
DETAIL
  6
CONTINUOUS
 62
     5
 10
-305.0
 20
77.736257602881892
 30
0.0
 11
-305.0
 21
37.789572536952051
 31
0.0
  0
LINE
  5
D3
  8
DETAIL
  6
CONTINUOUS
 62
     5
 10
69.459363141120775
 20
-270.0
 30
0.0
 11
49.486023604167713
 21
-270.0
 31
0.0
  0
LINE
  5
D5
  8
DETAIL
  6
CONTINUOUS
 62
     5
 10
-309.03448423467307
 20
186.39162303226601
 30
0.0
 11
-309.03448423467307
 21
265.41159289349099
 31
0.0
  0
LINE
  5
D6
  8
DETAIL
  6
CONTINUOUS
 62
     5
 10
-327.01049161553777
 20
186.39162303226601
 30
0.0
 11
-309.03448423467307
 21
186.39162303226601
 31
0.0
  0
LINE
  5
D7
  8
DETAIL
  6
CONTINUOUS
 62
     5
 10
-355.97145135477518
 20
166.45861873000291
 30
0.0
 11
-334.99999999999989
 21
166.45861873000291
 31
0.0
  0
LINE
  5
D8
  8
DETAIL
  6
CONTINUOUS
 62
     5
 10
-341.49075277706282
 20
166.45861873000291
 30
0.0
 11
-341.49075277706282
 21
167.1578974011189
 31
0.0
  0
LINE
  5
D9
  8
DETAIL
  6
CONTINUOUS
 62
     5
 10
-344.48675400720629
 20
167.1578974011189
 30
0.0
 11
-344.48675400720629
 21
168.15656647516479
 31
0.0
  0
ARC
  5
DA
  8
DETAIL
  6
CONTINUOUS
 62
     5
 10
-342.489421851109
 20
168.15656647516479
 30
0.0
 40
1.99733215609522
 50
90.0
 51
180.0
  0
LINE
  5
DB
  8
DETAIL
  6
CONTINUOUS
 62
     5
 10
-334.99999999999989
 20
167.1578974011189
 30
0.0
 11
-344.48675400720629
 21
167.1578974011189
 31
0.0
  0
LINE
  5
DC
  8
DETAIL
  6
CONTINUOUS
 62
     5
 10
-334.99999999999989
 20
170.15389863126401
 30
0.0
 11
-342.489421851109
 21
170.15389863126401
 31
0.0
  0
ARC
  5
DD
  8
DETAIL
  6
CONTINUOUS
 62
     5
 10
-327.01049161553777
 20
183.39562180212289
 30
0.0
 40
2.9960012301440591
 50
90.0
 51
180.0
  0
LINE
  5
DE
  8
DETAIL
  6
CONTINUOUS
 62
     5
 10
-309.03448423467307
 20
253.30192968931999
 30
0.0
 11
-327.01049161553777
 21
253.30192968931999
 31
0.0
  0
LINE
  5
DF
  8
DETAIL
  6
CONTINUOUS
 62
     5
 10
-330.00649284568129
 20
269.99999999999972
 30
0.0
 11
-330.00649284568129
 21
256.29793091946482
 31
0.0
  0
ARC
  5
E0
  8
DETAIL
  6
CONTINUOUS
 62
     5
 10
-327.01049161553777
 20
256.29793091946482
 30
0.0
 40
2.9960012301440591
 50
180.0
 51
270.0
  0
ARC
  5
E1
  8
DETAIL
  6
CONTINUOUS
 62
     5
 10
-306.04110750161271
 20
265.2863180980529
 30
0.0
 40
2.9960012301440591
 50
90.0
 51
177.60357000001321
  0
LINE
  5
E2
  8
DETAIL
  6
CONTINUOUS
 62
     5
 10
335.00000000000182
 20
269.99999999999972
 30
0.0
 11
335.00000000000182
 21
-240.0
 31
0.0
  0
LINE
  5
E3
  8
DETAIL
  6
CONTINUOUS
 62
     5
 10
330.0
 20
80.732258833027913
 30
0.0
 11
330.0
 21
183.39562180212289
 31
0.0
  0
LINE
  5
E4
  8
DETAIL
  6
CONTINUOUS
 62
     5
 10
349.01465816146617
 20
-7.9090483365488353
 30
0.0
 11
349.01465816146617
 21
-257.57581951255071
 31
0.0
  0
LINE
  5
E5
  8
DETAIL
  6
CONTINUOUS
 62
     5
 10
360.0
 20
-7.9090483365488353
 30
0.0
 11
360.0
 21
-257.57581951255071
 31
0.0
  0
LINE
  5
E6
  8
DETAIL
  6
CONTINUOUS
 62
     5
 10
330.0
 20
-194.89985434022671
 30
0.0
 11
330.0
 21
-46.098461907080363
 31
0.0
  0
LINE
  5
E7
  8
DETAIL
  6
CONTINUOUS
 62
     5
 10
305.00000000000182
 20
-240.0
 30
0.0
 11
305.00000000000182
 21
-270.0
 31
0.0
  0
LINE
  5
E8
  8
DETAIL
  6
CONTINUOUS
 62
     5
 10
360.0
 20
-257.57581951255071
 30
0.0
 11
305.00000000000182
 21
-257.57581951255071
 31
0.0
  0
LINE
  5
E9
  8
DETAIL
  6
CONTINUOUS
 62
     5
 10
305.00000000000182
 20
-246.59048366602079
 30
0.0
 11
349.01465816146617
 21
-246.59048366602079
 31
0.0
  0
LINE
  5
EA
  8
DETAIL
  6
CONTINUOUS
 62
     5
 10
307.9818183807655
 20
-230.8170975116771
 30
0.0
 11
307.9818183807655
 21
-197.89585557037009
 31
0.0
  0
LINE
  5
EB
  8
DETAIL
  6
CONTINUOUS
 62
     5
 10
325.95685505722918
 20
-233.0493161642151
 30
0.0
 11
308.97951075840678
 21
-233.0493161642151
 31
0.0
  0
ARC
  5
EC
  8
DETAIL
  6
CONTINUOUS
 62
     5
 10
305.9835095282632
 20
-233.0493161642151
 30
0.0
 40
2.9960012301440591
 50
0.0
 51
90.0
  0
LINE
  5
ED
  8
DETAIL
  6
CONTINUOUS
 62
     5
 10
328.95285628737457
 20
-238.84158720649791
 30
0.0
 11
328.95285628737457
 21
-240.0
 31
0.0
  0
LINE
  5
EE
  8
DETAIL
  6
CONTINUOUS
 62
     5
 10
328.95285628737457
 20
-240.0
 30
0.0
 11
328.95285628737457
 21
-236.04531739435879
 31
0.0
  0
ARC
  5
EF
  8
DETAIL
  6
CONTINUOUS
 62
     5
 10
325.95685505722918
 20
-236.04531739435879
 30
0.0
 40
2.9960012301440591
 50
0.0
 51
90.0
  0
LINE
  5
F0
  8
DETAIL
  6
CONTINUOUS
 62
     5
 10
307.9818183807655
 20
-197.89585557037009
 30
0.0
 11
327.00399876985631
 21
-197.89585557037009
 31
0.0
  0
ARC
  5
F1
  8
DETAIL
  6
CONTINUOUS
 62
     5
 10
327.00399876985631
 20
-194.89985434022671
 30
0.0
 40
2.9960012301440591
 50
270.0
 51
0.0
  0
LINE
  5
F2
  8
DETAIL
  6
CONTINUOUS
 62
     5
 10
330.0
 20
-0.1597743808632686
 30
0.0
 11
330.0
 21
34.793571306808978
 31
0.0
  0
LINE
  5
F3
  8
DETAIL
  6
CONTINUOUS
 62
     5
 10
335.00000000000182
 20
-18.89439017507345
 30
0.0
 11
349.01465816146617
 21
-18.89439017507345
 31
0.0
  0
LINE
  5
F4
  8
DETAIL
  6
CONTINUOUS
 62
     5
 10
360.0
 20
-7.9090483365488353
 30
0.0
 11
335.00000000000182
 21
-7.9090483365488353
 31
0.0
  0
LINE
  5
F5
  8
DETAIL
  6
CONTINUOUS
 62
     5
 10
305.0
 20
-43.10246067693673
 30
0.0
 11
305.0
 21
-3.1557756110069022
 31
0.0
  0
LINE
  5
F6
  8
DETAIL
  6
CONTINUOUS
 62
     5
 10
327.00399876985631
 20
-43.10246067693673
 30
0.0
 11
305.0
 21
-43.10246067693673
 31
0.0
  0
ARC
  5
F7
  8
DETAIL
  6
CONTINUOUS
 62
     5
 10
327.00399876985631
 20
-46.098461907080363
 30
0.0
 40
2.9960012301440591
 50
0.0
 51
90.0
  0
LINE
  5
F8
  8
DETAIL
  6
CONTINUOUS
 62
     5
 10
305.0
 20
-3.1557756110069022
 30
0.0
 11
327.00399876985631
 21
-3.1557756110069022
 31
0.0
  0
ARC
  5
F9
  8
DETAIL
  6
CONTINUOUS
 62
     5
 10
327.00399876985631
 20
-0.1597743808632686
 30
0.0
 40
2.9960012301440591
 50
270.0
 51
0.0
  0
LINE
  5
FA
  8
DETAIL
  6
CONTINUOUS
 62
     5
 10
305.0
 20
37.789572536952051
 30
0.0
 11
305.0
 21
77.736257602881892
 31
0.0
  0
LINE
  5
FB
  8
DETAIL
  6
CONTINUOUS
 62
     5
 10
305.0
 20
37.789572536952051
 30
0.0
 11
327.00399876985631
 21
37.789572536952051
 31
0.0
  0
ARC
  5
FC
  8
DETAIL
  6
CONTINUOUS
 62
     5
 10
327.00399876985631
 20
34.793571306808978
 30
0.0
 40
2.9960012301440591
 50
0.0
 51
90.0
  0
LINE
  5
FD
  8
DETAIL
  6
CONTINUOUS
 62
     5
 10
305.0
 20
77.736257602881892
 30
0.0
 11
327.00399876985631
 21
77.736257602881892
 31
0.0
  0
ARC
  5
FE
  8
DETAIL
  6
CONTINUOUS
 62
     5
 10
327.00399876985631
 20
80.732258833027913
 30
0.0
 40
2.9960012301440591
 50
270.0
 51
0.0
  0
LINE
  5
FF
  8
DETAIL
  6
CONTINUOUS
 62
     5
 10
307.9818183807655
 20
186.39162303226601
 30
0.0
 11
307.9818183807655
 21
265.2863180980529
 31
0.0
  0
LINE
  5
100
  8
DETAIL
  6
CONTINUOUS
 62
     5
 10
327.00399876985631
 20
186.39162303226601
 30
0.0
 11
307.9818183807655
 21
186.39162303226601
 31
0.0
  0
ARC
  5
101
  8
DETAIL
  6
CONTINUOUS
 62
     5
 10
327.00399876985631
 20
183.39562180212289
 30
0.0
 40
2.9960012301440591
 50
0.0
 51
90.0
  0
LINE
  5
102
  8
DETAIL
  6
CONTINUOUS
 62
     5
 10
328.95382699177389
 20
269.99999999999972
 30
0.0
 11
328.95382699177389
 21
256.29793091946482
 31
0.0
  0
LINE
  5
103
  8
DETAIL
  6
CONTINUOUS
 62
     5
 10
307.9818183807655
 20
253.30192968931999
 30
0.0
 11
325.95782576163032
 21
253.30192968931999
 31
0.0
  0
ARC
  5
104
  8
DETAIL
  6
CONTINUOUS
 62
     5
 10
325.95782576163032
 20
256.29793091946482
 30
0.0
 40
2.9960012301440591
 50
270.0
 51
0.0
  0
ARC
  5
105
  8
DETAIL
  6
CONTINUOUS
 62
     5
 10
304.98581715062221
 20
265.2863180980529
 30
0.0
 40
2.9960012301440591
 50
0.0
 51
90.0
  0
LINE
  5
106
  8
NOTE
  6
CONTINUOUS
 62
     4
 10
-559.99999999999966
 20
-117.4207936032488
 30
0.0
 11
-559.99999999999966
 21
-148.57920639674001
 31
0.0
  0
LINE
  5
107
  8
NOTE
  6
CONTINUOUS
 62
     4
 10
-544.42079360324885
 20
-132.99999999999969
 30
0.0
 11
-575.57920639675285
 21
-132.99999999999969
 31
0.0
  0
LINE
  5
108
  8
NOTE
  6
CONTINUOUS
 62
     4
 10
-305.58327503656062
 20
-216.0
 30
0.0
 11
-334.41672496343909
 21
-216.0
 31
0.0
  0
CIRCLE
  5
109
  8
FIX
  6
CONTINUOUS
 62
    11
 10
-319.99999999999989
 20
-216.0
 30
0.0
 40
12.55406000627733
  0
LINE
  5
10A
  8
NOTE
  6
CONTINUOUS
 62
     4
 10
-319.99999999999989
 20
-173.47400799593731
 30
0.0
 11
-319.99999999999989
 21
-134.52599200406419
 31
0.0
  0
LINE
  5
10B
  8
NOTE
  6
CONTINUOUS
 62
     4
 10
-300.52599200406252
 20
-154.0
 30
0.0
 11
-339.47400799593549
 21
-154.0
 31
0.0
  0
ARC
  5
10C
  8
DETAIL
  6
CONTINUOUS
 62
     5
 10
-319.99999999999989
 20
209.99067153433691
 30
0.0
 40
7.0
 50
180.0
 51
0.0
  0
ARC
  5
10D
  8
DETAIL
  6
CONTINUOUS
 62
     5
 10
-319.99999999999989
 20
218.0093284656628
 30
0.0
 40
7.0
 50
0.0
 51
180.0
  0
LINE
  5
10E
  8
DETAIL
  6
CONTINUOUS
 62
     5
 10
-326.99999999999989
 20
218.0093284656628
 30
0.0
 11
-326.99999999999989
 21
209.99067153433691
 31
0.0
  0
LINE
  5
10F
  8
NOTE
  6
CONTINUOUS
 62
     4
 10
-319.99999999999989
 20
199.58327503655991
 30
0.0
 11
-319.99999999999989
 21
228.41672496343861
 31
0.0
  0
LINE
  5
110
  8
DETAIL
  6
CONTINUOUS
 62
     5
 10
-312.99999999999989
 20
218.0093284656628
 30
0.0
 11
-312.99999999999989
 21
209.99067153433691
 31
0.0
  0
LINE
  5
111
  8
NOTE
  6
CONTINUOUS
 62
     4
 10
-305.58327503656062
 20
213.9999999999998
 30
0.0
 11
-334.41672496343909
 21
213.9999999999998
 31
0.0
  0
CIRCLE
  5
112
  8
FIX
  6
CONTINUOUS
 62
    11
 10
-319.99999999999989
 20
213.9999999999998
 30
0.0
 40
12.55406000627733
  0
ARC
  5
113
  8
DETAIL
  6
CONTINUOUS
 62
     5
 10
320.0
 20
209.99067153433691
 30
0.0
 40
7.0
 50
180.0
 51
0.0
  0
ARC
  5
114
  8
DETAIL
  6
CONTINUOUS
 62
     5
 10
320.0
 20
218.0093284656628
 30
0.0
 40
7.0
 50
0.0
 51
180.0
  0
LINE
  5
115
  8
DETAIL
  6
CONTINUOUS
 62
     5
 10
313.0
 20
218.0093284656628
 30
0.0
 11
313.0
 21
209.99067153433691
 31
0.0
  0
LINE
  5
116
  8
NOTE
  6
CONTINUOUS
 62
     4
 10
320.0
 20
199.58327503655991
 30
0.0
 11
320.0
 21
228.41672496343861
 31
0.0
  0
LINE
  5
117
  8
DETAIL
  6
CONTINUOUS
 62
     5
 10
327.0
 20
218.0093284656628
 30
0.0
 11
327.0
 21
209.99067153433691
 31
0.0
  0
LINE
  5
118
  8
NOTE
  6
CONTINUOUS
 62
     4
 10
334.41672496343932
 20
213.9999999999998
 30
0.0
 11
305.58327503656062
 21
213.9999999999998
 31
0.0
  0
CIRCLE
  5
119
  8
FIX
  6
CONTINUOUS
 62
    11
 10
320.0
 20
213.9999999999998
 30
0.0
 40
12.55406000627733
  0
ARC
  5
11A
  8
DETAIL
  6
CONTINUOUS
 62
     5
 10
320.0
 20
-220.00932846566309
 30
0.0
 40
7.0
 50
180.0
 51
0.0
  0
ARC
  5
11B
  8
DETAIL
  6
CONTINUOUS
 62
     5
 10
320.0
 20
-211.99067153433671
 30
0.0
 40
7.0
 50
0.0
 51
180.0
  0
LINE
  5
11C
  8
DETAIL
  6
CONTINUOUS
 62
     5
 10
313.0
 20
-211.99067153433671
 30
0.0
 11
313.0
 21
-220.00932846566309
 31
0.0
  0
LINE
  5
11D
  8
NOTE
  6
CONTINUOUS
 62
     4
 10
320.0
 20
-230.41672496343921
 30
0.0
 11
320.0
 21
-201.58327503656071
 31
0.0
  0
LINE
  5
11E
  8
DETAIL
  6
CONTINUOUS
 62
     5
 10
327.0
 20
-211.99067153433671
 30
0.0
 11
327.0
 21
-220.00932846566309
 31
0.0
  0
LINE
  5
11F
  8
NOTE
  6
CONTINUOUS
 62
     4
 10
334.41672496343932
 20
-216.0
 30
0.0
 11
305.58327503656062
 21
-216.0
 31
0.0
  0
CIRCLE
  5
120
  8
FIX
  6
CONTINUOUS
 62
    11
 10
320.0
 20
-216.0
 30
0.0
 40
12.55406000627733
  0
LINE
  5
121
  8
SIZE
  6
CONTINUOUS
 62
    30
 10
-320.01982607320849
 20
238.3802147605798
 30
0.0
 11
-320.01982607320849
 21
325.7754160200339
 31
0.0
  0
LINE
  5
122
  8
SIZE
  6
CONTINUOUS
 62
    30
 10
-334.99999999999989
 20
279.99999999999972
 30
0.0
 11
-334.99999999999989
 21
325.7754160200339
 31
0.0
  0
LINE
  5
123
  8
SIZE
  6
CONTINUOUS
 62
    30
 10
-320.01982607320849
 20
315.7754160200339
 30
0.0
 11
-300.01982607320838
 21
315.7754160200339
 31
0.0
  0
LINE
  5
124
  8
SIZE
  6
CONTINUOUS
 62
    30
 10
-334.99999999999989
 20
315.7754160200339
 30
0.0
 11
-446.42857142857122
 21
315.7754160200339
 31
0.0
  0
LINE
  5
125
  8
SIZE
  6
CONTINUOUS
 62
    30
 10
-320.01982607320849
 20
315.7754160200339
 30
0.0
 11
-334.99999999999989
 21
315.7754160200339
 31
0.0
  0
CIRCLE
  5
126
  8
SIZE
  6
CONTINUOUS
 62
    30
 10
-320.01982607320849
 20
315.7754160200339
 30
0.0
 40
5.0
  0
CIRCLE
  5
127
  8
SIZE
  6
CONTINUOUS
 62
    30
 10
-334.99999999999989
 20
315.7754160200339
 30
0.0
 40
5.0
  0
TEXT
  5
128
  8
SIZE
  6
CONTINUOUS
 62
    30
 10
-436.42857142857127
 20
325.7754160200339
 30
0.0
 40
40.0
  1
15
 41
0.9
 72
     1
 11
-410.71428571428561
 21
325.7754160200339
 31
0.0
  0
POINT
  5
129
  8
DEFPOINTS
  6
CONTINUOUS
 62
     7
 10
-320.01982607320849
 20
228.3802147605798
 30
0.0
  0
POINT
  5
12A
  8
DEFPOINTS
  6
CONTINUOUS
 62
     7
 10
-334.99999999999989
 20
269.99999999999972
 30
0.0
  0
POINT
  5
12B
  8
DEFPOINTS
  6
CONTINUOUS
 62
     7
 10
-334.99999999999989
 20
315.7754160200339
 30
0.0
  0
LINE
  5
12C
  8
SIZE
  6
CONTINUOUS
 62
    30
 10
-320.01982607320849
 20
238.3802147605798
 30
0.0
 11
-320.01982607320849
 21
325.7754160200339
 31
0.0
  0
LINE
  5
12D
  8
SIZE
  6
CONTINUOUS
 62
    30
 10
320.0
 20
238.4167249634387
 30
0.0
 11
320.0
 21
325.7754160200339
 31
0.0
  0
LINE
  5
12E
  8
SIZE
  6
CONTINUOUS
 62
    30
 10
-320.01982607320849
 20
315.7754160200339
 30
0.0
 11
320.0
 21
315.7754160200339
 31
0.0
  0
CIRCLE
  5
12F
  8
SIZE
  6
CONTINUOUS
 62
    30
 10
-320.01982607320849
 20
315.7754160200339
 30
0.0
 40
5.0
  0
CIRCLE
  5
130
  8
SIZE
  6
CONTINUOUS
 62
    30
 10
320.0
 20
315.7754160200339
 30
0.0
 40
5.0
  0
TEXT
  5
131
  8
SIZE
  6
CONTINUOUS
 62
    30
 10
-46.295627322318524
 20
325.7754160200339
 30
0.0
 40
40.0
  1
640
 41
0.9
 72
     1
 11
-0.0099130366042459
 21
325.7754160200339
 31
0.0
  0
POINT
  5
132
  8
DEFPOINTS
  6
CONTINUOUS
 62
     7
 10
-320.01982607320849
 20
228.3802147605798
 30
0.0
  0
POINT
  5
133
  8
DEFPOINTS
  6
CONTINUOUS
 62
     7
 10
320.0
 20
228.41672496343861
 30
0.0
  0
POINT
  5
134
  8
DEFPOINTS
  6
CONTINUOUS
 62
     7
 10
320.0
 20
315.7754160200339
 30
0.0
  0
LINE
  5
135
  8
SIZE
  6
CONTINUOUS
 62
    30
 10
-334.99999999999989
 20
279.99999999999972
 30
0.0
 11
-334.99999999999989
 21
391.18900825747488
 31
0.0
  0
LINE
  5
136
  8
SIZE
  6
CONTINUOUS
 62
    30
 10
-559.99999999999966
 20
-107.4207936032488
 30
0.0
 11
-559.99999999999966
 21
391.18900825747488
 31
0.0
  0
LINE
  5
137
  8
SIZE
  6
CONTINUOUS
 62
    30
 10
-334.99999999999989
 20
381.18900825747488
 30
0.0
 11
-559.99999999999966
 21
381.18900825747488
 31
0.0
  0
CIRCLE
  5
138
  8
SIZE
  6
CONTINUOUS
 62
    30
 10
-334.99999999999989
 20
381.18900825747488
 30
0.0
 40
5.0
  0
CIRCLE
  5
139
  8
SIZE
  6
CONTINUOUS
 62
    30
 10
-559.99999999999966
 20
381.18900825747488
 30
0.0
 40
5.0
  0
TEXT
  5
13A
  8
SIZE
  6
CONTINUOUS
 62
    30
 10
-493.78571428571399
 20
391.18900825747488
 30
0.0
 40
40.0
  1
225
 41
0.9
 72
     1
 11
-447.49999999999972
 21
391.18900825747488
 31
0.0
  0
POINT
  5
13B
  8
DEFPOINTS
  6
CONTINUOUS
 62
     7
 10
-334.99999999999989
 20
269.99999999999972
 30
0.0
  0
POINT
  5
13C
  8
DEFPOINTS
  6
CONTINUOUS
 62
     7
 10
-559.99999999999966
 20
-117.4207936032488
 30
0.0
  0
POINT
  5
13D
  8
DEFPOINTS
  6
CONTINUOUS
 62
     7
 10
-559.99999999999966
 20
381.18900825747488
 30
0.0
  0
LINE
  5
13E
  8
SIZE
  6
CONTINUOUS
 62
    30
 10
-334.99999999999989
 20
279.99999999999972
 30
0.0
 11
-334.99999999999989
 21
391.18900825747488
 31
0.0
  0
LINE
  5
13F
  8
SIZE
  6
CONTINUOUS
 62
    30
 10
335.00000000000182
 20
279.99999999999972
 30
0.0
 11
335.00000000000182
 21
391.18900825747488
 31
0.0
  0
LINE
  5
140
  8
SIZE
  6
CONTINUOUS
 62
    30
 10
-334.99999999999989
 20
381.18900825747488
 30
0.0
 11
335.00000000000182
 21
381.18900825747488
 31
0.0
  0
CIRCLE
  5
141
  8
SIZE
  6
CONTINUOUS
 62
    30
 10
-334.99999999999989
 20
381.18900825747488
 30
0.0
 40
5.0
  0
CIRCLE
  5
142
  8
SIZE
  6
CONTINUOUS
 62
    30
 10
335.00000000000182
 20
381.18900825747488
 30
0.0
 40
5.0
  0
TEXT
  5
143
  8
SIZE
  6
CONTINUOUS
 62
    30
 10
-46.28571428571334
 20
391.18900825747488
 30
0.0
 40
40.0
  1
670
 41
0.9
 72
     1
 11
0.0000000000009379
 21
391.18900825747488
 31
0.0
  0
POINT
  5
144
  8
DEFPOINTS
  6
CONTINUOUS
 62
     7
 10
-334.99999999999989
 20
269.99999999999972
 30
0.0
  0
POINT
  5
145
  8
DEFPOINTS
  6
CONTINUOUS
 62
     7
 10
335.00000000000182
 20
269.99999999999972
 30
0.0
  0
POINT
  5
146
  8
DEFPOINTS
  6
CONTINUOUS
 62
     7
 10
335.00000000000182
 20
381.18900825747488
 30
0.0
  0
LINE
  5
147
  8
SIZE
  6
CONTINUOUS
 62
    30
 10
335.00000000000182
 20
279.99999999999972
 30
0.0
 11
335.00000000000182
 21
391.18900825747488
 31
0.0
  0
LINE
  5
148
  8
SIZE
  6
CONTINUOUS
 62
    30
 10
360.0
 20
2.0909516634511629
 30
0.0
 11
360.0
 21
391.18900825747488
 31
0.0
  0
LINE
  5
149
  8
SIZE
  6
CONTINUOUS
 62
    30
 10
335.00000000000182
 20
381.18900825747488
 30
0.0
 11
360.0
 21
381.18900825747488
 31
0.0
  0
LINE
  5
14A
  8
SIZE
  6
CONTINUOUS
 62
    30
 10
360.0
 20
381.18900825747488
 30
0.0
 11
504.5714285714285
 21
381.18900825747488
 31
0.0
  0
CIRCLE
  5
14B
  8
SIZE
  6
CONTINUOUS
 62
    30
 10
335.00000000000182
 20
381.18900825747488
 30
0.0
 40
5.0
  0
CIRCLE
  5
14C
  8
SIZE
  6
CONTINUOUS
 62
    30
 10
360.0
 20
381.18900825747488
 30
0.0
 40
5.0
  0
TEXT
  5
14D
  8
SIZE
  6
CONTINUOUS
 62
    30
 10
390.0
 20
401.66519873366519
 30
0.0
 40
40.0
  1
(25)
 41
0.9
 72
     1
 11
442.28571428571422
 21
401.66519873366519
 31
0.0
  0
POINT
  5
14E
  8
DEFPOINTS
  6
CONTINUOUS
 62
     7
 10
335.00000000000182
 20
269.99999999999972
 30
0.0
  0
POINT
  5
14F
  8
DEFPOINTS
  6
CONTINUOUS
 62
     7
 10
360.0
 20
-7.9090483365488353
 30
0.0
  0
POINT
  5
150
  8
DEFPOINTS
  6
CONTINUOUS
 62
     7
 10
360.0
 20
381.18900825747488
 30
0.0
  0
LINE
  5
151
  8
SIZE
  6
CONTINUOUS
 62
    30
 10
-559.99999999999966
 20
-107.4207936032488
 30
0.0
 11
-559.99999999999966
 21
469.9445742950769
 31
0.0
  0
LINE
  5
152
  8
SIZE
  6
CONTINUOUS
 62
    30
 10
360.0
 20
2.0909516634511629
 30
0.0
 11
360.0
 21
469.9445742950769
 31
0.0
  0
LINE
  5
153
  8
SIZE
  6
CONTINUOUS
 62
    30
 10
-559.99999999999966
 20
459.9445742950769
 30
0.0
 11
360.0
 21
459.9445742950769
 31
0.0
  0
CIRCLE
  5
154
  8
SIZE
  6
CONTINUOUS
 62
    30
 10
-559.99999999999966
 20
459.9445742950769
 30
0.0
 40
5.0
  0
CIRCLE
  5
155
  8
SIZE
  6
CONTINUOUS
 62
    30
 10
360.0
 20
459.9445742950769
 30
0.0
 40
5.0
  0
TEXT
  5
156
  8
SIZE
  6
CONTINUOUS
 62
    30
 10
-146.28571428571419
 20
469.9445742950769
 30
0.0
 40
40.0
  1
920
 41
0.9
 72
     1
 11
-99.999999999999943
 21
469.9445742950769
 31
0.0
  0
POINT
  5
157
  8
DEFPOINTS
  6
CONTINUOUS
 62
     7
 10
-559.99999999999966
 20
-117.4207936032488
 30
0.0
  0
POINT
  5
158
  8
DEFPOINTS
  6
CONTINUOUS
 62
     7
 10
360.0
 20
-7.9090483365488353
 30
0.0
  0
POINT
  5
159
  8
DEFPOINTS
  6
CONTINUOUS
 62
     7
 10
360.0
 20
459.9445742950769
 30
0.0
  0
LINE
  5
15A
  8
SIZE
  6
CONTINUOUS
 62
    30
 10
-305.0
 20
-280.0
 30
0.0
 11
-305.0
 21
-467.73661804583372
 31
0.0
  0
LINE
  5
15B
  8
SIZE
  6
CONTINUOUS
 62
    30
 10
-334.99999999999989
 20
-250.0
 30
0.0
 11
-334.99999999999989
 21
-467.73661804583372
 31
0.0
  0
LINE
  5
15C
  8
SIZE
  6
CONTINUOUS
 62
    30
 10
-305.0
 20
-457.73661804583361
 30
0.0
 11
-334.99999999999989
 21
-457.73661804583361
 31
0.0
  0
LINE
  5
15D
  8
SIZE
  6
CONTINUOUS
 62
    30
 10
-334.99999999999989
 20
-457.73661804583361
 30
0.0
 11
-433.28571428571422
 21
-457.73661804583361
 31
0.0
  0
CIRCLE
  5
15E
  8
SIZE
  6
CONTINUOUS
 62
    30
 10
-305.0
 20
-457.73661804583361
 30
0.0
 40
5.0
  0
CIRCLE
  5
15F
  8
SIZE
  6
CONTINUOUS
 62
    30
 10
-334.99999999999989
 20
-457.73661804583361
 30
0.0
 40
5.0
  0
TEXT
  5
160
  8
SIZE
  6
CONTINUOUS
 62
    30
 10
-423.28571428571428
 20
-447.73661804583372
 30
0.0
 40
40.0
  1
30
 41
0.9
 72
     1
 11
-394.14285714285711
 21
-447.73661804583372
 31
0.0
  0
POINT
  5
161
  8
DEFPOINTS
  6
CONTINUOUS
 62
     7
 10
-305.0
 20
-270.0
 30
0.0
  0
POINT
  5
162
  8
DEFPOINTS
  6
CONTINUOUS
 62
     7
 10
-334.99999999999989
 20
-240.0
 30
0.0
  0
POINT
  5
163
  8
DEFPOINTS
  6
CONTINUOUS
 62
     7
 10
-334.99999999999989
 20
-457.73661804583361
 30
0.0
  0
LINE
  5
164
  8
SIZE
  6
CONTINUOUS
 62
    30
 10
-305.0
 20
-280.0
 30
0.0
 11
-305.0
 21
-467.73661804583372
 31
0.0
  0
LINE
  5
165
  8
SIZE
  6
CONTINUOUS
 62
    30
 10
305.00000000000182
 20
-280.0
 30
0.0
 11
305.00000000000182
 21
-467.73661804583372
 31
0.0
  0
LINE
  5
166
  8
SIZE
  6
CONTINUOUS
 62
    30
 10
-305.0
 20
-457.73661804583361
 30
0.0
 11
305.00000000000182
 21
-457.73661804583361
 31
0.0
  0
CIRCLE
  5
167
  8
SIZE
  6
CONTINUOUS
 62
    30
 10
-305.0
 20
-457.73661804583361
 30
0.0
 40
5.0
  0
CIRCLE
  5
168
  8
SIZE
  6
CONTINUOUS
 62
    30
 10
305.00000000000182
 20
-457.73661804583361
 30
0.0
 40
5.0
  0
TEXT
  5
169
  8
SIZE
  6
CONTINUOUS
 62
    30
 10
-184.79999999999899
 20
-447.73661804583372
 30
0.0
 40
40.0
  1
610（吹出口開口）
 41
0.9
 72
     1
 11
0.0000000000009095
 21
-447.73661804583372
 31
0.0
  0
POINT
  5
16A
  8
DEFPOINTS
  6
CONTINUOUS
 62
     7
 10
-305.0
 20
-270.0
 30
0.0
  0
POINT
  5
16B
  8
DEFPOINTS
  6
CONTINUOUS
 62
     7
 10
305.00000000000182
 20
-270.0
 30
0.0
  0
POINT
  5
16C
  8
DEFPOINTS
  6
CONTINUOUS
 62
     7
 10
305.00000000000182
 20
-457.73661804583361
 30
0.0
  0
LINE
  5
16D
  8
SIZE
  6
CONTINUOUS
 62
    30
 10
-319.99999999999989
 20
-183.47400799593731
 30
0.0
 11
-319.99999999999989
 21
-348.08891051296081
 31
0.0
  0
LINE
  5
16E
  8
SIZE
  6
CONTINUOUS
 62
    30
 10
-334.99999999999989
 20
-250.0
 30
0.0
 11
-334.99999999999989
 21
-348.08891051296081
 31
0.0
  0
LINE
  5
16F
  8
SIZE
  6
CONTINUOUS
 62
    30
 10
-319.99999999999989
 20
-338.08891051296081
 30
0.0
 11
-299.99999999999989
 21
-338.08891051296081
 31
0.0
  0
LINE
  5
170
  8
SIZE
  6
CONTINUOUS
 62
    30
 10
-334.99999999999989
 20
-338.08891051296081
 30
0.0
 11
-446.42857142857122
 21
-338.08891051296081
 31
0.0
  0
LINE
  5
171
  8
SIZE
  6
CONTINUOUS
 62
    30
 10
-319.99999999999989
 20
-338.08891051296081
 30
0.0
 11
-334.99999999999989
 21
-338.08891051296081
 31
0.0
  0
CIRCLE
  5
172
  8
SIZE
  6
CONTINUOUS
 62
    30
 10
-319.99999999999989
 20
-338.08891051296081
 30
0.0
 40
5.0
  0
CIRCLE
  5
173
  8
SIZE
  6
CONTINUOUS
 62
    30
 10
-334.99999999999989
 20
-338.08891051296081
 30
0.0
 40
5.0
  0
TEXT
  5
174
  8
SIZE
  6
CONTINUOUS
 62
    30
 10
-436.42857142857127
 20
-328.08891051296081
 30
0.0
 40
40.0
  1
15
 41
0.9
 72
     1
 11
-410.71428571428561
 21
-328.08891051296081
 31
0.0
  0
POINT
  5
175
  8
DEFPOINTS
  6
CONTINUOUS
 62
     7
 10
-319.99999999999989
 20
-173.47400799593731
 30
0.0
  0
POINT
  5
176
  8
DEFPOINTS
  6
CONTINUOUS
 62
     7
 10
-334.99999999999989
 20
-240.0
 30
0.0
  0
POINT
  5
177
  8
DEFPOINTS
  6
CONTINUOUS
 62
     7
 10
-334.99999999999989
 20
-338.08891051296081
 30
0.0
  0
LINE
  5
178
  8
SIZE
  6
CONTINUOUS
 62
    30
 10
-315.0
 20
-270.0
 30
0.0
 11
-602.94347448350516
 21
-269.99999999999989
 31
0.0
  0
LINE
  5
179
  8
SIZE
  6
CONTINUOUS
 62
    30
 10
-349.47400799593538
 20
-154.0
 30
0.0
 11
-602.94347448350516
 21
-153.9999999999998
 31
0.0
  0
LINE
  5
17A
  8
SIZE
  6
CONTINUOUS
 62
    30
 10
-592.94347448350516
 20
-269.99999999999989
 30
0.0
 11
-592.94347448350516
 21
-153.9999999999998
 31
0.0
  0
CIRCLE
  5
17B
  8
SIZE
  6
CONTINUOUS
 62
    30
 10
-592.94347448350516
 20
-269.99999999999989
 30
0.0
 40
5.0
  0
CIRCLE
  5
17C
  8
SIZE
  6
CONTINUOUS
 62
    30
 10
-592.94347448350516
 20
-153.9999999999998
 30
0.0
 40
5.0
  0
TEXT
  5
17D
  8
SIZE
  6
CONTINUOUS
 62
    30
 10
-602.94347448350516
 20
-250.57142857142861
 30
0.0
 40
40.0
  1
116
 50
90.0
 41
0.9
 72
     1
 11
-602.94347448350516
 21
-212.0
 31
0.0
  0
POINT
  5
17E
  8
DEFPOINTS
  6
CONTINUOUS
 62
     7
 10
-305.0
 20
-270.0
 30
0.0
  0
POINT
  5
17F
  8
DEFPOINTS
  6
CONTINUOUS
 62
     7
 10
-339.47400799593549
 20
-154.0
 30
0.0
  0
POINT
  5
180
  8
DEFPOINTS
  6
CONTINUOUS
 62
     7
 10
-592.94347448350516
 20
-153.9999999999998
 30
0.0
  0
LINE
  5
181
  8
SIZE
  6
CONTINUOUS
 62
    30
 10
-315.0
 20
-270.0
 30
0.0
 11
-666.54564535443592
 21
-269.99999999999972
 31
0.0
  0
LINE
  5
182
  8
SIZE
  6
CONTINUOUS
 62
    30
 10
-585.57920639675285
 20
-132.99999999999969
 30
0.0
 11
-666.54564535443569
 21
-132.99999999999969
 31
0.0
  0
LINE
  5
183
  8
SIZE
  6
CONTINUOUS
 62
    30
 10
-656.54564535443558
 20
-269.99999999999972
 30
0.0
 11
-656.54564535443558
 21
-132.99999999999969
 31
0.0
  0
CIRCLE
  5
184
  8
SIZE
  6
CONTINUOUS
 62
    30
 10
-656.54564535443558
 20
-269.99999999999972
 30
0.0
 40
5.0
  0
CIRCLE
  5
185
  8
SIZE
  6
CONTINUOUS
 62
    30
 10
-656.54564535443558
 20
-132.99999999999969
 30
0.0
 40
5.0
  0
TEXT
  5
186
  8
SIZE
  6
CONTINUOUS
 62
    30
 10
-666.54564535443569
 20
-244.3571428571428
 30
0.0
 40
40.0
  1
137
 50
90.0
 41
0.9
 72
     1
 11
-666.54564535443569
 21
-201.49999999999989
 31
0.0
  0
POINT
  5
187
  8
DEFPOINTS
  6
CONTINUOUS
 62
     7
 10
-305.0
 20
-270.0
 30
0.0
  0
POINT
  5
188
  8
DEFPOINTS
  6
CONTINUOUS
 62
     7
 10
-575.57920639675285
 20
-132.99999999999969
 30
0.0
  0
POINT
  5
189
  8
DEFPOINTS
  6
CONTINUOUS
 62
     7
 10
-656.54564535443558
 20
-132.99999999999969
 30
0.0
  0
LINE
  5
18A
  8
SIZE
  6
CONTINUOUS
 62
    30
 10
345.00000000000182
 20
-240.0
 30
0.0
 11
430.81719860370117
 21
-240.0
 31
0.0
  0
LINE
  5
18B
  8
SIZE
  6
CONTINUOUS
 62
    30
 10
315.00000000000182
 20
-270.0
 30
0.0
 11
430.81719860370117
 21
-270.0
 31
0.0
  0
LINE
  5
18C
  8
SIZE
  6
CONTINUOUS
 62
    30
 10
420.81719860370117
 20
-240.0
 30
0.0
 11
420.81719860370117
 21
-270.0
 31
0.0
  0
LINE
  5
18D
  8
SIZE
  6
CONTINUOUS
 62
    30
 10
420.81719860370117
 20
-270.0
 30
0.0
 11
420.81719860370117
 21
-368.28571428571428
 31
0.0
  0
CIRCLE
  5
18E
  8
SIZE
  6
CONTINUOUS
 62
    30
 10
420.81719860370117
 20
-240.0
 30
0.0
 40
5.0
  0
CIRCLE
  5
18F
  8
SIZE
  6
CONTINUOUS
 62
    30
 10
420.81719860370117
 20
-270.0
 30
0.0
 40
5.0
  0
TEXT
  5
190
  8
SIZE
  6
CONTINUOUS
 62
    30
 10
410.8171986037014
 20
-358.28571428571428
 30
0.0
 40
40.0
  1
30
 50
90.0
 41
0.9
 72
     1
 11
410.8171986037014
 21
-329.14285714285711
 31
0.0
  0
POINT
  5
191
  8
DEFPOINTS
  6
CONTINUOUS
 62
     7
 10
335.00000000000182
 20
-240.0
 30
0.0
  0
POINT
  5
192
  8
DEFPOINTS
  6
CONTINUOUS
 62
     7
 10
305.00000000000182
 20
-270.0
 30
0.0
  0
POINT
  5
193
  8
DEFPOINTS
  6
CONTINUOUS
 62
     7
 10
420.81719860370117
 20
-270.0
 30
0.0
  0
LINE
  5
194
  8
SIZE
  6
CONTINUOUS
 62
    30
 10
344.41672496343932
 20
-216.0
 30
0.0
 11
495.42727088118022
 21
-216.0
 31
0.0
  0
LINE
  5
195
  8
SIZE
  6
CONTINUOUS
 62
    30
 10
315.00000000000182
 20
-270.0
 30
0.0
 11
495.42727088118022
 21
-270.0
 31
0.0
  0
LINE
  5
196
  8
SIZE
  6
CONTINUOUS
 62
    30
 10
485.42727088118022
 20
-216.0
 30
0.0
 11
485.42727088118022
 21
-270.0
 31
0.0
  0
LINE
  5
197
  8
SIZE
  6
CONTINUOUS
 62
    30
 10
485.42727088118022
 20
-270.0
 30
0.0
 11
485.42727088118022
 21
-370.0
 31
0.0
  0
CIRCLE
  5
198
  8
SIZE
  6
CONTINUOUS
 62
    30
 10
485.42727088118022
 20
-216.0
 30
0.0
 40
5.0
  0
CIRCLE
  5
199
  8
SIZE
  6
CONTINUOUS
 62
    30
 10
485.42727088118022
 20
-270.0
 30
0.0
 40
5.0
  0
TEXT
  5
19A
  8
SIZE
  6
CONTINUOUS
 62
    30
 10
475.42727088118028
 20
-359.99999999999989
 30
0.0
 40
40.0
  1
54
 50
90.0
 41
0.9
 72
     1
 11
475.42727088118028
 21
-329.99999999999989
 31
0.0
  0
POINT
  5
19B
  8
DEFPOINTS
  6
CONTINUOUS
 62
     7
 10
334.41672496343932
 20
-216.0
 30
0.0
  0
POINT
  5
19C
  8
DEFPOINTS
  6
CONTINUOUS
 62
     7
 10
305.00000000000182
 20
-270.0
 30
0.0
  0
POINT
  5
19D
  8
DEFPOINTS
  6
CONTINUOUS
 62
     7
 10
485.42727088118022
 20
-270.0
 30
0.0
  0
LINE
  5
19E
  8
SIZE
  6
CONTINUOUS
 62
    30
 10
344.41672496343932
 20
-216.0
 30
0.0
 11
495.42727088118011
 21
-216.0
 31
0.0
  0
LINE
  5
19F
  8
SIZE
  6
CONTINUOUS
 62
    30
 10
344.41672496343932
 20
213.9999999999998
 30
0.0
 11
495.42727088118022
 21
213.9999999999998
 31
0.0
  0
LINE
  5
1A0
  8
SIZE
  6
CONTINUOUS
 62
    30
 10
485.42727088118022
 20
-216.0
 30
0.0
 11
485.42727088118022
 21
213.9999999999998
 31
0.0
  0
CIRCLE
  5
1A1
  8
SIZE
  6
CONTINUOUS
 62
    30
 10
485.42727088118022
 20
-216.0
 30
0.0
 40
5.0
  0
CIRCLE
  5
1A2
  8
SIZE
  6
CONTINUOUS
 62
    30
 10
485.42727088118022
 20
213.9999999999998
 30
0.0
 40
5.0
  0
TEXT
  5
1A3
  8
SIZE
  6
CONTINUOUS
 62
    30
 10
475.42727088118028
 20
-47.285714285714263
 30
0.0
 40
40.0
  1
430
 50
90.0
 41
0.9
 72
     1
 11
475.42727088118028
 21
-0.9999999999999987
 31
0.0
  0
POINT
  5
1A4
  8
DEFPOINTS
  6
CONTINUOUS
 62
     7
 10
334.41672496343932
 20
-216.0
 30
0.0
  0
POINT
  5
1A5
  8
DEFPOINTS
  6
CONTINUOUS
 62
     7
 10
334.41672496343932
 20
213.9999999999998
 30
0.0
  0
POINT
  5
1A6
  8
DEFPOINTS
  6
CONTINUOUS
 62
     7
 10
485.42727088118022
 20
213.9999999999998
 30
0.0
  0
LINE
  5
1A7
  8
SIZE
  6
CONTINUOUS
 62
    30
 10
315.00000000000182
 20
-270.0
 30
0.0
 11
561.53262697167122
 21
-270.0
 31
0.0
  0
LINE
  5
1A8
  8
SIZE
  6
CONTINUOUS
 62
    30
 10
345.00000000000182
 20
269.99999999999972
 30
0.0
 11
561.53262697167156
 21
269.99999999999972
 31
0.0
  0
LINE
  5
1A9
  8
SIZE
  6
CONTINUOUS
 62
    30
 10
551.53262697167122
 20
-270.0
 30
0.0
 11
551.53262697167145
 21
269.99999999999972
 31
0.0
  0
CIRCLE
  5
1AA
  8
SIZE
  6
CONTINUOUS
 62
    30
 10
551.53262697167122
 20
-270.0
 30
0.0
 40
5.0
  0
CIRCLE
  5
1AB
  8
SIZE
  6
CONTINUOUS
 62
    30
 10
551.53262697167145
 20
269.99999999999972
 30
0.0
 40
5.0
  0
TEXT
  5
1AC
  8
SIZE
  6
CONTINUOUS
 62
    30
 10
541.53262697167145
 20
-46.285714285714313
 30
0.0
 40
40.0
  1
540
 50
90.0
 41
0.9
 72
     1
 11
541.53262697167145
 21
-0.0000000000000313
 31
0.0
  0
POINT
  5
1AD
  8
DEFPOINTS
  6
CONTINUOUS
 62
     7
 10
305.00000000000182
 20
-270.0
 30
0.0
  0
POINT
  5
1AE
  8
DEFPOINTS
  6
CONTINUOUS
 62
     7
 10
335.00000000000182
 20
269.99999999999972
 30
0.0
  0
POINT
  5
1AF
  8
DEFPOINTS
  6
CONTINUOUS
 62
     7
 10
551.53262697167145
 20
269.99999999999972
 30
0.0
  0
TEXT
  5
1B0
  8
NOTE
  6
CONTINUOUS
 62
     4
 10
-871.52656051437953
 20
-79.205340010774293
 30
0.0
 40
40.0
  1
D PT3/4オネジ
 50
0.0000025044165917
 41
0.7
  7
STANDARD1
  0
LINE
  5
1B1
  8
NOTE
  6
CONTINUOUS
 62
     4
 10
-590.74321262546073
 20
-86.857684679043814
 30
0.0
 11
-875.77394418025494
 21
-86.857684679043814
 31
0.0
  0
LINE
  5
1B2
  8
NOTE
  6
CONTINUOUS
 62
     4
 10
-590.74321262546073
 20
-86.857684679043814
 30
0.0
 11
-559.99999999999966
 21
-132.9999970040042
 31
0.0
  0
TEXT
  5
1B3
  8
NOTE
  6
CONTINUOUS
 62
     4
 10
-218.88573944137531
 20
-319.42783723259868
 30
0.0
 40
40.0
  1
CR PT3/4メネジ
 50
0.0000025044165917
 41
0.7
  7
STANDARD1
  0
LINE
  5
1B4
  8
NOTE
  6
CONTINUOUS
 62
     4
 10
91.977639677570565
 20
-327.0801819008683
 30
0.0
 11
-250.42274399271989
 21
-327.0801819008683
 31
0.0
  0
TEXT
  5
1B5
  8
NOTE
  6
CONTINUOUS
 62
     4
 10
-221.64194107895301
 20
-380.45710038191282
 30
0.0
 40
40.0
  1
C PT3/4メネジ
 50
0.0000025044165917
 41
0.7
  7
STANDARD1
  0
LINE
  5
1B6
  8
NOTE
  6
CONTINUOUS
 62
     4
 10
59.141406809965702
 20
-388.10944505018227
 30
0.0
 11
-225.8893247448286
 21
-388.10944505018227
 31
0.0
  0
LINE
  5
1B7
  8
NOTE
  6
CONTINUOUS
 62
     4
 10
-225.8893247448286
 20
-388.10944505018227
 30
0.0
 11
-319.99999999999989
 21
-154.0
 31
0.0
  0
TEXT
  5
1B8
  8
NOTE
  6
CONTINUOUS
 62
     4
 10
383.63737922158163
 20
303.15414505831188
 30
0.0
 40
40.0
  1
AH 4-14×22長穴
 50
0.0000025044165917
 41
0.7
  7
STANDARD1
  0
LINE
  5
1B9
  8
NOTE
  6
CONTINUOUS
 62
     4
 10
735.17060981924965
 20
295.50180039004192
 30
0.0
 11
379.38999555570621
 21
295.50180039004192
 31
0.0
  0
LINE
  5
1BA
  8
NOTE
  6
CONTINUOUS
 62
     4
 10
379.38999555570621
 20
295.50180039004192
 30
0.0
 11
320.0
 21
213.9999999999998
 31
0.0
  0
LINE
  5
1BB
  8
BASIS
  6
DASHDOT
 62
     6
 10
0.0
 20
287.73797114565002
 30
0.0
 11
0.0
 21
-287.73797114564883
 31
0.0
  0
LINE
  5
1BC
  8
BASIS
  6
DASHDOT
 62
     6
 10
383.95598248975682
 20
0.0000000000002274
 30
0.0
 11
-383.9559824897587
 21
0.0000000000002274
 31
0.0
  0
CIRCLE
  5
1BD
  8
ARRANGE
  6
CONTINUOUS
 62
     1
 10
0.0
 20
0.0000000000002274
 30
0.0
 40
28.800000000000001
  0
LINE
  5
1BE
  8
ARRANGE
  6
CONTINUOUS
 62
     1
 10
28.821513618046069
 20
-28.524875414586749
 30
0.0
 11
-28.821513618046069
 21
28.524875414586749
 31
0.0
  0
LINE
  5
1BF
  8
ARRANGE
  6
CONTINUOUS
 62
     1
 10
28.779127666848581
 20
28.567638603641061
 30
0.0
 11
-28.779127666848581
 21
-28.56763860363754
 31
0.0
  0
LINE
  5
1C0
  8
OUTLINE
  6
CONTINUOUS
 62
     3
 10
-334.99999999999989
 20
269.99999999999972
 30
0.0
 11
335.00000000000182
 21
269.99999999999972
 31
0.0
  0
LINE
  5
1C1
  8
OUTLINE
  6
CONTINUOUS
 62
     3
 10
335.00000000000182
 20
269.99999999999972
 30
0.0
 11
335.00000138805962
 21
-240.0000011618138
 31
0.0
  0
LINE
  5
1C2
  8
OUTLINE
  6
CONTINUOUS
 62
     3
 10
305.00000000000182
 20
-240.00000116181391
 30
0.0
 11
305.00000000000182
 21
-270.0
 31
0.0
  0
LINE
  5
1C3
  8
OUTLINE
  6
CONTINUOUS
 62
     3
 10
305.00000000000182
 20
-270.0
 30
0.0
 11
-305.0
 21
-270.0
 31
0.0
  0
LINE
  5
1C4
  8
OUTLINE
  6
CONTINUOUS
 62
     3
 10
-305.0
 20
-270.0
 30
0.0
 11
-305.0
 21
-240.0
 31
0.0
  0
LINE
  5
1C5
  8
OUTLINE
  6
CONTINUOUS
 62
     3
 10
-334.99999999999989
 20
-240.0
 30
0.0
 11
-334.99999999999989
 21
269.99999999999972
 31
0.0
  0
LINE
  5
1C6
  8
OUTLINE
  6
CONTINUOUS
 62
     3
 10
-355.97145135477518
 20
166.45861873000291
 30
0.0
 11
-355.97145135477518
 21
80.972714965893942
 31
0.0
  0
LINE
  5
1C7
  8
OUTLINE
  6
CONTINUOUS
 62
     3
 10
-355.97145135477518
 20
80.972714965893942
 30
0.0
 11
-334.99999999999989
 21
80.972714965893942
 31
0.0
  0
LINE
  5
1C8
  8
OUTLINE
  6
CONTINUOUS
 62
     3
 10
-341.49075277706282
 20
80.972714965893942
 30
0.0
 11
-341.49075277706282
 21
80.273436294765943
 31
0.0
  0
LINE
  5
1C9
  8
OUTLINE
  6
CONTINUOUS
 62
     3
 10
-334.99999999999989
 20
77.277435064622864
 30
0.0
 11
-342.489421851109
 21
77.277435064622864
 31
0.0
  0
LINE
  5
1CA
  8
OUTLINE
  6
CONTINUOUS
 62
     3
 10
-334.99999999999989
 20
80.273436294765943
 30
0.0
 11
-344.48675400720629
 21
80.273436294765943
 31
0.0
  0
ARC
  5
1CB
  8
OUTLINE
  6
CONTINUOUS
 62
     3
 10
-342.489421851109
 20
79.274767220720037
 30
0.0
 40
1.99733215609522
 50
180.0
 51
270.0
  0
LINE
  5
1CC
  8
OUTLINE
  6
CONTINUOUS
 62
     3
 10
-344.48675400720629
 20
80.273436294765943
 30
0.0
 11
-344.48675400720629
 21
79.274767220720037
 31
0.0
  0
LINE
  5
1CD
  8
OUTLINE
  6
CONTINUOUS
 62
     3
 10
-355.97145135477518
 20
166.45861873000291
 30
0.0
 11
-334.99999999999989
 21
166.45861873000291
 31
0.0
  0
LINE
  5
1CE
  8
OUTLINE
  6
CONTINUOUS
 62
     3
 10
-341.49075277706282
 20
166.45861873000291
 30
0.0
 11
-341.49075277706282
 21
167.1578974011189
 31
0.0
  0
LINE
  5
1CF
  8
OUTLINE
  6
CONTINUOUS
 62
     3
 10
-344.48675400720629
 20
167.1578974011189
 30
0.0
 11
-344.48675400720629
 21
168.15656647516479
 31
0.0
  0
ARC
  5
1D0
  8
OUTLINE
  6
CONTINUOUS
 62
     3
 10
-342.489421851109
 20
168.15656647516479
 30
0.0
 40
1.99733215609522
 50
90.0
 51
180.0
  0
LINE
  5
1D1
  8
OUTLINE
  6
CONTINUOUS
 62
     3
 10
-334.99999999999989
 20
167.1578974011189
 30
0.0
 11
-344.48675400720629
 21
167.1578974011189
 31
0.0
  0
LINE
  5
1D2
  8
OUTLINE
  6
CONTINUOUS
 62
     3
 10
-334.99999999999989
 20
170.15389863126401
 30
0.0
 11
-342.489421851109
 21
170.15389863126401
 31
0.0
  0
LINE
  5
1D3
  8
OUTLINE
  6
CONTINUOUS
 62
     3
 10
-334.99999999999989
 20
-7.9090483365488353
 30
0.0
 11
-514.75990603257196
 21
-7.9090483365488353
 31
0.0
  0
LINE
  5
1D4
  8
OUTLINE
  6
CONTINUOUS
 62
     3
 10
-514.75990603257196
 20
-7.9090483365488353
 30
0.0
 11
-514.75990603257196
 21
-257.57581951255071
 31
0.0
  0
LINE
  5
1D5
  8
OUTLINE
  6
CONTINUOUS
 62
     3
 10
-514.75990603257196
 20
-257.57581951255071
 30
0.0
 11
-305.0
 21
-257.57581951255071
 31
0.0
  0
LINE
  5
1D6
  8
OUTLINE
  6
CONTINUOUS
 62
     3
 10
335.00000000000182
 20
-7.9090483365488353
 30
0.0
 11
360.0
 21
-7.9090483365488353
 31
0.0
  0
LINE
  5
1D7
  8
OUTLINE
  6
CONTINUOUS
 62
     3
 10
360.0
 20
-7.9090483365488353
 30
0.0
 11
360.0
 21
-257.57581951255071
 31
0.0
  0
LINE
  5
1D8
  8
OUTLINE
  6
CONTINUOUS
 62
     3
 10
360.0
 20
-257.57581951255071
 30
0.0
 11
305.00000000000182
 21
-257.57581951255071
 31
0.0
  0
LINE
  5
1D9
  8
NOTE
  6
CONTINUOUS
 62
     4
 10
-560.00000360005265
 20
-132.9999970178668
 30
0.0
 11
-568.87393929443886
 21
-106.9623885622803
 31
0.0
  0
LINE
  5
1DA
  8
NOTE
  6
CONTINUOUS
 62
     4
 10
-560.00000360005265
 20
-132.9999970178668
 30
0.0
 11
-580.70386183460505
 21
-114.88773479039079
 31
0.0
  0
LINE
  5
1DB
  8
NOTE
  6
CONTINUOUS
 62
     4
 10
-319.99999999999989
 20
-154.0
 30
0.0
 11
-315.7606509272955
 21
-181.17961935411211
 31
0.0
  0
LINE
  5
1DC
  8
NOTE
  6
CONTINUOUS
 62
     4
 10
-319.99999999999989
 20
-154.0
 30
0.0
 11
-302.73880601842751
 21
-175.41856603799539
 31
0.0
  0
LINE
  5
1DD
  8
NOTE
  6
CONTINUOUS
 62
     4
 10
320.0
 20
213.9999999999998
 30
0.0
 11
341.3743280613798
 21
231.31594319461081
 31
0.0
  0
LINE
  5
1DE
  8
NOTE
  6
CONTINUOUS
 62
     4
 10
320.0
 20
213.9999999999998
 30
0.0
 11
329.85273911847082
 21
239.68321087123999
 31
0.0
  0
TEXT
  5
1DF
  8
ETC
  6
CONTINUOUS
 62
    61
 10
120.0393508115812
 20
529.05379902286631
 30
0.0
 40
50.0
  1
LH-300WFRP_1
 50
0.0000029998804485
 41
0.8
  0
LINE
  5
1EE
  8
OUTLINE
  6
CONTINUOUS
 62
     3
 10
-334.9999986119422
 20
-240.0000011618138
 30
0.0
 11
335.00000138805962
 21
-240.0000011618138
 31
0.0
  0
ENDSEC
  0
EOF
