  0
SECTION
  2
HEADER
  9
$ACADVER
  1
AC1009
  9
$INSBASE
 10
0.0
 20
0.0
 30
0.0
  9
$EXTMIN
 10
-1284.8471924167791
 20
-1094.457576328917
 30
-0.0015258207003583
  9
$EXTMAX
 10
1242.3669344381051
 20
1147.196425212187
 30
0.0000000349246037
  9
$LIMMIN
 10
-4267.1522210604817
 20
-2696.0832101984129
  9
$LIMMAX
 10
7190.7174225864646
 20
5141.155363923066
  9
$ORTHOMODE
 70
     0
  9
$REGENMODE
 70
     1
  9
$FILLMODE
 70
     1
  9
$QTEXTMODE
 70
     0
  9
$MIRRTEXT
 70
     0
  9
$DRAGMODE
 70
     2
  9
$LTSCALE
 40
20.0
  9
$OSMODE
 70
   431
  9
$ATTMODE
 70
     1
  9
$TEXTSIZE
 40
64.0
  9
$TRACEWID
 40
0.05
  9
$TEXTSTYLE
  7
STANDARD_MODELNAME
  9
$CLAYER
  8
SYMBOLLINE
  9
$CELTYPE
  6
CONTINUOUS
  9
$CECOLOR
 62
     7
  9
$DIMSCALE
 40
1.0
  9
$DIMASZ
 40
30.0
  9
$DIMEXO
 40
20.0
  9
$DIMDLI
 40
80.0
  9
$DIMRND
 40
0.0
  9
$DIMDLE
 40
0.0
  9
$DIMEXE
 40
20.0
  9
$DIMTP
 40
0.0
  9
$DIMTM
 40
0.0
  9
$DIMTXT
 40
60.0
  9
$DIMCEN
 40
0.09
  9
$DIMTSZ
 40
0.0
  9
$DIMTOL
 70
     0
  9
$DIMLIM
 70
     0
  9
$DIMTIH
 70
     0
  9
$DIMTOH
 70
     0
  9
$DIMSE1
 70
     0
  9
$DIMSE2
 70
     0
  9
$DIMTAD
 70
     1
  9
$DIMZIN
 70
     8
  9
$DIMBLK
  1
SMALL
  9
$DIMASO
 70
     1
  9
$DIMSHO
 70
     0
  9
$DIMPOST
  1

  9
$DIMAPOST
  1

  9
$DIMALT
 70
     0
  9
$DIMALTD
 70
     2
  9
$DIMALTF
 40
25.399999999999999
  9
$DIMLFAC
 40
1.0
  9
$DIMTOFL
 70
     1
  9
$DIMTVP
 40
0.0
  9
$DIMTIX
 70
     0
  9
$DIMSOXD
 70
     0
  9
$DIMSAH
 70
     0
  9
$DIMBLK1
  1

  9
$DIMBLK2
  1

  9
$DIMSTYLE
  2
STANDARD
  9
$DIMCLRD
 70
     0
  9
$DIMCLRE
 70
     0
  9
$DIMCLRT
 70
     0
  9
$DIMTFAC
 40
1.0
  9
$DIMGAP
 40
0.09
  9
$LUNITS
 70
     2
  9
$LUPREC
 70
     4
  9
$SKETCHINC
 40
0.1
  9
$FILLETRAD
 40
30.0
  9
$AUNITS
 70
     1
  9
$AUPREC
 70
     3
  9
$MENU
  1
ACAD
  9
$ELEVATION
 40
0.0
  9
$PELEVATION
 40
0.0
  9
$THICKNESS
 40
0.0
  9
$LIMCHECK
 70
     0
  9
$BLIPMODE
 70
     0
  9
$CHAMFERA
 40
0.0
  9
$CHAMFERB
 40
0.0
  9
$SKPOLY
 70
     0
  9
$TDCREATE
 40
2450330.4399309959
  9
$TDUPDATE
 40
2455727.4221311002
  9
$TDINDWG
 40
4.0269837731000004
  9
$TDUSRTIMER
 40
4.0269454398000004
  9
$USRTIMER
 70
     1
  9
$ANGBASE
 50
0.0
  9
$ANGDIR
 70
     0
  9
$PDMODE
 70
     3
  9
$PDSIZE
 40
-2.0
  9
$PLINEWID
 40
0.0
  9
$COORDS
 70
     0
  9
$SPLFRAME
 70
     0
  9
$SPLINETYPE
 70
     6
  9
$SPLINESEGS
 70
     8
  9
$ATTDIA
 70
     0
  9
$ATTREQ
 70
     1
  9
$HANDLING
 70
     1
  9
$HANDSEED
  5
3C5
  9
$SURFTAB1
 70
     6
  9
$SURFTAB2
 70
     6
  9
$SURFTYPE
 70
     6
  9
$SURFU
 70
     6
  9
$SURFV
 70
     6
  9
$UCSNAME
  2

  9
$UCSORG
 10
0.0
 20
0.0
 30
0.0
  9
$UCSXDIR
 10
1.0
 20
0.0
 30
0.0
  9
$UCSYDIR
 10
0.0
 20
1.0
 30
0.0
  9
$PUCSNAME
  2

  9
$PUCSORG
 10
0.0
 20
0.0
 30
0.0
  9
$PUCSXDIR
 10
1.0
 20
0.0
 30
0.0
  9
$PUCSYDIR
 10
0.0
 20
1.0
 30
0.0
  9
$USERI1
 70
     0
  9
$USERI2
 70
     0
  9
$USERI3
 70
     0
  9
$USERI4
 70
     0
  9
$USERI5
 70
     0
  9
$USERR1
 40
20.0
  9
$USERR2
 40
0.0
  9
$USERR3
 40
0.0
  9
$USERR4
 40
0.0
  9
$USERR5
 40
0.0
  9
$WORLDVIEW
 70
     1
  9
$SHADEDGE
 70
     3
  9
$SHADEDIF
 70
    70
  9
$TILEMODE
 70
     1
  9
$MAXACTVP
 70
    64
  9
$PLIMCHECK
 70
     0
  9
$PEXTMIN
 10
1.0000000000000000E+020
 20
1.0000000000000000E+020
 30
1.0000000000000000E+020
  9
$PEXTMAX
 10
-1.0000000000000000E+020
 20
-1.0000000000000000E+020
 30
-1.0000000000000000E+020
  9
$PLIMMIN
 10
0.0
 20
0.0
  9
$PLIMMAX
 10
12.0
 20
9.0
  9
$UNITMODE
 70
     0
  9
$VISRETAIN
 70
     1
  9
$PLINEGEN
 70
     0
  9
$PSLTSCALE
 70
     1
  0
ENDSEC
  0
SECTION
  2
TABLES
  0
TABLE
  2
VPORT
 70
     1
  0
VPORT
  2
*ACTIVE
 70
     0
 10
0.0
 20
0.0
 11
1.0
 21
1.0
 12
-21.240128989336831
 22
26.369424441634688
 13
0.0
 23
0.0
 14
50.0
 24
50.0
 15
100.0
 25
100.0
 16
0.0
 26
0.0
 36
1.0
 17
0.0
 27
0.0
 37
0.0
 40
2258.7441209937688
 41
1.555979643765903
 42
50.0
 43
0.0
 44
0.0
 50
0.0
 51
0.0
 71
     0
 72
  1000
 73
     1
 74
     0
 75
     0
 76
     0
 77
     0
 78
     0
  0
ENDTAB
  0
TABLE
  2
LTYPE
 70
     3
  0
LTYPE
  2
CONTINUOUS
 70
     0
  3
実線
 72
    65
 73
     0
 40
0.0
  0
LTYPE
  2
DASHDOT
 70
     0
  3
____ _ ____ _ ____ _ ____ _ ____ _ ____ _ ____
 72
    65
 73
     4
 40
5.5
 49
4.0
 49
-0.6
 49
0.3
 49
-0.6
  0
ENDTAB
  0
TABLE
  2
LAYER
 70
    12
  0
LAYER
  2
0
 70
     0
 62
     7
  6
CONTINUOUS
  0
LAYER
  2
SIZE
 70
     0
 62
    30
  6
CONTINUOUS
  0
LAYER
  2
OUTLINE
 70
     0
 62
     3
  6
CONTINUOUS
  0
LAYER
  2
DETAIL
 70
     0
 62
     5
  6
CONTINUOUS
  0
LAYER
  2
BASIS
 70
     0
 62
     6
  6
DASHDOT
  0
LAYER
  2
NOTE
 70
     0
 62
     4
  6
CONTINUOUS
  0
LAYER
  2
ARRANGE
 70
     0
 62
     1
  6
CONTINUOUS
  0
LAYER
  2
FIX
 70
     0
 62
    11
  6
CONTINUOUS
  0
LAYER
  2
SERVICESPACE
 70
     0
 62
     2
  6
DASHDOT
  0
LAYER
  2
ETC
 70
     0
 62
    61
  6
CONTINUOUS
  0
LAYER
  2
SYMBOLLINE
 70
     0
 62
    15
  6
CONTINUOUS
  0
LAYER
  2
DEFPOINTS
 70
     0
 62
     7
  6
CONTINUOUS
  0
ENDTAB
  0
TABLE
  2
STYLE
 70
     4
  0
STYLE
  2
STANDARD
 70
     0
 40
0.0
 41
0.9
 50
0.0
 71
     0
 42
64.0
  3
SIMPLEX
  4
BIGFONT
  0
STYLE
  2
ANNOTATIVE
 70
     0
 40
0.0
 41
1.0
 50
0.0
 71
     0
 42
0.2
  3
txt
  4

  0
STYLE
  2
STANDARD_MODELNAME
 70
     0
 40
80.0
 41
0.8
 50
0.0
 71
     0
 42
64.0
  3
MONOTXT.shx
  4
BIGFONT.shx
  0
STYLE
  2
STANDARD1
 70
     0
 40
60.0
 41
0.7
 50
0.0
 71
     0
 42
64.0
  3
MONOTXT.shx
  4
BIGFONT.shx
  0
ENDTAB
  0
TABLE
  2
VIEW
 70
    11
  0
VIEW
  2
ALL
 70
     0
 40
9000.0
 10
241.50664699999999
 20
0.0
 41
12483.01
 11
0.0
 21
0.0
 31
1.0
 12
0.0
 22
0.0
 32
0.0
 42
50.0
 43
0.0
 44
0.0
 50
0.0
 71
     0
  0
ENDTAB
  0
TABLE
  2
UCS
 70
     0
  0
ENDTAB
  0
TABLE
  2
APPID
 70
     4
  0
APPID
  2
ACAD
 70
     0
  0
APPID
  2
ACADANNOTATIVE
 70
     0
  0
APPID
  2
ACAD_MLEADERVER
 70
     0
  0
APPID
  2
ACAD_EXEMPT_FROM_CAD_STANDARDS
 70
     0
  0
ENDTAB
  0
TABLE
  2
DIMSTYLE
 70
     3
  0
DIMSTYLE
  2
STANDARD
 70
     0
  3

  4

  5

  6

  7

 40
1.0
 41
0.18
 42
0.0625
 43
0.38
 44
0.18
 45
0.0
 46
0.0
 47
0.0
 48
0.0
140
0.18
141
0.09
142
0.0
143
25.399999999999999
144
1.0
145
0.0
146
1.0
147
0.09
 71
     0
 72
     0
 73
     1
 74
     1
 75
     0
 76
     0
 77
     0
 78
     0
170
     0
171
     2
172
     0
173
     0
174
     0
175
     0
176
     0
177
     0
178
     0
  0
DIMSTYLE
  2
ANNOTATIVE
 70
     0
  3

  4

  5

  6

  7

 40
1.0
 41
0.18
 42
0.0625
 43
0.38
 44
0.18
 45
0.0
 46
0.0
 47
0.0
 48
0.0
140
0.18
141
0.09
142
0.0
143
25.399999999999999
144
1.0
145
0.0
146
1.0
147
0.09
 71
     0
 72
     0
 73
     1
 74
     1
 75
     0
 76
     0
 77
     0
 78
     0
170
     0
171
     2
172
     0
173
     0
174
     0
175
     0
176
     0
177
     0
178
     0
  0
ENDTAB
  0
ENDSEC
  0
SECTION
  2
BLOCKS
  0
BLOCK
  8
0
  2
$MODEL_SPACE
 70
     0
 10
0.0
 20
0.0
 30
0.0
  3
$MODEL_SPACE
  1

  0
ENDBLK
  5
76
  8
0
  0
BLOCK
 67
     1
  8
0
  2
$PAPER_SPACE
 70
     0
 10
0.0
 20
0.0
 30
0.0
  3
$PAPER_SPACE
  1

  0
ENDBLK
  5
72
 67
     1
  8
0
  0
BLOCK
  8
0
  2
_SMALL
 70
     0
 10
0.0
 20
0.0
 30
0.0
  3
_SMALL
  1

  0
CIRCLE
  5
8D
  8
0
  6
CONTINUOUS
 62
     7
 10
0.0
 20
0.0
 30
0.0
 40
0.25
  0
ENDBLK
  5
8E
  8
0
  0
ENDSEC
  0
SECTION
  2
ENTITIES
  0
LINE
  5
8F
  8
DETAIL
  6
CONTINUOUS
 62
     5
 10
-338.09263057645239
 20
-335.9996265852642
 30
0.0
 11
-229.70826803280761
 21
-335.9996265852642
 31
0.0
  0
LINE
  5
90
  8
DETAIL
  6
CONTINUOUS
 62
     5
 10
-380.59063039751351
 20
-335.9996265852642
 30
0.0
 11
-374.59281442276728
 21
-335.9996265852642
 31
0.0
  0
LINE
  5
91
  8
DETAIL
  6
CONTINUOUS
 62
     5
 10
-380.59063039751351
 20
-318.19962466021212
 30
0.0
 11
-380.59063039751351
 21
-335.9996265852642
 31
0.0
  0
LINE
  5
92
  8
DETAIL
  6
CONTINUOUS
 62
     5
 10
-338.29263057645221
 20
-325.99962762736959
 30
0.0
 11
-230.43234703060079
 21
-325.99962762736959
 31
0.0
  0
LINE
  5
93
  8
DETAIL
  6
CONTINUOUS
 62
     5
 10
-380.59063039751351
 20
-325.99962762736959
 30
0.0
 11
-374.59281442276728
 21
-325.99962762736959
 31
0.0
  0
LINE
  5
94
  8
DETAIL
  6
CONTINUOUS
 62
     5
 10
-380.59063039751351
 20
-318.19962466021212
 30
0.0
 11
-230.64112702887991
 21
-318.19962466021212
 31
0.0
  0
LINE
  5
95
  8
DETAIL
  6
CONTINUOUS
 62
     5
 10
-370.33906344067861
 20
334.98350858954291
 30
0.0
 11
-357.9645674927815
 21
322.609021641646
 31
0.0
  0
LINE
  5
96
  8
DETAIL
  6
CONTINUOUS
 62
     5
 10
-344.05259255135752
 20
348.54190953245512
 30
0.0
 11
-345.69631654443668
 21
354.67636350662542
 31
0.0
  0
CIRCLE
  5
97
  8
DETAIL
  6
CONTINUOUS
 62
     5
 10
-350.18644352553201
 20
350.18622752553159
 30
0.0
 40
3.5000009852631511
  0
CIRCLE
  5
98
  8
DETAIL
  6
CONTINUOUS
 62
     5
 10
-350.18644352553201
 20
350.18622752553159
 30
0.0
 40
2.5000019894736729
  0
LINE
  5
99
  8
DETAIL
  6
CONTINUOUS
 62
     5
 10
-370.33906344067861
 20
356.196715500224
 30
0.0
 11
-370.33906344067861
 21
334.98350858954291
 31
0.0
  0
CIRCLE
  5
9A
  8
DETAIL
  6
CONTINUOUS
 62
     5
 10
-350.18644352553201
 20
350.18622752553159
 30
0.0
 40
1.8999989920000031
  0
LINE
  5
9B
  8
DETAIL
  6
CONTINUOUS
 62
     5
 10
-356.32029449970469
 20
351.83055451860849
 30
0.0
 11
-354.67657050662638
 21
345.69610054443717
 31
0.0
  0
LINE
  5
9C
  8
DETAIL
  6
CONTINUOUS
 62
     5
 10
-354.67657050662638
 20
345.69610054443717
 30
0.0
 11
-348.5421165324542
 21
344.05238555135833
 31
0.0
  0
LINE
  5
9D
  8
DETAIL
  6
CONTINUOUS
 62
     5
 10
-344.05259255135752
 20
348.54190953245512
 30
0.0
 11
-348.5421165324542
 21
344.05238555135833
 31
0.0
  0
LINE
  5
9E
  8
DETAIL
  6
CONTINUOUS
 62
     5
 10
-345.69631654443668
 20
354.67636350662542
 30
0.0
 11
-351.8307705186071
 21
356.32007849970432
 31
0.0
  0
LINE
  5
9F
  8
DETAIL
  6
CONTINUOUS
 62
     5
 10
-351.8307705186071
 20
356.32007849970432
 30
0.0
 11
-356.32029449970469
 21
351.83055451860849
 31
0.0
  0
LINE
  5
A0
  8
DETAIL
  6
CONTINUOUS
 62
     5
 10
-370.33906344067861
 20
356.196715500224
 30
0.0
 11
-356.19692250022399
 21
370.33884744067831
 31
0.0
  0
LINE
  5
A1
  8
DETAIL
  6
CONTINUOUS
 62
     5
 10
-334.98372458954231
 20
370.33884744067831
 30
0.0
 11
-356.19692250022399
 21
370.33884744067831
 31
0.0
  0
LINE
  5
A2
  8
DETAIL
  6
CONTINUOUS
 62
     5
 10
-334.98372458954231
 20
370.33884744067831
 30
0.0
 11
-322.59933764168738
 21
357.95446049282327
 31
0.0
  0
LINE
  5
A3
  8
DETAIL
  6
CONTINUOUS
 62
     5
 10
372.10682543323401
 20
333.2157375969864
 30
0.0
 11
359.73233848533721
 21
320.84125064908949
 31
0.0
  0
LINE
  5
A4
  8
DETAIL
  6
CONTINUOUS
 62
     5
 10
345.82035454391371
 20
346.77413853989862
 30
0.0
 11
347.46407853699287
 21
352.90859251406891
 31
0.0
  0
CIRCLE
  5
A5
  8
DETAIL
  6
CONTINUOUS
 62
     5
 10
351.95420551808718
 20
348.41846553297552
 30
0.0
 40
3.5000009852631511
  0
CIRCLE
  5
A6
  8
DETAIL
  6
CONTINUOUS
 62
     5
 10
351.95420551808718
 20
348.41846553297552
 30
0.0
 40
2.5000019894736729
  0
LINE
  5
A7
  8
DETAIL
  6
CONTINUOUS
 62
     5
 10
372.10682543323401
 20
354.4289445076675
 30
0.0
 11
372.10682543323401
 21
333.2157375969864
 31
0.0
  0
CIRCLE
  5
A8
  8
DETAIL
  6
CONTINUOUS
 62
     5
 10
351.95420551808718
 20
348.41846553297552
 30
0.0
 40
1.8999989920000031
  0
LINE
  5
A9
  8
DETAIL
  6
CONTINUOUS
 62
     5
 10
358.08805649226088
 20
350.06279252605151
 30
0.0
 11
356.44433249918171
 21
343.92833855188019
 31
0.0
  0
LINE
  5
AA
  8
DETAIL
  6
CONTINUOUS
 62
     5
 10
356.44433249918171
 20
343.92833855188019
 30
0.0
 11
350.3098785250113
 21
342.28461455880188
 31
0.0
  0
LINE
  5
AB
  8
DETAIL
  6
CONTINUOUS
 62
     5
 10
345.82035454391371
 20
346.77413853989862
 30
0.0
 11
350.3098785250113
 21
342.28461455880188
 31
0.0
  0
LINE
  5
AC
  8
DETAIL
  6
CONTINUOUS
 62
     5
 10
347.46407853699287
 20
352.90859251406891
 30
0.0
 11
353.59853251116419
 21
354.55231650714819
 31
0.0
  0
LINE
  5
AD
  8
DETAIL
  6
CONTINUOUS
 62
     5
 10
353.59853251116419
 20
354.55231650714819
 30
0.0
 11
358.08805649226088
 21
350.06279252605151
 31
0.0
  0
LINE
  5
AE
  8
DETAIL
  6
CONTINUOUS
 62
     5
 10
372.10682543323401
 20
354.4289445076675
 30
0.0
 11
357.96468449278018
 21
368.57107644812203
 31
0.0
  0
LINE
  5
AF
  8
DETAIL
  6
CONTINUOUS
 62
     5
 10
336.75148658209849
 20
368.57107644812203
 30
0.0
 11
357.96468449278018
 21
368.57107644812203
 31
0.0
  0
LINE
  5
B0
  8
DETAIL
  6
CONTINUOUS
 62
     5
 10
336.75148658209849
 20
368.57107644812203
 30
0.0
 11
324.36709963424352
 21
356.18668950026682
 31
0.0
  0
LINE
  5
B1
  8
DETAIL
  6
CONTINUOUS
 62
     5
 10
-346.91842653929052
 20
-344.50000054947299
 30
0.0
 11
-353.26757551255832
 21
-344.50000054947299
 31
0.0
  0
LINE
  5
B2
  8
DETAIL
  6
CONTINUOUS
 62
     5
 10
-346.91842653929052
 20
-344.50000054947299
 30
0.0
 11
-343.7430015526607
 21
-349.99999952631521
 31
0.0
  0
LINE
  5
B3
  8
DETAIL
  6
CONTINUOUS
 62
     5
 10
-356.44300049918809
 20
-349.99999952631521
 30
0.0
 11
-353.26757551255832
 21
-344.50000054947299
 31
0.0
  0
LINE
  5
B4
  8
DETAIL
  6
CONTINUOUS
 62
     5
 10
-346.91842653929052
 20
-355.49999850315731
 30
0.0
 11
-353.26757551255832
 21
-355.49999850315731
 31
0.0
  0
LINE
  5
B5
  8
DETAIL
  6
CONTINUOUS
 62
     5
 10
-343.7430015526607
 20
-349.99999952631521
 30
0.0
 11
-346.91842653929052
 21
-355.49999850315731
 31
0.0
  0
LINE
  5
B6
  8
DETAIL
  6
CONTINUOUS
 62
     5
 10
-353.26757551255832
 20
-355.49999850315731
 30
0.0
 11
-356.44300049918809
 21
-349.99999952631521
 31
0.0
  0
CIRCLE
  5
B7
  8
DETAIL
  6
CONTINUOUS
 62
     5
 10
-350.09299652592478
 20
-349.99999952631521
 30
0.0
 40
2.5000019894736729
  0
CIRCLE
  5
B8
  8
DETAIL
  6
CONTINUOUS
 62
     5
 10
-350.09299652592478
 20
-349.99999952631521
 30
0.0
 40
1.8999989920000031
  0
LINE
  5
B9
  8
DETAIL
  6
CONTINUOUS
 62
     5
 10
-353.09293051329308
 20
-361.00010547999852
 30
0.0
 11
-374.59281442276728
 21
-339.5002215705253
 31
0.0
  0
LINE
  5
BA
  8
DETAIL
  6
CONTINUOUS
 62
     5
 10
-353.09293051329308
 20
-361.00010547999852
 30
0.0
 11
-341.09262756382122
 21
-361.00010547999852
 31
0.0
  0
ARC
  5
BB
  8
DETAIL
  6
CONTINUOUS
 62
     5
 10
-341.09262756382122
 20
-358.0000994926304
 30
0.0
 40
2.99999698736843
 50
270.0
 51
0.0
  0
LINE
  5
BC
  8
DETAIL
  6
CONTINUOUS
 62
     5
 10
-338.09263057645239
 20
-358.0000994926304
 30
0.0
 11
-338.09263057645239
 21
-318.19962466021212
 31
0.0
  0
LINE
  5
BD
  8
DETAIL
  6
CONTINUOUS
 62
     5
 10
-260.57359690284829
 20
-420.00000123157849
 30
0.0
 11
260.58095890281669
 21
-419.99263023160972
 31
0.0
  0
LINE
  5
BE
  8
DETAIL
  6
CONTINUOUS
 62
     5
 10
-225.30638605134209
 20
-419.99263023160972
 30
0.0
 11
-230.64112702887991
 21
-318.19962466021212
 31
0.0
  0
LINE
  5
BF
  8
DETAIL
  6
CONTINUOUS
 62
     5
 10
-258.48289691165138
 20
-416.21098324753262
 30
0.0
 11
-338.09263057645239
 21
-336.60124958273173
 31
0.0
  0
LINE
  5
C0
  8
DETAIL
  6
CONTINUOUS
 62
     5
 10
-258.48289691165138
 20
-416.21098324753262
 30
0.0
 11
-225.50456605050749
 21
-416.21098324753262
 31
0.0
  0
LINE
  5
C1
  8
DETAIL
  6
CONTINUOUS
 62
     5
 10
-420.00000123157952
 20
-260.57359690284738
 30
0.0
 11
-419.99263023161052
 21
260.58095890281669
 31
0.0
  0
LINE
  5
C2
  8
DETAIL
  6
CONTINUOUS
 62
     5
 10
419.99262123160941
 20
260.5611679028998
 30
0.0
 11
419.99262123160941
 21
-260.58096790281712
 31
0.0
  0
LINE
  5
C3
  8
DETAIL
  6
CONTINUOUS
 62
     5
 10
419.99262123160941
 20
260.5611679028998
 30
0.0
 11
260.5611679028998
 21
419.99262123160941
 31
0.0
  0
LINE
  5
C4
  8
DETAIL
  6
CONTINUOUS
 62
     5
 10
260.5611679028998
 20
419.99262123160941
 30
0.0
 11
-260.58096790281712
 21
419.99262123160941
 31
0.0
  0
LINE
  5
C5
  8
DETAIL
  6
CONTINUOUS
 62
     5
 10
-419.99263023161052
 20
260.58095890281669
 30
0.0
 11
-260.58096790281712
 21
419.99262123160941
 31
0.0
  0
LINE
  5
C6
  8
DETAIL
  6
CONTINUOUS
 62
     5
 10
-23.290100901936949
 20
-424.99262521055681
 30
0.0
 11
-23.290100901936949
 21
-419.99263023160972
 31
0.0
  0
LINE
  5
C7
  8
DETAIL
  6
CONTINUOUS
 62
     5
 10
61.709894740168238
 20
-424.99262521055681
 30
0.0
 11
61.709894740168238
 21
-419.99263023160972
 31
0.0
  0
LINE
  5
C8
  8
DETAIL
  6
CONTINUOUS
 62
     5
 10
-23.290100901936949
 20
-424.99262521055681
 30
0.0
 11
61.709894740168238
 21
-424.99262521055681
 31
0.0
  0
LINE
  5
C9
  8
DETAIL
  6
CONTINUOUS
 62
     5
 10
272.39103785308998
 20
-408.181849281339
 30
0.0
 11
276.35083083641712
 21
-412.14164226466602
 31
0.0
  0
LINE
  5
CA
  8
DETAIL
  6
CONTINUOUS
 62
     5
 10
407.66082128353253
 20
-279.98383382112007
 30
0.0
 11
404.12528829841989
 21
-276.44830083600652
 31
0.0
  0
LINE
  5
CB
  8
DETAIL
  6
CONTINUOUS
 62
     5
 10
-374.59281442276728
 20
-318.19962466021212
 30
0.0
 11
-374.59281442276728
 21
-339.5002215705253
 31
0.0
  0
LINE
  5
CC
  8
DETAIL
  6
CONTINUOUS
 62
     5
 10
-419.99263023161052
 20
-225.23936305162351
 30
0.0
 11
-380.5909363975116
 21
-318.19962466021212
 31
0.0
  0
LINE
  5
CD
  8
DETAIL
  6
CONTINUOUS
 62
     5
 10
358.08823649225911
 20
-350.0626125260514
 30
0.0
 11
353.59871251116323
 21
-354.55213650714899
 31
0.0
  0
LINE
  5
CE
  8
DETAIL
  6
CONTINUOUS
 62
     5
 10
356.44451249917978
 20
-343.9281585518811
 30
0.0
 11
358.08823649225911
 21
-350.0626125260514
 31
0.0
  0
LINE
  5
CF
  8
DETAIL
  6
CONTINUOUS
 62
     5
 10
350.31006752501082
 20
-342.28443455880188
 30
0.0
 11
345.8205345439128
 21
-346.77395853989862
 31
0.0
  0
LINE
  5
D0
  8
DETAIL
  6
CONTINUOUS
 62
     5
 10
350.31006752501082
 20
-342.28443455880188
 30
0.0
 11
356.44451249917978
 21
-343.9281585518811
 31
0.0
  0
LINE
  5
D1
  8
DETAIL
  6
CONTINUOUS
 62
     5
 10
347.46425853699202
 20
-352.90841251406982
 30
0.0
 11
345.8205345439128
 21
-346.77395853989862
 31
0.0
  0
LINE
  5
D2
  8
DETAIL
  6
CONTINUOUS
 62
     5
 10
353.59871251116323
 20
-354.55213650714899
 30
0.0
 11
347.46425853699202
 21
-352.90841251406982
 31
0.0
  0
LINE
  5
D3
  8
DETAIL
  6
CONTINUOUS
 62
     5
 10
336.75166658209758
 20
-368.57090544812218
 30
0.0
 11
324.37717963420158
 21
-356.19640950022477
 31
0.0
  0
LINE
  5
D4
  8
DETAIL
  6
CONTINUOUS
 62
     5
 10
372.10700543323401
 20
-333.21556659698672
 30
0.0
 11
363.26805147044968
 21
-324.37661263420341
 31
0.0
  0
LINE
  5
D5
  8
DETAIL
  6
CONTINUOUS
 62
     5
 10
419.99262123160941
 20
-260.58096790281712
 30
0.0
 11
260.58095890281669
 21
-419.99263023160972
 31
0.0
  0
LINE
  5
D6
  8
DETAIL
  6
CONTINUOUS
 62
     5
 10
344.02120955148979
 20
-336.55237958293668
 30
0.0
 11
347.55674253660248
 21
-340.08791256805023
 31
0.0
  0
LINE
  5
D7
  8
DETAIL
  6
CONTINUOUS
 62
     5
 10
407.66082128353253
 20
-279.98383382112007
 30
0.0
 11
347.55674253660248
 21
-340.08791256805023
 31
0.0
  0
LINE
  5
D8
  8
DETAIL
  6
CONTINUOUS
 62
     5
 10
321.1814056476569
 20
-367.31107645342672
 30
0.0
 11
276.35083083641712
 21
-412.14164226466602
 31
0.0
  0
LINE
  5
D9
  8
DETAIL
  6
CONTINUOUS
 62
     5
 10
317.22190066432893
 20
-363.35157147009812
 30
0.0
 11
321.1814056476569
 21
-367.31107645342672
 31
0.0
  0
ARC
  5
DA
  8
DETAIL
  6
CONTINUOUS
 62
     5
 10
317.22160366432951
 20
-363.35127447009933
 30
0.0
 40
0.6000029974736713
 50
315.00000000002279
 51
44.999999999977199
  0
LINE
  5
DB
  8
DETAIL
  6
CONTINUOUS
 62
     5
 10
317.64586366254298
 20
-363.77554346831312
 30
0.0
 11
272.81529785130351
 21
-408.60610927955241
 31
0.0
  0
CIRCLE
  5
DC
  8
DETAIL
  6
CONTINUOUS
 62
     5
 10
351.95438551808638
 20
-348.41828553297552
 30
0.0
 40
1.8999989920000031
  0
LINE
  5
DD
  8
DETAIL
  6
CONTINUOUS
 62
     5
 10
357.96486449277933
 20
-368.57090544812218
 30
0.0
 11
336.75166658209758
 21
-368.57090544812218
 31
0.0
  0
LINE
  5
DE
  8
DETAIL
  6
CONTINUOUS
 62
     5
 10
372.10700543323401
 20
-333.21556659698672
 30
0.0
 11
372.10700543323401
 21
-354.42876450766818
 31
0.0
  0
CIRCLE
  5
DF
  8
DETAIL
  6
CONTINUOUS
 62
     5
 10
351.95438551808638
 20
-348.41828553297552
 30
0.0
 40
2.5000019894736729
  0
CIRCLE
  5
E0
  8
DETAIL
  6
CONTINUOUS
 62
     5
 10
351.95438551808638
 20
-348.41828553297552
 30
0.0
 40
3.5000009852631511
  0
LINE
  5
E1
  8
DETAIL
  6
CONTINUOUS
 62
     5
 10
357.96486449277933
 20
-368.57090544812218
 30
0.0
 11
372.10700543323401
 21
-354.42876450766818
 31
0.0
  0
LINE
  5
E2
  8
BASIS
  6
DASHDOT
 62
     6
 10
0.0000000000000142
 20
500.0
 30
0.0
 11
0.0000000000000142
 21
-500.0
 31
0.0
  0
LINE
  5
E3
  8
BASIS
  6
DASHDOT
 62
     6
 10
-500.0
 20
0.0
 30
0.0
 11
500.0
 21
0.0
 31
0.0
  0
LINE
  5
E4
  8
DETAIL
  6
CONTINUOUS
 62
     5
 10
425.38519992258972
 20
-314.89927095831808
 30
0.0
 11
440.94146585708933
 21
-299.3430140238188
 31
0.0
  0
LINE
  5
E5
  8
DETAIL
  6
CONTINUOUS
 62
     5
 10
401.3434820238179
 20
-338.94099785709028
 30
0.0
 11
416.89991895831628
 21
-323.38455192259062
 31
0.0
  0
ARC
  5
E6
  8
DETAIL
  6
CONTINUOUS
 62
     5
 10
414.07107497022753
 20
-297.92893402977279
 30
0.0
 40
6.000002974736824
 50
315.00000000002279
 51
135.00000000002279
  0
LINE
  5
E7
  8
DETAIL
  6
CONTINUOUS
 62
     5
 10
395.68629804763708
 20
-307.82842998809048
 30
0.0
 11
409.8284299880915
 21
-293.68628904763602
 31
0.0
  0
ARC
  5
E8
  8
DETAIL
  6
CONTINUOUS
 62
     5
 10
399.9289340297737
 20
-312.07106597022721
 30
0.0
 40
6.000002974736824
 50
135.00000000002279
 51
315.00000000002279
  0
LINE
  5
E9
  8
DETAIL
  6
CONTINUOUS
 62
     5
 10
416.89927755361992
 20
323.38520232728672
 30
0.0
 11
401.3430116191202
 21
338.9414592617868
 31
0.0
  0
LINE
  5
EA
  8
DETAIL
  6
CONTINUOUS
 62
     5
 10
440.94099545239158
 20
299.34347542851538
 30
0.0
 11
425.3845585178932
 21
314.89992136301407
 31
0.0
  0
ARC
  5
EB
  8
DETAIL
  6
CONTINUOUS
 62
     5
 10
399.92893162507431
 20
312.07106837492569
 30
0.0
 40
6.000002974736824
 50
44.999999999977199
 51
224.99999999997721
  0
LINE
  5
EC
  8
DETAIL
  6
CONTINUOUS
 62
     5
 10
409.828427583392
 20
293.6862914523345
 30
0.0
 11
395.6862956429386
 21
307.82842339278892
 31
0.0
  0
ARC
  5
ED
  8
DETAIL
  6
CONTINUOUS
 62
     5
 10
414.07107256552888
 20
297.92892743447101
 30
0.0
 40
6.000002974736824
 50
224.99999999997721
 51
44.999999999977199
  0
LINE
  5
EE
  8
DETAIL
  6
CONTINUOUS
 62
     5
 10
-425.38519770422681
 20
314.8992777399572
 30
0.0
 11
-440.94145463872701
 21
299.34301180545663
 31
0.0
  0
LINE
  5
EF
  8
DETAIL
  6
CONTINUOUS
 62
     5
 10
-401.34347980545482
 20
338.94099563872908
 30
0.0
 11
-416.89991673995422
 21
323.38455870422968
 31
0.0
  0
ARC
  5
F0
  8
DETAIL
  6
CONTINUOUS
 62
     5
 10
-414.07106375186578
 20
297.92893181141159
 30
0.0
 40
6.000002974736824
 50
135.00000000002279
 51
315.00000000002279
  0
LINE
  5
F1
  8
DETAIL
  6
CONTINUOUS
 62
     5
 10
-395.68628682927562
 20
307.82842776972939
 30
0.0
 11
-409.82842776972939
 21
293.68629582927508
 31
0.0
  0
ARC
  5
F2
  8
DETAIL
  6
CONTINUOUS
 62
     5
 10
-399.92893181141142
 20
312.07107275186542
 30
0.0
 40
6.000002974736824
 50
315.00000000002279
 51
135.00000000002279
  0
LINE
  5
F3
  8
DETAIL
  6
CONTINUOUS
 62
     5
 10
415.4856117727112
 20
-304.9996828084403
 30
0.0
 11
418.31371776080402
 21
-302.17157682034758
 31
0.0
  0
LINE
  5
F4
  8
DETAIL
  6
CONTINUOUS
 62
     5
 10
425.38519992258972
 20
-314.89927095831808
 30
0.0
 11
415.48560496427109
 21
-304.99967600000127
 31
0.0
  0
LINE
  5
F5
  8
DETAIL
  6
CONTINUOUS
 62
     5
 10
416.89991895831628
 20
-323.38455192259062
 30
0.0
 11
407.00032399999873
 21
-313.4849569642729
 31
0.0
  0
LINE
  5
F6
  8
DETAIL
  6
CONTINUOUS
 62
     5
 10
404.17157901190973
 20
-316.31371095236318
 30
0.0
 11
407.00032399999873
 21
-313.4849569642729
 31
0.0
  0
LINE
  5
F7
  8
DETAIL
  6
CONTINUOUS
 62
     5
 10
411.08601598384791
 20
-269.4875731505785
 30
0.0
 11
440.94146585708933
 21
-299.3430140238188
 31
0.0
  0
LINE
  5
F8
  8
DETAIL
  6
CONTINUOUS
 62
     5
 10
375.0235742884679
 20
-312.62108081618487
 30
0.0
 11
401.3434820238179
 21
-338.94099785709028
 31
0.0
  0
LINE
  5
F9
  8
DETAIL
  6
CONTINUOUS
 62
     5
 10
425.3845585178932
 20
314.89992136301407
 30
0.0
 11
415.48496355957559
 21
305.00032640469641
 31
0.0
  0
LINE
  5
FA
  8
DETAIL
  6
CONTINUOUS
 62
     5
 10
418.31370854766448
 20
302.17157241660789
 30
0.0
 11
415.48496355957559
 21
305.00032640469641
 31
0.0
  0
LINE
  5
FB
  8
DETAIL
  6
CONTINUOUS
 62
     5
 10
416.89927755361992
 20
323.38520232728672
 30
0.0
 11
406.99967359530268
 21
313.48560736896889
 31
0.0
  0
LINE
  5
FC
  8
DETAIL
  6
CONTINUOUS
 62
     5
 10
406.99967359530268
 20
313.48560736896889
 30
0.0
 11
404.17157660721023
 21
316.3137043570614
 31
0.0
  0
LINE
  5
FD
  8
DETAIL
  6
CONTINUOUS
 62
     5
 10
438.67825146191888
 20
297.08074043804208
 30
0.0
 11
423.12181452741959
 21
312.63717737254137
 31
0.0
  0
LINE
  5
FE
  8
DETAIL
  6
CONTINUOUS
 62
     5
 10
414.63653356314802
 20
321.12245833681391
 30
0.0
 11
399.08027662864799
 21
336.6787152713141
 31
0.0
  0
LINE
  5
FF
  8
DETAIL
  6
CONTINUOUS
 62
     5
 10
423.12246493211637
 20
-312.63652696784538
 30
0.0
 11
438.67872186661668
 21
-297.0802700333461
 31
0.0
  0
LINE
  5
100
  8
DETAIL
  6
CONTINUOUS
 62
     5
 10
399.0807380333444
 20
-336.67825386661752
 30
0.0
 11
414.6371839678439
 21
-321.12180793211883
 31
0.0
  0
LINE
  5
101
  8
DETAIL
  6
CONTINUOUS
 62
     5
 10
371.47767074592139
 20
309.07611838858878
 30
0.0
 11
401.3430116191202
 21
338.9414592617868
 31
0.0
  0
LINE
  5
102
  8
DETAIL
  6
CONTINUOUS
 62
     5
 10
411.07565457919281
 20
269.4781345553165
 30
0.0
 11
440.94099545239158
 21
299.34347542851538
 31
0.0
  0
LINE
  5
103
  8
DETAIL
  6
CONTINUOUS
 62
     5
 10
-399.08073581498229
 20
336.67825164825632
 30
0.0
 11
-414.6371727494822
 21
321.12181471375692
 31
0.0
  0
LINE
  5
104
  8
DETAIL
  6
CONTINUOUS
 62
     5
 10
-423.12245371375502
 20
312.63653374948439
 30
0.0
 11
-438.67871964825451
 21
297.08027681498419
 31
0.0
  0
LINE
  5
105
  8
DETAIL
  6
CONTINUOUS
 62
     5
 10
-404.17156779354798
 20
316.31370873400101
 30
0.0
 11
-407.00032178163639
 21
313.48496374591201
 31
0.0
  0
LINE
  5
106
  8
DETAIL
  6
CONTINUOUS
 62
     5
 10
-416.89991673995422
 20
323.38455870422968
 30
0.0
 11
-407.00032178163639
 21
313.48496374591201
 31
0.0
  0
LINE
  5
107
  8
DETAIL
  6
CONTINUOUS
 62
     5
 10
-425.38519770422681
 20
314.8992777399572
 30
0.0
 11
-415.48560274591
 21
304.99967378163922
 31
0.0
  0
LINE
  5
108
  8
DETAIL
  6
CONTINUOUS
 62
     5
 10
-415.48560274591
 20
304.99967378163922
 30
0.0
 11
-418.31370873400192
 21
302.1715767935475
 31
0.0
  0
LINE
  5
109
  8
DETAIL
  6
CONTINUOUS
 62
     5
 10
-371.48803201653033
 20
309.08555711789722
 30
0.0
 11
-401.34347980545482
 21
338.94099563872908
 31
0.0
  0
LINE
  5
10A
  8
DETAIL
  6
CONTINUOUS
 62
     5
 10
-411.0860159838503
 20
269.4875731505781
 30
0.0
 11
-440.94145463872701
 21
299.34301180545663
 31
0.0
  0
LINE
  5
10B
  8
DETAIL
  6
CONTINUOUS
 62
     5
 10
-424.91405990891138
 20
-319.11021287624231
 30
0.0
 11
-417.49937394013148
 21
-336.60357580258631
 31
0.0
  0
ARC
  5
10C
  8
DETAIL
  6
CONTINUOUS
 62
     5
 10
-399.81023401461238
 20
-311.95035290638862
 30
0.0
 40
6.000002974736824
 50
225.9699999999936
 51
45.96999999999354
  0
LINE
  5
10D
  8
DETAIL
  6
CONTINUOUS
 62
     5
 10
-437.01183285797379
 20
-290.5681079964196
 30
0.0
 11
-429.5970478891939
 21
-308.0617049227622
 31
0.0
  0
LINE
  5
10E
  8
DETAIL
  6
CONTINUOUS
 62
     5
 10
-418.359962936508
 20
-302.36350794675491
 30
0.0
 11
-417.6873749393398
 21
-303.01370394401692
 31
0.0
  0
ARC
  5
10F
  8
DETAIL
  6
CONTINUOUS
 62
     5
 10
-414.18975895406749
 20
-298.04965496491877
 30
0.0
 40
6.000002974736824
 50
45.96999999999354
 51
225.9699999999936
  0
LINE
  5
110
  8
DETAIL
  6
CONTINUOUS
 62
     5
 10
-410.01954597162512
 20
-293.73579298308141
 30
0.0
 11
-395.64003003217113
 21
-307.63649092455228
 31
0.0
  0
LINE
  5
111
  8
DETAIL
  6
CONTINUOUS
 62
     5
 10
-429.5970478891939
 20
-308.0617049227622
 30
0.0
 11
-417.6873749393398
 21
-303.01370394401692
 31
0.0
  0
LINE
  5
112
  8
DETAIL
  6
CONTINUOUS
 62
     5
 10
-408.3145679788048
 20
-312.07440890586622
 30
0.0
 11
-403.98044699705309
 21
-316.26420588822572
 31
0.0
  0
LINE
  5
113
  8
DETAIL
  6
CONTINUOUS
 62
     5
 10
-424.91405990891138
 20
-319.11021287624231
 30
0.0
 11
-408.3145679788048
 21
-312.07440890586622
 31
0.0
  0
LINE
  5
114
  8
DETAIL
  6
CONTINUOUS
 62
     5
 10
-421.96779292131748
 20
-317.86141788150047
 30
0.0
 11
-414.55310695253678
 21
-335.35477180784437
 31
0.0
  0
LINE
  5
115
  8
DETAIL
  6
CONTINUOUS
 62
     5
 10
-434.06556587037988
 20
-289.31931300167707
 30
0.0
 11
-426.65078090159921
 21
-306.8129099280203
 31
0.0
  0
LINE
  5
116
  8
DETAIL
  6
CONTINUOUS
 62
     5
 10
-399.2628990169178
 20
-274.5679620637884
 30
0.0
 11
-437.01183285797379
 21
-290.5681079964196
 31
0.0
  0
LINE
  5
117
  8
DETAIL
  6
CONTINUOUS
 62
     5
 10
-380.59063039751351
 20
-320.95954315284268
 30
0.0
 11
-417.49937394013148
 21
-336.60357580258631
 31
0.0
  0
LINE
  5
118
  8
DETAIL
  6
CONTINUOUS
 62
     5
 10
-338.09263057645239
 20
-356.62336049842719
 30
0.0
 11
-268.86913986791927
 21
-425.84684220695999
 31
0.0
  0
LINE
  5
119
  8
DETAIL
  6
CONTINUOUS
 62
     5
 10
-334.7007735907336
 20
-370.05611244186912
 30
0.0
 11
-355.9139805014147
 21
-370.05611244186912
 31
0.0
  0
LINE
  5
11A
  8
DETAIL
  6
CONTINUOUS
 62
     5
 10
-334.7007735907336
 20
-370.05611244186912
 30
0.0
 11
-329.6803216118733
 21
-365.03566046300688
 31
0.0
  0
LINE
  5
11B
  8
DETAIL
  6
CONTINUOUS
 62
     5
 10
-370.05611244186912
 20
-355.9139805014147
 30
0.0
 11
-355.9139805014147
 21
-370.05611244186912
 31
0.0
  0
LINE
  5
11C
  8
DETAIL
  6
CONTINUOUS
 62
     5
 10
-370.05611244186912
 20
-355.9139805014147
 30
0.0
 11
-370.05611244186912
 21
-344.03692355142272
 31
0.0
  0
LINE
  5
11D
  8
DETAIL
  6
CONTINUOUS
 62
     5
 10
-338.09263057645239
 20
-342.48096755797451
 30
0.0
 11
-260.57359690284829
 21
-420.00000123157849
 31
0.0
  0
LINE
  5
11E
  8
DETAIL
  6
CONTINUOUS
 62
     5
 10
-378.55893258427568
 20
316.15645549060821
 30
0.0
 11
-365.03547146300832
 21
329.67991661187352
 31
0.0
  0
LINE
  5
11F
  8
DETAIL
  6
CONTINUOUS
 62
     5
 10
-329.68013261187292
 20
365.03525546300898
 30
0.0
 11
-268.86884286792161
 21
425.8465452069612
 31
0.0
  0
LINE
  5
120
  8
DETAIL
  6
CONTINUOUS
 62
     5
 10
331.4480656044289
 20
363.2676554704521
 30
0.0
 11
268.8690048679191
 21
425.84671620696088
 31
0.0
  0
LINE
  5
121
  8
DETAIL
  6
CONTINUOUS
 62
     5
 10
378.55863671610678
 20
316.15708435877428
 30
0.0
 11
366.80340445556442
 21
327.91231661931567
 31
0.0
  0
LINE
  5
122
  8
DETAIL
  6
CONTINUOUS
 62
     5
 10
315.49280267160879
 20
-379.22291840327119
 30
0.0
 11
268.8690048679191
 21
-425.84671620696088
 31
0.0
  0
LINE
  5
123
  8
DETAIL
  6
CONTINUOUS
 62
     5
 10
378.55911114857741
 20
-316.15661892630311
 30
0.0
 11
366.8035844555634
 21
-327.91214561931707
 31
0.0
  0
LINE
  5
124
  8
DETAIL
  6
CONTINUOUS
 62
     5
 10
425.84671620696088
 20
-268.86901386791942
 30
0.0
 11
418.1570874174966
 21
-276.5586426573837
 31
0.0
  0
LINE
  5
125
  8
DETAIL
  6
CONTINUOUS
 62
     5
 10
418.76748723676769
 20
-261.78978489772641
 30
0.0
 11
425.84671620696088
 21
-268.86901386791942
 31
0.0
  0
LINE
  5
126
  8
DETAIL
  6
CONTINUOUS
 62
     5
 10
261.789775897727
 20
-418.76748723676769
 30
0.0
 11
268.8690048679191
 21
-425.84671620696088
 31
0.0
  0
LINE
  5
127
  8
DETAIL
  6
CONTINUOUS
 62
     5
 10
-268.86913986791927
 20
-425.84684220695999
 30
0.0
 11
-261.78978489772823
 21
-418.76748723676769
 31
0.0
  0
LINE
  5
128
  8
DETAIL
  6
CONTINUOUS
 62
     5
 10
-425.8468422069617
 20
-268.86913986791927
 30
0.0
 11
-418.76748723676872
 21
-261.78978489772641
 31
0.0
  0
LINE
  5
12A
  8
DETAIL
  6
CONTINUOUS
 62
     5
 10
-425.8468422069617
 20
-268.86913986791927
 30
0.0
 11
-413.93089933973431
 21
-280.78509515404039
 31
0.0
  0
LINE
  5
12B
  8
DETAIL
  6
CONTINUOUS
 62
     5
 10
-420.00000123157952
 20
-260.57359690284738
 30
0.0
 11
-403.99844306753658
 21
-276.57515506689009
 31
0.0
  0
LINE
  5
12E
  8
DETAIL
  6
CONTINUOUS
 62
     5
 10
418.76748723676769
 20
261.789775897727
 30
0.0
 11
425.84671620696088
 21
268.86900486792001
 31
0.0
  0
LINE
  5
12F
  8
DETAIL
  6
CONTINUOUS
 62
     5
 10
261.789775897727
 20
418.76747823676828
 30
0.0
 11
268.8690048679191
 21
425.84671620696088
 31
0.0
  0
LINE
  5
130
  8
DETAIL
  6
CONTINUOUS
 62
     5
 10
425.84671620696088
 20
268.86900486792001
 30
0.0
 11
418.1566205493782
 21
276.55910052550189
 31
0.0
  0
LINE
  5
131
  8
DETAIL
  6
CONTINUOUS
 62
     5
 10
-418.76733423676973
 20
261.7896228977279
 30
0.0
 11
-425.84654520696313
 21
268.86884286792059
 31
0.0
  0
LINE
  5
132
  8
DETAIL
  6
CONTINUOUS
 62
     5
 10
-261.7896228977288
 20
418.76732523676941
 30
0.0
 11
-268.86884286792161
 21
425.8465452069612
 31
0.0
  0
LINE
  5
133
  8
DETAIL
  6
CONTINUOUS
 62
     5
 10
-425.84654520696313
 20
268.86884286792059
 30
0.0
 11
-418.15691953148132
 21
276.55847669821009
 31
0.0
  0
LINE
  5
134
  8
DETAIL
  6
CONTINUOUS
 62
     5
 10
330.03403061038262
 20
-361.85326947640721
 30
0.0
 11
282.33202381123368
 21
-409.55527627555603
 31
0.0
  0
LINE
  5
135
  8
DETAIL
  6
CONTINUOUS
 62
     5
 10
320.99999806736838
 20
-406.99999999999949
 30
0.0
 11
320.99999806736838
 21
-379.22291840327119
 31
0.0
  0
LINE
  5
136
  8
DETAIL
  6
CONTINUOUS
 62
     5
 10
353.00000193263168
 20
-407.00000000000028
 30
0.0
 11
353.00000193263168
 21
-379.22291840327119
 31
0.0
  0
LINE
  5
137
  8
DETAIL
  6
CONTINUOUS
 62
     5
 10
353.00000193263168
 20
-407.00000000000028
 30
0.0
 11
320.99999806736838
 21
-406.99999999999949
 31
0.0
  0
LINE
  5
138
  8
DETAIL
  6
CONTINUOUS
 62
     5
 10
377.14489640453382
 20
-314.74240368225583
 30
0.0
 11
365.38936946151807
 21
-326.49793062527169
 31
0.0
  0
LINE
  5
139
  8
DETAIL
  6
CONTINUOUS
 62
     5
 10
280.63460581838081
 20
-407.85786728270341
 30
0.0
 11
282.33202381123368
 21
-409.55527627555603
 31
0.0
  0
LINE
  5
13A
  8
DETAIL
  6
CONTINUOUS
 62
     5
 10
362.77924347250791
 20
-379.22291840327119
 30
0.0
 11
362.77924347250791
 21
-363.75652646839359
 31
0.0
  0
LINE
  5
13B
  8
DETAIL
  6
CONTINUOUS
 62
     5
 10
362.77924347250791
 20
-379.22291840327119
 30
0.0
 11
312.6643816835176
 21
-379.22291840327119
 31
0.0
  0
LINE
  5
13C
  8
DETAIL
  6
CONTINUOUS
 62
     5
 10
472.49847701053199
 20
-445.00000312631522
 30
0.0
 11
472.49847701053199
 21
444.99999412631593
 31
0.0
  0
ARC
  5
13D
  8
DETAIL
  6
CONTINUOUS
 62
     5
 10
-439.99999914736878
 20
439.99999914736878
 30
0.0
 40
21.59999990905262
 50
90.0
 51
180.0
  0
LINE
  5
13E
  8
DETAIL
  6
CONTINUOUS
 62
     5
 10
426.69999720336818
 20
-255.5873359238422
 30
0.0
 11
426.69999720336818
 21
255.5873269238428
 31
0.0
  0
LINE
  5
141
  8
DETAIL
  6
CONTINUOUS
 62
     5
 10
-426.69999720336898
 20
251.4999949410531
 30
0.0
 11
-461.59999905642138
 21
251.4999949410531
 31
0.0
  0
LINE
  5
143
  8
DETAIL
  6
CONTINUOUS
 62
     5
 10
-427.00000320210518
 20
396.89949432884441
 30
0.0
 11
-396.89949432884441
 21
426.99999420210492
 31
0.0
  0
LINE
  5
144
  8
DETAIL
  6
CONTINUOUS
 62
     5
 10
-396.89949432884441
 20
426.99999420210492
 30
0.0
 11
-281.75029981368323
 21
426.99999420210492
 31
0.0
  0
LINE
  5
145
  8
DETAIL
  6
CONTINUOUS
 62
     5
 10
-255.58733592384311
 20
426.69999720336818
 30
0.0
 11
-262.28733189563349
 21
419.99999223157909
 31
0.0
  0
LINE
  5
147
  8
DETAIL
  6
CONTINUOUS
 62
     5
 10
255.5873269238428
 20
426.69999720336818
 30
0.0
 11
-255.58733592384311
 21
426.69999720336818
 31
0.0
  0
LINE
  5
148
  8
DETAIL
  6
CONTINUOUS
 62
     5
 10
-251.50000394105339
 20
461.59999905642047
 30
0.0
 11
-251.50000394105339
 21
426.69999720336818
 31
0.0
  0
ARC
  5
149
  8
DETAIL
  6
CONTINUOUS
 62
     5
 10
439.9999991473677
 20
439.99999914736878
 30
0.0
 40
21.59999990905262
 50
0.0
 51
90.0
  0
LINE
  5
14B
  8
DETAIL
  6
CONTINUOUS
 62
     5
 10
251.49999494105211
 20
426.69999720336818
 30
0.0
 11
251.49999494105211
 21
461.59999905642047
 31
0.0
  0
LINE
  5
14D
  8
DETAIL
  6
CONTINUOUS
 62
     5
 10
-326.98280562323077
 20
-372.20437643282372
 30
0.0
 11
-328.8625906153157
 21
-374.08416142490842
 31
0.0
  0
LINE
  5
14E
  8
DETAIL
  6
CONTINUOUS
 62
     5
 10
274.75029784315672
 20
419.99999223157909
 30
0.0
 11
281.75029981368237
 21
426.99999420210492
 31
0.0
  0
LINE
  5
14F
  8
DETAIL
  6
CONTINUOUS
 62
     5
 10
396.89949432884362
 20
426.99999420210492
 30
0.0
 11
281.75029981368237
 21
426.99999420210492
 31
0.0
  0
LINE
  5
150
  8
DETAIL
  6
CONTINUOUS
 62
     5
 10
396.89949432884362
 20
426.99999420210492
 30
0.0
 11
426.99999420210492
 21
396.89949432884441
 31
0.0
  0
ARC
  5
151
  8
DETAIL
  6
CONTINUOUS
 62
     5
 10
-445.00000312631522
 20
444.99999412631593
 30
0.0
 40
29.999996873684211
 50
90.0
 51
180.0
  0
LINE
  5
152
  8
DETAIL
  6
CONTINUOUS
 62
     5
 10
-445.00000312631522
 20
-474.9999999999992
 30
0.0
 11
444.99999412631507
 21
-474.9999999999992
 31
0.0
  0
LINE
  5
154
  8
DETAIL
  6
CONTINUOUS
 62
     5
 10
-475.0
 20
444.99999412631593
 30
0.0
 11
-475.0
 21
-445.00000312631522
 31
0.0
  0
ARC
  5
156
  8
DETAIL
  6
CONTINUOUS
 62
     5
 10
-445.00000312631522
 20
-445.00000312631522
 30
0.0
 40
29.999996873684211
 50
180.0
 51
270.0
  0
LINE
  5
157
  8
DETAIL
  6
CONTINUOUS
 62
     5
 10
461.59999905642047
 20
251.4999949410531
 30
0.0
 11
426.69999720336818
 21
251.4999949410531
 31
0.0
  0
LINE
  5
158
  8
DETAIL
  6
CONTINUOUS
 62
     5
 10
-272.48718485268557
 20
-426.69999720336818
 30
0.0
 11
255.5873269238428
 21
-426.69999720336818
 31
0.0
  0
ARC
  5
159
  8
DETAIL
  6
CONTINUOUS
 62
     5
 10
444.99999412631507
 20
-445.00000312631522
 30
0.0
 40
29.999996873684211
 50
270.0
 51
0.0
  0
LINE
  5
15A
  8
DETAIL
  6
CONTINUOUS
 62
     5
 10
426.69999720336818
 20
-251.50000394105251
 30
0.0
 11
461.59999905642047
 21
-251.50000394105251
 31
0.0
  0
LINE
  5
15C
  8
DETAIL
  6
CONTINUOUS
 62
     5
 10
-329.62193861211932
 20
-369.56525244393561
 30
0.0
 11
-272.48718485268557
 21
-426.69999720336818
 31
0.0
  0
LINE
  5
15D
  8
DETAIL
  6
CONTINUOUS
 62
     5
 10
419.99999223157818
 20
-262.28733189563172
 30
0.0
 11
426.69999720336818
 21
-255.5873359238422
 31
0.0
  0
LINE
  5
15E
  8
DETAIL
  6
CONTINUOUS
 62
     5
 10
251.49999494105211
 20
-426.69999720336818
 30
0.0
 11
255.5873269238428
 21
-426.69999720336818
 31
0.0
  0
LINE
  5
15F
  8
DETAIL
  6
CONTINUOUS
 62
     5
 10
251.49999494105211
 20
-461.59999905642047
 30
0.0
 11
251.49999494105211
 21
-426.69999720336818
 31
0.0
  0
LINE
  5
160
  8
DETAIL
  6
CONTINUOUS
 62
     5
 10
210.5999991132621
 20
-472.49847701053199
 30
0.0
 11
210.5999991132621
 21
-462.79999605136811
 31
0.0
  0
LINE
  5
161
  8
DETAIL
  6
CONTINUOUS
 62
     5
 10
396.89949432884362
 20
-427.00000320210518
 30
0.0
 11
281.75029981368237
 21
-427.00000320210518
 31
0.0
  0
LINE
  5
162
  8
DETAIL
  6
CONTINUOUS
 62
     5
 10
270.59999286063072
 20
-472.49847701053199
 30
0.0
 11
270.59999286063072
 21
-462.79999605136811
 31
0.0
  0
LINE
  5
163
  8
DETAIL
  6
CONTINUOUS
 62
     5
 10
269.3999958656841
 20
-472.49847701053199
 30
0.0
 11
269.3999958656841
 21
-462.79999605136811
 31
0.0
  0
LINE
  5
164
  8
DETAIL
  6
CONTINUOUS
 62
     5
 10
-210.59999911326301
 20
-472.49847701053199
 30
0.0
 11
-210.59999911326301
 21
-461.463559056995
 31
0.0
  0
LINE
  5
165
  8
DETAIL
  6
CONTINUOUS
 62
     5
 10
-270.60000186063189
 20
-472.49847701053199
 30
0.0
 11
-270.60000186063189
 21
-462.79999605136811
 31
0.0
  0
LINE
  5
166
  8
DETAIL
  6
CONTINUOUS
 62
     5
 10
426.99999420210492
 20
-396.89949432884362
 30
0.0
 11
396.89949432884362
 21
-427.00000320210518
 31
0.0
  0
LINE
  5
167
  8
DETAIL
  6
CONTINUOUS
 62
     5
 10
-269.40000486568528
 20
-472.49847701053199
 30
0.0
 11
-269.40000486568528
 21
-462.79999605136811
 31
0.0
  0
LINE
  5
169
  8
DETAIL
  6
CONTINUOUS
 62
     5
 10
270.59999286063072
 20
-462.79999605136811
 30
0.0
 11
299.39999273936883
 21
-462.79999605136811
 31
0.0
  0
ARC
  5
16A
  8
DETAIL
  6
CONTINUOUS
 62
     5
 10
439.9999991473677
 20
-439.9999991473677
 30
0.0
 40
21.59999990905262
 50
270.0
 51
0.0
  0
LINE
  5
16B
  8
DETAIL
  6
CONTINUOUS
 62
     5
 10
210.5999991132621
 20
-462.79999605136811
 30
0.0
 11
239.39999899200029
 21
-462.79999605136811
 31
0.0
  0
LINE
  5
16C
  8
DETAIL
  6
CONTINUOUS
 62
     5
 10
-210.59999911326301
 20
-462.79999605136811
 30
0.0
 11
-239.39999899200029
 21
-462.79999605136811
 31
0.0
  0
LINE
  5
16D
  8
DETAIL
  6
CONTINUOUS
 62
     5
 10
-270.60000186063189
 20
-462.79999605136811
 30
0.0
 11
-299.40000173936818
 21
-462.79999605136811
 31
0.0
  0
LINE
  5
16E
  8
DETAIL
  6
CONTINUOUS
 62
     5
 10
-472.49847701053278
 20
-269.40000486568351
 30
0.0
 11
-462.79999605136891
 21
-269.40000486568351
 31
0.0
  0
LINE
  5
16F
  8
DETAIL
  6
CONTINUOUS
 62
     5
 10
-472.49847701053278
 20
-270.60000186063093
 30
0.0
 11
-462.79999605136891
 21
-270.60000186063093
 31
0.0
  0
LINE
  5
170
  8
DETAIL
  6
CONTINUOUS
 62
     5
 10
-472.49847701053278
 20
-210.59999911326301
 30
0.0
 11
-462.79999605136891
 21
-210.59999911326301
 31
0.0
  0
LINE
  5
171
  8
DETAIL
  6
CONTINUOUS
 62
     5
 10
-472.49847701053278
 20
210.599999113264
 30
0.0
 11
-462.79999605136891
 21
210.599999113264
 31
0.0
  0
LINE
  5
172
  8
DETAIL
  6
CONTINUOUS
 62
     5
 10
-472.49847701053278
 20
270.59999286063157
 30
0.0
 11
-462.79999605136891
 21
270.59999286063157
 31
0.0
  0
LINE
  5
173
  8
DETAIL
  6
CONTINUOUS
 62
     5
 10
-472.49847701053278
 20
269.3999958656841
 30
0.0
 11
-462.79999605136891
 21
269.3999958656841
 31
0.0
  0
LINE
  5
174
  8
DETAIL
  6
CONTINUOUS
 62
     5
 10
-462.79999605136891
 20
270.59999286063157
 30
0.0
 11
-462.79999605136891
 21
299.39999273936883
 31
0.0
  0
LINE
  5
175
  8
DETAIL
  6
CONTINUOUS
 62
     5
 10
-462.79999605136891
 20
210.599999113264
 30
0.0
 11
-462.79999605136891
 21
239.39999899200029
 31
0.0
  0
LINE
  5
176
  8
DETAIL
  6
CONTINUOUS
 62
     5
 10
-462.79999605136891
 20
-210.59999911326301
 30
0.0
 11
-462.79999605136891
 21
-239.39999899199941
 31
0.0
  0
LINE
  5
177
  8
DETAIL
  6
CONTINUOUS
 62
     5
 10
-462.79999605136891
 20
-270.60000186063093
 30
0.0
 11
-462.79999605136891
 21
-299.40000173936818
 31
0.0
  0
LINE
  5
178
  8
DETAIL
  6
CONTINUOUS
 62
     5
 10
-270.60000186063189
 20
472.49846801053252
 30
0.0
 11
-270.60000186063189
 21
462.79999605136811
 31
0.0
  0
LINE
  5
179
  8
DETAIL
  6
CONTINUOUS
 62
     5
 10
-269.40000486568528
 20
472.49846801053252
 30
0.0
 11
-269.40000486568528
 21
462.79999605136811
 31
0.0
  0
LINE
  5
17A
  8
DETAIL
  6
CONTINUOUS
 62
     5
 10
-210.59999911326301
 20
472.49846801053252
 30
0.0
 11
-210.59999911326301
 21
461.46355005699559
 31
0.0
  0
LINE
  5
17B
  8
DETAIL
  6
CONTINUOUS
 62
     5
 10
210.5999991132621
 20
472.49846801053252
 30
0.0
 11
210.5999991132621
 21
462.79999605136811
 31
0.0
  0
LINE
  5
17C
  8
DETAIL
  6
CONTINUOUS
 62
     5
 10
270.59999286063072
 20
472.49846801053252
 30
0.0
 11
270.59999286063072
 21
462.79999605136811
 31
0.0
  0
LINE
  5
17D
  8
DETAIL
  6
CONTINUOUS
 62
     5
 10
269.3999958656841
 20
472.49846801053252
 30
0.0
 11
269.3999958656841
 21
462.79999605136811
 31
0.0
  0
LINE
  5
17E
  8
DETAIL
  6
CONTINUOUS
 62
     5
 10
-270.60000186063189
 20
462.79999605136811
 30
0.0
 11
-299.40000173936818
 21
462.79999605136811
 31
0.0
  0
LINE
  5
17F
  8
DETAIL
  6
CONTINUOUS
 62
     5
 10
-210.59999911326301
 20
462.79999605136811
 30
0.0
 11
-239.39999899200029
 21
462.79999605136811
 31
0.0
  0
LINE
  5
180
  8
DETAIL
  6
CONTINUOUS
 62
     5
 10
210.5999991132621
 20
462.79999605136811
 30
0.0
 11
239.39999899200029
 21
462.79999605136811
 31
0.0
  0
LINE
  5
181
  8
DETAIL
  6
CONTINUOUS
 62
     5
 10
270.59999286063072
 20
462.79999605136811
 30
0.0
 11
299.39999273936883
 21
462.79999605136811
 31
0.0
  0
LINE
  5
182
  8
DETAIL
  6
CONTINUOUS
 62
     5
 10
-461.59999905642138
 20
210.599999113264
 30
0.0
 11
-461.59999905642138
 21
444.99999412631593
 31
0.0
  0
LINE
  5
183
  8
DETAIL
  6
CONTINUOUS
 62
     5
 10
210.5999991132621
 20
-461.59999905642047
 30
0.0
 11
444.99999412631507
 21
-461.59999905642047
 31
0.0
  0
LINE
  5
184
  8
DETAIL
  6
CONTINUOUS
 62
     5
 10
210.5999991132621
 20
461.59999905642047
 30
0.0
 11
444.99999412631507
 21
461.59999905642047
 31
0.0
  0
LINE
  5
185
  8
DETAIL
  6
CONTINUOUS
 62
     5
 10
-366.47558845694567
 20
-359.40452248671681
 30
0.0
 11
-368.24307144950399
 21
-361.1720054792749
 31
0.0
  0
LINE
  5
186
  8
DETAIL
  6
CONTINUOUS
 62
     5
 10
-362.58621147332178
 20
-368.24307144950228
 30
0.0
 11
-368.24307144950399
 21
-362.58621147332087
 31
0.0
  0
LINE
  5
187
  8
DETAIL
  6
CONTINUOUS
 62
     5
 10
-462.79999605136891
 20
-420.60000422905159
 30
0.0
 11
-462.79999605136891
 21
-445.00000312631522
 31
0.0
  0
ARC
  5
188
  8
DETAIL
  6
CONTINUOUS
 62
     5
 10
-367.5359594524798
 20
-361.87910847629792
 30
0.0
 40
0.999998995789477
 50
135.00000000002279
 51
224.99999999997721
  0
LINE
  5
189
  8
DETAIL
  6
CONTINUOUS
 62
     5
 10
-472.49847701053278
 20
-420.60000422905159
 30
0.0
 11
-462.79999605136891
 21
-420.60000422905159
 31
0.0
  0
LINE
  5
18A
  8
DETAIL
  6
CONTINUOUS
 62
     5
 10
-359.32700548704452
 20
-366.39808045727119
 30
0.0
 11
-361.17200547927598
 21
-368.24307144950228
 31
0.0
  0
LINE
  5
18B
  8
DETAIL
  6
CONTINUOUS
 62
     5
 10
-472.49847701053278
 20
-419.39999823410471
 30
0.0
 11
-462.79999605136891
 21
-419.39999823410471
 31
0.0
  0
ARC
  5
18C
  8
DETAIL
  6
CONTINUOUS
 62
     5
 10
-361.87910847629882
 20
-367.5359594524798
 30
0.0
 40
0.999998995789477
 50
224.99999999997721
 51
315.00000000002279
  0
LINE
  5
18D
  8
DETAIL
  6
CONTINUOUS
 62
     5
 10
-462.79999605136891
 20
-360.60000148168359
 30
0.0
 11
-462.79999605136891
 21
-419.39999823410471
 31
0.0
  0
LINE
  5
18E
  8
DETAIL
  6
CONTINUOUS
 62
     5
 10
-472.49847701053278
 20
-360.60000148168359
 30
0.0
 11
-462.79999605136891
 21
-360.60000148168359
 31
0.0
  0
LINE
  5
18F
  8
DETAIL
  6
CONTINUOUS
 62
     5
 10
-472.49847701053278
 20
-359.40000448673709
 30
0.0
 11
-462.79999605136891
 21
-359.40000448673709
 31
0.0
  0
LINE
  5
190
  8
DETAIL
  6
CONTINUOUS
 62
     5
 10
-462.79999605136891
 20
-300.5999987343148
 30
0.0
 11
-462.79999605136891
 21
-359.40000448673709
 31
0.0
  0
LINE
  5
191
  8
DETAIL
  6
CONTINUOUS
 62
     5
 10
-472.49847701053278
 20
-300.5999987343148
 30
0.0
 11
-462.79999605136891
 21
-300.5999987343148
 31
0.0
  0
LINE
  5
192
  8
DETAIL
  6
CONTINUOUS
 62
     5
 10
-472.49847701053278
 20
-299.40000173936818
 30
0.0
 11
-462.79999605136891
 21
-299.40000173936818
 31
0.0
  0
LINE
  5
193
  8
DETAIL
  6
CONTINUOUS
 62
     5
 10
-462.79999605136891
 20
-240.6000049869472
 30
0.0
 11
-462.79999605136891
 21
-269.40000486568351
 31
0.0
  0
LINE
  5
194
  8
DETAIL
  6
CONTINUOUS
 62
     5
 10
-472.49847701053278
 20
-240.6000049869472
 30
0.0
 11
-462.79999605136891
 21
-240.6000049869472
 31
0.0
  0
LINE
  5
195
  8
DETAIL
  6
CONTINUOUS
 62
     5
 10
-472.49847701053278
 20
-239.39999899199941
 30
0.0
 11
-462.79999605136891
 21
-239.39999899199941
 31
0.0
  0
LINE
  5
196
  8
DETAIL
  6
CONTINUOUS
 62
     5
 10
457.1550790751362
 20
-458.00360807156352
 30
0.0
 11
464.01546404624969
 21
-464.8639930426769
 31
0.0
  0
ARC
  5
197
  8
DETAIL
  6
CONTINUOUS
 62
     5
 10
444.99999412631507
 20
-445.00000312631522
 30
0.0
 40
17.800001925052609
 50
316.93168399997961
 51
0.0
  0
LINE
  5
198
  8
DETAIL
  6
CONTINUOUS
 62
     5
 10
458.0036080715625
 20
-457.1550880751364
 30
0.0
 11
464.86399304267798
 21
-464.01546404624969
 31
0.0
  0
LINE
  5
199
  8
DETAIL
  6
CONTINUOUS
 62
     5
 10
-458.00360807156352
 20
-457.1550880751364
 30
0.0
 11
-464.86399304267798
 21
-464.01546404624969
 31
0.0
  0
LINE
  5
19A
  8
DETAIL
  6
CONTINUOUS
 62
     5
 10
-457.1550880751364
 20
-458.00360807156352
 30
0.0
 11
-464.0154640462514
 21
-464.8639930426769
 31
0.0
  0
ARC
  5
19B
  8
DETAIL
  6
CONTINUOUS
 62
     5
 10
-445.00000312631522
 20
-445.00000312631522
 30
0.0
 40
17.800001925052609
 50
180.0
 51
223.06831600002039
  0
ARC
  5
19C
  8
DETAIL
  6
CONTINUOUS
 62
     5
 10
-445.00000312631522
 20
-445.00000312631522
 30
0.0
 40
17.800001925052609
 50
226.93168399998899
 51
270.0
  0
LINE
  5
19D
  8
DETAIL
  6
CONTINUOUS
 62
     5
 10
-420.6000042290525
 20
-462.79999605136811
 30
0.0
 11
-445.00000312631522
 21
-462.79999605136811
 31
0.0
  0
LINE
  5
19E
  8
DETAIL
  6
CONTINUOUS
 62
     5
 10
-419.39999823410562
 20
-472.49847701053199
 30
0.0
 11
-419.39999823410562
 21
-462.79999605136811
 31
0.0
  0
LINE
  5
19F
  8
DETAIL
  6
CONTINUOUS
 62
     5
 10
-420.6000042290525
 20
-472.49847701053199
 30
0.0
 11
-420.6000042290525
 21
-462.79999605136811
 31
0.0
  0
ARC
  5
1A0
  8
DETAIL
  6
CONTINUOUS
 62
     5
 10
-445.00000312631522
 20
-445.00000312631522
 30
0.0
 40
27.498473884216939
 50
180.0
 51
270.0
  0
ARC
  5
1A1
  8
DETAIL
  6
CONTINUOUS
 62
     5
 10
-445.00000312631522
 20
-445.00000312631522
 30
0.0
 40
16.599995930105258
 50
180.0
 51
270.0
  0
LINE
  5
1A2
  8
DETAIL
  6
CONTINUOUS
 62
     5
 10
-300.59999873431661
 20
-462.79999605136811
 30
0.0
 11
-359.40000448673709
 21
-462.79999605136811
 31
0.0
  0
LINE
  5
1A3
  8
DETAIL
  6
CONTINUOUS
 62
     5
 10
-299.40000173936818
 20
-472.49847701053199
 30
0.0
 11
-299.40000173936818
 21
-462.79999605136811
 31
0.0
  0
LINE
  5
1A4
  8
DETAIL
  6
CONTINUOUS
 62
     5
 10
-300.59999873431661
 20
-472.49847701053199
 30
0.0
 11
-300.59999873431661
 21
-462.79999605136811
 31
0.0
  0
LINE
  5
1A5
  8
DETAIL
  6
CONTINUOUS
 62
     5
 10
-360.60000148168552
 20
-462.79999605136811
 30
0.0
 11
-419.39999823410562
 21
-462.79999605136811
 31
0.0
  0
LINE
  5
1A6
  8
DETAIL
  6
CONTINUOUS
 62
     5
 10
-359.40000448673709
 20
-472.49847701053199
 30
0.0
 11
-359.40000448673709
 21
-462.79999605136811
 31
0.0
  0
LINE
  5
1A7
  8
DETAIL
  6
CONTINUOUS
 62
     5
 10
-360.60000148168552
 20
-472.49847701053199
 30
0.0
 11
-360.60000148168552
 21
-462.79999605136811
 31
0.0
  0
LINE
  5
1A8
  8
DETAIL
  6
CONTINUOUS
 62
     5
 10
-239.39999899200029
 20
-472.49847701053199
 30
0.0
 11
-239.39999899200029
 21
-462.79999605136811
 31
0.0
  0
LINE
  5
1A9
  8
DETAIL
  6
CONTINUOUS
 62
     5
 10
-240.60000498694811
 20
-472.49847701053199
 30
0.0
 11
-240.60000498694811
 21
-462.79999605136811
 31
0.0
  0
LINE
  5
1AA
  8
DETAIL
  6
CONTINUOUS
 62
     5
 10
-240.60000498694811
 20
-462.79999605136811
 30
0.0
 11
-269.40000486568528
 21
-462.79999605136811
 31
0.0
  0
LINE
  5
1AB
  8
DETAIL
  6
CONTINUOUS
 62
     5
 10
239.39999899200029
 20
-472.49847701053199
 30
0.0
 11
239.39999899200029
 21
-462.79999605136811
 31
0.0
  0
LINE
  5
1AC
  8
DETAIL
  6
CONTINUOUS
 62
     5
 10
240.59999598694679
 20
-472.49847701053199
 30
0.0
 11
240.59999598694679
 21
-462.79999605136811
 31
0.0
  0
LINE
  5
1AD
  8
DETAIL
  6
CONTINUOUS
 62
     5
 10
240.59999598694679
 20
-462.79999605136811
 30
0.0
 11
269.3999958656841
 21
-462.79999605136811
 31
0.0
  0
LINE
  5
1AE
  8
DETAIL
  6
CONTINUOUS
 62
     5
 10
299.39999273936883
 20
-472.49847701053199
 30
0.0
 11
299.39999273936883
 21
-462.79999605136811
 31
0.0
  0
LINE
  5
1AF
  8
DETAIL
  6
CONTINUOUS
 62
     5
 10
300.5999987343157
 20
-472.49847701053199
 30
0.0
 11
300.5999987343157
 21
-462.79999605136811
 31
0.0
  0
LINE
  5
1B0
  8
DETAIL
  6
CONTINUOUS
 62
     5
 10
300.5999987343157
 20
-462.79999605136811
 30
0.0
 11
359.39999548673683
 21
-462.79999605136811
 31
0.0
  0
LINE
  5
1B1
  8
DETAIL
  6
CONTINUOUS
 62
     5
 10
359.39999548673683
 20
-472.49847701053199
 30
0.0
 11
359.39999548673683
 21
-462.79999605136811
 31
0.0
  0
LINE
  5
1B2
  8
DETAIL
  6
CONTINUOUS
 62
     5
 10
360.59999248168418
 20
-472.49847701053199
 30
0.0
 11
360.59999248168418
 21
-462.79999605136811
 31
0.0
  0
LINE
  5
1B3
  8
DETAIL
  6
CONTINUOUS
 62
     5
 10
360.59999248168418
 20
-462.79999605136811
 30
0.0
 11
419.39999823410471
 21
-462.79999605136811
 31
0.0
  0
LINE
  5
1B4
  8
DETAIL
  6
CONTINUOUS
 62
     5
 10
419.39999823410471
 20
-472.49847701053199
 30
0.0
 11
419.39999823410471
 21
-462.79999605136811
 31
0.0
  0
LINE
  5
1B5
  8
DETAIL
  6
CONTINUOUS
 62
     5
 10
420.59999522905218
 20
-472.49847701053199
 30
0.0
 11
420.59999522905218
 21
-462.79999605136811
 31
0.0
  0
ARC
  5
1B6
  8
DETAIL
  6
CONTINUOUS
 62
     5
 10
444.99999412631507
 20
-445.00000312631522
 30
0.0
 40
17.800001925052609
 50
270.0
 51
313.0683160000109
  0
ARC
  5
1B7
  8
DETAIL
  6
CONTINUOUS
 62
     5
 10
444.99999412631507
 20
-445.00000312631522
 30
0.0
 40
16.599995930105258
 50
270.0
 51
0.0
  0
ARC
  5
1B8
  8
DETAIL
  6
CONTINUOUS
 62
     5
 10
444.99999412631507
 20
-445.00000312631522
 30
0.0
 40
27.498473884216939
 50
270.0
 51
0.0
  0
LINE
  5
1B9
  8
DETAIL
  6
CONTINUOUS
 62
     5
 10
420.59999522905218
 20
-462.79999605136811
 30
0.0
 11
444.99999412631507
 21
-462.79999605136811
 31
0.0
  0
LINE
  5
1BA
  8
DETAIL
  6
CONTINUOUS
 62
     5
 10
444.99999412631507
 20
-472.49847701053199
 30
0.0
 11
-445.00000312631522
 21
-472.49847701053199
 31
0.0
  0
LINE
  5
1BB
  8
DETAIL
  6
CONTINUOUS
 62
     5
 10
-445.00000312631522
 20
-461.59999905642047
 30
0.0
 11
-210.59999911326301
 21
-461.59999905642047
 31
0.0
  0
LINE
  5
1BD
  8
DETAIL
  6
CONTINUOUS
 62
     5
 10
251.49999494105211
 20
-461.463559056995
 30
0.0
 11
-251.50000394105339
 21
-461.463559056995
 31
0.0
  0
LINE
  5
1BF
  8
DETAIL
  6
CONTINUOUS
 62
     5
 10
-251.50000394105339
 20
-461.59999905642047
 30
0.0
 11
-251.50000394105339
 21
-426.69999720336818
 31
0.0
  0
LINE
  5
1C0
  8
DETAIL
  6
CONTINUOUS
 62
     5
 10
-461.59999905642138
 20
-251.50000394105251
 30
0.0
 11
-426.69999720336898
 21
-251.50000394105251
 31
0.0
  0
LINE
  5
1C1
  8
DETAIL
  6
CONTINUOUS
 62
     5
 10
-461.46355905699579
 20
-251.50000394105251
 30
0.0
 11
-461.46355905699579
 21
251.4999949410531
 31
0.0
  0
LINE
  5
1C2
  8
DETAIL
  6
CONTINUOUS
 62
     5
 10
-426.69999720336898
 20
-265.2000018833678
 30
0.0
 11
-426.69999720336898
 21
255.5873269238428
 31
0.0
  0
LINE
  5
1C5
  8
DETAIL
  6
CONTINUOUS
 62
     5
 10
-251.50000394105339
 20
461.46355005699559
 30
0.0
 11
251.49999494105211
 21
461.46355005699559
 31
0.0
  0
LINE
  5
1C6
  8
DETAIL
  6
CONTINUOUS
 62
     5
 10
-251.50000394105339
 20
426.69999720336818
 30
0.0
 11
251.49999494105211
 21
426.69999720336818
 31
0.0
  0
LINE
  5
1C8
  8
DETAIL
  6
CONTINUOUS
 62
     5
 10
426.69999720336818
 20
251.4999949410531
 30
0.0
 11
426.69999720336818
 21
-251.50000394105251
 31
0.0
  0
LINE
  5
1CC
  8
DETAIL
  6
CONTINUOUS
 62
     5
 10
-472.49847701053278
 20
239.39999899200029
 30
0.0
 11
-462.79999605136891
 21
239.39999899200029
 31
0.0
  0
LINE
  5
1CD
  8
DETAIL
  6
CONTINUOUS
 62
     5
 10
-472.49847701053278
 20
240.59999598694679
 30
0.0
 11
-462.79999605136891
 21
240.59999598694679
 31
0.0
  0
LINE
  5
1CE
  8
DETAIL
  6
CONTINUOUS
 62
     5
 10
-462.79999605136891
 20
240.59999598694679
 30
0.0
 11
-462.79999605136891
 21
269.3999958656841
 31
0.0
  0
LINE
  5
1CF
  8
DETAIL
  6
CONTINUOUS
 62
     5
 10
-472.49847701053278
 20
299.39999273936883
 30
0.0
 11
-462.79999605136891
 21
299.39999273936883
 31
0.0
  0
LINE
  5
1D0
  8
DETAIL
  6
CONTINUOUS
 62
     5
 10
-472.49847701053278
 20
300.5999987343157
 30
0.0
 11
-462.79999605136891
 21
300.5999987343157
 31
0.0
  0
LINE
  5
1D1
  8
DETAIL
  6
CONTINUOUS
 62
     5
 10
-462.79999605136891
 20
300.5999987343157
 30
0.0
 11
-462.79999605136891
 21
359.39999548673683
 31
0.0
  0
LINE
  5
1D2
  8
DETAIL
  6
CONTINUOUS
 62
     5
 10
-472.49847701053278
 20
359.39999548673683
 30
0.0
 11
-462.79999605136891
 21
359.39999548673683
 31
0.0
  0
LINE
  5
1D3
  8
DETAIL
  6
CONTINUOUS
 62
     5
 10
210.5999991132621
 20
-472.46355701067932
 30
0.0
 11
210.5999991132621
 21
-461.463559056995
 31
0.0
  0
LINE
  5
1D4
  8
DETAIL
  6
CONTINUOUS
 62
     5
 10
-472.49847701053278
 20
360.59999248168418
 30
0.0
 11
-462.79999605136891
 21
360.59999248168418
 31
0.0
  0
LINE
  5
1D6
  8
DETAIL
  6
CONTINUOUS
 62
     5
 10
-462.79999605136891
 20
360.59999248168418
 30
0.0
 11
-462.79999605136891
 21
419.39999823410471
 31
0.0
  0
LINE
  5
1D8
  8
DETAIL
  6
CONTINUOUS
 62
     5
 10
-472.49847701053278
 20
419.39999823410471
 30
0.0
 11
-462.79999605136891
 21
419.39999823410471
 31
0.0
  0
LINE
  5
1DA
  8
DETAIL
  6
CONTINUOUS
 62
     5
 10
-472.49847701053278
 20
420.59999522905218
 30
0.0
 11
-462.79999605136891
 21
420.59999522905218
 31
0.0
  0
LINE
  5
1DB
  8
DETAIL
  6
CONTINUOUS
 62
     5
 10
-472.46355701068012
 20
-210.59999911326301
 30
0.0
 11
-461.46355905699579
 21
-210.59999911326301
 31
0.0
  0
LINE
  5
1DC
  8
DETAIL
  6
CONTINUOUS
 62
     5
 10
-461.59999905642138
 20
-445.00000312631522
 30
0.0
 11
-461.59999905642138
 21
-210.59999911326301
 31
0.0
  0
LINE
  5
1DD
  8
DETAIL
  6
CONTINUOUS
 62
     5
 10
-472.46355701068012
 20
210.599999113264
 30
0.0
 11
-461.46355905699579
 21
210.599999113264
 31
0.0
  0
LINE
  5
1DE
  8
DETAIL
  6
CONTINUOUS
 62
     5
 10
-462.79999605136891
 20
420.59999522905218
 30
0.0
 11
-462.79999605136891
 21
444.99999412631593
 31
0.0
  0
LINE
  5
1E0
  8
DETAIL
  6
CONTINUOUS
 62
     5
 10
-472.49847701053278
 20
444.99999412631593
 30
0.0
 11
-472.4984770105321
 21
-445.00000312631528
 31
0.0
  0
LINE
  5
1E3
  8
DETAIL
  6
CONTINUOUS
 62
     5
 10
210.5999991132621
 20
472.46354801067901
 30
0.0
 11
210.5999991132621
 21
461.46355005699559
 31
0.0
  0
LINE
  5
1E5
  8
DETAIL
  6
CONTINUOUS
 62
     5
 10
-210.59999911326301
 20
472.46354801067901
 30
0.0
 11
210.5999991132621
 21
472.46354801067901
 31
0.0
  0
ARC
  5
1E6
  8
DETAIL
  6
CONTINUOUS
 62
     5
 10
-445.00000312631522
 20
444.99999412631593
 30
0.0
 40
27.498473884216939
 50
90.0
 51
180.0
  0
LINE
  5
1E7
  8
DETAIL
  6
CONTINUOUS
 62
     5
 10
-458.00360807156352
 20
457.1550790751362
 30
0.0
 11
-464.86399304267798
 21
464.0154640462506
 31
0.0
  0
LINE
  5
1E8
  8
DETAIL
  6
CONTINUOUS
 62
     5
 10
-457.1550880751364
 20
458.00360807156352
 30
0.0
 11
-464.0154640462514
 21
464.86399304267798
 31
0.0
  0
ARC
  5
1E9
  8
DETAIL
  6
CONTINUOUS
 62
     5
 10
-445.00000312631522
 20
444.99999412631593
 30
0.0
 40
17.800001925052609
 50
136.93168399997961
 51
180.0
  0
ARC
  5
1EA
  8
DETAIL
  6
CONTINUOUS
 62
     5
 10
-445.00000312631522
 20
444.99999412631593
 30
0.0
 40
17.800001925052609
 50
90.0
 51
133.06831600001081
  0
ARC
  5
1EB
  8
DETAIL
  6
CONTINUOUS
 62
     5
 10
-445.00000312631522
 20
444.99999412631593
 30
0.0
 40
16.599995930105258
 50
90.0
 51
180.0
  0
LINE
  5
1EC
  8
DETAIL
  6
CONTINUOUS
 62
     5
 10
-420.6000042290525
 20
462.79999605136811
 30
0.0
 11
-445.00000312631522
 21
462.79999605136811
 31
0.0
  0
LINE
  5
1ED
  8
DETAIL
  6
CONTINUOUS
 62
     5
 10
-419.39999823410562
 20
472.49846801053252
 30
0.0
 11
-419.39999823410562
 21
462.79999605136811
 31
0.0
  0
LINE
  5
1EE
  8
DETAIL
  6
CONTINUOUS
 62
     5
 10
-420.6000042290525
 20
472.49846801053252
 30
0.0
 11
-420.6000042290525
 21
462.79999605136811
 31
0.0
  0
LINE
  5
1EF
  8
DETAIL
  6
CONTINUOUS
 62
     5
 10
-300.59999873431661
 20
462.79999605136811
 30
0.0
 11
-359.40000448673709
 21
462.79999605136811
 31
0.0
  0
LINE
  5
1F0
  8
DETAIL
  6
CONTINUOUS
 62
     5
 10
-299.40000173936818
 20
472.49846801053252
 30
0.0
 11
-299.40000173936818
 21
462.79999605136811
 31
0.0
  0
LINE
  5
1F1
  8
DETAIL
  6
CONTINUOUS
 62
     5
 10
-300.59999873431661
 20
472.49846801053252
 30
0.0
 11
-300.59999873431661
 21
462.79999605136811
 31
0.0
  0
LINE
  5
1F2
  8
DETAIL
  6
CONTINUOUS
 62
     5
 10
-360.60000148168552
 20
462.79999605136811
 30
0.0
 11
-419.39999823410562
 21
462.79999605136811
 31
0.0
  0
LINE
  5
1F3
  8
DETAIL
  6
CONTINUOUS
 62
     5
 10
-359.40000448673709
 20
472.49846801053252
 30
0.0
 11
-359.40000448673709
 21
462.79999605136811
 31
0.0
  0
LINE
  5
1F4
  8
DETAIL
  6
CONTINUOUS
 62
     5
 10
-360.60000148168552
 20
472.49846801053252
 30
0.0
 11
-360.60000148168552
 21
462.79999605136811
 31
0.0
  0
LINE
  5
1F5
  8
DETAIL
  6
CONTINUOUS
 62
     5
 10
-239.39999899200029
 20
472.49846801053252
 30
0.0
 11
-239.39999899200029
 21
462.79999605136811
 31
0.0
  0
LINE
  5
1F6
  8
DETAIL
  6
CONTINUOUS
 62
     5
 10
-240.60000498694811
 20
472.49846801053252
 30
0.0
 11
-240.60000498694811
 21
462.79999605136811
 31
0.0
  0
LINE
  5
1F7
  8
DETAIL
  6
CONTINUOUS
 62
     5
 10
-240.60000498694811
 20
462.79999605136811
 30
0.0
 11
-269.40000486568528
 21
462.79999605136811
 31
0.0
  0
LINE
  5
1F8
  8
DETAIL
  6
CONTINUOUS
 62
     5
 10
444.99999412631507
 20
472.49846801053252
 30
0.0
 11
-445.00000312631522
 21
472.49846801053252
 31
0.0
  0
LINE
  5
1F9
  8
DETAIL
  6
CONTINUOUS
 62
     5
 10
239.39999899200029
 20
472.49846801053252
 30
0.0
 11
239.39999899200029
 21
462.79999605136811
 31
0.0
  0
LINE
  5
1FA
  8
DETAIL
  6
CONTINUOUS
 62
     5
 10
240.59999598694679
 20
472.49846801053252
 30
0.0
 11
240.59999598694679
 21
462.79999605136811
 31
0.0
  0
LINE
  5
1FB
  8
DETAIL
  6
CONTINUOUS
 62
     5
 10
-445.00000312631522
 20
461.59999905642047
 30
0.0
 11
-210.59999911326301
 21
461.59999905642047
 31
0.0
  0
LINE
  5
1FC
  8
DETAIL
  6
CONTINUOUS
 62
     5
 10
240.59999598694679
 20
462.79999605136811
 30
0.0
 11
269.3999958656841
 21
462.79999605136811
 31
0.0
  0
LINE
  5
1FD
  8
DETAIL
  6
CONTINUOUS
 62
     5
 10
300.5999987343157
 20
462.79999605136811
 30
0.0
 11
359.39999548673683
 21
462.79999605136811
 31
0.0
  0
LINE
  5
1FE
  8
DETAIL
  6
CONTINUOUS
 62
     5
 10
299.39999273936883
 20
472.49846801053252
 30
0.0
 11
299.39999273936883
 21
462.79999605136811
 31
0.0
  0
LINE
  5
1FF
  8
DETAIL
  6
CONTINUOUS
 62
     5
 10
300.5999987343157
 20
472.49846801053252
 30
0.0
 11
300.5999987343157
 21
462.79999605136811
 31
0.0
  0
LINE
  5
200
  8
DETAIL
  6
CONTINUOUS
 62
     5
 10
360.59999248168418
 20
462.79999605136811
 30
0.0
 11
419.39999823410471
 21
462.79999605136811
 31
0.0
  0
LINE
  5
201
  8
DETAIL
  6
CONTINUOUS
 62
     5
 10
359.39999548673683
 20
472.49846801053252
 30
0.0
 11
359.39999548673683
 21
462.79999605136811
 31
0.0
  0
LINE
  5
202
  8
DETAIL
  6
CONTINUOUS
 62
     5
 10
360.59999248168418
 20
472.49846801053252
 30
0.0
 11
360.59999248168418
 21
462.79999605136811
 31
0.0
  0
LINE
  5
203
  8
DETAIL
  6
CONTINUOUS
 62
     5
 10
420.59999522905218
 20
462.79999605136811
 30
0.0
 11
444.99999412631507
 21
462.79999605136811
 31
0.0
  0
LINE
  5
204
  8
DETAIL
  6
CONTINUOUS
 62
     5
 10
419.39999823410471
 20
472.49846801053252
 30
0.0
 11
419.39999823410471
 21
462.79999605136811
 31
0.0
  0
LINE
  5
205
  8
DETAIL
  6
CONTINUOUS
 62
     5
 10
420.59999522905218
 20
472.49846801053252
 30
0.0
 11
420.59999522905218
 21
462.79999605136811
 31
0.0
  0
ARC
  5
206
  8
DETAIL
  6
CONTINUOUS
 62
     5
 10
444.99999412631507
 20
444.99999412631593
 30
0.0
 40
27.498473884216939
 50
0.0
 51
90.0
  0
ARC
  5
207
  8
DETAIL
  6
CONTINUOUS
 62
     5
 10
444.99999412631507
 20
444.99999412631593
 30
0.0
 40
17.800001925052609
 50
0.0
 51
43.068316000020403
  0
ARC
  5
208
  8
DETAIL
  6
CONTINUOUS
 62
     5
 10
444.99999412631507
 20
444.99999412631593
 30
0.0
 40
16.599995930105258
 50
0.0
 51
90.0
  0
LINE
  5
209
  8
DETAIL
  6
CONTINUOUS
 62
     5
 10
458.0036080715625
 20
457.1550790751362
 30
0.0
 11
464.86399304267798
 21
464.0154640462506
 31
0.0
  0
LINE
  5
20A
  8
DETAIL
  6
CONTINUOUS
 62
     5
 10
457.1550790751362
 20
458.00360807156352
 30
0.0
 11
464.01546404624969
 21
464.86399304267798
 31
0.0
  0
ARC
  5
20B
  8
DETAIL
  6
CONTINUOUS
 62
     5
 10
444.99999412631507
 20
444.99999412631593
 30
0.0
 40
17.800001925052609
 50
46.931683999989133
 51
90.0
  0
ARC
  5
20C
  8
DETAIL
  6
CONTINUOUS
 62
     5
 10
-439.99999914736878
 20
-439.9999991473677
 30
0.0
 40
21.59999990905262
 50
180.0
 51
270.0
  0
LINE
  5
210
  8
DETAIL
  6
CONTINUOUS
 62
     5
 10
-272.48718485268557
 20
-426.69999720336818
 30
0.0
 11
-251.50000394105339
 21
-426.69999720336818
 31
0.0
  0
LINE
  5
211
  8
DETAIL
  6
CONTINUOUS
 62
     5
 10
-276.96874383381601
 20
-422.21843822223758
 30
0.0
 11
-281.75029981368323
 21
-427.00000320210518
 31
0.0
  0
LINE
  5
213
  8
DETAIL
  6
CONTINUOUS
 62
     5
 10
-396.89949432884441
 20
-427.00000320210518
 30
0.0
 11
-281.75029981368323
 21
-427.00000320210518
 31
0.0
  0
LINE
  5
214
  8
DETAIL
  6
CONTINUOUS
 62
     5
 10
-396.89949432884441
 20
-427.00000320210518
 30
0.0
 11
-427.00000320210518
 21
-396.89949432884362
 31
0.0
  0
LINE
  5
215
  8
DETAIL
  6
CONTINUOUS
 62
     5
 10
444.99999412631507
 20
475.0
 30
0.0
 11
-445.00000312631522
 21
475.0
 31
0.0
  0
ARC
  5
216
  8
DETAIL
  6
CONTINUOUS
 62
     5
 10
444.99999412631507
 20
444.99999412631593
 30
0.0
 40
29.999996873684211
 50
0.0
 51
90.0
  0
LINE
  5
21B
  8
DETAIL
  6
CONTINUOUS
 62
     5
 10
472.49847701053199
 20
210.599999113264
 30
0.0
 11
462.79999605136811
 21
210.599999113264
 31
0.0
  0
LINE
  5
21C
  8
DETAIL
  6
CONTINUOUS
 62
     5
 10
472.49847701053199
 20
-210.59999911326301
 30
0.0
 11
462.79999605136811
 21
-210.59999911326301
 31
0.0
  0
LINE
  5
21D
  8
DETAIL
  6
CONTINUOUS
 62
     5
 10
472.49847701053199
 20
-270.60000186063093
 30
0.0
 11
462.79999605136811
 21
-270.60000186063093
 31
0.0
  0
LINE
  5
21E
  8
DETAIL
  6
CONTINUOUS
 62
     5
 10
472.49847701053199
 20
-269.40000486568351
 30
0.0
 11
462.79999605136811
 21
-269.40000486568351
 31
0.0
  0
LINE
  5
21F
  8
DETAIL
  6
CONTINUOUS
 62
     5
 10
462.79999605136811
 20
210.599999113264
 30
0.0
 11
462.79999605136811
 21
239.39999899200029
 31
0.0
  0
LINE
  5
220
  8
DETAIL
  6
CONTINUOUS
 62
     5
 10
462.79999605136811
 20
-210.59999911326301
 30
0.0
 11
462.79999605136811
 21
-239.39999899199941
 31
0.0
  0
LINE
  5
221
  8
DETAIL
  6
CONTINUOUS
 62
     5
 10
462.79999605136811
 20
-270.60000186063093
 30
0.0
 11
462.79999605136811
 21
-299.40000173936818
 31
0.0
  0
LINE
  5
222
  8
DETAIL
  6
CONTINUOUS
 62
     5
 10
461.59999905642047
 20
211.09999411115771
 30
0.0
 11
461.59999905642047
 21
444.99999412631593
 31
0.0
  0
LINE
  5
223
  8
DETAIL
  6
CONTINUOUS
 62
     5
 10
462.79999605136811
 20
270.59999286063157
 30
0.0
 11
462.79999605136811
 21
299.39999273936883
 31
0.0
  0
LINE
  5
224
  8
DETAIL
  6
CONTINUOUS
 62
     5
 10
472.49847701053199
 20
270.59999286063157
 30
0.0
 11
462.79999605136811
 21
270.59999286063157
 31
0.0
  0
LINE
  5
225
  8
DETAIL
  6
CONTINUOUS
 62
     5
 10
462.79999605136811
 20
240.59999598694679
 30
0.0
 11
462.79999605136811
 21
269.3999958656841
 31
0.0
  0
LINE
  5
226
  8
DETAIL
  6
CONTINUOUS
 62
     5
 10
462.79999605136811
 20
-420.60000422905159
 30
0.0
 11
462.79999605136811
 21
-445.00000312631522
 31
0.0
  0
LINE
  5
227
  8
DETAIL
  6
CONTINUOUS
 62
     5
 10
472.49847701053199
 20
269.3999958656841
 30
0.0
 11
462.79999605136811
 21
269.3999958656841
 31
0.0
  0
LINE
  5
228
  8
DETAIL
  6
CONTINUOUS
 62
     5
 10
472.49847701053199
 20
-419.39999823410471
 30
0.0
 11
462.79999605136811
 21
-419.39999823410471
 31
0.0
  0
LINE
  5
229
  8
DETAIL
  6
CONTINUOUS
 62
     5
 10
475.0
 20
-445.00000312631522
 30
0.0
 11
475.0
 21
444.99999412631593
 31
0.0
  0
LINE
  5
22A
  8
DETAIL
  6
CONTINUOUS
 62
     5
 10
472.49847701053199
 20
-420.60000422905159
 30
0.0
 11
462.79999605136811
 21
-420.60000422905159
 31
0.0
  0
LINE
  5
22B
  8
DETAIL
  6
CONTINUOUS
 62
     5
 10
461.59999905642047
 20
-445.00000312631522
 30
0.0
 11
461.59999905642047
 21
-210.59999911326301
 31
0.0
  0
LINE
  5
22C
  8
DETAIL
  6
CONTINUOUS
 62
     5
 10
462.79999605136811
 20
-360.60000148168359
 30
0.0
 11
462.79999605136811
 21
-419.39999823410471
 31
0.0
  0
LINE
  5
22D
  8
DETAIL
  6
CONTINUOUS
 62
     5
 10
462.79999605136811
 20
300.5999987343157
 30
0.0
 11
462.79999605136811
 21
359.39999548673683
 31
0.0
  0
LINE
  5
22E
  8
DETAIL
  6
CONTINUOUS
 62
     5
 10
472.49847701053199
 20
-359.40000448673709
 30
0.0
 11
462.79999605136811
 21
-359.40000448673709
 31
0.0
  0
LINE
  5
22F
  8
DETAIL
  6
CONTINUOUS
 62
     5
 10
472.49847701053199
 20
299.39999273936883
 30
0.0
 11
462.79999605136811
 21
299.39999273936883
 31
0.0
  0
LINE
  5
230
  8
DETAIL
  6
CONTINUOUS
 62
     5
 10
472.49847701053199
 20
-360.60000148168359
 30
0.0
 11
462.79999605136811
 21
-360.60000148168359
 31
0.0
  0
LINE
  5
231
  8
DETAIL
  6
CONTINUOUS
 62
     5
 10
472.49847701053199
 20
300.5999987343157
 30
0.0
 11
462.79999605136811
 21
300.5999987343157
 31
0.0
  0
LINE
  5
232
  8
DETAIL
  6
CONTINUOUS
 62
     5
 10
462.79999605136811
 20
-240.6000049869472
 30
0.0
 11
462.79999605136811
 21
-269.40000486568351
 31
0.0
  0
LINE
  5
233
  8
DETAIL
  6
CONTINUOUS
 62
     5
 10
462.79999605136811
 20
-300.5999987343148
 30
0.0
 11
462.79999605136811
 21
-359.40000448673709
 31
0.0
  0
LINE
  5
234
  8
DETAIL
  6
CONTINUOUS
 62
     5
 10
472.49847701053199
 20
-299.40000173936818
 30
0.0
 11
462.79999605136811
 21
-299.40000173936818
 31
0.0
  0
LINE
  5
235
  8
DETAIL
  6
CONTINUOUS
 62
     5
 10
472.49847701053199
 20
-300.5999987343148
 30
0.0
 11
462.79999605136811
 21
-300.5999987343148
 31
0.0
  0
LINE
  5
236
  8
DETAIL
  6
CONTINUOUS
 62
     5
 10
472.49847701053199
 20
-239.39999899199941
 30
0.0
 11
462.79999605136811
 21
-239.39999899199941
 31
0.0
  0
LINE
  5
237
  8
DETAIL
  6
CONTINUOUS
 62
     5
 10
472.49847701053199
 20
-240.6000049869472
 30
0.0
 11
462.79999605136811
 21
-240.6000049869472
 31
0.0
  0
LINE
  5
238
  8
DETAIL
  6
CONTINUOUS
 62
     5
 10
461.46355005699462
 20
251.4999949410531
 30
0.0
 11
461.46355005699462
 21
-251.50000394105251
 31
0.0
  0
LINE
  5
23B
  8
DETAIL
  6
CONTINUOUS
 62
     5
 10
472.4635480106798
 20
-211.100003111158
 30
0.0
 11
461.46355005699462
 21
-211.100003111158
 31
0.0
  0
LINE
  5
23C
  8
DETAIL
  6
CONTINUOUS
 62
     5
 10
472.4635480106798
 20
211.09999411115771
 30
0.0
 11
461.46355005699462
 21
211.09999411115771
 31
0.0
  0
LINE
  5
23E
  8
DETAIL
  6
CONTINUOUS
 62
     5
 10
472.49847701053199
 20
420.59999522905218
 30
0.0
 11
462.79999605136811
 21
420.59999522905218
 31
0.0
  0
LINE
  5
23F
  8
DETAIL
  6
CONTINUOUS
 62
     5
 10
472.49847701053199
 20
419.39999823410471
 30
0.0
 11
462.79999605136811
 21
419.39999823410471
 31
0.0
  0
LINE
  5
240
  8
DETAIL
  6
CONTINUOUS
 62
     5
 10
462.79999605136811
 20
420.59999522905218
 30
0.0
 11
462.79999605136811
 21
444.99999412631593
 31
0.0
  0
LINE
  5
241
  8
DETAIL
  6
CONTINUOUS
 62
     5
 10
472.49847701053199
 20
360.59999248168418
 30
0.0
 11
462.79999605136811
 21
360.59999248168418
 31
0.0
  0
LINE
  5
242
  8
DETAIL
  6
CONTINUOUS
 62
     5
 10
472.49847701053199
 20
359.39999548673683
 30
0.0
 11
462.79999605136811
 21
359.39999548673683
 31
0.0
  0
LINE
  5
243
  8
DETAIL
  6
CONTINUOUS
 62
     5
 10
462.79999605136811
 20
360.59999248168418
 30
0.0
 11
462.79999605136811
 21
419.39999823410471
 31
0.0
  0
LINE
  5
244
  8
DETAIL
  6
CONTINUOUS
 62
     5
 10
472.49847701053199
 20
240.59999598694679
 30
0.0
 11
462.79999605136811
 21
240.59999598694679
 31
0.0
  0
LINE
  5
245
  8
DETAIL
  6
CONTINUOUS
 62
     5
 10
472.49847701053199
 20
239.39999899200029
 30
0.0
 11
462.79999605136811
 21
239.39999899200029
 31
0.0
  0
LINE
  5
246
  8
DETAIL
  6
CONTINUOUS
 62
     5
 10
262.28733189563172
 20
419.99999223157909
 30
0.0
 11
255.5873269238428
 21
426.69999720336818
 31
0.0
  0
LINE
  5
248
  8
DETAIL
  6
CONTINUOUS
 62
     5
 10
263.02228989253757
 20
419.99999223157909
 30
0.0
 11
262.28733189563172
 21
419.99999223157909
 31
0.0
  0
LINE
  5
249
  8
DETAIL
  6
CONTINUOUS
 62
     5
 10
426.99999420210492
 20
396.89949432884441
 30
0.0
 11
426.99999420210492
 21
313.28448474421111
 31
0.0
  0
LINE
  5
24A
  8
DETAIL
  6
CONTINUOUS
 62
     5
 10
426.99999420210492
 20
285.40247417822962
 30
0.0
 11
426.99999420210492
 21
281.75029981368237
 31
0.0
  0
LINE
  5
24B
  8
DETAIL
  6
CONTINUOUS
 62
     5
 10
419.98271223165102
 20
274.73300884322907
 30
0.0
 11
426.99999420210492
 21
281.75029981368237
 31
0.0
  0
LINE
  5
24C
  8
DETAIL
  6
CONTINUOUS
 62
     5
 10
426.69999720336818
 20
255.5873269238428
 30
0.0
 11
419.63251323312562
 21
262.65481089408507
 31
0.0
  0
LINE
  5
24D
  8
DETAIL
  6
CONTINUOUS
 62
     5
 10
419.99999223157818
 20
-263.022298892538
 30
0.0
 11
419.99999223157818
 21
-262.28733189563172
 31
0.0
  0
LINE
  5
24E
  8
DETAIL
  6
CONTINUOUS
 62
     5
 10
419.98271223165102
 20
-274.73301784322848
 30
0.0
 11
426.99999420210492
 21
-281.75029981368237
 31
0.0
  0
LINE
  5
24F
  8
DETAIL
  6
CONTINUOUS
 62
     5
 10
426.99999420210492
 20
-396.89949432884362
 30
0.0
 11
426.99999420210571
 21
-313.28447761303408
 31
0.0
  0
LINE
  5
250
  8
DETAIL
  6
CONTINUOUS
 62
     5
 10
426.99999420210492
 20
-285.40154669680851
 30
0.0
 11
426.99999420210492
 21
-281.75029981368237
 31
0.0
  0
LINE
  5
251
  8
DETAIL
  6
CONTINUOUS
 62
     5
 10
274.73300884322907
 20
-419.98271223165187
 30
0.0
 11
281.75029981368237
 21
-427.00000320210518
 31
0.0
  0
LINE
  5
252
  8
DETAIL
  6
CONTINUOUS
 62
     5
 10
255.5873269238428
 20
-426.69999720336818
 30
0.0
 11
262.65481089408507
 21
-419.63252223312509
 31
0.0
  0
LINE
  5
253
  8
DETAIL
  6
CONTINUOUS
 62
     5
 10
-427.00000320210518
 20
-396.89949432884362
 30
0.0
 11
-427.00000320210597
 21
-306.96092875724838
 31
0.0
  0
LINE
  5
254
  8
DETAIL
  6
CONTINUOUS
 62
     5
 10
-422.17770422240932
 20
-265.2000018833678
 30
0.0
 11
-426.69999720336898
 21
-265.2000018833678
 31
0.0
  0
LINE
  5
255
  8
DETAIL
  6
CONTINUOUS
 62
     5
 10
-333.79570659454481
 20
-369.1510454456793
 30
0.0
 11
-328.8625906153157
 21
-374.08416142490842
 31
0.0
  0
ARC
  5
256
  8
DETAIL
  6
CONTINUOUS
 62
     5
 10
-347.8786815352488
 20
-352.12131751738337
 30
0.0
 40
21.300002910315762
 50
284.91807399998982
 51
302.64712200001878
  0
LINE
  5
258
  8
DETAIL
  6
CONTINUOUS
 62
     5
 10
-329.62193861211932
 20
-369.56525244393561
 30
0.0
 11
-329.62193861211932
 21
-365.09405246276123
 31
0.0
  0
LINE
  5
259
  8
DETAIL
  6
CONTINUOUS
 62
     5
 10
-343.3867275541615
 20
-370.05611244186912
 30
0.0
 11
-342.3952605583363
 21
-372.70339943072207
 31
0.0
  0
ARC
  5
25A
  8
DETAIL
  6
CONTINUOUS
 62
     5
 10
-347.8786815352488
 20
-352.12131751738337
 30
0.0
 40
18.299996922947361
 50
258.53412499999212
 51
281.46587500000788
  0
LINE
  5
25B
  8
DETAIL
  6
CONTINUOUS
 62
     5
 10
-370.05611244186912
 20
-355.82399850179252
 30
0.0
 11
-376.72864041377488
 21
-349.15147052988777
 31
0.0
  0
LINE
  5
25C
  8
DETAIL
  6
CONTINUOUS
 62
     5
 10
-370.05611244186912
 20
-351.67133551927782
 30
0.0
 11
-372.1018574332557
 21
-353.7170805106644
 31
0.0
  0
LINE
  5
25D
  8
DETAIL
  6
CONTINUOUS
 62
     5
 10
-373.3099724281692
 20
-340.78306356512348
 30
0.0
 11
-378.93346940449112
 21
-346.40656054144608
 31
0.0
  0
ARC
  5
25E
  8
DETAIL
  6
CONTINUOUS
 62
     5
 10
-363.78858446825859
 20
-336.21141458437251
 30
0.0
 40
18.299996922947361
 50
156.65632199999101
 51
224.99999999997721
  0
LINE
  5
25F
  8
DETAIL
  6
CONTINUOUS
 62
     5
 10
-427.00000320210518
 20
396.89949432884441
 30
0.0
 11
-427.00000320210518
 21
313.28447130784122
 31
0.0
  0
LINE
  5
260
  8
DETAIL
  6
CONTINUOUS
 62
     5
 10
-419.63252223312702
 20
262.65481089408507
 30
0.0
 11
-426.69999720336898
 21
255.5873269238428
 31
0.0
  0
LINE
  5
261
  8
DETAIL
  6
CONTINUOUS
 62
     5
 10
-420.00000123157952
 20
263.02228989253757
 30
0.0
 11
-420.00000123157952
 21
262.28733189563172
 31
0.0
  0
LINE
  5
262
  8
DETAIL
  6
CONTINUOUS
 62
     5
 10
-274.73284684322959
 20
419.98254123165219
 30
0.0
 11
-281.75029981368323
 21
426.99999420210492
 31
0.0
  0
LINE
  5
263
  8
DETAIL
  6
CONTINUOUS
 62
     5
 10
-262.28733189563349
 20
419.99999223157909
 30
0.0
 11
-263.022298892538
 21
419.99999223157909
 31
0.0
  0
LINE
  5
264
  8
NOTE
  6
CONTINUOUS
 62
     4
 10
-288.0
 20
-347.00000040736859
 30
0.0
 11
-288.0
 21
-302.99999959263141
 31
0.0
  0
LINE
  5
265
  8
NOTE
  6
CONTINUOUS
 62
     4
 10
-315.57510809197441
 20
-325.0
 30
0.0
 11
-260.42489190802559
 21
-325.0
 31
0.0
  0
LINE
  5
266
  8
NOTE
  6
CONTINUOUS
 62
     4
 10
-348.0
 20
-347.00000040736859
 30
0.0
 11
-348.0
 21
-302.99999959263141
 31
0.0
  0
LINE
  5
267
  8
NOTE
  6
CONTINUOUS
 62
     4
 10
-372.4248936890782
 20
-325.0
 30
0.0
 11
-323.57510631092191
 21
-325.0
 31
0.0
  0
LINE
  5
268
  8
NOTE
  6
CONTINUOUS
 62
     4
 10
-407.0
 20
-327.00000490736869
 30
0.0
 11
-407.0
 21
-283.00000409263163
 31
0.0
  0
LINE
  5
269
  8
NOTE
  6
CONTINUOUS
 62
     4
 10
-428.99999590736832
 20
-305.0
 30
0.0
 11
-384.99999509263222
 21
-305.0
 31
0.0
  0
CIRCLE
  5
26A
  8
FIX
  6
CONTINUOUS
 62
    11
 10
-407.0
 20
-305.0
 30
0.0
 40
12.45600170217782
  0
LINE
  5
26B
  8
NOTE
  6
CONTINUOUS
 62
     4
 10
-407.0
 20
282.9999950926321
 30
0.0
 11
-407.0
 21
326.99999590736837
 31
0.0
  0
LINE
  5
26C
  8
NOTE
  6
CONTINUOUS
 62
     4
 10
-427.33940441903889
 20
305.0
 30
0.0
 11
-383.33940360430182
 21
305.0
 31
0.0
  0
CIRCLE
  5
26D
  8
FIX
  6
CONTINUOUS
 62
    11
 10
-407.0
 20
305.0
 30
0.0
 40
12.45600170217782
  0
LINE
  5
26E
  8
NOTE
  6
CONTINUOUS
 62
     4
 10
407.0
 20
282.9999950926321
 30
0.0
 11
407.0
 21
326.99999590736837
 31
0.0
  0
LINE
  5
26F
  8
NOTE
  6
CONTINUOUS
 62
     4
 10
385.00000409263077
 20
305.0
 30
0.0
 11
429.00000490736772
 21
305.0
 31
0.0
  0
CIRCLE
  5
270
  8
FIX
  6
CONTINUOUS
 62
    11
 10
407.0
 20
305.0
 30
0.0
 40
12.45600170217782
  0
LINE
  5
271
  8
NOTE
  6
CONTINUOUS
 62
     4
 10
407.0
 20
-327.00000490736772
 30
0.0
 11
407.0
 21
-283.00000409263163
 31
0.0
  0
LINE
  5
272
  8
NOTE
  6
CONTINUOUS
 62
     4
 10
385.00000409263163
 20
-305.0
 30
0.0
 11
429.00000490736869
 21
-305.0
 31
0.0
  0
CIRCLE
  5
273
  8
FIX
  6
CONTINUOUS
 62
    11
 10
407.0
 20
-305.0
 30
0.0
 40
12.45600170217782
  0
LINE
  5
274
  8
NOTE
  6
CONTINUOUS
 62
     4
 10
337.0
 20
-428.85000040736787
 30
0.0
 11
337.0
 21
-385.14999959263213
 31
0.0
  0
LINE
  5
275
  8
NOTE
  6
CONTINUOUS
 62
     4
 10
314.99999959263181
 20
-407.0
 30
0.0
 11
359.00000040736808
 21
-407.0
 31
0.0
  0
LINE
  5
276
  8
SIZE
  6
CONTINUOUS
 62
    30
 10
-475.0
 20
464.99999412631593
 30
0.0
 11
-475.0
 21
841.87227666557283
 31
0.0
  0
LINE
  5
277
  8
SIZE
  6
CONTINUOUS
 62
    30
 10
475.0
 20
464.99999412631593
 30
0.0
 11
475.0
 21
841.87227666557283
 31
0.0
  0
LINE
  5
278
  8
SIZE
  6
CONTINUOUS
 62
    30
 10
-475.0
 20
821.87227666557283
 30
0.0
 11
475.0
 21
821.87227666557283
 31
0.0
  0
CIRCLE
  5
279
  8
SIZE
  6
CONTINUOUS
 62
    30
 10
-475.0
 20
821.87227666557283
 30
0.0
 40
7.5
  0
CIRCLE
  5
27A
  8
SIZE
  6
CONTINUOUS
 62
    30
 10
475.0
 20
821.87227666557283
 30
0.0
 40
7.5
  0
TEXT
  5
27B
  8
SIZE
  6
CONTINUOUS
 62
    30
 10
-69.428571428571445
 20
841.87227666557283
 30
0.0
 40
60.0
  1
950
 41
0.9
 72
     1
 11
0.0
 21
841.87227666557283
 31
0.0
  0
POINT
  5
27C
  8
DEFPOINTS
  6
CONTINUOUS
 62
     7
 10
-475.0
 20
444.99999412631593
 30
0.0
  0
POINT
  5
27D
  8
DEFPOINTS
  6
CONTINUOUS
 62
     7
 10
475.0
 20
444.99999412631593
 30
0.0
  0
POINT
  5
27E
  8
DEFPOINTS
  6
CONTINUOUS
 62
     7
 10
475.0
 20
821.87227666557283
 30
0.0
  0
LINE
  5
27F
  8
SIZE
  6
CONTINUOUS
 62
    30
 10
-465.00000312631522
 20
475.0
 30
0.0
 11
-1181.751863814472
 21
475.00000000000011
 31
0.0
  0
LINE
  5
280
  8
SIZE
  6
CONTINUOUS
 62
    30
 10
-465.00000312631522
 20
-474.9999999999992
 30
0.0
 11
-1181.751863814472
 21
-474.99999999999881
 31
0.0
  0
LINE
  5
281
  8
SIZE
  6
CONTINUOUS
 62
    30
 10
-1161.751863814472
 20
475.00000000000011
 30
0.0
 11
-1161.751863814472
 21
-474.99999999999881
 31
0.0
  0
CIRCLE
  5
282
  8
SIZE
  6
CONTINUOUS
 62
    30
 10
-1161.751863814472
 20
475.00000000000011
 30
0.0
 40
7.5
  0
CIRCLE
  5
283
  8
SIZE
  6
CONTINUOUS
 62
    30
 10
-1161.751863814472
 20
-474.99999999999881
 30
0.0
 40
7.5
  0
TEXT
  5
284
  8
SIZE
  6
CONTINUOUS
 62
    30
 10
-1181.751863814472
 20
-69.428571428570976
 30
0.0
 40
60.0
  1
950
 50
90.0
 41
0.9
 72
     1
 11
-1181.751863814472
 21
0.0000000000004734
 31
0.0
  0
POINT
  5
285
  8
DEFPOINTS
  6
CONTINUOUS
 62
     7
 10
-445.00000312631522
 20
475.0
 30
0.0
  0
POINT
  5
286
  8
DEFPOINTS
  6
CONTINUOUS
 62
     7
 10
-445.00000312631522
 20
-474.9999999999992
 30
0.0
  0
POINT
  5
287
  8
DEFPOINTS
  6
CONTINUOUS
 62
     7
 10
-1161.751863814472
 20
-474.99999999999881
 30
0.0
  0
LINE
  5
288
  8
SIZE
  6
CONTINUOUS
 62
    30
 10
-347.99263253561003
 20
-364.50000054947299
 30
0.0
 11
-347.99263253561003
 21
-667.05961402476237
 31
0.0
  0
LINE
  5
289
  8
SIZE
  6
CONTINUOUS
 62
    30
 10
-287.99262978824208
 20
-364.50000054947299
 30
0.0
 11
-287.99262978824208
 21
-667.05961402476237
 31
0.0
  0
LINE
  5
28A
  8
SIZE
  6
CONTINUOUS
 62
    30
 10
-347.99263253561003
 20
-647.0596140247626
 30
0.0
 11
-287.99262978824208
 21
-647.0596140247626
 31
0.0
  0
LINE
  5
28B
  8
SIZE
  6
CONTINUOUS
 62
    30
 10
-287.99262978824208
 20
-647.0596140247626
 30
0.0
 11
-130.5640583596707
 21
-647.0596140247626
 31
0.0
  0
CIRCLE
  5
28C
  8
SIZE
  6
CONTINUOUS
 62
    30
 10
-347.99263253561003
 20
-647.0596140247626
 30
0.0
 40
7.5
  0
CIRCLE
  5
28D
  8
SIZE
  6
CONTINUOUS
 62
    30
 10
-287.99262978824208
 20
-647.0596140247626
 30
0.0
 40
7.5
  0
TEXT
  5
28E
  8
SIZE
  6
CONTINUOUS
 62
    30
 10
-237.99262978824211
 20
-627.0596140247626
 30
0.0
 40
60.0
  1
60
 41
0.9
 72
     1
 11
-194.27834407395639
 21
-627.0596140247626
 31
0.0
  0
POINT
  5
291
  8
DEFPOINTS
  6
CONTINUOUS
 62
     7
 10
-287.99262978824208
 20
-647.0596140247626
 30
0.0
  0
LINE
  5
292
  8
SIZE
  6
CONTINUOUS
 62
    30
 10
-347.99263253561003
 20
-366.99263153897851
 30
0.0
 11
-347.99263253561003
 21
-667.05961402476237
 31
0.0
  0
LINE
  5
293
  8
SIZE
  6
CONTINUOUS
 62
    30
 10
-420.00000123157952
 20
-280.57359690284738
 30
0.0
 11
-420.00000123157952
 21
-667.05961402476237
 31
0.0
  0
LINE
  5
294
  8
SIZE
  6
CONTINUOUS
 62
    30
 10
-347.99263253561003
 20
-647.0596140247626
 30
0.0
 11
-420.00000123157952
 21
-647.0596140247626
 31
0.0
  0
LINE
  5
295
  8
SIZE
  6
CONTINUOUS
 62
    30
 10
-420.00000123157952
 20
-647.0596140247626
 30
0.0
 11
-623.0893609414918
 21
-647.0596140247626
 31
0.0
  0
CIRCLE
  5
296
  8
SIZE
  6
CONTINUOUS
 62
    30
 10
-347.99263253561003
 20
-647.0596140247626
 30
0.0
 40
7.5
  0
CIRCLE
  5
297
  8
SIZE
  6
CONTINUOUS
 62
    30
 10
-420.00000123157952
 20
-647.0596140247626
 30
0.0
 40
7.5
  0
TEXT
  5
298
  8
SIZE
  6
CONTINUOUS
 62
    30
 10
-603.08936094149203
 20
-627.0596140247626
 30
0.0
 40
60.0
  1
72
 41
0.9
 72
     1
 11
-559.37507522720637
 21
-627.0596140247626
 31
0.0
  0
POINT
  5
29A
  8
DEFPOINTS
  6
CONTINUOUS
 62
     7
 10
-420.00000123157952
 20
-260.57359690284738
 30
0.0
  0
POINT
  5
29B
  8
DEFPOINTS
  6
CONTINUOUS
 62
     7
 10
-420.00000123157952
 20
-647.0596140247626
 30
0.0
  0
LINE
  5
29C
  8
SIZE
  6
CONTINUOUS
 62
    30
 10
336.9792425819814
 20
-448.72292719484972
 30
0.0
 11
336.9792425819814
 21
-663.95889238365714
 31
0.0
  0
LINE
  5
29D
  8
SIZE
  6
CONTINUOUS
 62
    30
 10
419.99262123160941
 20
-280.58096790281701
 30
0.0
 11
419.99262123160941
 21
-663.95889238365714
 31
0.0
  0
LINE
  5
29E
  8
SIZE
  6
CONTINUOUS
 62
    30
 10
336.9792425819814
 20
-643.95889238365726
 30
0.0
 11
419.99262123160941
 21
-643.95889238365726
 31
0.0
  0
LINE
  5
29F
  8
SIZE
  6
CONTINUOUS
 62
    30
 10
419.99262123160941
 20
-643.95889238365726
 30
0.0
 11
641.13547837446686
 21
-643.95889238365726
 31
0.0
  0
CIRCLE
  5
2A0
  8
SIZE
  6
CONTINUOUS
 62
    30
 10
336.9792425819814
 20
-643.95889238365726
 30
0.0
 40
7.5
  0
CIRCLE
  5
2A1
  8
SIZE
  6
CONTINUOUS
 62
    30
 10
419.99262123160941
 20
-643.95889238365726
 30
0.0
 40
7.5
  0
TEXT
  5
2A2
  8
SIZE
  6
CONTINUOUS
 62
    30
 10
533.70690694589518
 20
-623.95889238365714
 30
0.0
 40
60.0
  1
83
 41
0.9
 72
     1
 11
577.42119266018085
 21
-623.95889238365714
 31
0.0
  0
POINT
  5
2A4
  8
DEFPOINTS
  6
CONTINUOUS
 62
     7
 10
419.99262123160941
 20
-260.58096790281712
 30
0.0
  0
POINT
  5
2A5
  8
DEFPOINTS
  6
CONTINUOUS
 62
     7
 10
419.99262123160941
 20
-643.95889238365726
 30
0.0
  0
LINE
  5
2A6
  8
SIZE
  6
CONTINUOUS
 62
    30
 10
-407.0
 20
-347.00000490736869
 30
0.0
 11
-407.0
 21
-908.22882048393433
 31
0.0
  0
LINE
  5
2A7
  8
SIZE
  6
CONTINUOUS
 62
    30
 10
407.0
 20
-347.0000049073679
 30
0.0
 11
406.99999999999989
 21
-908.22882048393433
 31
0.0
  0
LINE
  5
2A8
  8
SIZE
  6
CONTINUOUS
 62
    30
 10
-407.0
 20
-888.22882048393421
 30
0.0
 11
406.99999999999989
 21
-888.22882048393421
 31
0.0
  0
CIRCLE
  5
2A9
  8
SIZE
  6
CONTINUOUS
 62
    30
 10
-407.0
 20
-888.22882048393421
 30
0.0
 40
7.5
  0
CIRCLE
  5
2AA
  8
SIZE
  6
CONTINUOUS
 62
    30
 10
406.99999999999989
 20
-888.22882048393421
 30
0.0
 40
7.5
  0
TEXT
  5
2AB
  8
SIZE
  6
CONTINUOUS
 62
    30
 10
-65.571428571428612
 20
-868.22882048393433
 30
0.0
 40
60.0
  1
814
 41
0.9
 72
     1
 11
-0.0000000000000568
 21
-868.22882048393433
 31
0.0
  0
POINT
  5
2AC
  8
DEFPOINTS
  6
CONTINUOUS
 62
     7
 10
-407.0
 20
-327.00000490736869
 30
0.0
  0
POINT
  5
2AD
  8
DEFPOINTS
  6
CONTINUOUS
 62
     7
 10
407.0
 20
-327.00000490736772
 30
0.0
  0
POINT
  5
2AE
  8
DEFPOINTS
  6
CONTINUOUS
 62
     7
 10
406.99999999999989
 20
-888.22882048393421
 30
0.0
  0
LINE
  5
2AF
  8
SIZE
  6
CONTINUOUS
 62
    30
 10
-420.00000123157952
 20
-280.57359690284738
 30
0.0
 11
-420.00000123157952
 21
-1094.151096996198
 31
0.0
  0
LINE
  5
2B0
  8
SIZE
  6
CONTINUOUS
 62
    30
 10
419.99262123160941
 20
-280.58096790281701
 30
0.0
 11
419.99262123160941
 21
-1094.151096996198
 31
0.0
  0
LINE
  5
2B1
  8
SIZE
  6
CONTINUOUS
 62
    30
 10
-420.00000123157952
 20
-1074.1510969961989
 30
0.0
 11
419.99262123160941
 21
-1074.1510969961989
 31
0.0
  0
CIRCLE
  5
2B2
  8
SIZE
  6
CONTINUOUS
 62
    30
 10
-420.00000123157952
 20
-1074.1510969961989
 30
0.0
 40
7.5
  0
CIRCLE
  5
2B3
  8
SIZE
  6
CONTINUOUS
 62
    30
 10
419.99262123160941
 20
-1074.1510969961989
 30
0.0
 40
7.5
  0
TEXT
  5
2B4
  8
SIZE
  6
CONTINUOUS
 62
    30
 10
-69.432261428556487
 20
-1054.151096996198
 30
0.0
 40
60.0
  1
840
 41
0.9
 72
     1
 11
-0.0036899999850561
 21
-1054.151096996198
 31
0.0
  0
POINT
  5
2B5
  8
DEFPOINTS
  6
CONTINUOUS
 62
     7
 10
-420.00000123157952
 20
-260.57359690284738
 30
0.0
  0
POINT
  5
2B6
  8
DEFPOINTS
  6
CONTINUOUS
 62
     7
 10
419.99262123160941
 20
-260.58096790281712
 30
0.0
  0
POINT
  5
2B7
  8
DEFPOINTS
  6
CONTINUOUS
 62
     7
 10
419.99262123160941
 20
-1074.1510969961989
 30
0.0
  0
LINE
  5
2B8
  8
NOTE
  6
CONTINUOUS
 62
     4
 10
455.0
 20
455.0
 30
0.0
 11
455.0
 21
-455.0
 31
0.0
  0
LINE
  5
2B9
  8
NOTE
  6
CONTINUOUS
 62
     4
 10
-455.0000000000008
 20
455.0
 30
0.0
 11
-455.0000000000008
 21
-455.0
 31
0.0
  0
LINE
  5
2BA
  8
NOTE
  6
CONTINUOUS
 62
     4
 10
-455.0000000000008
 20
455.0
 30
0.0
 11
455.0
 21
455.0
 31
0.0
  0
LINE
  5
2BB
  8
NOTE
  6
CONTINUOUS
 62
     4
 10
-455.0000000000008
 20
-455.0
 30
0.0
 11
455.0
 21
-455.0
 31
0.0
  0
LINE
  5
2BC
  8
SIZE
  6
CONTINUOUS
 62
    30
 10
-455.0000000000008
 20
475.0
 30
0.0
 11
-455.0000000000008
 21
729.35916586896121
 31
0.0
  0
LINE
  5
2BD
  8
SIZE
  6
CONTINUOUS
 62
    30
 10
455.0
 20
475.0
 30
0.0
 11
455.0
 21
729.35916586896121
 31
0.0
  0
LINE
  5
2BE
  8
SIZE
  6
CONTINUOUS
 62
    30
 10
-455.0000000000008
 20
709.35916586896121
 30
0.0
 11
455.0
 21
709.35916586896121
 31
0.0
  0
CIRCLE
  5
2BF
  8
SIZE
  6
CONTINUOUS
 62
    30
 10
-455.0000000000008
 20
709.35916586896121
 30
0.0
 40
7.5
  0
CIRCLE
  5
2C0
  8
SIZE
  6
CONTINUOUS
 62
    30
 10
455.0
 20
709.35916586896121
 30
0.0
 40
7.5
  0
TEXT
  5
2C1
  8
SIZE
  6
CONTINUOUS
 62
    30
 10
-406.02857142857169
 20
729.35916586896121
 30
0.0
 40
60.0
  1
860～910 <天井開口穴>
 41
0.9
 72
     1
 11
-0.0000000000004547
 21
729.35916586896121
 31
0.0
  0
POINT
  5
2C2
  8
DEFPOINTS
  6
CONTINUOUS
 62
     7
 10
-455.0000000000008
 20
455.0
 30
0.0
  0
POINT
  5
2C3
  8
DEFPOINTS
  6
CONTINUOUS
 62
     7
 10
455.0
 20
455.0
 30
0.0
  0
POINT
  5
2C4
  8
DEFPOINTS
  6
CONTINUOUS
 62
     7
 10
455.0
 20
709.35916586896121
 30
0.0
  0
LINE
  5
2C5
  8
SIZE
  6
CONTINUOUS
 62
    30
 10
-475.0000000000008
 20
-455.0
 30
0.0
 11
-1053.0423370714159
 21
-454.99999999999977
 31
0.0
  0
LINE
  5
2C6
  8
SIZE
  6
CONTINUOUS
 62
    30
 10
-475.0000000000008
 20
455.0
 30
0.0
 11
-1053.0423370714159
 21
455.0
 31
0.0
  0
LINE
  5
2C7
  8
SIZE
  6
CONTINUOUS
 62
    30
 10
-1033.0423370714159
 20
-454.99999999999977
 30
0.0
 11
-1033.0423370714159
 21
455.0
 31
0.0
  0
CIRCLE
  5
2C8
  8
SIZE
  6
CONTINUOUS
 62
    30
 10
-1033.0423370714159
 20
-454.99999999999977
 30
0.0
 40
7.5
  0
CIRCLE
  5
2C9
  8
SIZE
  6
CONTINUOUS
 62
    30
 10
-1033.0423370714159
 20
455.0
 30
0.0
 40
7.5
  0
TEXT
  5
2CA
  8
SIZE
  6
CONTINUOUS
 62
    30
 10
-1053.0423370714159
 20
-406.02857142857118
 30
0.0
 40
60.0
  1
860～910 <天井開口穴>
 50
90.0
 41
0.9
 72
     1
 11
-1053.0423370714159
 21
0.0000000000000107
 31
0.0
  0
POINT
  5
2CB
  8
DEFPOINTS
  6
CONTINUOUS
 62
     7
 10
-455.0000000000008
 20
-455.0
 30
0.0
  0
POINT
  5
2CC
  8
DEFPOINTS
  6
CONTINUOUS
 62
     7
 10
-455.0000000000008
 20
455.0
 30
0.0
  0
POINT
  5
2CD
  8
DEFPOINTS
  6
CONTINUOUS
 62
     7
 10
-1033.0423370714159
 20
455.0
 30
0.0
  0
LINE
  5
2CE
  8
SIZE
  6
CONTINUOUS
 62
    30
 10
280.5611679028998
 20
419.99262123160941
 30
0.0
 11
935.87228546539995
 21
419.99262123160929
 31
0.0
  0
LINE
  5
2CF
  8
SIZE
  6
CONTINUOUS
 62
    30
 10
280.5809589028168
 20
-419.99263023160972
 30
0.0
 11
935.8722854653995
 21
-419.99263023160989
 31
0.0
  0
LINE
  5
2D0
  8
SIZE
  6
CONTINUOUS
 62
    30
 10
915.87228546539995
 20
419.99262123160929
 30
0.0
 11
915.87228546539961
 21
-419.99263023160989
 31
0.0
  0
CIRCLE
  5
2D1
  8
SIZE
  6
CONTINUOUS
 62
    30
 10
915.87228546539995
 20
419.99262123160929
 30
0.0
 40
7.5
  0
CIRCLE
  5
2D2
  8
SIZE
  6
CONTINUOUS
 62
    30
 10
915.87228546539961
 20
-419.99263023160989
 30
0.0
 40
7.5
  0
TEXT
  5
2D3
  8
SIZE
  6
CONTINUOUS
 62
    30
 10
895.87228546539984
 20
-45.999038820116631
 30
0.0
 40
60.0
  1
840
 50
90.0
 41
0.9
 72
     1
 11
895.87228546539984
 21
23.429532608454799
 31
0.0
  0
POINT
  5
2D4
  8
DEFPOINTS
  6
CONTINUOUS
 62
     7
 10
260.5611679028998
 20
419.99262123160941
 30
0.0
  0
POINT
  5
2D5
  8
DEFPOINTS
  6
CONTINUOUS
 62
     7
 10
260.58095890281669
 20
-419.99263023160972
 30
0.0
  0
POINT
  5
2D6
  8
DEFPOINTS
  6
CONTINUOUS
 62
     7
 10
915.87228546539961
 20
-419.99263023160989
 30
0.0
  0
LINE
  5
2D7
  8
SIZE
  6
CONTINUOUS
 62
    30
 10
449.00000490736772
 20
305.0
 30
0.0
 11
700.52902338572062
 21
304.99999999999989
 31
0.0
  0
LINE
  5
2D8
  8
SIZE
  6
CONTINUOUS
 62
    30
 10
449.00000490736869
 20
-305.0
 30
0.0
 11
700.52902338572039
 21
-305.00000000000011
 31
0.0
  0
LINE
  5
2D9
  8
SIZE
  6
CONTINUOUS
 62
    30
 10
680.52902338572062
 20
304.99999999999989
 30
0.0
 11
680.52902338572039
 21
-305.00000000000011
 31
0.0
  0
CIRCLE
  5
2DA
  8
SIZE
  6
CONTINUOUS
 62
    30
 10
680.52902338572062
 20
304.99999999999989
 30
0.0
 40
7.5
  0
CIRCLE
  5
2DB
  8
SIZE
  6
CONTINUOUS
 62
    30
 10
680.52902338572039
 20
-305.00000000000011
 30
0.0
 40
7.5
  0
TEXT
  5
2DC
  8
SIZE
  6
CONTINUOUS
 62
    30
 10
660.52902338572028
 20
-64.285714285714207
 30
0.0
 40
60.0
  1
610
 50
90.0
 41
0.9
 72
     1
 11
660.52902338572028
 21
0.0000000000000763
 31
0.0
  0
POINT
  5
2DD
  8
DEFPOINTS
  6
CONTINUOUS
 62
     7
 10
429.00000490736772
 20
305.0
 30
0.0
  0
POINT
  5
2DE
  8
DEFPOINTS
  6
CONTINUOUS
 62
     7
 10
429.00000490736869
 20
-305.0
 30
0.0
  0
POINT
  5
2DF
  8
DEFPOINTS
  6
CONTINUOUS
 62
     7
 10
680.52902338572039
 20
-305.00000000000011
 30
0.0
  0
LINE
  5
2E0
  8
DETAIL
  6
CONTINUOUS
 62
     5
 10
-426.99999420210571
 20
285.40247417822962
 30
0.0
 11
-426.99999420210571
 21
281.75029981368237
 31
0.0
  0
LINE
  5
2E1
  8
DETAIL
  6
CONTINUOUS
 62
     5
 10
-419.98271223165187
 20
274.73300884322907
 30
0.0
 11
-426.99999420210571
 21
281.75029981368237
 31
0.0
  0
LINE
  5
2E2
  8
DETAIL
  6
CONTINUOUS
 62
     5
 10
-419.98271223165187
 20
-274.73301784322848
 30
0.0
 11
-427.00000320210711
 21
-281.75030881368269
 31
0.0
  0
LINE
  5
2E3
  8
DETAIL
  6
CONTINUOUS
 62
     5
 10
-427.00000320210711
 20
-286.3245249532265
 30
0.0
 11
-427.00000320210711
 21
-281.75030881368269
 31
0.0
  0
LINE
  5
2E4
  8
SIZE
  6
CONTINUOUS
 62
    30
 10
294.97924667461388
 20
-407.02292228748217
 30
0.0
 11
182.06058698804921
 21
-407.02292228748217
 31
0.0
  0
LINE
  5
2E5
  8
SIZE
  6
CONTINUOUS
 62
    30
 10
240.5809589028168
 20
-419.99263023160972
 30
0.0
 11
182.06058698804921
 21
-419.99263023160972
 31
0.0
  0
LINE
  5
2E6
  8
SIZE
  6
CONTINUOUS
 62
    30
 10
202.06058698804921
 20
-407.02292228748217
 30
0.0
 11
202.06058698804921
 21
-377.02292228748229
 31
0.0
  0
LINE
  5
2E7
  8
SIZE
  6
CONTINUOUS
 62
    30
 10
202.06058698804921
 20
-419.99263023160972
 30
0.0
 11
202.0605869880491
 21
-597.13548737446683
 31
0.0
  0
LINE
  5
2E8
  8
SIZE
  6
CONTINUOUS
 62
    30
 10
202.06058698804921
 20
-407.02292228748217
 30
0.0
 11
202.06058698804921
 21
-419.99263023160972
 31
0.0
  0
CIRCLE
  5
2E9
  8
SIZE
  6
CONTINUOUS
 62
    30
 10
202.06058698804921
 20
-407.02292228748217
 30
0.0
 40
7.5
  0
CIRCLE
  5
2EA
  8
SIZE
  6
CONTINUOUS
 62
    30
 10
202.06058698804921
 20
-419.99263023160972
 30
0.0
 40
7.5
  0
TEXT
  5
2EB
  8
SIZE
  6
CONTINUOUS
 62
    30
 10
182.06058698804921
 20
-577.13548737446683
 30
0.0
 40
60.0
  1
13
 50
90.0
 41
0.9
 72
     1
 11
182.06058698804921
 21
-538.56405880303828
 31
0.0
  0
POINT
  5
2ED
  8
DEFPOINTS
  6
CONTINUOUS
 62
     7
 10
260.58095890281669
 20
-419.99263023160972
 30
0.0
  0
POINT
  5
2EE
  8
DEFPOINTS
  6
CONTINUOUS
 62
     7
 10
202.06058698804921
 20
-419.99263023160972
 30
0.0
  0
LINE
  5
2EF
  8
NOTE
  6
CONTINUOUS
 62
     4
 10
336.99999549999927
 20
-407.0
 30
0.0
 11
313.79041304823107
 21
-432.37055285966738
 31
0.0
  0
LINE
  5
2F0
  8
NOTE
  6
CONTINUOUS
 62
     4
 10
336.99999549999927
 20
-407.0
 30
0.0
 11
329.58518440457829
 21
-440.57633461842221
 31
0.0
  0
LINE
  5
2F1
  8
NOTE
  6
CONTINUOUS
 62
     4
 10
145.52674922781989
 20
-761.60219517957626
 30
0.0
 11
337.0
 21
-407.0
 31
0.0
  0
TEXT
  5
2F2
  8
NOTE
  6
CONTINUOUS
 62
     4
 10
-144.27255187150419
 20
-747.92485875581656
 30
0.0
 40
60.0
  1
D VP-25
 50
0.0000025044165917
 41
0.7
  7
STANDARD1
  0
LINE
  5
2F3
  8
NOTE
  6
CONTINUOUS
 62
     4
 10
145.52674922781989
 20
-761.60219517957626
 30
0.0
 11
-150.93054509032299
 21
-761.60219517957626
 31
0.0
  0
TEXT
  5
2F4
  8
SIZE
  6
CONTINUOUS
 62
    30
 10
757.98886343995753
 20
-248.32335891118331
 30
0.0
 40
60.0
  1
<吊りボルトピッチ>
 50
90.000002504468682
 41
0.7
  7
STANDARD1
  0
TEXT
  5
2F5
  8
SIZE
  6
CONTINUOUS
 62
    30
 10
-265.15038261472358
 20
-960.33006922742675
 30
0.0
 40
60.0
  1
<吊りボルトピッチ>
 50
0.0000025044687019
 41
0.7
  7
STANDARD1
  0
LINE
  5
2F6
  8
NOTE
  6
CONTINUOUS
 62
     4
 10
-407.00000000000182
 20
305.00000000000091
 30
0.0
 11
-437.92468620434192
 21
320.03374381695181
 31
0.0
  0
LINE
  5
2F7
  8
NOTE
  6
CONTINUOUS
 62
     4
 10
-407.00000000000182
 20
305.00000000000091
 30
0.0
 11
-426.26469153355703
 21
333.48194744230108
 31
0.0
  0
LINE
  5
2F8
  8
NOTE
  6
CONTINUOUS
 62
     4
 10
-751.57671876931613
 20
594.26514474341445
 30
0.0
 11
-407.00000000000182
 21
305.00000000000091
 31
0.0
  0
TEXT
  5
2F9
  8
NOTE
  6
CONTINUOUS
 62
     4
 10
-1267.745882712886
 20
607.94248116717415
 30
0.0
 40
60.0
  1
AH 4-12×32長穴
 50
0.0000025044165917
 41
0.7
  7
STANDARD1
  0
LINE
  5
2FA
  8
NOTE
  6
CONTINUOUS
 62
     4
 10
-751.57671876931613
 20
594.26514474341445
 30
0.0
 11
-1284.0342614310141
 21
594.26514474341445
 31
0.0
  0
LINE
  5
2FB
  8
SIZE
  6
CONTINUOUS
 62
    30
 10
-280.57359690284829
 20
-420.00000123157849
 30
0.0
 11
-611.88777838441104
 21
-420.00000123157849
 31
0.0
  0
LINE
  5
2FC
  8
SIZE
  6
CONTINUOUS
 62
    30
 10
-389.99262844297851
 20
-324.99262663160971
 30
0.0
 11
-611.88777838441104
 21
-324.99262663160971
 31
0.0
  0
LINE
  5
2FD
  8
SIZE
  6
CONTINUOUS
 62
    30
 10
-591.88777838441104
 20
-420.00000123157849
 30
0.0
 11
-591.88777838441104
 21
-324.99262663160971
 31
0.0
  0
CIRCLE
  5
2FE
  8
SIZE
  6
CONTINUOUS
 62
    30
 10
-591.88777838441104
 20
-420.00000123157849
 30
0.0
 40
7.5
  0
CIRCLE
  5
2FF
  8
SIZE
  6
CONTINUOUS
 62
    30
 10
-591.88777838441104
 20
-324.99262663160971
 30
0.0
 40
7.5
  0
TEXT
  5
300
  8
SIZE
  6
CONTINUOUS
 62
    30
 10
-611.88777838441081
 20
-416.21059964587988
 30
0.0
 40
60.0
  1
95
 50
90.0
 41
0.9
 72
     1
 11
-611.88777838441081
 21
-372.49631393159422
 31
0.0
  0
POINT
  5
301
  8
DEFPOINTS
  6
CONTINUOUS
 62
     7
 10
-260.57359690284829
 20
-420.00000123157849
 30
0.0
  0
POINT
  5
303
  8
DEFPOINTS
  6
CONTINUOUS
 62
     7
 10
-591.88777838441104
 20
-324.99262663160971
 30
0.0
  0
TEXT
  5
304
  8
NOTE
  6
CONTINUOUS
 62
     4
 10
-982.6681035619348
 20
-96.905681303646787
 30
0.0
 40
60.0
  1
CH PT3/4メネジ
 50
0.0000025044165917
 41
0.7
  7
STANDARD1
  0
LINE
  5
305
  8
NOTE
  6
CONTINUOUS
 62
     4
 10
-517.98736926079437
 20
-105.74068388709109
 30
0.0
 11
-1008.526253735075
 21
-105.74068388709109
 31
0.0
  0
TEXT
  5
306
  8
NOTE
  6
CONTINUOUS
 62
     4
 10
-1002.251858677053
 20
9.762540704336061
 30
0.0
 40
60.0
  1
CHR PT3/4メネジ
 50
0.0000025044165917
 41
0.7
  7
STANDARD1
  0
LINE
  5
307
  8
NOTE
  6
CONTINUOUS
 62
     4
 10
-536.39824965104958
 20
0.8630032993214625
 30
0.0
 11
-1008.526253735075
 21
0.8630032993214625
 31
0.0
  0
LINE
  5
308
  8
NOTE
  6
CONTINUOUS
 62
     4
 10
-348.0
 20
-325.0
 30
0.0
 11
-375.04950569800428
 21
-303.77091826092692
 31
0.0
  0
LINE
  5
309
  8
NOTE
  6
CONTINUOUS
 62
     4
 10
-348.0
 20
-325.0
 30
0.0
 11
-360.81101775982103
 21
-293.09032287931137
 31
0.0
  0
LINE
  5
30A
  8
NOTE
  6
CONTINUOUS
 62
     4
 10
-517.98736926079437
 20
-105.74068388709109
 30
0.0
 11
-348.0
 21
-325.0
 31
0.0
  0
LINE
  5
30B
  8
NOTE
  6
CONTINUOUS
 62
     4
 10
-288.0
 20
-325.0
 30
0.0
 11
-314.874860372417
 21
-303.55025524735362
 31
0.0
  0
LINE
  5
30C
  8
NOTE
  6
CONTINUOUS
 62
     4
 10
-288.0
 20
-325.0
 30
0.0
 11
-300.54943896291121
 21
-292.98654577048637
 31
0.0
  0
LINE
  5
30D
  8
NOTE
  6
CONTINUOUS
 62
     4
 10
-536.39824965104958
 20
0.8630032993214625
 30
0.0
 11
-288.0
 21
-325.0
 31
0.0
  0
CIRCLE
  5
30E
  8
ARRANGE
  6
CONTINUOUS
 62
     1
 10
0.0000000000009237
 20
-0.0000000000009095
 30
0.0
 40
50.0
  0
LINE
  5
30F
  8
ARRANGE
  6
CONTINUOUS
 62
     1
 10
50.037350031329879
 20
-49.52235315032614
 30
0.0
 11
-50.037350031328039
 21
49.522353150324321
 31
0.0
  0
LINE
  5
310
  8
ARRANGE
  6
CONTINUOUS
 62
     1
 10
49.963763310502159
 20
49.596594797984821
 30
0.0
 11
-49.963763310500319
 21
-49.596594797983002
 31
0.0
  0
ARC
  5
311
  8
OUTLINE
  6
CONTINUOUS
 62
     3
 10
-445.00000312631522
 20
444.99999412631593
 30
0.0
 40
29.999996873684211
 50
90.0
 51
180.0
  0
LINE
  5
312
  8
OUTLINE
  6
CONTINUOUS
 62
     3
 10
-445.00000312631522
 20
-474.99999999999818
 30
0.0
 11
444.99999412631399
 21
-474.99999999999818
 31
0.0
  0
LINE
  5
313
  8
OUTLINE
  6
CONTINUOUS
 62
     3
 10
-475.0
 20
444.99999412631593
 30
0.0
 11
-475.0
 21
-445.00000312631522
 31
0.0
  0
ARC
  5
314
  8
OUTLINE
  6
CONTINUOUS
 62
     3
 10
-445.00000312631522
 20
-445.00000312631522
 30
0.0
 40
29.999996873684211
 50
180.0
 51
270.0
  0
ARC
  5
315
  8
OUTLINE
  6
CONTINUOUS
 62
     3
 10
444.99999412631399
 20
-445.00000312631522
 30
0.0
 40
29.999996873684211
 50
270.0
 51
0.0
  0
LINE
  5
316
  8
OUTLINE
  6
CONTINUOUS
 62
     3
 10
444.99999412631399
 20
475.0
 30
0.0
 11
-445.00000312631522
 21
475.0
 31
0.0
  0
ARC
  5
317
  8
OUTLINE
  6
CONTINUOUS
 62
     3
 10
444.99999412631399
 20
444.99999412631593
 30
0.0
 40
29.999996873684211
 50
0.0
 51
90.0
  0
LINE
  5
318
  8
OUTLINE
  6
CONTINUOUS
 62
     3
 10
475.0
 20
-445.00000312631522
 30
0.0
 11
475.0
 21
444.99999412631593
 31
0.0
  0
TEXT
  5
319
  8
ETC
  6
CONTINUOUS
 62
    61
 10
186.36322610138259
 20
1066.6270296904891
 30
0.0
 40
80.0
  1
LH-400_800WAR-C_1
 50
0.0000029998804485
 41
0.8
  7
STANDARD_MODELNAME
  0
ENDSEC
  0
EOF
