  0
SECTION
  2
HEADER
  9
$ACADVER
  1
AC1009
  9
$INSBASE
 10
0.0
 20
0.0
 30
0.0
  9
$EXTMIN
 10
-936.0549260946608
 20
-467.8228995679782
 30
-0.0000000349181948
  9
$EXTMAX
 10
584.11987543921714
 20
537.30389630363777
 30
0.0000000814935746
  9
$LIMMIN
 10
-4267.1522210604817
 20
-2696.083210198412
  9
$LIMMAX
 10
7190.7174225864646
 20
5141.155363923066
  9
$ORTHOMODE
 70
     0
  9
$REGENMODE
 70
     1
  9
$FILLMODE
 70
     1
  9
$QTEXTMODE
 70
     0
  9
$MIRRTEXT
 70
     0
  9
$DRAGMODE
 70
     2
  9
$LTSCALE
 40
20.0
  9
$OSMODE
 70
   431
  9
$ATTMODE
 70
     1
  9
$TEXTSIZE
 40
361.62496667750372
  9
$TRACEWID
 40
0.05
  9
$TEXTSTYLE
  7
NOTE
  9
$CLAYER
  8
SYMBOLLINE
  9
$CELTYPE
  6
CONTINUOUS
  9
$CECOLOR
 62
     7
  9
$DIMSCALE
 40
1.0
  9
$DIMASZ
 40
20.0
  9
$DIMEXO
 40
10.0
  9
$DIMDLI
 40
80.0
  9
$DIMRND
 40
0.0
  9
$DIMDLE
 40
0.0
  9
$DIMEXE
 40
10.0
  9
$DIMTP
 40
0.0
  9
$DIMTM
 40
0.0
  9
$DIMTXT
 40
40.0
  9
$DIMCEN
 40
0.09
  9
$DIMTSZ
 40
0.0
  9
$DIMTOL
 70
     0
  9
$DIMLIM
 70
     0
  9
$DIMTIH
 70
     0
  9
$DIMTOH
 70
     0
  9
$DIMSE1
 70
     0
  9
$DIMSE2
 70
     0
  9
$DIMTAD
 70
     1
  9
$DIMZIN
 70
     8
  9
$DIMBLK
  1
SMALL
  9
$DIMASO
 70
     1
  9
$DIMSHO
 70
     0
  9
$DIMPOST
  1

  9
$DIMAPOST
  1

  9
$DIMALT
 70
     0
  9
$DIMALTD
 70
     2
  9
$DIMALTF
 40
25.399999999999999
  9
$DIMLFAC
 40
1.0
  9
$DIMTOFL
 70
     1
  9
$DIMTVP
 40
0.0
  9
$DIMTIX
 70
     0
  9
$DIMSOXD
 70
     0
  9
$DIMSAH
 70
     0
  9
$DIMBLK1
  1

  9
$DIMBLK2
  1

  9
$DIMSTYLE
  2
STANDARD
  9
$DIMCLRD
 70
     0
  9
$DIMCLRE
 70
     0
  9
$DIMCLRT
 70
     0
  9
$DIMTFAC
 40
1.0
  9
$DIMGAP
 40
0.09
  9
$LUNITS
 70
     2
  9
$LUPREC
 70
     4
  9
$SKETCHINC
 40
0.1
  9
$FILLETRAD
 40
30.0
  9
$AUNITS
 70
     1
  9
$AUPREC
 70
     3
  9
$MENU
  1
ACAD
  9
$ELEVATION
 40
0.0
  9
$PELEVATION
 40
0.0
  9
$THICKNESS
 40
0.0
  9
$LIMCHECK
 70
     0
  9
$BLIPMODE
 70
     0
  9
$CHAMFERA
 40
0.0
  9
$CHAMFERB
 40
0.0
  9
$SKPOLY
 70
     0
  9
$TDCREATE
 40
2450330.4399309959
  9
$TDUPDATE
 40
2455244.560212662
  9
$TDINDWG
 40
5.0656160879999996
  9
$TDUSRTIMER
 40
5.0656151852000004
  9
$USRTIMER
 70
     1
  9
$ANGBASE
 50
0.0
  9
$ANGDIR
 70
     0
  9
$PDMODE
 70
     3
  9
$PDSIZE
 40
-2.0
  9
$PLINEWID
 40
0.0
  9
$COORDS
 70
     0
  9
$SPLFRAME
 70
     0
  9
$SPLINETYPE
 70
     6
  9
$SPLINESEGS
 70
     8
  9
$ATTDIA
 70
     0
  9
$ATTREQ
 70
     1
  9
$HANDLING
 70
     1
  9
$HANDSEED
  5
1A6
  9
$SURFTAB1
 70
     6
  9
$SURFTAB2
 70
     6
  9
$SURFTYPE
 70
     6
  9
$SURFU
 70
     6
  9
$SURFV
 70
     6
  9
$UCSNAME
  2

  9
$UCSORG
 10
0.0
 20
0.0
 30
0.0
  9
$UCSXDIR
 10
1.0
 20
0.0
 30
0.0
  9
$UCSYDIR
 10
0.0
 20
1.0
 30
0.0
  9
$PUCSNAME
  2

  9
$PUCSORG
 10
0.0
 20
0.0
 30
0.0
  9
$PUCSXDIR
 10
1.0
 20
0.0
 30
0.0
  9
$PUCSYDIR
 10
0.0
 20
1.0
 30
0.0
  9
$USERI1
 70
     0
  9
$USERI2
 70
     0
  9
$USERI3
 70
     0
  9
$USERI4
 70
     0
  9
$USERI5
 70
     0
  9
$USERR1
 40
20.0
  9
$USERR2
 40
0.0
  9
$USERR3
 40
0.0
  9
$USERR4
 40
0.0
  9
$USERR5
 40
0.0
  9
$WORLDVIEW
 70
     1
  9
$SHADEDGE
 70
     3
  9
$SHADEDIF
 70
    70
  9
$TILEMODE
 70
     1
  9
$MAXACTVP
 70
    64
  9
$PLIMCHECK
 70
     0
  9
$PEXTMIN
 10
1.0000000000000000E+020
 20
1.0000000000000000E+020
 30
1.0000000000000000E+020
  9
$PEXTMAX
 10
-1.0000000000000000E+020
 20
-1.0000000000000000E+020
 30
-1.0000000000000000E+020
  9
$PLIMMIN
 10
0.0
 20
0.0
  9
$PLIMMAX
 10
12.0
 20
9.0
  9
$UNITMODE
 70
     0
  9
$VISRETAIN
 70
     1
  9
$PLINEGEN
 70
     0
  9
$PSLTSCALE
 70
     1
  0
ENDSEC
  0
SECTION
  2
TABLES
  0
TABLE
  2
VPORT
 70
     1
  0
VPORT
  2
*ACTIVE
 70
     0
 10
0.0
 20
0.0
 11
1.0
 21
1.0
 12
1461.7826007629919
 22
1222.536076862327
 13
0.0
 23
0.0
 14
50.0
 24
50.0
 15
100.0
 25
100.0
 16
0.0
 26
0.0
 36
1.0
 17
0.0
 27
0.0
 37
0.0
 40
7896.6866543297328
 41
1.548101265822784
 42
50.0
 43
0.0
 44
0.0
 50
0.0
 51
0.0
 71
     0
 72
  1000
 73
     1
 74
     0
 75
     0
 76
     0
 77
     0
 78
     0
  0
ENDTAB
  0
TABLE
  2
LTYPE
 70
     3
  0
LTYPE
  2
CONTINUOUS
 70
     0
  3
実線
 72
    65
 73
     0
 40
0.0
  0
LTYPE
  2
DASHDOT
 70
     0
  3
____ _ ____ _ ____ _ ____ _ ____ _ ____ _ ____
 72
    65
 73
     4
 40
5.5
 49
4.0
 49
-0.6
 49
0.3
 49
-0.6
  0
ENDTAB
  0
TABLE
  2
LAYER
 70
    12
  0
LAYER
  2
0
 70
     0
 62
     7
  6
CONTINUOUS
  0
LAYER
  2
NOTE
 70
     0
 62
     4
  6
CONTINUOUS
  0
LAYER
  2
OUTLINE
 70
     0
 62
     3
  6
CONTINUOUS
  0
LAYER
  2
DETAIL
 70
     0
 62
     5
  6
CONTINUOUS
  0
LAYER
  2
BASIS
 70
     0
 62
     6
  6
DASHDOT
  0
LAYER
  2
SIZE
 70
     0
 62
    30
  6
CONTINUOUS
  0
LAYER
  2
ARRANGE
 70
     0
 62
     1
  6
CONTINUOUS
  0
LAYER
  2
FIX
 70
     0
 62
    11
  6
CONTINUOUS
  0
LAYER
  2
SERVICESPACE
 70
     0
 62
     2
  6
DASHDOT
  0
LAYER
  2
ETC
 70
     0
 62
    61
  6
CONTINUOUS
  0
LAYER
  2
SYMBOLLINE
 70
     0
 62
    15
  6
CONTINUOUS
  0
LAYER
  2
DEFPOINTS
 70
     0
 62
     7
  6
CONTINUOUS
  0
ENDTAB
  0
TABLE
  2
STYLE
 70
     4
  0
STYLE
  2
STANDARD
 70
     0
 40
0.0
 41
0.9
 50
0.0
 71
     0
 42
64.0
  3
SIMPLEX
  4
BIGFONT
  0
STYLE
  2
ANNOTATIVE
 70
     0
 40
0.0
 41
1.0
 50
0.0
 71
     0
 42
0.2
  3
txt
  4

  0
STYLE
  2
NOTE
 70
     0
 40
0.0
 41
0.7
 50
0.0
 71
     0
 42
361.62496667750372
  3
SIMPLEX.shx
  4
BIGFONT.shx
  0
STYLE
  2
STANDARD1
 70
     0
 40
0.0
 41
1.0
 50
0.0
 71
     0
 42
64.0
  3
MONOTXT
  4
BIGFONT
  0
ENDTAB
  0
TABLE
  2
VIEW
 70
     5
  0
VIEW
  2
ALL
 70
     0
 40
9000.0
 10
241.50664699999999
 20
0.0
 41
12483.01
 11
0.0
 21
0.0
 31
1.0
 12
0.0
 22
0.0
 32
0.0
 42
50.0
 43
0.0
 44
0.0
 50
0.0
 71
     0
  0
ENDTAB
  0
TABLE
  2
UCS
 70
     0
  0
ENDTAB
  0
TABLE
  2
APPID
 70
     3
  0
APPID
  2
ACAD
 70
     0
  0
APPID
  2
ACADANNOTATIVE
 70
     0
  0
APPID
  2
ACAD_MLEADERVER
 70
     0
  0
ENDTAB
  0
TABLE
  2
DIMSTYLE
 70
     3
  0
DIMSTYLE
  2
STANDARD
 70
     0
  3

  4

  5

  6

  7

 40
1.0
 41
0.18
 42
0.0625
 43
0.38
 44
0.18
 45
0.0
 46
0.0
 47
0.0
 48
0.0
140
0.18
141
0.09
142
0.0
143
25.399999999999999
144
1.0
145
0.0
146
1.0
147
0.09
 71
     0
 72
     0
 73
     1
 74
     1
 75
     0
 76
     0
 77
     0
 78
     0
170
     0
171
     2
172
     0
173
     0
174
     0
175
     0
176
     0
177
     0
178
     0
  0
DIMSTYLE
  2
ANNOTATIVE
 70
     0
  3

  4

  5

  6

  7

 40
1.0
 41
0.18
 42
0.0625
 43
0.38
 44
0.18
 45
0.0
 46
0.0
 47
0.0
 48
0.0
140
0.18
141
0.09
142
0.0
143
25.399999999999999
144
1.0
145
0.0
146
1.0
147
0.09
 71
     0
 72
     0
 73
     1
 74
     1
 75
     0
 76
     0
 77
     0
 78
     0
170
     0
171
     2
172
     0
173
     0
174
     0
175
     0
176
     0
177
     0
178
     0
  0
ENDTAB
  0
ENDSEC
  0
SECTION
  2
BLOCKS
  0
BLOCK
  8
0
  2
$MODEL_SPACE
 70
     0
 10
0.0
 20
0.0
 30
0.0
  3
$MODEL_SPACE
  1

  0
ENDBLK
  5
76
  8
0
  0
BLOCK
 67
     1
  8
0
  2
$PAPER_SPACE
 70
     0
 10
0.0
 20
0.0
 30
0.0
  3
$PAPER_SPACE
  1

  0
ENDBLK
  5
72
 67
     1
  8
0
  0
BLOCK
  8
0
  2
_SMALL
 70
     0
 10
0.0
 20
0.0
 30
0.0
  3
_SMALL
  1

  0
CIRCLE
  5
8D
  8
0
  6
CONTINUOUS
 62
     7
 10
0.0
 20
0.0
 30
0.0
 40
0.25
  0
ENDBLK
  5
8E
  8
0
  0
ENDSEC
  0
SECTION
  2
ENTITIES
  0
LINE
  5
8F
  8
DETAIL
  6
CONTINUOUS
 62
     5
 10
-395.0
 20
269.99999999999812
 30
0.0
 11
395.00000000000171
 21
269.99999999999812
 31
0.0
  0
LINE
  5
90
  8
DETAIL
  6
CONTINUOUS
 62
     5
 10
-365.0
 20
-270.00000000000182
 30
0.0
 11
365.00000000000182
 21
-270.00000000000182
 31
0.0
  0
LINE
  5
91
  8
DETAIL
  6
CONTINUOUS
 62
     5
 10
-415.97145135477518
 20
166.45861873000101
 30
0.0
 11
-415.97145135477518
 21
80.972714965891996
 31
0.0
  0
LINE
  5
92
  8
DETAIL
  6
CONTINUOUS
 62
     5
 10
-395.0
 20
269.99999999999812
 30
0.0
 11
-395.0
 21
-7.9090483365507662
 31
0.0
  0
LINE
  5
93
  8
DETAIL
  6
CONTINUOUS
 62
     5
 10
-574.75990603257185
 20
-7.9090483365507662
 30
0.0
 11
-574.75990603257185
 21
-257.57581951255258
 31
0.0
  0
LINE
  5
94
  8
DETAIL
  6
CONTINUOUS
 62
     5
 10
420.0
 20
-257.57581951255258
 30
0.0
 11
-574.75990603257185
 21
-257.57581951255258
 31
0.0
  0
LINE
  5
95
  8
DETAIL
  6
CONTINUOUS
 62
     5
 10
-574.75990603257185
 20
-119.4181257593481
 30
0.0
 11
-603.02265570117754
 21
-119.4181257593481
 31
0.0
  0
LINE
  5
96
  8
DETAIL
  6
CONTINUOUS
 62
     5
 10
-574.75990603257185
 20
-146.58186824864961
 30
0.0
 11
-603.02265570117754
 21
-146.58186824864961
 31
0.0
  0
LINE
  5
97
  8
DETAIL
  6
CONTINUOUS
 62
     5
 10
-603.02265570117754
 20
-119.4181257593481
 30
0.0
 11
-620.0
 21
-120.9272175709811
 31
0.0
  0
LINE
  5
98
  8
DETAIL
  6
CONTINUOUS
 62
     5
 10
-620.0
 20
-145.0727764370294
 30
0.0
 11
-603.02265570117754
 21
-146.58186824864961
 31
0.0
  0
LINE
  5
99
  8
DETAIL
  6
CONTINUOUS
 62
     5
 10
-620.0
 20
-120.9272175709811
 30
0.0
 11
-620.0
 21
-145.0727764370294
 31
0.0
  0
LINE
  5
9A
  8
DETAIL
  6
CONTINUOUS
 62
     5
 10
-603.02265570117754
 20
-119.4181257593481
 30
0.0
 11
-603.02265570117754
 21
-146.58186824864961
 31
0.0
  0
LINE
  5
9B
  8
DETAIL
  6
CONTINUOUS
 62
     5
 10
-365.0
 20
-257.57581951255258
 30
0.0
 11
-365.0
 21
-270.00000000000182
 31
0.0
  0
LINE
  5
9C
  8
DETAIL
  6
CONTINUOUS
 62
     5
 10
420.0
 20
-7.9090483365507662
 30
0.0
 11
-574.75990603257185
 21
-7.9090483365507662
 31
0.0
  0
LINE
  5
9D
  8
DETAIL
  6
CONTINUOUS
 62
     5
 10
-415.97145135477518
 20
80.972714965891996
 30
0.0
 11
-395.0
 21
80.972714965891996
 31
0.0
  0
LINE
  5
9E
  8
DETAIL
  6
CONTINUOUS
 62
     5
 10
-401.49075277706282
 20
80.972714965891996
 30
0.0
 11
-401.49075277706282
 21
80.273436294764906
 31
0.0
  0
LINE
  5
9F
  8
DETAIL
  6
CONTINUOUS
 62
     5
 10
-395.0
 20
77.277435064621372
 30
0.0
 11
-402.48942185110877
 21
77.277435064621372
 31
0.0
  0
LINE
  5
A0
  8
DETAIL
  6
CONTINUOUS
 62
     5
 10
-395.0
 20
80.273436294764906
 30
0.0
 11
-404.48675400720629
 21
80.273436294764906
 31
0.0
  0
ARC
  5
A1
  8
DETAIL
  6
CONTINUOUS
 62
     5
 10
-402.48942185110877
 20
79.274767220718786
 30
0.0
 40
1.99733215609522
 50
180.0
 51
270.0
  0
LINE
  5
A2
  8
DETAIL
  6
CONTINUOUS
 62
     5
 10
-404.48675400720629
 20
80.273436294764906
 30
0.0
 11
-404.48675400720629
 21
79.274767220718786
 31
0.0
  0
LINE
  5
A3
  8
DETAIL
  6
CONTINUOUS
 62
     5
 10
-415.97145135477518
 20
166.45861873000101
 30
0.0
 11
-395.0
 21
166.45861873000101
 31
0.0
  0
LINE
  5
A4
  8
DETAIL
  6
CONTINUOUS
 62
     5
 10
-401.49075277706282
 20
166.45861873000101
 30
0.0
 11
-401.49075277706282
 21
167.1578974011172
 31
0.0
  0
LINE
  5
A5
  8
DETAIL
  6
CONTINUOUS
 62
     5
 10
-404.48675400720629
 20
167.1578974011172
 30
0.0
 11
-404.48675400720629
 21
168.15656647516329
 31
0.0
  0
ARC
  5
A6
  8
DETAIL
  6
CONTINUOUS
 62
     5
 10
-402.48942185110877
 20
168.15656647516329
 30
0.0
 40
1.99733215609522
 50
90.0
 51
180.0
  0
LINE
  5
A7
  8
DETAIL
  6
CONTINUOUS
 62
     5
 10
-395.0
 20
167.1578974011172
 30
0.0
 11
-404.48675400720629
 21
167.1578974011172
 31
0.0
  0
LINE
  5
A8
  8
DETAIL
  6
CONTINUOUS
 62
     5
 10
-395.0
 20
170.15389863126251
 30
0.0
 11
-402.48942185110877
 21
170.15389863126251
 31
0.0
  0
LINE
  5
A9
  8
DETAIL
  6
CONTINUOUS
 62
     5
 10
385.95782576163032
 20
253.301929689318
 30
0.0
 11
-387.01049161553772
 21
253.301929689318
 31
0.0
  0
LINE
  5
AA
  8
DETAIL
  6
CONTINUOUS
 62
     5
 10
-390.00649284568118
 20
269.99999999999812
 30
0.0
 11
-390.00649284568118
 21
256.2979309194634
 31
0.0
  0
ARC
  5
AB
  8
DETAIL
  6
CONTINUOUS
 62
     5
 10
-387.01049161553772
 20
256.2979309194634
 30
0.0
 40
2.9960012301440599
 50
180.0
 51
270.0
  0
LINE
  5
AC
  8
DETAIL
  6
CONTINUOUS
 62
     5
 10
395.00000000000171
 20
269.99999999999812
 30
0.0
 11
395.00000000000171
 21
-7.9090483365507662
 31
0.0
  0
LINE
  5
AD
  8
DETAIL
  6
CONTINUOUS
 62
     5
 10
420.0
 20
-7.9090483365507662
 30
0.0
 11
420.0
 21
-257.57581951255258
 31
0.0
  0
LINE
  5
AE
  8
DETAIL
  6
CONTINUOUS
 62
     5
 10
365.00000000000182
 20
-257.57581951255258
 30
0.0
 11
365.00000000000182
 21
-270.00000000000182
 31
0.0
  0
LINE
  5
AF
  8
DETAIL
  6
CONTINUOUS
 62
     5
 10
388.95382699177378
 20
269.99999999999812
 30
0.0
 11
388.95382699177378
 21
256.2979309194634
 31
0.0
  0
ARC
  5
B0
  8
DETAIL
  6
CONTINUOUS
 62
     5
 10
385.95782576163032
 20
256.2979309194634
 30
0.0
 40
2.9960012301440599
 50
270.0
 51
0.0
  0
LINE
  5
B1
  8
NOTE
  6
CONTINUOUS
 62
     4
 10
-620.0
 20
-117.4207936032507
 30
0.0
 11
-620.0
 21
-148.57920639674191
 31
0.0
  0
LINE
  5
B2
  8
NOTE
  6
CONTINUOUS
 62
     4
 10
-604.42079360324885
 20
-133.00000000000179
 30
0.0
 11
-635.57920639675285
 21
-133.00000000000179
 31
0.0
  0
LINE
  5
B3
  8
NOTE
  6
CONTINUOUS
 62
     4
 10
-380.0
 20
-173.47400799593919
 30
0.0
 11
-380.0
 21
-134.52599200406621
 31
0.0
  0
LINE
  5
B4
  8
NOTE
  6
CONTINUOUS
 62
     4
 10
-360.52599200406252
 20
-154.00000000000179
 30
0.0
 11
-399.47400799593561
 21
-154.00000000000179
 31
0.0
  0
LINE
  5
B5
  8
SIZE
  6
CONTINUOUS
 62
    30
 10
-395.0
 20
279.99999999999818
 30
0.0
 11
-395.0
 21
346.21144298224129
 31
0.0
  0
LINE
  5
B6
  8
SIZE
  6
CONTINUOUS
 62
    30
 10
-620.0
 20
-107.4207936032507
 30
0.0
 11
-620.0
 21
346.21144298224129
 31
0.0
  0
LINE
  5
B7
  8
SIZE
  6
CONTINUOUS
 62
    30
 10
-395.0
 20
336.21144298224118
 30
0.0
 11
-620.0
 21
336.21144298224118
 31
0.0
  0
CIRCLE
  5
B8
  8
SIZE
  6
CONTINUOUS
 62
    30
 10
-395.0
 20
336.21144298224118
 30
0.0
 40
5.0
  0
CIRCLE
  5
B9
  8
SIZE
  6
CONTINUOUS
 62
    30
 10
-620.0
 20
336.21144298224118
 30
0.0
 40
5.0
  0
TEXT
  5
BA
  8
SIZE
  6
CONTINUOUS
 62
    30
 10
-553.78571428571433
 20
346.21144298224129
 30
0.0
 40
40.0
  1
225
 41
0.9
 72
     1
 11
-507.5
 21
346.21144298224129
 31
0.0
  0
POINT
  5
BB
  8
DEFPOINTS
  6
CONTINUOUS
 62
     7
 10
-395.0
 20
269.99999999999812
 30
0.0
  0
POINT
  5
BC
  8
DEFPOINTS
  6
CONTINUOUS
 62
     7
 10
-620.0
 20
-117.4207936032507
 30
0.0
  0
POINT
  5
BD
  8
DEFPOINTS
  6
CONTINUOUS
 62
     7
 10
-620.0
 20
336.21144298224118
 30
0.0
  0
LINE
  5
BE
  8
SIZE
  6
CONTINUOUS
 62
    30
 10
-395.0
 20
279.99999999999818
 30
0.0
 11
-395.0
 21
346.21144298224129
 31
0.0
  0
LINE
  5
BF
  8
SIZE
  6
CONTINUOUS
 62
    30
 10
395.00000000000171
 20
279.99999999999818
 30
0.0
 11
395.00000000000171
 21
346.21144298224129
 31
0.0
  0
LINE
  5
C0
  8
SIZE
  6
CONTINUOUS
 62
    30
 10
-395.0
 20
336.21144298224118
 30
0.0
 11
395.00000000000171
 21
336.21144298224118
 31
0.0
  0
CIRCLE
  5
C1
  8
SIZE
  6
CONTINUOUS
 62
    30
 10
-395.0
 20
336.21144298224118
 30
0.0
 40
5.0
  0
CIRCLE
  5
C2
  8
SIZE
  6
CONTINUOUS
 62
    30
 10
395.00000000000171
 20
336.21144298224118
 30
0.0
 40
5.0
  0
TEXT
  5
C3
  8
SIZE
  6
CONTINUOUS
 62
    30
 10
-46.285714285713361
 20
346.21144298224129
 30
0.0
 40
40.0
  1
790
 41
0.9
 72
     1
 11
0.0000000000009095
 21
346.21144298224129
 31
0.0
  0
POINT
  5
C4
  8
DEFPOINTS
  6
CONTINUOUS
 62
     7
 10
-395.0
 20
269.99999999999812
 30
0.0
  0
POINT
  5
C5
  8
DEFPOINTS
  6
CONTINUOUS
 62
     7
 10
395.00000000000171
 20
269.99999999999812
 30
0.0
  0
POINT
  5
C6
  8
DEFPOINTS
  6
CONTINUOUS
 62
     7
 10
395.00000000000171
 20
336.21144298224118
 30
0.0
  0
LINE
  5
C7
  8
SIZE
  6
CONTINUOUS
 62
    30
 10
395.00000000000171
 20
279.99999999999818
 30
0.0
 11
395.00000000000171
 21
346.21144298224129
 31
0.0
  0
LINE
  5
C8
  8
SIZE
  6
CONTINUOUS
 62
    30
 10
420.0
 20
2.090951663449232
 30
0.0
 11
420.0
 21
346.21144298224129
 31
0.0
  0
LINE
  5
C9
  8
SIZE
  6
CONTINUOUS
 62
    30
 10
395.00000000000171
 20
336.21144298224118
 30
0.0
 11
420.0
 21
336.21144298224118
 31
0.0
  0
LINE
  5
CA
  8
SIZE
  6
CONTINUOUS
 62
    30
 10
420.0
 20
336.21144298224118
 30
0.0
 11
564.57142857142856
 21
336.21144298224118
 31
0.0
  0
CIRCLE
  5
CB
  8
SIZE
  6
CONTINUOUS
 62
    30
 10
395.00000000000171
 20
336.21144298224118
 30
0.0
 40
5.0
  0
CIRCLE
  5
CC
  8
SIZE
  6
CONTINUOUS
 62
    30
 10
420.0
 20
336.21144298224118
 30
0.0
 40
5.0
  0
TEXT
  5
CD
  8
SIZE
  6
CONTINUOUS
 62
    30
 10
450.0
 20
356.68763345843178
 30
0.0
 40
40.0
  1
(25)
 41
0.9
 72
     1
 11
502.28571428571428
 21
356.68763345843178
 31
0.0
  0
POINT
  5
CE
  8
DEFPOINTS
  6
CONTINUOUS
 62
     7
 10
395.00000000000171
 20
269.99999999999812
 30
0.0
  0
POINT
  5
CF
  8
DEFPOINTS
  6
CONTINUOUS
 62
     7
 10
420.0
 20
-7.9090483365507662
 30
0.0
  0
POINT
  5
D0
  8
DEFPOINTS
  6
CONTINUOUS
 62
     7
 10
420.0
 20
336.21144298224118
 30
0.0
  0
LINE
  5
D1
  8
SIZE
  6
CONTINUOUS
 62
    30
 10
-620.0
 20
-107.4207936032507
 30
0.0
 11
-620.0
 21
433.82582573673602
 31
0.0
  0
LINE
  5
D2
  8
SIZE
  6
CONTINUOUS
 62
    30
 10
420.0
 20
2.090951663449232
 30
0.0
 11
420.0
 21
433.82582573673602
 31
0.0
  0
LINE
  5
D3
  8
SIZE
  6
CONTINUOUS
 62
    30
 10
-620.0
 20
423.82582573673608
 30
0.0
 11
420.0
 21
423.82582573673608
 31
0.0
  0
CIRCLE
  5
D4
  8
SIZE
  6
CONTINUOUS
 62
    30
 10
-620.0
 20
423.82582573673608
 30
0.0
 40
5.0
  0
CIRCLE
  5
D5
  8
SIZE
  6
CONTINUOUS
 62
    30
 10
420.0
 20
423.82582573673608
 30
0.0
 40
5.0
  0
TEXT
  5
D6
  8
SIZE
  6
CONTINUOUS
 62
    30
 10
-160.0
 20
433.82582573673602
 30
0.0
 40
40.0
  1
1040
 41
0.9
 72
     1
 11
-100.0
 21
433.82582573673602
 31
0.0
  0
POINT
  5
D7
  8
DEFPOINTS
  6
CONTINUOUS
 62
     7
 10
-620.0
 20
-117.4207936032507
 30
0.0
  0
POINT
  5
D8
  8
DEFPOINTS
  6
CONTINUOUS
 62
     7
 10
420.0
 20
-7.9090483365507662
 30
0.0
  0
POINT
  5
D9
  8
DEFPOINTS
  6
CONTINUOUS
 62
     7
 10
420.0
 20
423.82582573673608
 30
0.0
  0
LINE
  5
DA
  8
SIZE
  6
CONTINUOUS
 62
    30
 10
-365.0
 20
-280.00000000000182
 30
0.0
 11
-365.0
 21
-467.7366180458356
 31
0.0
  0
LINE
  5
DB
  8
SIZE
  6
CONTINUOUS
 62
    30
 10
-395.0
 20
-17.909048336550761
 30
0.0
 11
-395.0
 21
-467.7366180458356
 31
0.0
  0
LINE
  5
DC
  8
SIZE
  6
CONTINUOUS
 62
    30
 10
-365.0
 20
-457.73661804583571
 30
0.0
 11
-395.0
 21
-457.73661804583571
 31
0.0
  0
LINE
  5
DD
  8
SIZE
  6
CONTINUOUS
 62
    30
 10
-395.0
 20
-457.73661804583571
 30
0.0
 11
-493.28571428571428
 21
-457.73661804583571
 31
0.0
  0
CIRCLE
  5
DE
  8
SIZE
  6
CONTINUOUS
 62
    30
 10
-365.0
 20
-457.73661804583571
 30
0.0
 40
5.0
  0
CIRCLE
  5
DF
  8
SIZE
  6
CONTINUOUS
 62
    30
 10
-395.0
 20
-457.73661804583571
 30
0.0
 40
5.0
  0
TEXT
  5
E0
  8
SIZE
  6
CONTINUOUS
 62
    30
 10
-483.28571428571411
 20
-447.73661804583571
 30
0.0
 40
40.0
  1
30
 41
0.9
 72
     1
 11
-454.142857142857
 21
-447.73661804583571
 31
0.0
  0
POINT
  5
E1
  8
DEFPOINTS
  6
CONTINUOUS
 62
     7
 10
-365.0
 20
-270.00000000000182
 30
0.0
  0
POINT
  5
E2
  8
DEFPOINTS
  6
CONTINUOUS
 62
     7
 10
-395.0
 20
-7.9090483365507662
 30
0.0
  0
POINT
  5
E3
  8
DEFPOINTS
  6
CONTINUOUS
 62
     7
 10
-395.0
 20
-457.73661804583571
 30
0.0
  0
LINE
  5
E4
  8
SIZE
  6
CONTINUOUS
 62
    30
 10
-365.0
 20
-280.00000000000182
 30
0.0
 11
-365.0
 21
-467.7366180458356
 31
0.0
  0
LINE
  5
E5
  8
SIZE
  6
CONTINUOUS
 62
    30
 10
365.00000000000182
 20
-280.00000000000182
 30
0.0
 11
365.00000000000182
 21
-467.7366180458356
 31
0.0
  0
LINE
  5
E6
  8
SIZE
  6
CONTINUOUS
 62
    30
 10
-365.0
 20
-457.73661804583571
 30
0.0
 11
365.00000000000182
 21
-457.73661804583571
 31
0.0
  0
CIRCLE
  5
E7
  8
SIZE
  6
CONTINUOUS
 62
    30
 10
-365.0
 20
-457.73661804583571
 30
0.0
 40
5.0
  0
CIRCLE
  5
E8
  8
SIZE
  6
CONTINUOUS
 62
    30
 10
365.00000000000182
 20
-457.73661804583571
 30
0.0
 40
5.0
  0
TEXT
  5
E9
  8
SIZE
  6
CONTINUOUS
 62
    30
 10
-188.22857142857049
 20
-447.73661804583571
 30
0.0
 40
40.0
  1
730（吹出口開口）
 41
0.9
 72
     1
 11
0.0000000000009095
 21
-447.73661804583571
 31
0.0
  0
POINT
  5
EA
  8
DEFPOINTS
  6
CONTINUOUS
 62
     7
 10
-365.0
 20
-270.00000000000182
 30
0.0
  0
POINT
  5
EB
  8
DEFPOINTS
  6
CONTINUOUS
 62
     7
 10
365.00000000000182
 20
-270.00000000000182
 30
0.0
  0
POINT
  5
EC
  8
DEFPOINTS
  6
CONTINUOUS
 62
     7
 10
365.00000000000182
 20
-457.73661804583571
 30
0.0
  0
LINE
  5
ED
  8
SIZE
  6
CONTINUOUS
 62
    30
 10
-380.0
 20
-183.47400799593919
 30
0.0
 11
-380.0
 21
-348.0889105129628
 31
0.0
  0
LINE
  5
EE
  8
SIZE
  6
CONTINUOUS
 62
    30
 10
-395.0
 20
-17.909048336550761
 30
0.0
 11
-395.0
 21
-348.0889105129628
 31
0.0
  0
LINE
  5
EF
  8
SIZE
  6
CONTINUOUS
 62
    30
 10
-380.0
 20
-338.08891051296268
 30
0.0
 11
-360.0
 21
-338.08891051296268
 31
0.0
  0
LINE
  5
F0
  8
SIZE
  6
CONTINUOUS
 62
    30
 10
-395.0
 20
-338.08891051296268
 30
0.0
 11
-506.42857142857139
 21
-338.08891051296268
 31
0.0
  0
LINE
  5
F1
  8
SIZE
  6
CONTINUOUS
 62
    30
 10
-380.0
 20
-338.08891051296268
 30
0.0
 11
-395.0
 21
-338.08891051296268
 31
0.0
  0
CIRCLE
  5
F2
  8
SIZE
  6
CONTINUOUS
 62
    30
 10
-380.0
 20
-338.08891051296268
 30
0.0
 40
5.0
  0
CIRCLE
  5
F3
  8
SIZE
  6
CONTINUOUS
 62
    30
 10
-395.0
 20
-338.08891051296268
 30
0.0
 40
5.0
  0
TEXT
  5
F4
  8
SIZE
  6
CONTINUOUS
 62
    30
 10
-496.42857142857139
 20
-328.08891051296263
 30
0.0
 40
40.0
  1
15
 41
0.9
 72
     1
 11
-470.71428571428561
 21
-328.08891051296263
 31
0.0
  0
POINT
  5
F5
  8
DEFPOINTS
  6
CONTINUOUS
 62
     7
 10
-380.0
 20
-173.47400799593919
 30
0.0
  0
POINT
  5
F6
  8
DEFPOINTS
  6
CONTINUOUS
 62
     7
 10
-395.0
 20
-7.9090483365507662
 30
0.0
  0
POINT
  5
F7
  8
DEFPOINTS
  6
CONTINUOUS
 62
     7
 10
-395.0
 20
-338.08891051296268
 30
0.0
  0
LINE
  5
F8
  8
SIZE
  6
CONTINUOUS
 62
    30
 10
-375.0
 20
-270.00000000000182
 30
0.0
 11
-662.94347448350527
 21
-270.00000000000171
 31
0.0
  0
LINE
  5
F9
  8
SIZE
  6
CONTINUOUS
 62
    30
 10
-409.47400799593561
 20
-154.00000000000179
 30
0.0
 11
-662.94347448350527
 21
-154.00000000000171
 31
0.0
  0
LINE
  5
FA
  8
SIZE
  6
CONTINUOUS
 62
    30
 10
-652.94347448350538
 20
-270.00000000000171
 30
0.0
 11
-652.94347448350516
 21
-154.00000000000171
 31
0.0
  0
CIRCLE
  5
FB
  8
SIZE
  6
CONTINUOUS
 62
    30
 10
-652.94347448350538
 20
-270.00000000000171
 30
0.0
 40
5.0
  0
CIRCLE
  5
FC
  8
SIZE
  6
CONTINUOUS
 62
    30
 10
-652.94347448350516
 20
-154.00000000000171
 30
0.0
 40
5.0
  0
TEXT
  5
FD
  8
SIZE
  6
CONTINUOUS
 62
    30
 10
-662.94347448350527
 20
-250.57142857143029
 30
0.0
 40
40.0
  1
116
 50
90.0
 41
0.9
 72
     1
 11
-662.94347448350527
 21
-212.00000000000179
 31
0.0
  0
POINT
  5
FE
  8
DEFPOINTS
  6
CONTINUOUS
 62
     7
 10
-365.0
 20
-270.00000000000182
 30
0.0
  0
POINT
  5
FF
  8
DEFPOINTS
  6
CONTINUOUS
 62
     7
 10
-399.47400799593561
 20
-154.00000000000179
 30
0.0
  0
POINT
  5
100
  8
DEFPOINTS
  6
CONTINUOUS
 62
     7
 10
-652.94347448350516
 20
-154.00000000000171
 30
0.0
  0
LINE
  5
101
  8
SIZE
  6
CONTINUOUS
 62
    30
 10
-375.0
 20
-270.00000000000182
 30
0.0
 11
-726.54564535443558
 21
-270.00000000000171
 31
0.0
  0
LINE
  5
102
  8
SIZE
  6
CONTINUOUS
 62
    30
 10
-645.57920639675285
 20
-133.00000000000179
 30
0.0
 11
-726.54564535443558
 21
-133.00000000000171
 31
0.0
  0
LINE
  5
103
  8
SIZE
  6
CONTINUOUS
 62
    30
 10
-716.54564535443592
 20
-270.00000000000171
 30
0.0
 11
-716.54564535443546
 21
-133.00000000000171
 31
0.0
  0
CIRCLE
  5
104
  8
SIZE
  6
CONTINUOUS
 62
    30
 10
-716.54564535443592
 20
-270.00000000000171
 30
0.0
 40
5.0
  0
CIRCLE
  5
105
  8
SIZE
  6
CONTINUOUS
 62
    30
 10
-716.54564535443546
 20
-133.00000000000171
 30
0.0
 40
5.0
  0
TEXT
  5
106
  8
SIZE
  6
CONTINUOUS
 62
    30
 10
-726.54564535443558
 20
-244.35714285714459
 30
0.0
 40
40.0
  1
137
 50
90.0
 41
0.9
 72
     1
 11
-726.54564535443558
 21
-201.50000000000171
 31
0.0
  0
POINT
  5
107
  8
DEFPOINTS
  6
CONTINUOUS
 62
     7
 10
-365.0
 20
-270.00000000000182
 30
0.0
  0
POINT
  5
108
  8
DEFPOINTS
  6
CONTINUOUS
 62
     7
 10
-635.57920639675285
 20
-133.00000000000179
 30
0.0
  0
POINT
  5
109
  8
DEFPOINTS
  6
CONTINUOUS
 62
     7
 10
-716.54564535443546
 20
-133.00000000000171
 30
0.0
  0
LINE
  5
10A
  8
SIZE
  6
CONTINUOUS
 62
    30
 10
375.00000000000182
 20
-270.00000000000182
 30
0.0
 11
583.89560325484626
 21
-270.00000000000182
 31
0.0
  0
LINE
  5
10B
  8
SIZE
  6
CONTINUOUS
 62
    30
 10
405.00000000000171
 20
269.99999999999812
 30
0.0
 11
583.89560325484672
 21
269.99999999999812
 31
0.0
  0
LINE
  5
10C
  8
SIZE
  6
CONTINUOUS
 62
    30
 10
573.89560325484649
 20
-270.00000000000182
 30
0.0
 11
573.89560325484649
 21
269.99999999999812
 31
0.0
  0
CIRCLE
  5
10D
  8
SIZE
  6
CONTINUOUS
 62
    30
 10
573.89560325484649
 20
-270.00000000000182
 30
0.0
 40
5.0
  0
CIRCLE
  5
10E
  8
SIZE
  6
CONTINUOUS
 62
    30
 10
573.89560325484649
 20
269.99999999999812
 30
0.0
 40
5.0
  0
TEXT
  5
10F
  8
SIZE
  6
CONTINUOUS
 62
    30
 10
563.89560325484638
 20
-46.285714285716047
 30
0.0
 40
40.0
  1
540
 50
90.0
 41
0.9
 72
     1
 11
563.89560325484638
 21
-0.0000000000017664
 31
0.0
  0
POINT
  5
110
  8
DEFPOINTS
  6
CONTINUOUS
 62
     7
 10
365.00000000000182
 20
-270.00000000000182
 30
0.0
  0
POINT
  5
111
  8
DEFPOINTS
  6
CONTINUOUS
 62
     7
 10
395.00000000000171
 20
269.99999999999812
 30
0.0
  0
POINT
  5
112
  8
DEFPOINTS
  6
CONTINUOUS
 62
     7
 10
573.89560325484649
 20
269.99999999999812
 30
0.0
  0
TEXT
  5
113
  8
NOTE
  6
CONTINUOUS
 62
     4
 10
-931.52656051437941
 20
-79.205340010776126
 30
0.0
 40
40.0
  1
D PT3/4オネジ
 50
0.0000025044165917
 41
0.7
  7
STANDARD1
  0
LINE
  5
114
  8
NOTE
  6
CONTINUOUS
 62
     4
 10
-650.74321262546073
 20
-86.857684679045619
 30
0.0
 11
-935.77394418025483
 21
-86.857684679045619
 31
0.0
  0
LINE
  5
115
  8
NOTE
  6
CONTINUOUS
 62
     4
 10
-650.74321262546073
 20
-86.857684679045619
 30
0.0
 11
-620.0
 21
-132.99999700400619
 31
0.0
  0
TEXT
  5
116
  8
NOTE
  6
CONTINUOUS
 62
     4
 10
-278.88573944137528
 20
-319.42783723260072
 30
0.0
 40
40.0
  1
CR PT3/4メネジ
 50
0.0000025044165917
 41
0.7
  7
STANDARD1
  0
LINE
  5
117
  8
NOTE
  6
CONTINUOUS
 62
     4
 10
31.977639677570551
 20
-327.08018190087017
 30
0.0
 11
-310.42274399271997
 21
-327.08018190087017
 31
0.0
  0
TEXT
  5
118
  8
NOTE
  6
CONTINUOUS
 62
     4
 10
-281.6419410789531
 20
-380.45710038191459
 30
0.0
 40
40.0
  1
C PT3/4メネジ
 50
0.0000025044165917
 41
0.7
  7
STANDARD1
  0
LINE
  5
119
  8
NOTE
  6
CONTINUOUS
 62
     4
 10
-0.8585931900342982
 20
-388.10944505018409
 30
0.0
 11
-285.88932474482863
 21
-388.10944505018409
 31
0.0
  0
LINE
  5
11A
  8
NOTE
  6
CONTINUOUS
 62
     4
 10
-285.88932474482863
 20
-388.10944505018409
 30
0.0
 11
-380.0
 21
-154.00000000000179
 31
0.0
  0
LINE
  5
11B
  8
BASIS
  6
DASHDOT
 62
     6
 10
0.0
 20
287.73797114564883
 30
0.0
 11
0.0
 21
-287.73797114565048
 31
0.0
  0
LINE
  5
11C
  8
BASIS
  6
DASHDOT
 62
     6
 10
443.95598248975682
 20
-0.000000000001819
 30
0.0
 11
-443.95598248975858
 21
-0.000000000001819
 31
0.0
  0
CIRCLE
  5
11D
  8
ARRANGE
  6
CONTINUOUS
 62
     1
 10
0.0
 20
-0.000000000001819
 30
0.0
 40
28.800000000000001
  0
LINE
  5
11E
  8
ARRANGE
  6
CONTINUOUS
 62
     1
 10
28.82151361804608
 20
-28.524875414588671
 30
0.0
 11
-28.82151361804608
 21
28.52487541458504
 31
0.0
  0
LINE
  5
11F
  8
ARRANGE
  6
CONTINUOUS
 62
     1
 10
28.779127666848581
 20
28.567638603639349
 30
0.0
 11
-28.779127666848581
 21
-28.567638603639349
 31
0.0
  0
LINE
  5
120
  8
NOTE
  6
CONTINUOUS
 62
     4
 10
-620.00000360005276
 20
-132.99999701786871
 30
0.0
 11
-628.87393929443886
 21
-106.9623885622822
 31
0.0
  0
LINE
  5
121
  8
NOTE
  6
CONTINUOUS
 62
     4
 10
-620.00000360005276
 20
-132.99999701786871
 30
0.0
 11
-640.70386183460505
 21
-114.8877347903926
 31
0.0
  0
LINE
  5
122
  8
NOTE
  6
CONTINUOUS
 62
     4
 10
-380.0
 20
-154.00000000000179
 30
0.0
 11
-375.76065092729539
 21
-181.17961935411401
 31
0.0
  0
LINE
  5
123
  8
NOTE
  6
CONTINUOUS
 62
     4
 10
-380.0
 20
-154.00000000000179
 30
0.0
 11
-362.73880601842751
 21
-175.4185660379971
 31
0.0
  0
LINE
  5
124
  8
OUTLINE
  6
CONTINUOUS
 62
     3
 10
-395.0
 20
269.99999999999812
 30
0.0
 11
395.00000000000171
 21
269.99999999999812
 31
0.0
  0
LINE
  5
125
  8
OUTLINE
  6
CONTINUOUS
 62
     3
 10
395.00000000000171
 20
269.99999999999812
 30
0.0
 11
395.00000000000171
 21
-7.9090483365507662
 31
0.0
  0
LINE
  5
126
  8
OUTLINE
  6
CONTINUOUS
 62
     3
 10
365.00000000000182
 20
-257.57581951255258
 30
0.0
 11
365.00000000000182
 21
-270.00000000000182
 31
0.0
  0
LINE
  5
127
  8
OUTLINE
  6
CONTINUOUS
 62
     3
 10
365.00000000000182
 20
-270.00000000000182
 30
0.0
 11
-365.0
 21
-270.00000000000182
 31
0.0
  0
LINE
  5
128
  8
OUTLINE
  6
CONTINUOUS
 62
     3
 10
-365.0
 20
-270.00000000000182
 30
0.0
 11
-365.0
 21
-257.57581951255258
 31
0.0
  0
LINE
  5
129
  8
OUTLINE
  6
CONTINUOUS
 62
     3
 10
-395.0
 20
-7.9090483365507662
 30
0.0
 11
-395.0
 21
269.99999999999812
 31
0.0
  0
LINE
  5
12A
  8
OUTLINE
  6
CONTINUOUS
 62
     3
 10
-415.97145135477518
 20
166.45861873000101
 30
0.0
 11
-415.97145135477518
 21
80.972714965891996
 31
0.0
  0
LINE
  5
12B
  8
OUTLINE
  6
CONTINUOUS
 62
     3
 10
-415.97145135477518
 20
80.972714965891996
 30
0.0
 11
-395.0
 21
80.972714965891996
 31
0.0
  0
LINE
  5
12C
  8
OUTLINE
  6
CONTINUOUS
 62
     3
 10
-401.49075277706282
 20
80.972714965891996
 30
0.0
 11
-401.49075277706282
 21
80.273436294764906
 31
0.0
  0
LINE
  5
12D
  8
OUTLINE
  6
CONTINUOUS
 62
     3
 10
-395.0
 20
77.277435064621372
 30
0.0
 11
-402.48942185110877
 21
77.277435064621372
 31
0.0
  0
LINE
  5
12E
  8
OUTLINE
  6
CONTINUOUS
 62
     3
 10
-395.0
 20
80.273436294764906
 30
0.0
 11
-404.48675400720629
 21
80.273436294764906
 31
0.0
  0
ARC
  5
12F
  8
OUTLINE
  6
CONTINUOUS
 62
     3
 10
-402.48942185110877
 20
79.274767220718786
 30
0.0
 40
1.99733215609522
 50
180.0
 51
270.0
  0
LINE
  5
130
  8
OUTLINE
  6
CONTINUOUS
 62
     3
 10
-404.48675400720629
 20
80.273436294764906
 30
0.0
 11
-404.48675400720629
 21
79.274767220718786
 31
0.0
  0
LINE
  5
131
  8
OUTLINE
  6
CONTINUOUS
 62
     3
 10
-415.97145135477518
 20
166.45861873000101
 30
0.0
 11
-395.0
 21
166.45861873000101
 31
0.0
  0
LINE
  5
132
  8
OUTLINE
  6
CONTINUOUS
 62
     3
 10
-401.49075277706282
 20
166.45861873000101
 30
0.0
 11
-401.49075277706282
 21
167.1578974011172
 31
0.0
  0
LINE
  5
133
  8
OUTLINE
  6
CONTINUOUS
 62
     3
 10
-404.48675400720629
 20
167.1578974011172
 30
0.0
 11
-404.48675400720629
 21
168.15656647516329
 31
0.0
  0
ARC
  5
134
  8
OUTLINE
  6
CONTINUOUS
 62
     3
 10
-402.48942185110877
 20
168.15656647516329
 30
0.0
 40
1.99733215609522
 50
90.0
 51
180.0
  0
LINE
  5
135
  8
OUTLINE
  6
CONTINUOUS
 62
     3
 10
-395.0
 20
167.1578974011172
 30
0.0
 11
-404.48675400720629
 21
167.1578974011172
 31
0.0
  0
LINE
  5
136
  8
OUTLINE
  6
CONTINUOUS
 62
     3
 10
-395.0
 20
170.15389863126251
 30
0.0
 11
-402.48942185110877
 21
170.15389863126251
 31
0.0
  0
LINE
  5
138
  8
OUTLINE
  6
CONTINUOUS
 62
     3
 10
-574.75990603257185
 20
-7.9090483365507662
 30
0.0
 11
-574.75990603257185
 21
-257.57581951255258
 31
0.0
  0
LINE
  5
139
  8
OUTLINE
  6
CONTINUOUS
 62
     3
 10
-574.75990603257185
 20
-257.57581951255258
 30
0.0
 11
420.0
 21
-257.57581951255258
 31
0.0
  0
LINE
  5
13A
  8
OUTLINE
  6
CONTINUOUS
 62
     3
 10
420.0
 20
-7.9090483365507662
 30
0.0
 11
420.0
 21
-257.57581951255258
 31
0.0
  0
LINE
  5
13B
  8
DETAIL
  6
CONTINUOUS
 62
     5
 10
-395.0
 20
3.4757563380062479
 30
0.0
 11
395.00000000000171
 21
3.4757563380062479
 31
0.0
  0
LINE
  5
13C
  8
DETAIL
  6
CONTINUOUS
 62
     5
 10
395.00000000000171
 20
4.8738882480629391
 30
0.0
 11
-395.0
 21
4.8738882480629391
 31
0.0
  0
TEXT
  5
13D
  8
ETC
  6
CONTINUOUS
 62
    61
 10
91.868085630469977
 20
486.7583904120151
 30
0.0
 40
50.0
  1
LH-400WFRP_6
 50
0.0000029998804485
 41
0.8
  0
LINE
  5
13E
  8
OUTLINE
  6
CONTINUOUS
 62
     3
 10
420.0
 20
-7.9090483365507662
 30
0.0
 11
-574.75990603257185
 21
-7.9090483365507662
 31
0.0
  0
ENDSEC
  0
EOF
