  0
SECTION
  2
HEADER
  9
$ACADVER
  1
AC1009
  9
$INSBASE
 10
0.0
 20
0.0
 30
0.0
  9
$EXTMIN
 10
-641.54700312351849
 20
-459.33780203156653
 30
0.0
  9
$EXTMAX
 10
430.01315625428163
 20
365.93912604787562
 30
0.0
  9
$LIMMIN
 10
-4267.1522210604826
 20
-2696.083210198412
  9
$LIMMAX
 10
7190.7174225864646
 20
5141.155363923066
  9
$ORTHOMODE
 70
     0
  9
$REGENMODE
 70
     1
  9
$FILLMODE
 70
     1
  9
$QTEXTMODE
 70
     0
  9
$MIRRTEXT
 70
     0
  9
$DRAGMODE
 70
     2
  9
$LTSCALE
 40
20.0
  9
$OSMODE
 70
   431
  9
$ATTMODE
 70
     1
  9
$TEXTSIZE
 40
361.62496667750372
  9
$TRACEWID
 40
0.05
  9
$TEXTSTYLE
  7
NOTE
  9
$CLAYER
  8
NOTE
  9
$CELTYPE
  6
CONTINUOUS
  9
$CECOLOR
 62
     7
  9
$DIMSCALE
 40
1.0
  9
$DIMASZ
 40
20.0
  9
$DIMEXO
 40
10.0
  9
$DIMDLI
 40
80.0
  9
$DIMRND
 40
0.0
  9
$DIMDLE
 40
0.0
  9
$DIMEXE
 40
10.0
  9
$DIMTP
 40
0.0
  9
$DIMTM
 40
0.0
  9
$DIMTXT
 40
40.0
  9
$DIMCEN
 40
0.09
  9
$DIMTSZ
 40
0.0
  9
$DIMTOL
 70
     0
  9
$DIMLIM
 70
     0
  9
$DIMTIH
 70
     0
  9
$DIMTOH
 70
     0
  9
$DIMSE1
 70
     0
  9
$DIMSE2
 70
     0
  9
$DIMTAD
 70
     1
  9
$DIMZIN
 70
     8
  9
$DIMBLK
  1
SMALL
  9
$DIMASO
 70
     1
  9
$DIMSHO
 70
     0
  9
$DIMPOST
  1

  9
$DIMAPOST
  1

  9
$DIMALT
 70
     0
  9
$DIMALTD
 70
     2
  9
$DIMALTF
 40
25.399999999999999
  9
$DIMLFAC
 40
1.0
  9
$DIMTOFL
 70
     1
  9
$DIMTVP
 40
0.0
  9
$DIMTIX
 70
     0
  9
$DIMSOXD
 70
     0
  9
$DIMSAH
 70
     0
  9
$DIMBLK1
  1

  9
$DIMBLK2
  1

  9
$DIMSTYLE
  2
STANDARD
  9
$DIMCLRD
 70
     0
  9
$DIMCLRE
 70
     0
  9
$DIMCLRT
 70
     0
  9
$DIMTFAC
 40
1.0
  9
$DIMGAP
 40
0.09
  9
$LUNITS
 70
     2
  9
$LUPREC
 70
     4
  9
$SKETCHINC
 40
0.1
  9
$FILLETRAD
 40
30.0
  9
$AUNITS
 70
     1
  9
$AUPREC
 70
     3
  9
$MENU
  1
ACAD
  9
$ELEVATION
 40
0.0
  9
$PELEVATION
 40
0.0
  9
$THICKNESS
 40
0.0
  9
$LIMCHECK
 70
     0
  9
$BLIPMODE
 70
     0
  9
$CHAMFERA
 40
0.0
  9
$CHAMFERB
 40
0.0
  9
$SKPOLY
 70
     0
  9
$TDCREATE
 40
2450330.4399309959
  9
$TDUPDATE
 40
2455244.6223582518
  9
$TDINDWG
 40
5.1845294676
  9
$TDUSRTIMER
 40
5.1845285764
  9
$USRTIMER
 70
     1
  9
$ANGBASE
 50
0.0
  9
$ANGDIR
 70
     0
  9
$PDMODE
 70
     3
  9
$PDSIZE
 40
-2.0
  9
$PLINEWID
 40
0.0
  9
$COORDS
 70
     0
  9
$SPLFRAME
 70
     0
  9
$SPLINETYPE
 70
     6
  9
$SPLINESEGS
 70
     8
  9
$ATTDIA
 70
     0
  9
$ATTREQ
 70
     1
  9
$HANDLING
 70
     1
  9
$HANDSEED
  5
1A0
  9
$SURFTAB1
 70
     6
  9
$SURFTAB2
 70
     6
  9
$SURFTYPE
 70
     6
  9
$SURFU
 70
     6
  9
$SURFV
 70
     6
  9
$UCSNAME
  2

  9
$UCSORG
 10
0.0
 20
0.0
 30
0.0
  9
$UCSXDIR
 10
1.0
 20
0.0
 30
0.0
  9
$UCSYDIR
 10
0.0
 20
1.0
 30
0.0
  9
$PUCSNAME
  2

  9
$PUCSORG
 10
0.0
 20
0.0
 30
0.0
  9
$PUCSXDIR
 10
1.0
 20
0.0
 30
0.0
  9
$PUCSYDIR
 10
0.0
 20
1.0
 30
0.0
  9
$USERI1
 70
     0
  9
$USERI2
 70
     0
  9
$USERI3
 70
     0
  9
$USERI4
 70
     0
  9
$USERI5
 70
     0
  9
$USERR1
 40
20.0
  9
$USERR2
 40
0.0
  9
$USERR3
 40
0.0
  9
$USERR4
 40
0.0
  9
$USERR5
 40
0.0
  9
$WORLDVIEW
 70
     1
  9
$SHADEDGE
 70
     3
  9
$SHADEDIF
 70
    70
  9
$TILEMODE
 70
     1
  9
$MAXACTVP
 70
    64
  9
$PLIMCHECK
 70
     0
  9
$PEXTMIN
 10
1.0000000000000000E+020
 20
1.0000000000000000E+020
 30
1.0000000000000000E+020
  9
$PEXTMAX
 10
-1.0000000000000000E+020
 20
-1.0000000000000000E+020
 30
-1.0000000000000000E+020
  9
$PLIMMIN
 10
0.0
 20
0.0
  9
$PLIMMAX
 10
12.0
 20
9.0
  9
$UNITMODE
 70
     0
  9
$VISRETAIN
 70
     1
  9
$PLINEGEN
 70
     0
  9
$PSLTSCALE
 70
     1
  0
ENDSEC
  0
SECTION
  2
TABLES
  0
TABLE
  2
VPORT
 70
     1
  0
VPORT
  2
*ACTIVE
 70
     0
 10
0.0
 20
0.0
 11
1.0
 21
1.0
 12
1461.782600762991
 22
1222.536076862327
 13
0.0
 23
0.0
 14
50.0
 24
50.0
 15
100.0
 25
100.0
 16
0.0
 26
0.0
 36
1.0
 17
0.0
 27
0.0
 37
0.0
 40
7896.6866543297328
 41
1.548101265822784
 42
50.0
 43
0.0
 44
0.0
 50
0.0
 51
0.0
 71
     0
 72
  1000
 73
     1
 74
     0
 75
     0
 76
     0
 77
     0
 78
     0
  0
ENDTAB
  0
TABLE
  2
LTYPE
 70
     3
  0
LTYPE
  2
CONTINUOUS
 70
     0
  3
実線
 72
    65
 73
     0
 40
0.0
  0
LTYPE
  2
DASHDOT
 70
     0
  3
____ _ ____ _ ____ _ ____ _ ____ _ ____ _ ____
 72
    65
 73
     4
 40
5.5
 49
4.0
 49
-0.6
 49
0.3
 49
-0.6
  0
ENDTAB
  0
TABLE
  2
LAYER
 70
    12
  0
LAYER
  2
0
 70
     0
 62
     7
  6
CONTINUOUS
  0
LAYER
  2
NOTE
 70
     0
 62
     4
  6
CONTINUOUS
  0
LAYER
  2
OUTLINE
 70
     0
 62
     3
  6
CONTINUOUS
  0
LAYER
  2
DETAIL
 70
     0
 62
     5
  6
CONTINUOUS
  0
LAYER
  2
BASIS
 70
     0
 62
     6
  6
DASHDOT
  0
LAYER
  2
SIZE
 70
     0
 62
    30
  6
CONTINUOUS
  0
LAYER
  2
ARRANGE
 70
     0
 62
     1
  6
CONTINUOUS
  0
LAYER
  2
FIX
 70
     0
 62
    11
  6
CONTINUOUS
  0
LAYER
  2
SERVICESPACE
 70
     0
 62
     2
  6
DASHDOT
  0
LAYER
  2
ETC
 70
     0
 62
    61
  6
CONTINUOUS
  0
LAYER
  2
SYMBOLLINE
 70
     0
 62
    15
  6
CONTINUOUS
  0
LAYER
  2
DEFPOINTS
 70
     0
 62
     7
  6
CONTINUOUS
  0
ENDTAB
  0
TABLE
  2
STYLE
 70
     4
  0
STYLE
  2
STANDARD
 70
     0
 40
0.0
 41
0.9
 50
0.0
 71
     0
 42
64.0
  3
SIMPLEX
  4
BIGFONT
  0
STYLE
  2
ANNOTATIVE
 70
     0
 40
0.0
 41
1.0
 50
0.0
 71
     0
 42
0.2
  3
txt
  4

  0
STYLE
  2
NOTE
 70
     0
 40
0.0
 41
0.7
 50
0.0
 71
     0
 42
361.62496667750372
  3
SIMPLEX.shx
  4
BIGFONT.shx
  0
STYLE
  2
STANDARD1
 70
     0
 40
0.0
 41
1.0
 50
0.0
 71
     0
 42
64.0
  3
MONOTXT
  4
BIGFONT
  0
ENDTAB
  0
TABLE
  2
VIEW
 70
     4
  0
VIEW
  2
ALL
 70
     0
 40
9000.0
 10
241.50664699999999
 20
0.0
 41
12483.01
 11
0.0
 21
0.0
 31
1.0
 12
0.0
 22
0.0
 32
0.0
 42
50.0
 43
0.0
 44
0.0
 50
0.0
 71
     0
  0
ENDTAB
  0
TABLE
  2
UCS
 70
     0
  0
ENDTAB
  0
TABLE
  2
APPID
 70
     3
  0
APPID
  2
ACAD
 70
     0
  0
APPID
  2
ACADANNOTATIVE
 70
     0
  0
APPID
  2
ACAD_MLEADERVER
 70
     0
  0
ENDTAB
  0
TABLE
  2
DIMSTYLE
 70
     3
  0
DIMSTYLE
  2
STANDARD
 70
     0
  3

  4

  5

  6

  7

 40
1.0
 41
0.18
 42
0.0625
 43
0.38
 44
0.18
 45
0.0
 46
0.0
 47
0.0
 48
0.0
140
0.18
141
0.09
142
0.0
143
25.399999999999999
144
1.0
145
0.0
146
1.0
147
0.09
 71
     0
 72
     0
 73
     1
 74
     1
 75
     0
 76
     0
 77
     0
 78
     0
170
     0
171
     2
172
     0
173
     0
174
     0
175
     0
176
     0
177
     0
178
     0
  0
DIMSTYLE
  2
ANNOTATIVE
 70
     0
  3

  4

  5

  6

  7

 40
1.0
 41
0.18
 42
0.0625
 43
0.38
 44
0.18
 45
0.0
 46
0.0
 47
0.0
 48
0.0
140
0.18
141
0.09
142
0.0
143
25.399999999999999
144
1.0
145
0.0
146
1.0
147
0.09
 71
     0
 72
     0
 73
     1
 74
     1
 75
     0
 76
     0
 77
     0
 78
     0
170
     0
171
     2
172
     0
173
     0
174
     0
175
     0
176
     0
177
     0
178
     0
  0
ENDTAB
  0
ENDSEC
  0
SECTION
  2
BLOCKS
  0
BLOCK
  8
0
  2
$MODEL_SPACE
 70
     0
 10
0.0
 20
0.0
 30
0.0
  3
$MODEL_SPACE
  1

  0
ENDBLK
  5
76
  8
0
  0
BLOCK
 67
     1
  8
0
  2
$PAPER_SPACE
 70
     0
 10
0.0
 20
0.0
 30
0.0
  3
$PAPER_SPACE
  1

  0
ENDBLK
  5
72
 67
     1
  8
0
  0
BLOCK
  8
0
  2
_SMALL
 70
     0
 10
0.0
 20
0.0
 30
0.0
  3
_SMALL
  1

  0
CIRCLE
  5
8D
  8
0
  6
CONTINUOUS
 62
     7
 10
0.0
 20
0.0
 30
0.0
 40
0.25
  0
ENDBLK
  5
8E
  8
0
  0
ENDSEC
  0
SECTION
  2
ENTITIES
  0
LINE
  5
8F
  8
DETAIL
  6
CONTINUOUS
 62
     5
 10
269.99999999999773
 20
-269.63919393658392
 30
0.0
 11
7.8698894782066864
 21
-269.63919393658392
 31
0.0
  0
LINE
  5
90
  8
DETAIL
  6
CONTINUOUS
 62
     5
 10
269.99999999999773
 20
-286.99999999999989
 30
0.0
 11
4.8738882480627108
 21
-286.99999999999989
 31
0.0
  0
LINE
  5
91
  8
DETAIL
  6
CONTINUOUS
 62
     5
 10
269.99999999999773
 20
-286.99999999999989
 30
0.0
 11
269.99999999999773
 21
0.0
 31
0.0
  0
LINE
  5
92
  8
DETAIL
  6
CONTINUOUS
 62
     5
 10
-54.84640493680331
 20
-248.66718532557559
 30
0.0
 11
-210.6384689042934
 21
-248.66718532557559
 31
0.0
  0
LINE
  5
93
  8
NOTE
  6
CONTINUOUS
 62
     4
 10
-173.47400799593939
 20
-201.99999999999989
 30
0.0
 11
-134.52599200406621
 21
-201.99999999999989
 31
0.0
  0
LINE
  5
94
  8
NOTE
  6
CONTINUOUS
 62
     4
 10
-173.47400799593939
 20
-37.0
 30
0.0
 11
-134.52599200406621
 21
-37.0
 31
0.0
  0
LINE
  5
95
  8
DETAIL
  6
CONTINUOUS
 62
     5
 10
-257.57581951255332
 20
-253.0621273861197
 30
0.0
 11
3.4757563380055672
 21
-253.0621273861197
 31
0.0
  0
LINE
  5
96
  8
DETAIL
  6
CONTINUOUS
 62
     5
 10
-7.9090483365512219
 20
-299.00000599200388
 30
0.0
 11
-257.57581951255332
 21
-299.00000599200388
 31
0.0
  0
LINE
  5
97
  8
DETAIL
  6
CONTINUOUS
 62
     5
 10
4.8738882480627108
 20
-247.66852224353349
 30
0.0
 11
4.8738882480627108
 21
-286.99999999999989
 31
0.0
  0
ARC
  5
98
  8
DETAIL
  6
CONTINUOUS
 62
     5
 10
7.8698894782066864
 20
-272.63519516672739
 30
0.0
 40
2.9960012301440591
 50
90.0
 51
180.0
  0
LINE
  5
9A
  8
DETAIL
  6
CONTINUOUS
 62
     5
 10
-7.9090483365512219
 20
-253.0621273861197
 30
0.0
 11
-7.9090483365512219
 21
-299.00000599200388
 31
0.0
  0
LINE
  5
9B
  8
NOTE
  6
CONTINUOUS
 62
     4
 10
-133.00000000000219
 20
-261.42079360324891
 30
0.0
 11
-133.00000000000219
 21
-292.57920639674001
 31
0.0
  0
LINE
  5
9C
  8
NOTE
  6
CONTINUOUS
 62
     4
 10
-148.57920639675331
 20
-276.99999999999989
 30
0.0
 11
-117.420793603249
 21
-276.99999999999989
 31
0.0
  0
ARC
  5
9D
  8
DETAIL
  6
CONTINUOUS
 62
     5
 10
-51.850403706660238
 20
-242.07598261926611
 30
0.0
 40
2.9960012301440591
 50
90.0
 51
180.0
  0
LINE
  5
9E
  8
DETAIL
  6
CONTINUOUS
 62
     5
 10
3.4757563380055672
 20
-247.66852224353349
 30
0.0
 11
3.4757563380055672
 21
-253.0621273861197
 31
0.0
  0
LINE
  5
9F
  8
DETAIL
  6
CONTINUOUS
 62
     5
 10
4.8738882480627108
 20
-247.66852224353349
 30
0.0
 11
3.4757563380055672
 21
-247.66852224353349
 31
0.0
  0
LINE
  5
A0
  8
DETAIL
  6
CONTINUOUS
 62
     5
 10
4.8738882480627108
 20
-247.66852224353349
 30
0.0
 11
-38.867729712036173
 21
-247.66852224353349
 31
0.0
  0
LINE
  5
A2
  8
DETAIL
  6
CONTINUOUS
 62
     5
 10
-38.867729712036173
 20
-242.07598261926611
 30
0.0
 11
-38.867729712036173
 21
-253.0621273861197
 31
0.0
  0
LINE
  5
A3
  8
DETAIL
  6
CONTINUOUS
 62
     5
 10
-51.850403706660238
 20
-239.07998138912259
 30
0.0
 11
-41.863730942181043
 21
-239.07998138912259
 31
0.0
  0
ARC
  5
A4
  8
DETAIL
  6
CONTINUOUS
 62
     5
 10
-41.863730942181043
 20
-242.07598261926611
 30
0.0
 40
2.9960012301440591
 50
0.000000000000007
 51
90.0
  0
LINE
  5
A5
  8
DETAIL
  6
CONTINUOUS
 62
     5
 10
-54.84640493680331
 20
-253.0621273861197
 30
0.0
 11
-54.84640493680331
 21
-242.07598261926611
 31
0.0
  0
LINE
  5
A6
  8
DETAIL
  6
CONTINUOUS
 62
     5
 10
-270.00000000000227
 20
-184.99999999999989
 30
0.0
 11
-270.00000000000227
 21
-65.0
 31
0.0
  0
LINE
  5
A7
  8
DETAIL
  6
CONTINUOUS
 62
     5
 10
-257.57581951255332
 20
-253.0621273861197
 30
0.0
 11
-257.57581951255332
 21
-299.00000599200388
 31
0.0
  0
LINE
  5
A8
  8
DETAIL
  6
CONTINUOUS
 62
     5
 10
-240.0000000000023
 20
-184.99999999999989
 30
0.0
 11
-270.00000000000227
 21
-184.99999999999989
 31
0.0
  0
LINE
  5
AA
  8
NOTE
  6
CONTINUOUS
 62
     4
 10
-154.00000000000219
 20
-182.5259920040624
 30
0.0
 11
-154.00000000000219
 21
-221.47400799593549
 31
0.0
  0
LINE
  5
AB
  8
DETAIL
  6
CONTINUOUS
 62
     5
 10
-240.0000000000023
 20
0.0
 30
0.0
 11
-240.0000000000023
 21
-250.66543425805489
 31
0.0
  0
ARC
  5
AC
  8
DETAIL
  6
CONTINUOUS
 62
     5
 10
-223.6211369069224
 20
-242.07598261926611
 30
0.0
 40
2.9960012301440591
 50
90.0
 51
180.0
  0
LINE
  5
AD
  8
DETAIL
  6
CONTINUOUS
 62
     5
 10
-213.6344701344382
 20
-239.07998138912259
 30
0.0
 11
-223.6211369069224
 21
-239.07998138912259
 31
0.0
  0
ARC
  5
AE
  8
DETAIL
  6
CONTINUOUS
 62
     5
 10
-213.6344701344382
 20
-242.07598261926611
 30
0.0
 40
2.9960012301440591
 50
0.000000000000007
 51
90.0
  0
LINE
  5
AF
  8
DETAIL
  6
CONTINUOUS
 62
     5
 10
-210.6384689042934
 20
-253.0621273861197
 30
0.0
 11
-210.6384689042934
 21
-242.07598261926611
 31
0.0
  0
LINE
  5
B0
  8
DETAIL
  6
CONTINUOUS
 62
     5
 10
-226.61713813706609
 20
-250.66543425805489
 30
0.0
 11
-240.0000000000023
 21
-250.66543425805489
 31
0.0
  0
LINE
  5
B1
  8
DETAIL
  6
CONTINUOUS
 62
     5
 10
-226.61713813706609
 20
-242.07598261926611
 30
0.0
 11
-226.61713813706609
 21
-253.0621273861197
 31
0.0
  0
LINE
  5
B2
  8
DETAIL
  6
CONTINUOUS
 62
     5
 10
-240.0000000000023
 20
-65.0
 30
0.0
 11
-270.00000000000227
 21
-65.0
 31
0.0
  0
LINE
  5
B3
  8
NOTE
  6
CONTINUOUS
 62
     4
 10
-154.00000000000219
 20
-17.525992004064381
 30
0.0
 11
-154.00000000000219
 21
-56.474007995937427
 31
0.0
  0
LINE
  5
B4
  8
DETAIL
  6
CONTINUOUS
 62
     5
 10
269.99999999999773
 20
0.0
 30
0.0
 11
-240.0000000000023
 21
0.0
 31
0.0
  0
LINE
  5
B5
  8
SIZE
  6
CONTINUOUS
 62
    30
 10
-250.00000000000219
 20
0.0000000000000028
 30
0.0
 11
-601.54700312351815
 21
0.0000000000001024
 31
0.0
  0
LINE
  5
B6
  8
SIZE
  6
CONTINUOUS
 62
    30
 10
-267.57581951255338
 20
-299.00000599200388
 30
0.0
 11
-601.54700312351827
 21
-299.00000599200382
 31
0.0
  0
LINE
  5
B7
  8
SIZE
  6
CONTINUOUS
 62
    30
 10
-591.54700312351815
 20
0.0000000000000996
 30
0.0
 11
-591.54700312351838
 21
-299.00000599200382
 31
0.0
  0
CIRCLE
  5
B8
  8
SIZE
  6
CONTINUOUS
 62
    30
 10
-591.54700312351815
 20
0.0000000000000996
 30
0.0
 40
5.0
  0
CIRCLE
  5
B9
  8
SIZE
  6
CONTINUOUS
 62
    30
 10
-591.54700312351838
 20
-299.00000599200382
 30
0.0
 40
5.0
  0
TEXT
  5
BA
  8
SIZE
  6
CONTINUOUS
 62
    30
 10
-601.54700312351827
 20
-194.9285744245733
 30
0.0
 40
40.0
  1
299
 50
90.0
 41
0.9
 72
     1
 11
-601.54700312351827
 21
-149.50000299600191
 31
0.0
  0
POINT
  5
BB
  8
DEFPOINTS
  6
CONTINUOUS
 62
     7
 10
-240.0000000000023
 20
0.0
 30
0.0
  0
POINT
  5
BC
  8
DEFPOINTS
  6
CONTINUOUS
 62
     7
 10
-257.57581951255332
 20
-299.00000599200388
 30
0.0
  0
POINT
  5
BD
  8
DEFPOINTS
  6
CONTINUOUS
 62
     7
 10
-591.54700312351838
 20
-299.00000599200382
 30
0.0
  0
LINE
  5
BE
  8
SIZE
  6
CONTINUOUS
 62
    30
 10
269.99999999999773
 20
10.0
 30
0.0
 11
269.99999999999773
 21
245.59787584819961
 31
0.0
  0
LINE
  5
BF
  8
SIZE
  6
CONTINUOUS
 62
    30
 10
-270.00000000000227
 20
-55.0
 30
0.0
 11
-270.00000000000227
 21
245.59787584819961
 31
0.0
  0
LINE
  5
C0
  8
SIZE
  6
CONTINUOUS
 62
    30
 10
269.99999999999773
 20
235.59787584819961
 30
0.0
 11
-270.00000000000227
 21
235.59787584819961
 31
0.0
  0
CIRCLE
  5
C1
  8
SIZE
  6
CONTINUOUS
 62
    30
 10
269.99999999999773
 20
235.59787584819961
 30
0.0
 40
5.0
  0
CIRCLE
  5
C2
  8
SIZE
  6
CONTINUOUS
 62
    30
 10
-270.00000000000227
 20
235.59787584819961
 30
0.0
 40
5.0
  0
TEXT
  5
C3
  8
SIZE
  6
CONTINUOUS
 62
    30
 10
-46.285714285716558
 20
245.59787584819961
 30
0.0
 40
40.0
  1
540
 41
0.9
 72
     1
 11
-0.0000000000022737
 21
245.59787584819961
 31
0.0
  0
POINT
  5
C4
  8
DEFPOINTS
  6
CONTINUOUS
 62
     7
 10
269.99999999999773
 20
0.0
 30
0.0
  0
POINT
  5
C5
  8
DEFPOINTS
  6
CONTINUOUS
 62
     7
 10
-270.00000000000227
 20
-65.0
 30
0.0
  0
POINT
  5
C6
  8
DEFPOINTS
  6
CONTINUOUS
 62
     7
 10
-270.00000000000227
 20
235.59787584819961
 30
0.0
  0
LINE
  5
C7
  8
SIZE
  6
CONTINUOUS
 62
    30
 10
-240.0000000000023
 20
10.0
 30
0.0
 11
-240.0000000000023
 21
116.70218837699019
 31
0.0
  0
LINE
  5
C8
  8
SIZE
  6
CONTINUOUS
 62
    30
 10
-270.00000000000227
 20
-55.0
 30
0.0
 11
-270.00000000000227
 21
116.70218837699019
 31
0.0
  0
LINE
  5
C9
  8
SIZE
  6
CONTINUOUS
 62
    30
 10
-240.0000000000023
 20
106.70218837699019
 30
0.0
 11
-270.00000000000227
 21
106.70218837699019
 31
0.0
  0
LINE
  5
CA
  8
SIZE
  6
CONTINUOUS
 62
    30
 10
-270.00000000000227
 20
106.70218837699019
 30
0.0
 11
-368.28571428571649
 21
106.70218837699019
 31
0.0
  0
CIRCLE
  5
CB
  8
SIZE
  6
CONTINUOUS
 62
    30
 10
-240.0000000000023
 20
106.70218837699019
 30
0.0
 40
5.0
  0
CIRCLE
  5
CC
  8
SIZE
  6
CONTINUOUS
 62
    30
 10
-270.00000000000227
 20
106.70218837699019
 30
0.0
 40
5.0
  0
TEXT
  5
CD
  8
SIZE
  6
CONTINUOUS
 62
    30
 10
-358.28571428571649
 20
116.70218837699019
 30
0.0
 40
40.0
  1
30
 41
0.9
 72
     1
 11
-329.14285714285938
 21
116.70218837699019
 31
0.0
  0
POINT
  5
CE
  8
DEFPOINTS
  6
CONTINUOUS
 62
     7
 10
-240.0000000000023
 20
0.0
 30
0.0
  0
POINT
  5
CF
  8
DEFPOINTS
  6
CONTINUOUS
 62
     7
 10
-270.00000000000227
 20
-65.0
 30
0.0
  0
POINT
  5
D0
  8
DEFPOINTS
  6
CONTINUOUS
 62
     7
 10
-270.00000000000227
 20
106.70218837699019
 30
0.0
  0
LINE
  5
D1
  8
SIZE
  6
CONTINUOUS
 62
    30
 10
279.99999999999773
 20
-0.0000000000000028
 30
0.0
 11
357.89688098074981
 21
-0.0000000000000249
 31
0.0
  0
LINE
  5
D2
  8
SIZE
  6
CONTINUOUS
 62
    30
 10
279.99999999999773
 20
-286.99999999999989
 30
0.0
 11
357.89688098074959
 21
-286.99999999999989
 31
0.0
  0
LINE
  5
D3
  8
SIZE
  6
CONTINUOUS
 62
    30
 10
347.89688098074981
 20
-0.0000000000000221
 30
0.0
 11
347.8968809807497
 21
-286.99999999999989
 31
0.0
  0
CIRCLE
  5
D4
  8
SIZE
  6
CONTINUOUS
 62
    30
 10
347.89688098074981
 20
-0.0000000000000221
 30
0.0
 40
5.0
  0
CIRCLE
  5
D5
  8
SIZE
  6
CONTINUOUS
 62
    30
 10
347.8968809807497
 20
-286.99999999999989
 30
0.0
 40
5.0
  0
TEXT
  5
D6
  8
SIZE
  6
CONTINUOUS
 62
    30
 10
337.89688098074981
 20
-189.78571428571411
 30
0.0
 40
40.0
  1
287
 50
90.0
 41
0.9
 72
     1
 11
337.89688098074981
 21
-143.4999999999998
 31
0.0
  0
POINT
  5
D7
  8
DEFPOINTS
  6
CONTINUOUS
 62
     7
 10
269.99999999999773
 20
0.0
 30
0.0
  0
POINT
  5
D8
  8
DEFPOINTS
  6
CONTINUOUS
 62
     7
 10
269.99999999999773
 20
-286.99999999999989
 30
0.0
  0
POINT
  5
D9
  8
DEFPOINTS
  6
CONTINUOUS
 62
     7
 10
347.8968809807497
 20
-286.99999999999989
 30
0.0
  0
LINE
  5
DA
  8
NOTE
  6
CONTINUOUS
 62
     4
 10
-216.00000000000219
 20
-14.416724963439259
 30
0.0
 11
-216.00000000000219
 21
14.416724963439259
 31
0.0
  0
LINE
  5
DB
  8
NOTE
  6
CONTINUOUS
 62
     4
 10
-230.41672496344131
 20
0.0
 30
0.0
 11
-201.5832750365623
 21
0.0
 31
0.0
  0
CIRCLE
  5
DC
  8
FIX
  6
CONTINUOUS
 62
    11
 10
-216.00000000000219
 20
0.0
 30
0.0
 40
12.55406000627733
  0
LINE
  5
DD
  8
NOTE
  6
CONTINUOUS
 62
     4
 10
213.9999999999977
 20
-14.416724963439259
 30
0.0
 11
213.9999999999977
 21
14.416724963439259
 31
0.0
  0
LINE
  5
DE
  8
NOTE
  6
CONTINUOUS
 62
     4
 10
199.5832750365586
 20
0.0
 30
0.0
 11
228.41672496343671
 21
0.0
 31
0.0
  0
CIRCLE
  5
DF
  8
FIX
  6
CONTINUOUS
 62
    11
 10
213.9999999999977
 20
0.0
 30
0.0
 40
12.55406000627733
  0
LINE
  5
E0
  8
SIZE
  6
CONTINUOUS
 62
    30
 10
-270.00000000000227
 20
-194.99999999999989
 30
0.0
 11
-270.00000000000227
 21
-391.70143806292799
 31
0.0
  0
LINE
  5
E1
  8
SIZE
  6
CONTINUOUS
 62
    30
 10
-154.00000000000219
 20
-66.474007995937427
 30
0.0
 11
-154.0000000000023
 21
-391.70143806292799
 31
0.0
  0
LINE
  5
E2
  8
SIZE
  6
CONTINUOUS
 62
    30
 10
-270.00000000000227
 20
-381.70143806292788
 30
0.0
 11
-154.0000000000023
 21
-381.70143806292788
 31
0.0
  0
CIRCLE
  5
E3
  8
SIZE
  6
CONTINUOUS
 62
    30
 10
-270.00000000000227
 20
-381.70143806292788
 30
0.0
 40
5.0
  0
CIRCLE
  5
E4
  8
SIZE
  6
CONTINUOUS
 62
    30
 10
-154.0000000000023
 20
-381.70143806292788
 30
0.0
 40
5.0
  0
TEXT
  5
E5
  8
SIZE
  6
CONTINUOUS
 62
    30
 10
-250.57142857143069
 20
-371.70143806292788
 30
0.0
 40
40.0
  1
116
 41
0.9
 72
     1
 11
-212.00000000000219
 21
-371.70143806292788
 31
0.0
  0
POINT
  5
E6
  8
DEFPOINTS
  6
CONTINUOUS
 62
     7
 10
-270.00000000000227
 20
-184.99999999999989
 30
0.0
  0
POINT
  5
E7
  8
DEFPOINTS
  6
CONTINUOUS
 62
     7
 10
-154.00000000000219
 20
-56.474007995937427
 30
0.0
  0
POINT
  5
E8
  8
DEFPOINTS
  6
CONTINUOUS
 62
     7
 10
-154.0000000000023
 20
-381.70143806292788
 30
0.0
  0
LINE
  5
E9
  8
SIZE
  6
CONTINUOUS
 62
    30
 10
-270.00000000000227
 20
-194.99999999999989
 30
0.0
 11
-270.00000000000227
 21
-459.33780203156653
 31
0.0
  0
LINE
  5
EA
  8
SIZE
  6
CONTINUOUS
 62
    30
 10
-133.00000000000219
 20
-302.57920639674001
 30
0.0
 11
-133.00000000000219
 21
-459.33780203156653
 31
0.0
  0
LINE
  5
EB
  8
SIZE
  6
CONTINUOUS
 62
    30
 10
-270.00000000000227
 20
-449.3378020315667
 30
0.0
 11
-133.00000000000219
 21
-449.3378020315667
 31
0.0
  0
CIRCLE
  5
EC
  8
SIZE
  6
CONTINUOUS
 62
    30
 10
-270.00000000000227
 20
-449.3378020315667
 30
0.0
 40
5.0
  0
CIRCLE
  5
ED
  8
SIZE
  6
CONTINUOUS
 62
    30
 10
-133.00000000000219
 20
-449.3378020315667
 30
0.0
 40
5.0
  0
TEXT
  5
EE
  8
SIZE
  6
CONTINUOUS
 62
    30
 10
-244.35714285714511
 20
-439.33780203156658
 30
0.0
 40
40.0
  1
137
 41
0.9
 72
     1
 11
-201.50000000000219
 21
-439.33780203156658
 31
0.0
  0
POINT
  5
EF
  8
DEFPOINTS
  6
CONTINUOUS
 62
     7
 10
-270.00000000000227
 20
-184.99999999999989
 30
0.0
  0
POINT
  5
F0
  8
DEFPOINTS
  6
CONTINUOUS
 62
     7
 10
-133.00000000000219
 20
-292.57920639674001
 30
0.0
  0
POINT
  5
F1
  8
DEFPOINTS
  6
CONTINUOUS
 62
     7
 10
-133.00000000000219
 20
-449.3378020315667
 30
0.0
  0
LINE
  5
F2
  8
SIZE
  6
CONTINUOUS
 62
    30
 10
-280.00000000000227
 20
-65.0
 30
0.0
 11
-346.27077451279519
 21
-64.999999999999986
 31
0.0
  0
LINE
  5
F3
  8
SIZE
  6
CONTINUOUS
 62
    30
 10
-250.00000000000219
 20
0.0000000000000028
 30
0.0
 11
-346.27077451279519
 21
0.0000000000000301
 31
0.0
  0
LINE
  5
F4
  8
SIZE
  6
CONTINUOUS
 62
    30
 10
-336.27077451279519
 20
-64.999999999999986
 30
0.0
 11
-336.27077451279519
 21
0.0000000000000273
 31
0.0
  0
LINE
  5
F5
  8
SIZE
  6
CONTINUOUS
 62
    30
 10
-336.27077451279519
 20
0.0000000000000273
 30
0.0
 11
-336.27077451279519
 21
98.285714285714292
 31
0.0
  0
CIRCLE
  5
F6
  8
SIZE
  6
CONTINUOUS
 62
    30
 10
-336.27077451279519
 20
-64.999999999999986
 30
0.0
 40
5.0
  0
CIRCLE
  5
F7
  8
SIZE
  6
CONTINUOUS
 62
    30
 10
-336.27077451279519
 20
0.0000000000000273
 30
0.0
 40
5.0
  0
TEXT
  5
F8
  8
SIZE
  6
CONTINUOUS
 62
    30
 10
-346.27077451279519
 20
29.999999999999979
 30
0.0
 40
40.0
  1
65
 50
90.0
 41
0.9
 72
     1
 11
-346.27077451279519
 21
59.14285714285711
 31
0.0
  0
POINT
  5
F9
  8
DEFPOINTS
  6
CONTINUOUS
 62
     7
 10
-270.00000000000227
 20
-65.0
 30
0.0
  0
POINT
  5
FA
  8
DEFPOINTS
  6
CONTINUOUS
 62
     7
 10
-240.0000000000023
 20
0.0
 30
0.0
  0
POINT
  5
FB
  8
DEFPOINTS
  6
CONTINUOUS
 62
     7
 10
-336.27077451279519
 20
0.0000000000000273
 30
0.0
  0
LINE
  5
FC
  8
SIZE
  6
CONTINUOUS
 62
    30
 10
-280.00000000000227
 20
-65.0
 30
0.0
 11
-346.27077451279501
 21
-64.999999999999986
 31
0.0
  0
LINE
  5
FD
  8
SIZE
  6
CONTINUOUS
 62
    30
 10
-280.00000000000227
 20
-184.99999999999989
 30
0.0
 11
-346.27077451279519
 21
-184.9999999999998
 31
0.0
  0
LINE
  5
FE
  8
SIZE
  6
CONTINUOUS
 62
    30
 10
-336.27077451279519
 20
-64.999999999999986
 30
0.0
 11
-336.27077451279519
 21
-184.9999999999998
 31
0.0
  0
CIRCLE
  5
FF
  8
SIZE
  6
CONTINUOUS
 62
    30
 10
-336.27077451279519
 20
-64.999999999999986
 30
0.0
 40
5.0
  0
CIRCLE
  5
100
  8
SIZE
  6
CONTINUOUS
 62
    30
 10
-336.27077451279519
 20
-184.9999999999998
 30
0.0
 40
5.0
  0
TEXT
  5
101
  8
SIZE
  6
CONTINUOUS
 62
    30
 10
-346.27077451279501
 20
-167.85714285714269
 30
0.0
 40
40.0
  1
120
 50
90.0
 41
0.9
 72
     1
 11
-346.27077451279501
 21
-124.9999999999999
 31
0.0
  0
POINT
  5
102
  8
DEFPOINTS
  6
CONTINUOUS
 62
     7
 10
-270.00000000000227
 20
-65.0
 30
0.0
  0
POINT
  5
103
  8
DEFPOINTS
  6
CONTINUOUS
 62
     7
 10
-270.00000000000227
 20
-184.99999999999989
 30
0.0
  0
POINT
  5
104
  8
DEFPOINTS
  6
CONTINUOUS
 62
     7
 10
-336.27077451279519
 20
-184.9999999999998
 30
0.0
  0
LINE
  5
105
  8
SIZE
  6
CONTINUOUS
 62
    30
 10
-183.4740079959393
 20
-36.999999999999993
 30
0.0
 11
-471.77271792275297
 21
-36.999999999999908
 31
0.0
  0
LINE
  5
106
  8
SIZE
  6
CONTINUOUS
 62
    30
 10
-250.00000000000219
 20
0.0000000000000028
 30
0.0
 11
-471.77271792275297
 21
0.0000000000000657
 31
0.0
  0
LINE
  5
107
  8
SIZE
  6
CONTINUOUS
 62
    30
 10
-461.77271792275297
 20
-36.999999999999922
 30
0.0
 11
-461.77271792275297
 21
0.0000000000000628
 31
0.0
  0
LINE
  5
108
  8
SIZE
  6
CONTINUOUS
 62
    30
 10
-461.77271792275297
 20
0.0000000000000628
 30
0.0
 11
-461.77271792275297
 21
98.28571428571432
 31
0.0
  0
CIRCLE
  5
109
  8
SIZE
  6
CONTINUOUS
 62
    30
 10
-461.77271792275297
 20
-36.999999999999922
 30
0.0
 40
5.0
  0
CIRCLE
  5
10A
  8
SIZE
  6
CONTINUOUS
 62
    30
 10
-461.77271792275297
 20
0.0000000000000628
 30
0.0
 40
5.0
  0
TEXT
  5
10B
  8
SIZE
  6
CONTINUOUS
 62
    30
 10
-471.77271792275297
 20
30.000000000000028
 30
0.0
 40
40.0
  1
37
 50
90.0
 41
0.9
 72
     1
 11
-471.77271792275297
 21
59.142857142857167
 31
0.0
  0
POINT
  5
10C
  8
DEFPOINTS
  6
CONTINUOUS
 62
     7
 10
-173.47400799593939
 20
-37.0
 30
0.0
  0
POINT
  5
10D
  8
DEFPOINTS
  6
CONTINUOUS
 62
     7
 10
-240.0000000000023
 20
0.0
 30
0.0
  0
POINT
  5
10E
  8
DEFPOINTS
  6
CONTINUOUS
 62
     7
 10
-461.77271792275297
 20
0.0000000000000628
 30
0.0
  0
LINE
  5
10F
  8
SIZE
  6
CONTINUOUS
 62
    30
 10
-183.4740079959393
 20
-36.999999999999993
 30
0.0
 11
-471.77271792275292
 21
-36.999999999999908
 31
0.0
  0
LINE
  5
110
  8
SIZE
  6
CONTINUOUS
 62
    30
 10
-183.4740079959393
 20
-201.99999999999989
 30
0.0
 11
-471.77271792275297
 21
-201.9999999999998
 31
0.0
  0
LINE
  5
111
  8
SIZE
  6
CONTINUOUS
 62
    30
 10
-461.77271792275292
 20
-36.999999999999922
 30
0.0
 11
-461.77271792275297
 21
-201.9999999999998
 31
0.0
  0
CIRCLE
  5
112
  8
SIZE
  6
CONTINUOUS
 62
    30
 10
-461.77271792275292
 20
-36.999999999999922
 30
0.0
 40
5.0
  0
CIRCLE
  5
113
  8
SIZE
  6
CONTINUOUS
 62
    30
 10
-461.77271792275297
 20
-201.9999999999998
 30
0.0
 40
5.0
  0
TEXT
  5
114
  8
SIZE
  6
CONTINUOUS
 62
    30
 10
-471.77271792275292
 20
-162.3571428571428
 30
0.0
 40
40.0
  1
165
 50
90.0
 41
0.9
 72
     1
 11
-471.77271792275292
 21
-119.4999999999999
 31
0.0
  0
POINT
  5
115
  8
DEFPOINTS
  6
CONTINUOUS
 62
     7
 10
-173.47400799593939
 20
-37.0
 30
0.0
  0
POINT
  5
116
  8
DEFPOINTS
  6
CONTINUOUS
 62
     7
 10
-173.47400799593939
 20
-201.99999999999989
 30
0.0
  0
POINT
  5
117
  8
DEFPOINTS
  6
CONTINUOUS
 62
     7
 10
-461.77271792275297
 20
-201.9999999999998
 30
0.0
  0
LINE
  5
118
  8
SIZE
  6
CONTINUOUS
 62
    30
 10
-216.00000000000219
 20
24.416724963439261
 30
0.0
 11
-216.00000000000219
 21
180.46995069055069
 31
0.0
  0
LINE
  5
119
  8
SIZE
  6
CONTINUOUS
 62
    30
 10
-270.00000000000227
 20
-55.0
 30
0.0
 11
-270.00000000000227
 21
180.46995069055069
 31
0.0
  0
LINE
  5
11A
  8
SIZE
  6
CONTINUOUS
 62
    30
 10
-216.00000000000219
 20
170.46995069055069
 30
0.0
 11
-270.00000000000227
 21
170.46995069055069
 31
0.0
  0
LINE
  5
11B
  8
SIZE
  6
CONTINUOUS
 62
    30
 10
-270.00000000000227
 20
170.46995069055069
 30
0.0
 11
-370.00000000000222
 21
170.46995069055069
 31
0.0
  0
CIRCLE
  5
11C
  8
SIZE
  6
CONTINUOUS
 62
    30
 10
-216.00000000000219
 20
170.46995069055069
 30
0.0
 40
5.0
  0
CIRCLE
  5
11D
  8
SIZE
  6
CONTINUOUS
 62
    30
 10
-270.00000000000227
 20
170.46995069055069
 30
0.0
 40
5.0
  0
TEXT
  5
11E
  8
SIZE
  6
CONTINUOUS
 62
    30
 10
-360.00000000000227
 20
180.46995069055069
 30
0.0
 40
40.0
  1
54
 41
0.9
 72
     1
 11
-330.00000000000227
 21
180.46995069055069
 31
0.0
  0
POINT
  5
11F
  8
DEFPOINTS
  6
CONTINUOUS
 62
     7
 10
-216.00000000000219
 20
14.416724963439259
 30
0.0
  0
POINT
  5
120
  8
DEFPOINTS
  6
CONTINUOUS
 62
     7
 10
-270.00000000000227
 20
-65.0
 30
0.0
  0
POINT
  5
121
  8
DEFPOINTS
  6
CONTINUOUS
 62
     7
 10
-270.00000000000227
 20
170.46995069055069
 30
0.0
  0
LINE
  5
122
  8
SIZE
  6
CONTINUOUS
 62
    30
 10
-216.00000000000219
 20
24.416724963439261
 30
0.0
 11
-216.00000000000219
 21
180.46995069055069
 31
0.0
  0
LINE
  5
123
  8
SIZE
  6
CONTINUOUS
 62
    30
 10
213.9999999999977
 20
24.416724963439261
 30
0.0
 11
213.9999999999977
 21
180.46995069055069
 31
0.0
  0
LINE
  5
124
  8
SIZE
  6
CONTINUOUS
 62
    30
 10
-216.00000000000219
 20
170.46995069055069
 30
0.0
 11
213.9999999999977
 21
170.46995069055069
 31
0.0
  0
CIRCLE
  5
125
  8
SIZE
  6
CONTINUOUS
 62
    30
 10
-216.00000000000219
 20
170.46995069055069
 30
0.0
 40
5.0
  0
CIRCLE
  5
126
  8
SIZE
  6
CONTINUOUS
 62
    30
 10
213.9999999999977
 20
170.46995069055069
 30
0.0
 40
5.0
  0
TEXT
  5
127
  8
SIZE
  6
CONTINUOUS
 62
    30
 10
-47.285714285716537
 20
180.46995069055069
 30
0.0
 40
40.0
  1
430
 41
0.9
 72
     1
 11
-1.0000000000022731
 21
180.46995069055069
 31
0.0
  0
POINT
  5
128
  8
DEFPOINTS
  6
CONTINUOUS
 62
     7
 10
-216.00000000000219
 20
14.416724963439259
 30
0.0
  0
POINT
  5
129
  8
DEFPOINTS
  6
CONTINUOUS
 62
     7
 10
213.9999999999977
 20
14.416724963439259
 30
0.0
  0
POINT
  5
12A
  8
DEFPOINTS
  6
CONTINUOUS
 62
     7
 10
213.9999999999977
 20
170.46995069055069
 30
0.0
  0
TEXT
  5
12B
  8
NOTE
  6
CONTINUOUS
 62
     4
 10
-129.78169102438909
 20
40.680542806585422
 30
0.0
 40
40.0
  1
CR PT3/4メネジ
 50
359.99999749558327
 41
0.7
  7
STANDARD1
  0
LINE
  5
12C
  8
NOTE
  6
CONTINUOUS
 62
     4
 10
-134.5117368100004
 20
33.028184757131378
 30
0.0
 11
180.5990259748198
 21
33.028184757131378
 31
0.0
  0
TEXT
  5
12D
  8
NOTE
  6
CONTINUOUS
 62
     4
 10
-48.433789988727987
 20
-355.32575606245518
 30
0.0
 40
40.0
  1
C PT3/4メネジ
 50
359.99999749558327
 41
0.7
  7
STANDARD1
  0
LINE
  5
12E
  8
NOTE
  6
CONTINUOUS
 62
     4
 10
-51.083804544312208
 20
-362.97811288802041
 30
0.0
 11
233.94692701047961
 21
-362.97811288802041
 31
0.0
  0
TEXT
  5
12F
  8
NOTE
  6
CONTINUOUS
 62
     4
 10
-65.284921331240412
 20
-428.15110252684082
 30
0.0
 40
40.0
  1
D PT3/4オネジ
 50
359.99999749558327
 41
0.7
  7
STANDARD1
  0
LINE
  5
130
  8
NOTE
  6
CONTINUOUS
 62
     4
 10
-67.934935886824178
 20
-435.80345935240598
 30
0.0
 11
217.0957956679685
 21
-435.80345935240598
 31
0.0
  0
LINE
  5
131
  8
NOTE
  6
CONTINUOUS
 62
     4
 10
-134.5117368100004
 20
33.028184757131378
 30
0.0
 11
-154.00000000000219
 21
-37.0
 31
0.0
  0
LINE
  5
132
  8
NOTE
  6
CONTINUOUS
 62
     4
 10
-154.00000000000219
 20
-201.99999999999989
 30
0.0
 11
-51.083804544312208
 21
-362.97811288802041
 31
0.0
  0
LINE
  5
133
  8
NOTE
  6
CONTINUOUS
 62
     4
 10
-133.00000000000219
 20
-276.99999999999989
 30
0.0
 11
-67.934935886824178
 21
-435.80345935240598
 31
0.0
  0
TEXT
  5
134
  8
NOTE
  6
CONTINUOUS
 62
     4
 10
-170.44661820806141
 20
104.8556681870176
 30
0.0
 40
40.0
  1
AH 4-14×22長穴
 50
359.99999749558327
 41
0.7
  7
STANDARD1
  0
LINE
  5
135
  8
NOTE
  6
CONTINUOUS
 62
     4
 10
-173.51794866352009
 20
97.203308913674846
 30
0.0
 11
167.9340987911477
 21
97.203308913674846
 31
0.0
  0
LINE
  5
136
  8
NOTE
  6
CONTINUOUS
 62
     4
 10
-173.51794866352009
 20
97.203308913674846
 30
0.0
 11
-216.00000000000219
 21
0.0
 31
0.0
  0
LINE
  5
137
  8
NOTE
  6
CONTINUOUS
 62
     4
 10
-133.00000000000219
 20
-277.00000000000182
 30
0.0
 11
-116.16787643298311
 21
-298.75737587622268
 31
0.0
  0
LINE
  5
138
  8
NOTE
  6
CONTINUOUS
 62
     4
 10
-133.00000000000219
 20
-277.00000000000182
 30
0.0
 11
-129.30164172658121
 21
-304.2585020658662
 31
0.0
  0
LINE
  5
139
  8
NOTE
  6
CONTINUOUS
 62
     4
 10
-154.00000000000219
 20
-202.00000000000179
 30
0.0
 11
-133.75134130148709
 21
-220.6197639540768
 31
0.0
  0
LINE
  5
13A
  8
NOTE
  6
CONTINUOUS
 62
     4
 10
-154.00000000000219
 20
-202.00000000000179
 30
0.0
 11
-145.77402953401699
 21
-228.24951806578599
 31
0.0
  0
LINE
  5
13B
  8
NOTE
  6
CONTINUOUS
 62
     4
 10
-154.00000000000421
 20
-36.999999999998181
 30
0.0
 11
-153.67032861483131
 21
-9.4937260689057457
 31
0.0
  0
LINE
  5
13C
  8
NOTE
  6
CONTINUOUS
 62
     4
 10
-154.00000000000421
 20
-36.999999999998181
 30
0.0
 11
-139.9613588953473
 21
-13.34370390935873
 31
0.0
  0
LINE
  5
13D
  8
NOTE
  6
CONTINUOUS
 62
     4
 10
-216.00000000000219
 20
0.000000000001819
 30
0.0
 11
-211.89675353275209
 21
27.200499209086029
 31
0.0
  0
LINE
  5
13E
  8
NOTE
  6
CONTINUOUS
 62
     4
 10
-216.00000000000219
 20
0.000000000001819
 30
0.0
 11
-198.8462344035313
 21
21.504699827122732
 31
0.0
  0
LINE
  5
13F
  8
BASIS
  6
DASHDOT
 62
     6
 10
-0.0000000000022737
 20
18.1254292390804
 30
0.0
 11
-0.0000000000022737
 21
-312.98309167991818
 31
0.0
  0
CIRCLE
  5
140
  8
ARRANGE
  6
CONTINUOUS
 62
     1
 10
-0.0000000000022737
 20
0.0
 30
0.0
 40
28.800000000000001
  0
LINE
  5
141
  8
ARRANGE
  6
CONTINUOUS
 62
     1
 10
-28.821513618046311
 20
-28.524875414586852
 30
0.0
 11
28.821513618041529
 21
28.524875414586852
 31
0.0
  0
LINE
  5
142
  8
ARRANGE
  6
CONTINUOUS
 62
     1
 10
-28.7791276668504
 20
28.567638603641161
 30
0.0
 11
28.779127666846762
 21
-28.567638603637519
 31
0.0
  0
LINE
  5
143
  8
OUTLINE
  6
CONTINUOUS
 62
     3
 10
269.99999999999773
 20
0.0
 30
0.0
 11
-240.0000000000023
 21
0.0
 31
0.0
  0
LINE
  5
144
  8
OUTLINE
  6
CONTINUOUS
 62
     3
 10
-240.0000000000023
 20
-250.66543425805489
 30
0.0
 11
-226.61713813706609
 21
-250.66543425805489
 31
0.0
  0
LINE
  5
145
  8
OUTLINE
  6
CONTINUOUS
 62
     3
 10
-226.61713813706609
 20
-250.66543425805489
 30
0.0
 11
-226.61713813706609
 21
-253.0621273861197
 31
0.0
  0
LINE
  5
146
  8
OUTLINE
  6
CONTINUOUS
 62
     3
 10
269.99999999999773
 20
0.0
 30
0.0
 11
269.99999999999773
 21
-286.99999999999989
 31
0.0
  0
LINE
  5
147
  8
OUTLINE
  6
CONTINUOUS
 62
     3
 10
269.99999999999773
 20
-286.99999999999989
 30
0.0
 11
4.8738882480627108
 21
-286.99999999999989
 31
0.0
  0
LINE
  5
148
  8
OUTLINE
  6
CONTINUOUS
 62
     3
 10
4.8738882480627108
 20
-286.99999999999989
 30
0.0
 11
4.8738882480627117
 21
-247.66852224353349
 31
0.0
  0
LINE
  5
149
  8
OUTLINE
  6
CONTINUOUS
 62
     3
 10
4.8738882480627108
 20
-247.66852224353349
 30
0.0
 11
3.4757563380055672
 21
-247.66852224353349
 31
0.0
  0
LINE
  5
14A
  8
OUTLINE
  6
CONTINUOUS
 62
     3
 10
3.4757563380055672
 20
-247.66852224353349
 30
0.0
 11
3.4757563380055672
 21
-253.0621273861197
 31
0.0
  0
LINE
  5
14B
  8
OUTLINE
  6
CONTINUOUS
 62
     3
 10
3.4757563380055672
 20
-253.0621273861197
 30
0.0
 11
-257.57581951255332
 21
-253.0621273861197
 31
0.0
  0
LINE
  5
14C
  8
OUTLINE
  6
CONTINUOUS
 62
     3
 10
-257.57581951255332
 20
-253.0621273861197
 30
0.0
 11
-257.57581951255332
 21
-299.00000599200388
 31
0.0
  0
LINE
  5
14D
  8
OUTLINE
  6
CONTINUOUS
 62
     3
 10
-257.57581951255332
 20
-299.00000599200388
 30
0.0
 11
-7.9090483365512219
 21
-299.00000599200388
 31
0.0
  0
LINE
  5
14E
  8
OUTLINE
  6
CONTINUOUS
 62
     3
 10
-7.9090483365512219
 20
-299.00000599200388
 30
0.0
 11
-7.9090483365512219
 21
-253.0621273861197
 31
0.0
  0
LINE
  5
14F
  8
OUTLINE
  6
CONTINUOUS
 62
     3
 10
-240.0000000000023
 20
-65.0
 30
0.0
 11
-270.00000000000227
 21
-65.0
 31
0.0
  0
LINE
  5
150
  8
OUTLINE
  6
CONTINUOUS
 62
     3
 10
-270.00000000000227
 20
-65.0
 30
0.0
 11
-270.00000000000227
 21
-184.99999999999989
 31
0.0
  0
LINE
  5
151
  8
OUTLINE
  6
CONTINUOUS
 62
     3
 10
-270.00000000000227
 20
-184.99999999999989
 30
0.0
 11
-240.0000000000023
 21
-184.99999999999989
 31
0.0
  0
LINE
  5
152
  8
OUTLINE
  6
CONTINUOUS
 62
     3
 10
-240.0000000000023
 20
0.0
 30
0.0
 11
-240.0000000000023
 21
-250.6654342580548
 31
0.0
  0
LINE
  5
154
  8
DETAIL
  6
CONTINUOUS
 62
     5
 10
-7.9090483365512219
 20
-281.03103322202321
 30
0.0
 11
-257.57581951255332
 21
-281.03103322202321
 31
0.0
  0
TEXT
  5
155
  8
SIZE
  6
CONTINUOUS
 62
    30
 10
-392.04949824833233
 20
-222.37566563445031
 30
0.0
 40
40.0
  1
（吹出口開口）
 50
89.999997495583386
 41
0.65
  7
STANDARD1
  0
LINE
  5
156
  8
SIZE
  6
CONTINUOUS
 62
    30
 10
-250.00000000000219
 20
0.0000000000000028
 30
0.0
 11
-536.97689915084811
 21
0.0000000000000841
 31
0.0
  0
LINE
  5
157
  8
SIZE
  6
CONTINUOUS
 62
    30
 10
-158.57920639675331
 20
-276.99999999999989
 30
0.0
 11
-536.97689915084834
 21
-276.99999999999972
 31
0.0
  0
LINE
  5
158
  8
SIZE
  6
CONTINUOUS
 62
    30
 10
-526.97689915084811
 20
0.0000000000000813
 30
0.0
 11
-526.97689915084834
 21
-276.99999999999972
 31
0.0
  0
CIRCLE
  5
159
  8
SIZE
  6
CONTINUOUS
 62
    30
 10
-526.97689915084811
 20
0.0000000000000813
 30
0.0
 40
5.0
  0
CIRCLE
  5
15A
  8
SIZE
  6
CONTINUOUS
 62
    30
 10
-526.97689915084834
 20
-276.99999999999972
 30
0.0
 40
5.0
  0
TEXT
  5
15B
  8
SIZE
  6
CONTINUOUS
 62
    30
 10
-536.97689915084811
 20
-184.78571428571411
 30
0.0
 40
40.0
  1
277
 50
90.0
 41
0.9
 72
     1
 11
-536.97689915084811
 21
-138.4999999999998
 31
0.0
  0
POINT
  5
15C
  8
DEFPOINTS
  6
CONTINUOUS
 62
     7
 10
-240.0000000000023
 20
0.0
 30
0.0
  0
POINT
  5
15D
  8
DEFPOINTS
  6
CONTINUOUS
 62
     7
 10
-148.57920639675331
 20
-276.99999999999989
 30
0.0
  0
POINT
  5
15E
  8
DEFPOINTS
  6
CONTINUOUS
 62
     7
 10
-526.97689915084834
 20
-276.99999999999972
 30
0.0
  0
TEXT
  5
15F
  8
ETC
  6
CONTINUOUS
 62
    61
 10
-42.367795254040168
 20
315.93910181369802
 30
0.0
 40
50.0
  1
LH-600WFRP_4
 50
0.0000029998804485
 41
0.8
  0
ENDSEC
  0
EOF
