  0
SECTION
  2
HEADER
  9
$ACADVER
  1
AC1009
  9
$INSBASE
 10
0.0
 20
0.0
 30
0.0
  9
$EXTMIN
 10
-1243.6895541837041
 20
-415.5657501349196
 30
0.0
  9
$EXTMAX
 10
1074.5054750287929
 20
425.73362000198381
 30
0.0
  9
$LIMMIN
 10
-4267.1522210604826
 20
-2696.083210198412
  9
$LIMMAX
 10
7190.7174225864646
 20
5141.155363923066
  9
$ORTHOMODE
 70
     0
  9
$REGENMODE
 70
     1
  9
$FILLMODE
 70
     1
  9
$QTEXTMODE
 70
     0
  9
$MIRRTEXT
 70
     0
  9
$DRAGMODE
 70
     2
  9
$LTSCALE
 40
20.0
  9
$OSMODE
 70
   431
  9
$ATTMODE
 70
     1
  9
$TEXTSIZE
 40
361.62496667750372
  9
$TRACEWID
 40
0.05
  9
$TEXTSTYLE
  7
NOTE
  9
$CLAYER
  8
SYMBOLLINE
  9
$CELTYPE
  6
CONTINUOUS
  9
$CECOLOR
 62
     7
  9
$DIMSCALE
 40
1.0
  9
$DIMASZ
 40
20.0
  9
$DIMEXO
 40
10.0
  9
$DIMDLI
 40
80.0
  9
$DIMRND
 40
0.0
  9
$DIMDLE
 40
0.0
  9
$DIMEXE
 40
10.0
  9
$DIMTP
 40
0.0
  9
$DIMTM
 40
0.0
  9
$DIMTXT
 40
40.0
  9
$DIMCEN
 40
0.09
  9
$DIMTSZ
 40
0.0
  9
$DIMTOL
 70
     0
  9
$DIMLIM
 70
     0
  9
$DIMTIH
 70
     0
  9
$DIMTOH
 70
     0
  9
$DIMSE1
 70
     0
  9
$DIMSE2
 70
     0
  9
$DIMTAD
 70
     1
  9
$DIMZIN
 70
     8
  9
$DIMBLK
  1
SMALL
  9
$DIMASO
 70
     1
  9
$DIMSHO
 70
     0
  9
$DIMPOST
  1

  9
$DIMAPOST
  1

  9
$DIMALT
 70
     0
  9
$DIMALTD
 70
     2
  9
$DIMALTF
 40
25.399999999999999
  9
$DIMLFAC
 40
1.0
  9
$DIMTOFL
 70
     1
  9
$DIMTVP
 40
0.0
  9
$DIMTIX
 70
     0
  9
$DIMSOXD
 70
     0
  9
$DIMSAH
 70
     0
  9
$DIMBLK1
  1

  9
$DIMBLK2
  1

  9
$DIMSTYLE
  2
STANDARD
  9
$DIMCLRD
 70
     0
  9
$DIMCLRE
 70
     0
  9
$DIMCLRT
 70
     0
  9
$DIMTFAC
 40
1.0
  9
$DIMGAP
 40
0.09
  9
$LUNITS
 70
     2
  9
$LUPREC
 70
     4
  9
$SKETCHINC
 40
0.1
  9
$FILLETRAD
 40
30.0
  9
$AUNITS
 70
     1
  9
$AUPREC
 70
     3
  9
$MENU
  1
ACAD
  9
$ELEVATION
 40
0.0
  9
$PELEVATION
 40
0.0
  9
$THICKNESS
 40
0.0
  9
$LIMCHECK
 70
     0
  9
$BLIPMODE
 70
     0
  9
$CHAMFERA
 40
0.0
  9
$CHAMFERB
 40
0.0
  9
$SKPOLY
 70
     0
  9
$TDCREATE
 40
2450330.4399309959
  9
$TDUPDATE
 40
2455244.6425591898
  9
$TDINDWG
 40
5.1481512730999999
  9
$TDUSRTIMER
 40
5.1481501851999996
  9
$USRTIMER
 70
     1
  9
$ANGBASE
 50
0.0
  9
$ANGDIR
 70
     0
  9
$PDMODE
 70
     3
  9
$PDSIZE
 40
-2.0
  9
$PLINEWID
 40
0.0
  9
$COORDS
 70
     0
  9
$SPLFRAME
 70
     0
  9
$SPLINETYPE
 70
     6
  9
$SPLINESEGS
 70
     8
  9
$ATTDIA
 70
     0
  9
$ATTREQ
 70
     1
  9
$HANDLING
 70
     1
  9
$HANDSEED
  5
20F
  9
$SURFTAB1
 70
     6
  9
$SURFTAB2
 70
     6
  9
$SURFTYPE
 70
     6
  9
$SURFU
 70
     6
  9
$SURFV
 70
     6
  9
$UCSNAME
  2

  9
$UCSORG
 10
0.0
 20
0.0
 30
0.0
  9
$UCSXDIR
 10
1.0
 20
0.0
 30
0.0
  9
$UCSYDIR
 10
0.0
 20
1.0
 30
0.0
  9
$PUCSNAME
  2

  9
$PUCSORG
 10
0.0
 20
0.0
 30
0.0
  9
$PUCSXDIR
 10
1.0
 20
0.0
 30
0.0
  9
$PUCSYDIR
 10
0.0
 20
1.0
 30
0.0
  9
$USERI1
 70
     0
  9
$USERI2
 70
     0
  9
$USERI3
 70
     0
  9
$USERI4
 70
     0
  9
$USERI5
 70
     0
  9
$USERR1
 40
20.0
  9
$USERR2
 40
0.0
  9
$USERR3
 40
0.0
  9
$USERR4
 40
0.0
  9
$USERR5
 40
0.0
  9
$WORLDVIEW
 70
     1
  9
$SHADEDGE
 70
     3
  9
$SHADEDIF
 70
    70
  9
$TILEMODE
 70
     1
  9
$MAXACTVP
 70
    64
  9
$PLIMCHECK
 70
     0
  9
$PEXTMIN
 10
1.0000000000000000E+020
 20
1.0000000000000000E+020
 30
1.0000000000000000E+020
  9
$PEXTMAX
 10
-1.0000000000000000E+020
 20
-1.0000000000000000E+020
 30
-1.0000000000000000E+020
  9
$PLIMMIN
 10
0.0
 20
0.0
  9
$PLIMMAX
 10
12.0
 20
9.0
  9
$UNITMODE
 70
     0
  9
$VISRETAIN
 70
     1
  9
$PLINEGEN
 70
     0
  9
$PSLTSCALE
 70
     1
  0
ENDSEC
  0
SECTION
  2
TABLES
  0
TABLE
  2
VPORT
 70
     1
  0
VPORT
  2
*ACTIVE
 70
     0
 10
0.0
 20
0.0
 11
1.0
 21
1.0
 12
1461.782600762991
 22
1222.536076862327
 13
0.0
 23
0.0
 14
50.0
 24
50.0
 15
100.0
 25
100.0
 16
0.0
 26
0.0
 36
1.0
 17
0.0
 27
0.0
 37
0.0
 40
7896.6866543297328
 41
1.548101265822784
 42
50.0
 43
0.0
 44
0.0
 50
0.0
 51
0.0
 71
     0
 72
  1000
 73
     1
 74
     0
 75
     0
 76
     0
 77
     0
 78
     0
  0
ENDTAB
  0
TABLE
  2
LTYPE
 70
     3
  0
LTYPE
  2
CONTINUOUS
 70
     0
  3
実線
 72
    65
 73
     0
 40
0.0
  0
LTYPE
  2
DASHDOT
 70
     0
  3
____ _ ____ _ ____ _ ____ _ ____ _ ____ _ ____
 72
    65
 73
     4
 40
5.5
 49
4.0
 49
-0.6
 49
0.3
 49
-0.6
  0
ENDTAB
  0
TABLE
  2
LAYER
 70
    12
  0
LAYER
  2
0
 70
     0
 62
     7
  6
CONTINUOUS
  0
LAYER
  2
DETAIL
 70
     0
 62
     5
  6
CONTINUOUS
  0
LAYER
  2
OUTLINE
 70
     0
 62
     3
  6
CONTINUOUS
  0
LAYER
  2
BASIS
 70
     0
 62
     6
  6
DASHDOT
  0
LAYER
  2
SIZE
 70
     0
 62
    30
  6
CONTINUOUS
  0
LAYER
  2
NOTE
 70
     0
 62
     4
  6
CONTINUOUS
  0
LAYER
  2
ARRANGE
 70
     0
 62
     1
  6
CONTINUOUS
  0
LAYER
  2
FIX
 70
     0
 62
    11
  6
CONTINUOUS
  0
LAYER
  2
SERVICESPACE
 70
     0
 62
     2
  6
DASHDOT
  0
LAYER
  2
ETC
 70
     0
 62
    61
  6
CONTINUOUS
  0
LAYER
  2
SYMBOLLINE
 70
     0
 62
    15
  6
CONTINUOUS
  0
LAYER
  2
DEFPOINTS
 70
     0
 62
     7
  6
CONTINUOUS
  0
ENDTAB
  0
TABLE
  2
STYLE
 70
     4
  0
STYLE
  2
STANDARD
 70
     0
 40
0.0
 41
0.9
 50
0.0
 71
     0
 42
64.0
  3
SIMPLEX
  4
BIGFONT
  0
STYLE
  2
ANNOTATIVE
 70
     0
 40
0.0
 41
1.0
 50
0.0
 71
     0
 42
0.2
  3
txt
  4

  0
STYLE
  2
NOTE
 70
     0
 40
0.0
 41
0.7
 50
0.0
 71
     0
 42
361.62496667750372
  3
SIMPLEX.shx
  4
BIGFONT.shx
  0
STYLE
  2
STANDARD1
 70
     0
 40
0.0
 41
1.0
 50
0.0
 71
     0
 42
64.0
  3
MONOTXT
  4
BIGFONT
  0
ENDTAB
  0
TABLE
  2
VIEW
 70
     5
  0
VIEW
  2
ALL
 70
     0
 40
9000.0
 10
241.50664699999999
 20
0.0
 41
12483.01
 11
0.0
 21
0.0
 31
1.0
 12
0.0
 22
0.0
 32
0.0
 42
50.0
 43
0.0
 44
0.0
 50
0.0
 71
     0
  0
ENDTAB
  0
TABLE
  2
UCS
 70
     0
  0
ENDTAB
  0
TABLE
  2
APPID
 70
     3
  0
APPID
  2
ACAD
 70
     0
  0
APPID
  2
ACADANNOTATIVE
 70
     0
  0
APPID
  2
ACAD_MLEADERVER
 70
     0
  0
ENDTAB
  0
TABLE
  2
DIMSTYLE
 70
     3
  0
DIMSTYLE
  2
STANDARD
 70
     0
  3

  4

  5

  6

  7

 40
1.0
 41
0.18
 42
0.0625
 43
0.38
 44
0.18
 45
0.0
 46
0.0
 47
0.0
 48
0.0
140
0.18
141
0.09
142
0.0
143
25.399999999999999
144
1.0
145
0.0
146
1.0
147
0.09
 71
     0
 72
     0
 73
     1
 74
     1
 75
     0
 76
     0
 77
     0
 78
     0
170
     0
171
     2
172
     0
173
     0
174
     0
175
     0
176
     0
177
     0
178
     0
  0
DIMSTYLE
  2
ANNOTATIVE
 70
     0
  3

  4

  5

  6

  7

 40
1.0
 41
0.18
 42
0.0625
 43
0.38
 44
0.18
 45
0.0
 46
0.0
 47
0.0
 48
0.0
140
0.18
141
0.09
142
0.0
143
25.399999999999999
144
1.0
145
0.0
146
1.0
147
0.09
 71
     0
 72
     0
 73
     1
 74
     1
 75
     0
 76
     0
 77
     0
 78
     0
170
     0
171
     2
172
     0
173
     0
174
     0
175
     0
176
     0
177
     0
178
     0
  0
ENDTAB
  0
ENDSEC
  0
SECTION
  2
BLOCKS
  0
BLOCK
  8
0
  2
$MODEL_SPACE
 70
     0
 10
0.0
 20
0.0
 30
0.0
  3
$MODEL_SPACE
  1

  0
ENDBLK
  5
76
  8
0
  0
BLOCK
 67
     1
  8
0
  2
$PAPER_SPACE
 70
     0
 10
0.0
 20
0.0
 30
0.0
  3
$PAPER_SPACE
  1

  0
ENDBLK
  5
72
 67
     1
  8
0
  0
BLOCK
  8
0
  2
_SMALL
 70
     0
 10
0.0
 20
0.0
 30
0.0
  3
_SMALL
  1

  0
CIRCLE
  5
8D
  8
0
  6
CONTINUOUS
 62
     7
 10
0.0
 20
0.0
 30
0.0
 40
0.25
  0
ENDBLK
  5
8E
  8
0
  0
ENDSEC
  0
SECTION
  2
ENTITIES
  0
LINE
  5
8F
  8
DETAIL
  6
CONTINUOUS
 62
     5
 10
720.00000000000171
 20
-253.06212738611791
 30
0.0
 11
-874.75990603257014
 21
-253.06212738611791
 31
0.0
  0
LINE
  5
90
  8
DETAIL
  6
CONTINUOUS
 62
     5
 10
708.92716652873946
 20
-281.03103322202151
 30
0.0
 11
-864.77323326809153
 21
-299.00119840049211
 31
0.0
  0
LINE
  5
91
  8
DETAIL
  6
CONTINUOUS
 62
     5
 10
-694.99999999999807
 20
0.0
 30
0.0
 11
695.00000000000171
 21
0.0
 31
0.0
  0
LINE
  5
92
  8
DETAIL
  6
CONTINUOUS
 62
     5
 10
-687.01098295974032
 20
-64.999999999998181
 30
0.0
 11
687.00399876985796
 21
-64.999999999998181
 31
0.0
  0
LINE
  5
93
  8
DETAIL
  6
CONTINUOUS
 62
     5
 10
690.00000000000171
 20
-250.6648050977891
 30
0.0
 11
-690.00698418988384
 21
-250.6648050977891
 31
0.0
  0
LINE
  5
94
  8
DETAIL
  6
CONTINUOUS
 62
     5
 10
-687.01098295974032
 20
-184.99999999999801
 30
0.0
 11
687.00399876985796
 21
-184.99999999999801
 31
0.0
  0
LINE
  5
96
  8
DETAIL
  6
CONTINUOUS
 62
     5
 10
-715.97145135477331
 20
-253.062750554378
 30
0.0
 11
-715.97145135477331
 21
-110.05218509091171
 31
0.0
  0
LINE
  5
97
  8
DETAIL
  6
CONTINUOUS
 62
     5
 10
-704.48637051904916
 20
-130.82461208397399
 30
0.0
 11
-704.48637051904916
 21
-167.77529591974761
 31
0.0
  0
LINE
  5
98
  8
DETAIL
  6
CONTINUOUS
 62
     5
 10
-690.00698418988384
 20
-182.00399876985441
 30
0.0
 11
-690.00698418988384
 21
-67.996001230141701
 31
0.0
  0
LINE
  5
99
  8
DETAIL
  6
CONTINUOUS
 62
     5
 10
-874.75990603257014
 20
-299.00000599200212
 30
0.0
 11
-874.75990603257014
 21
-253.06212738611791
 31
0.0
  0
LINE
  5
9A
  8
DETAIL
  6
CONTINUOUS
 62
     5
 10
-903.02265570118641
 20
-263.41812575935182
 30
0.0
 11
-903.02265570118641
 21
-290.58187424065892
 31
0.0
  0
LINE
  5
9B
  8
DETAIL
  6
CONTINUOUS
 62
     5
 10
-919.99999999999807
 20
-264.92721757097189
 30
0.0
 11
-919.99999999999807
 21
-289.07278242902601
 31
0.0
  0
LINE
  5
9C
  8
DETAIL
  6
CONTINUOUS
 62
     5
 10
-874.75990603257014
 20
-290.58187424065892
 30
0.0
 11
-903.02265570118641
 21
-290.58187424065892
 31
0.0
  0
LINE
  5
9D
  8
DETAIL
  6
CONTINUOUS
 62
     5
 10
-919.99999999999807
 20
-289.07278242902601
 30
0.0
 11
-903.02265570118641
 21
-290.58187424065892
 31
0.0
  0
LINE
  5
9E
  8
DETAIL
  6
CONTINUOUS
 62
     5
 10
-874.75990603257014
 20
-299.00000599200212
 30
0.0
 11
-864.77323326809153
 21
-299.00000599200212
 31
0.0
  0
LINE
  5
9F
  8
DETAIL
  6
CONTINUOUS
 62
     5
 10
-874.75990603257014
 20
-263.41812575935182
 30
0.0
 11
-903.02265570118641
 21
-263.41812575935182
 31
0.0
  0
LINE
  5
A0
  8
DETAIL
  6
CONTINUOUS
 62
     5
 10
-903.02265570118641
 20
-263.41812575935182
 30
0.0
 11
-919.99999999999807
 21
-264.92721757097189
 31
0.0
  0
ARC
  5
A1
  8
DETAIL
  6
CONTINUOUS
 62
     5
 10
-702.48903237095692
 20
-201.72966993725259
 30
0.0
 40
1.99733215609522
 50
90.0
 51
180.0
  0
LINE
  5
A2
  8
DETAIL
  6
CONTINUOUS
 62
     5
 10
-690.00698418988384
 20
-250.6648050977891
 30
0.0
 11
-690.00698418988384
 21
-187.99600123014159
 31
0.0
  0
LINE
  5
A3
  8
DETAIL
  6
CONTINUOUS
 62
     5
 10
-704.48637051904916
 20
-201.72966993725259
 30
0.0
 11
-704.48637051904916
 21
-238.6803477810335
 31
0.0
  0
LINE
  5
A4
  8
DETAIL
  6
CONTINUOUS
 62
     5
 10
-702.48903237095692
 20
-240.6776859291256
 30
0.0
 11
-694.99999999999807
 21
-240.6776859291256
 31
0.0
  0
ARC
  5
A5
  8
DETAIL
  6
CONTINUOUS
 62
     5
 10
-702.48903237095692
 20
-238.6803477810335
 30
0.0
 40
1.99733215609522
 50
180.0
 51
270.0
  0
ARC
  5
A6
  8
DETAIL
  6
CONTINUOUS
 62
     5
 10
-694.00133092594126
 20
-247.6696187799825
 30
0.0
 40
0.9986690740488408
 50
180.0
 51
270.0
  0
LINE
  5
A7
  8
DETAIL
  6
CONTINUOUS
 62
     5
 10
-690.00666661375521
 20
-248.66828785402851
 30
0.0
 11
-694.00133092594126
 21
-248.66828785402851
 31
0.0
  0
LINE
  5
A8
  8
DETAIL
  6
CONTINUOUS
 62
     5
 10
-694.99999999999807
 20
0.0
 30
0.0
 11
-694.99983222392598
 21
-253.062750554378
 31
0.0
  0
LINE
  5
A9
  8
DETAIL
  6
CONTINUOUS
 62
     5
 10
-694.99983222392598
 20
-205.22500270842281
 30
0.0
 11
-696.99636744368945
 21
-205.22500270842281
 31
0.0
  0
LINE
  5
AA
  8
DETAIL
  6
CONTINUOUS
 62
     5
 10
-698.99369959978674
 20
-207.222334864522
 30
0.0
 11
-698.99369959978674
 21
-233.18768285376589
 31
0.0
  0
LINE
  5
AB
  8
DETAIL
  6
CONTINUOUS
 62
     5
 10
-696.99636744368945
 20
-235.18501500986349
 30
0.0
 11
-694.99983222392598
 21
-235.18501500986349
 31
0.0
  0
ARC
  5
AC
  8
DETAIL
  6
CONTINUOUS
 62
     5
 10
-696.99636744368945
 20
-233.18768285376589
 30
0.0
 40
1.99733215609522
 50
180.0
 51
270.0
  0
ARC
  5
AD
  8
DETAIL
  6
CONTINUOUS
 62
     5
 10
-696.99636744368945
 20
-207.222334864522
 30
0.0
 40
1.99733215609522
 50
90.0
 51
180.0
  0
LINE
  5
AE
  8
DETAIL
  6
CONTINUOUS
 62
     5
 10
-694.99983222392598
 20
-199.73233178916229
 30
0.0
 11
-702.48903237095692
 21
-199.73233178916229
 31
0.0
  0
LINE
  5
AF
  8
DETAIL
  6
CONTINUOUS
 62
     5
 10
-702.48903237095692
 20
-169.772628075847
 30
0.0
 11
-694.99983222392598
 21
-169.772628075847
 31
0.0
  0
ARC
  5
B0
  8
DETAIL
  6
CONTINUOUS
 62
     5
 10
-702.48903237095692
 20
-167.77529591974761
 30
0.0
 40
1.99733215609522
 50
180.0
 51
270.0
  0
ARC
  5
B1
  8
DETAIL
  6
CONTINUOUS
 62
     5
 10
-687.01098295974032
 20
-182.00399876985441
 30
0.0
 40
2.9960012301440591
 50
180.0
 51
270.0
  0
ARC
  5
B2
  8
DETAIL
  6
CONTINUOUS
 62
     5
 10
-687.01098295974032
 20
-187.99600123014159
 30
0.0
 40
2.9960012301440591
 50
90.0
 51
180.0
  0
LINE
  5
B3
  8
DETAIL
  6
CONTINUOUS
 62
     5
 10
-694.99983222392598
 20
-134.31995084713691
 30
0.0
 11
-696.99636744368945
 21
-134.31995084713691
 31
0.0
  0
LINE
  5
B4
  8
DETAIL
  6
CONTINUOUS
 62
     5
 10
-698.99369959978674
 20
-136.3172830032363
 30
0.0
 11
-698.99369959978674
 21
-162.28262500048541
 31
0.0
  0
LINE
  5
B5
  8
DETAIL
  6
CONTINUOUS
 62
     5
 10
-696.99636744368945
 20
-164.27996314857759
 30
0.0
 11
-694.99983222392598
 21
-164.27996314857759
 31
0.0
  0
ARC
  5
B6
  8
DETAIL
  6
CONTINUOUS
 62
     5
 10
-696.99636744368945
 20
-162.28262500048541
 30
0.0
 40
1.99733215609522
 50
180.0
 51
270.0
  0
ARC
  5
B7
  8
DETAIL
  6
CONTINUOUS
 62
     5
 10
-696.99636744368945
 20
-136.3172830032363
 30
0.0
 40
1.99733215609522
 50
90.0
 51
180.0
  0
ARC
  5
B8
  8
DETAIL
  6
CONTINUOUS
 62
     5
 10
-687.01098295974032
 20
-62.003998769854661
 30
0.0
 40
2.9960012301440591
 50
180.0
 51
270.0
  0
LINE
  5
B9
  8
DETAIL
  6
CONTINUOUS
 62
     5
 10
-696.99714640401157
 20
-95.371797039217213
 30
0.0
 11
-696.99714640401157
 21
-118.34113780631191
 31
0.0
  0
LINE
  5
BA
  8
DETAIL
  6
CONTINUOUS
 62
     5
 10
-701.99047979025272
 20
-95.371797039217213
 30
0.0
 11
-701.99047979025272
 21
-118.34113780631191
 31
0.0
  0
LINE
  5
BB
  8
DETAIL
  6
CONTINUOUS
 62
     5
 10
-702.98914886429873
 20
-96.370460121257565
 30
0.0
 11
-702.98914886429873
 21
-117.3424687322657
 31
0.0
  0
LINE
  5
BC
  8
DETAIL
  6
CONTINUOUS
 62
     5
 10
-702.98866351209824
 20
-110.05218509091171
 30
0.0
 11
-715.97145135477331
 21
-110.05218509091171
 31
0.0
  0
LINE
  5
BD
  8
DETAIL
  6
CONTINUOUS
 62
     5
 10
-694.99983222392598
 20
-128.8272799278746
 30
0.0
 11
-702.48903237095692
 21
-128.8272799278746
 31
0.0
  0
ARC
  5
BE
  8
DETAIL
  6
CONTINUOUS
 62
     5
 10
-702.48903237095692
 20
-130.82461208397399
 30
0.0
 40
1.99733215609522
 50
90.0
 51
180.0
  0
ARC
  5
BF
  8
DETAIL
  6
CONTINUOUS
 62
     5
 10
-701.99047979025272
 20
-117.3424687322657
 30
0.0
 40
0.9986690740488408
 50
180.00001800001209
 51
270.0
  0
ARC
  5
C0
  8
DETAIL
  6
CONTINUOUS
 62
     5
 10
-698.9944785601092
 20
-111.3504662719787
 30
0.0
 40
6.9906715343369612
 50
286.60153000001941
 51
304.84482899999921
  0
LINE
  5
C1
  8
DETAIL
  6
CONTINUOUS
 62
     5
 10
-701.99047979025272
 20
-118.34113780631191
 30
0.0
 11
-696.99714640401157
 21
-118.34113780631191
 31
0.0
  0
ARC
  5
C2
  8
DETAIL
  6
CONTINUOUS
 62
     5
 10
-687.01098295974032
 20
-67.996001230141701
 30
0.0
 40
2.9960012301440591
 50
90.0
 51
180.0
  0
ARC
  5
C3
  8
DETAIL
  6
CONTINUOUS
 62
     5
 10
-698.9944785601092
 20
-102.3624625815463
 30
0.0
 40
6.9906715343369612
 50
55.155171000000713
 51
73.398468999972053
  0
ARC
  5
C4
  8
DETAIL
  6
CONTINUOUS
 62
     5
 10
-701.99047979025272
 20
-96.370460121257565
 30
0.0
 40
0.9986690740488408
 50
90.0
 51
180.00001800001209
  0
LINE
  5
C5
  8
DETAIL
  6
CONTINUOUS
 62
     5
 10
-701.99047979025272
 20
-95.371797039217213
 30
0.0
 11
-696.99714640401157
 21
-95.371797039217213
 31
0.0
  0
LINE
  5
C6
  8
DETAIL
  6
CONTINUOUS
 62
     5
 10
-690.00698418988384
 20
0.0
 30
0.0
 11
-690.00698418988384
 21
-62.003998769854661
 31
0.0
  0
LINE
  5
C7
  8
DETAIL
  6
CONTINUOUS
 62
     5
 10
695.00000000000171
 20
-253.062750554378
 30
0.0
 11
695.00000000000171
 21
0.0
 31
0.0
  0
LINE
  5
C8
  8
DETAIL
  6
CONTINUOUS
 62
     5
 10
689.99999400800505
 20
-180.0066666137588
 30
0.0
 11
689.99999400800505
 21
-69.993333386237282
 31
0.0
  0
LINE
  5
C9
  8
DETAIL
  6
CONTINUOUS
 62
     5
 10
720.00000000000171
 20
-281.03103322202151
 30
0.0
 11
720.00000000000171
 21
-253.062750554378
 31
0.0
  0
LINE
  5
CA
  8
DETAIL
  6
CONTINUOUS
 62
     5
 10
720.00000000000171
 20
-281.03103322202151
 30
0.0
 11
708.92716652873946
 21
-281.03103322202151
 31
0.0
  0
LINE
  5
CB
  8
DETAIL
  6
CONTINUOUS
 62
     5
 10
690.00000000000171
 20
-250.6648050977891
 30
0.0
 11
690.00000000000171
 21
-187.99600123014159
 31
0.0
  0
ARC
  5
CC
  8
DETAIL
  6
CONTINUOUS
 62
     5
 10
694.00133092595388
 20
-247.6696187799825
 30
0.0
 40
0.9986690740488408
 50
270.0
 51
0.0
  0
LINE
  5
CD
  8
DETAIL
  6
CONTINUOUS
 62
     5
 10
690.00000000000171
 20
-248.66828785402851
 30
0.0
 11
694.00133092595388
 21
-248.66828785402851
 31
0.0
  0
ARC
  5
CE
  8
DETAIL
  6
CONTINUOUS
 62
     5
 10
685.00666062176595
 20
-180.0066666137588
 30
0.0
 40
4.993333386239283
 50
270.0
 51
0.0
  0
ARC
  5
CF
  8
DETAIL
  6
CONTINUOUS
 62
     5
 10
687.00399876985796
 20
-187.99600123014159
 30
0.0
 40
2.9960012301440591
 50
0.0
 51
90.0
  0
ARC
  5
D0
  8
DETAIL
  6
CONTINUOUS
 62
     5
 10
687.00399876985796
 20
-62.003998769854661
 30
0.0
 40
2.9960012301440591
 50
270.0
 51
0.0
  0
ARC
  5
D1
  8
DETAIL
  6
CONTINUOUS
 62
     5
 10
685.00666062176595
 20
-69.993333386237282
 30
0.0
 40
4.993333386239283
 50
0.0
 51
90.0
  0
LINE
  5
D2
  8
DETAIL
  6
CONTINUOUS
 62
     5
 10
690.00000000000171
 20
0.0
 30
0.0
 11
690.00000000000171
 21
-62.003998769854661
 31
0.0
  0
LINE
  5
D3
  8
NOTE
  6
CONTINUOUS
 62
     4
 10
-919.99999999999807
 20
-261.42079360324709
 30
0.0
 11
-919.99999999999807
 21
-292.57920639673819
 31
0.0
  0
LINE
  5
D4
  8
NOTE
  6
CONTINUOUS
 62
     4
 10
-904.42079360324715
 20
-276.99999999999801
 30
0.0
 11
-935.57920639675126
 21
-276.99999999999801
 31
0.0
  0
LINE
  5
D5
  8
NOTE
  6
CONTINUOUS
 62
     4
 10
-660.52599200406075
 20
-201.99999999999801
 30
0.0
 11
-699.47400799593197
 21
-201.99999999999801
 31
0.0
  0
LINE
  5
D6
  8
NOTE
  6
CONTINUOUS
 62
     4
 10
-679.99999999999807
 20
-182.52599200406061
 30
0.0
 11
-679.99999999999807
 21
-221.47400799593359
 31
0.0
  0
LINE
  5
D7
  8
NOTE
  6
CONTINUOUS
 62
     4
 10
-660.52599200406075
 20
-36.999999999998181
 30
0.0
 11
-699.47400799593197
 21
-36.999999999998181
 31
0.0
  0
LINE
  5
D8
  8
NOTE
  6
CONTINUOUS
 62
     4
 10
-679.99999999999807
 20
-17.52599200406075
 30
0.0
 11
-679.99999999999807
 21
-56.474007995933782
 31
0.0
  0
LINE
  5
D9
  8
SIZE
  6
CONTINUOUS
 62
    30
 10
-704.99999999999818
 20
0.0000000000000028
 30
0.0
 11
-1044.0380274635479
 21
0.0000000000000989
 31
0.0
  0
LINE
  5
DA
  8
SIZE
  6
CONTINUOUS
 62
    30
 10
-884.75990603257026
 20
-299.00000599200212
 30
0.0
 11
-1044.0380274635479
 21
-299.000005992002
 31
0.0
  0
LINE
  5
DB
  8
SIZE
  6
CONTINUOUS
 62
    30
 10
-1034.038027463547
 20
0.000000000000096
 30
0.0
 11
-1034.038027463547
 21
-299.000005992002
 31
0.0
  0
CIRCLE
  5
DC
  8
SIZE
  6
CONTINUOUS
 62
    30
 10
-1034.038027463547
 20
0.000000000000096
 30
0.0
 40
5.0
  0
CIRCLE
  5
DD
  8
SIZE
  6
CONTINUOUS
 62
    30
 10
-1034.038027463547
 20
-299.000005992002
 30
0.0
 40
5.0
  0
TEXT
  5
DE
  8
SIZE
  6
CONTINUOUS
 62
    30
 10
-1044.038027463547
 20
-194.92857442457239
 30
0.0
 40
40.0
  1
299
 50
90.0
 41
0.9
 72
     1
 11
-1044.038027463547
 21
-149.500002996001
 31
0.0
  0
POINT
  5
DF
  8
DEFPOINTS
  6
CONTINUOUS
 62
     7
 10
-694.99999999999807
 20
0.0
 30
0.0
  0
POINT
  5
E0
  8
DEFPOINTS
  6
CONTINUOUS
 62
     7
 10
-874.75990603257014
 20
-299.00000599200212
 30
0.0
  0
POINT
  5
E1
  8
DEFPOINTS
  6
CONTINUOUS
 62
     7
 10
-1034.038027463547
 20
-299.000005992002
 30
0.0
  0
LINE
  5
E2
  8
DETAIL
  6
CONTINUOUS
 62
     5
 10
708.92716652873946
 20
-281.03103322202151
 30
0.0
 11
708.92716652873946
 21
-253.06212738611791
 31
0.0
  0
LINE
  5
E3
  8
DETAIL
  6
CONTINUOUS
 62
     5
 10
-864.77323326809153
 20
-299.00000599200212
 30
0.0
 11
-864.77323326809153
 21
-253.06212738611791
 31
0.0
  0
LINE
  5
E4
  8
DETAIL
  6
CONTINUOUS
 62
     5
 10
-664.99999999999795
 20
-64.999999999998181
 30
0.0
 11
-664.99999999999795
 21
-184.99999999999801
 31
0.0
  0
LINE
  5
E5
  8
DETAIL
  6
CONTINUOUS
 62
     5
 10
665.00000000000159
 20
-64.999999999998181
 30
0.0
 11
665.00000000000159
 21
-184.99999999999801
 31
0.0
  0
LINE
  5
E6
  8
NOTE
  6
CONTINUOUS
 62
     4
 10
-679.99999999999807
 20
-14.416724963439259
 30
0.0
 11
-679.99999999999807
 21
14.416724963439259
 31
0.0
  0
LINE
  5
E7
  8
NOTE
  6
CONTINUOUS
 62
     4
 10
-665.5832750365588
 20
0.0
 30
0.0
 11
-694.41672496343722
 21
0.0
 31
0.0
  0
CIRCLE
  5
E8
  8
FIX
  6
CONTINUOUS
 62
    11
 10
-679.99999999999807
 20
0.0
 30
0.0
 40
12.55406000627733
  0
LINE
  5
E9
  8
NOTE
  6
CONTINUOUS
 62
     4
 10
680.00000000000148
 20
-14.416724963439259
 30
0.0
 11
680.00000000000148
 21
14.416724963439259
 31
0.0
  0
LINE
  5
EA
  8
NOTE
  6
CONTINUOUS
 62
     4
 10
694.4167249634412
 20
0.0
 30
0.0
 11
665.58327503656255
 21
0.0
 31
0.0
  0
CIRCLE
  5
EB
  8
FIX
  6
CONTINUOUS
 62
    11
 10
680.00000000000148
 20
0.0
 30
0.0
 40
12.55406000627733
  0
LINE
  5
EC
  8
SIZE
  6
CONTINUOUS
 62
    30
 10
695.00666062176595
 20
-64.999999999998181
 30
0.0
 11
842.90537780972761
 21
-64.999999999998224
 31
0.0
  0
LINE
  5
ED
  8
SIZE
  6
CONTINUOUS
 62
    30
 10
705.00000000000171
 20
-0.0000000000000028
 30
0.0
 11
842.90537780972761
 21
-0.0000000000000419
 31
0.0
  0
LINE
  5
EE
  8
SIZE
  6
CONTINUOUS
 62
    30
 10
832.90537780972795
 20
-64.999999999998224
 30
0.0
 11
832.90537780972795
 21
-0.0000000000000391
 31
0.0
  0
LINE
  5
EF
  8
SIZE
  6
CONTINUOUS
 62
    30
 10
832.90537780972795
 20
-0.0000000000000391
 30
0.0
 11
832.90537780972795
 21
98.285714285714221
 31
0.0
  0
CIRCLE
  5
F0
  8
SIZE
  6
CONTINUOUS
 62
    30
 10
832.90537780972795
 20
-64.999999999998224
 30
0.0
 40
5.0
  0
CIRCLE
  5
F1
  8
SIZE
  6
CONTINUOUS
 62
    30
 10
832.90537780972795
 20
-0.0000000000000391
 30
0.0
 40
5.0
  0
TEXT
  5
F2
  8
SIZE
  6
CONTINUOUS
 62
    30
 10
822.9053778097275
 20
30.00000000000011
 30
0.0
 40
40.0
  1
65
 50
90.0
 41
0.9
 72
     1
 11
822.9053778097275
 21
59.142857142857252
 31
0.0
  0
POINT
  5
F3
  8
DEFPOINTS
  6
CONTINUOUS
 62
     7
 10
685.00666062176595
 20
-64.999999999998181
 30
0.0
  0
POINT
  5
F4
  8
DEFPOINTS
  6
CONTINUOUS
 62
     7
 10
695.00000000000171
 20
0.0
 30
0.0
  0
POINT
  5
F5
  8
DEFPOINTS
  6
CONTINUOUS
 62
     7
 10
832.90537780972795
 20
-0.0000000000000391
 30
0.0
  0
LINE
  5
F6
  8
SIZE
  6
CONTINUOUS
 62
    30
 10
695.00666062176595
 20
-64.999999999998181
 30
0.0
 11
842.90537780972761
 21
-64.999999999998224
 31
0.0
  0
LINE
  5
F7
  8
SIZE
  6
CONTINUOUS
 62
    30
 10
695.00666062176595
 20
-184.99999999999801
 30
0.0
 11
842.90537780972761
 21
-184.9999999999981
 31
0.0
  0
LINE
  5
F8
  8
SIZE
  6
CONTINUOUS
 62
    30
 10
832.90537780972795
 20
-64.999999999998224
 30
0.0
 11
832.90537780972795
 21
-184.9999999999981
 31
0.0
  0
CIRCLE
  5
F9
  8
SIZE
  6
CONTINUOUS
 62
    30
 10
832.90537780972795
 20
-64.999999999998224
 30
0.0
 40
5.0
  0
CIRCLE
  5
FA
  8
SIZE
  6
CONTINUOUS
 62
    30
 10
832.90537780972795
 20
-184.9999999999981
 30
0.0
 40
5.0
  0
TEXT
  5
FB
  8
SIZE
  6
CONTINUOUS
 62
    30
 10
822.9053778097275
 20
-167.85714285714079
 30
0.0
 40
40.0
  1
120
 50
90.0
 41
0.9
 72
     1
 11
822.9053778097275
 21
-124.999999999998
 31
0.0
  0
POINT
  5
FC
  8
DEFPOINTS
  6
CONTINUOUS
 62
     7
 10
685.00666062176595
 20
-64.999999999998181
 30
0.0
  0
POINT
  5
FD
  8
DEFPOINTS
  6
CONTINUOUS
 62
     7
 10
685.00666062176595
 20
-184.99999999999801
 30
0.0
  0
POINT
  5
FE
  8
DEFPOINTS
  6
CONTINUOUS
 62
     7
 10
832.90537780972795
 20
-184.9999999999981
 30
0.0
  0
LINE
  5
FF
  8
SIZE
  6
CONTINUOUS
 62
    30
 10
-919.99999999999807
 20
-251.42079360324709
 30
0.0
 11
-919.99999999999807
 21
302.69349708509247
 31
0.0
  0
LINE
  5
100
  8
SIZE
  6
CONTINUOUS
 62
    30
 10
720.00000000000171
 20
-243.062750554378
 30
0.0
 11
720.00000000000171
 21
302.69349708509247
 31
0.0
  0
LINE
  5
101
  8
SIZE
  6
CONTINUOUS
 62
    30
 10
-919.99999999999807
 20
292.69349708509259
 30
0.0
 11
720.00000000000171
 21
292.69349708509259
 31
0.0
  0
CIRCLE
  5
102
  8
SIZE
  6
CONTINUOUS
 62
    30
 10
-919.99999999999807
 20
292.69349708509259
 30
0.0
 40
5.0
  0
CIRCLE
  5
103
  8
SIZE
  6
CONTINUOUS
 62
    30
 10
720.00000000000171
 20
292.69349708509259
 30
0.0
 40
5.0
  0
TEXT
  5
104
  8
SIZE
  6
CONTINUOUS
 62
    30
 10
-159.99999999999821
 20
302.69349708509247
 30
0.0
 40
40.0
  1
1640
 41
0.9
 72
     1
 11
-99.999999999998181
 21
302.69349708509247
 31
0.0
  0
POINT
  5
105
  8
DEFPOINTS
  6
CONTINUOUS
 62
     7
 10
-919.99999999999807
 20
-261.42079360324709
 30
0.0
  0
POINT
  5
106
  8
DEFPOINTS
  6
CONTINUOUS
 62
     7
 10
720.00000000000171
 20
-253.062750554378
 30
0.0
  0
POINT
  5
107
  8
DEFPOINTS
  6
CONTINUOUS
 62
     7
 10
720.00000000000171
 20
292.69349708509259
 30
0.0
  0
LINE
  5
108
  8
SIZE
  6
CONTINUOUS
 62
    30
 10
-709.47400799593186
 20
-36.999999999998181
 30
0.0
 11
-843.66552984394536
 21
-36.999999999998131
 31
0.0
  0
LINE
  5
109
  8
SIZE
  6
CONTINUOUS
 62
    30
 10
-704.99999999999818
 20
0.0000000000000028
 30
0.0
 11
-843.66552984394536
 21
0.0000000000000421
 31
0.0
  0
LINE
  5
10A
  8
SIZE
  6
CONTINUOUS
 62
    30
 10
-833.66552984394525
 20
-36.999999999998131
 30
0.0
 11
-833.66552984394525
 21
0.0000000000000393
 31
0.0
  0
LINE
  5
10B
  8
SIZE
  6
CONTINUOUS
 62
    30
 10
-833.66552984394525
 20
0.0000000000000393
 30
0.0
 11
-833.66552984394525
 21
98.285714285714292
 31
0.0
  0
CIRCLE
  5
10C
  8
SIZE
  6
CONTINUOUS
 62
    30
 10
-833.66552984394525
 20
-36.999999999998131
 30
0.0
 40
5.0
  0
CIRCLE
  5
10D
  8
SIZE
  6
CONTINUOUS
 62
    30
 10
-833.66552984394525
 20
0.0000000000000393
 30
0.0
 40
5.0
  0
TEXT
  5
10E
  8
SIZE
  6
CONTINUOUS
 62
    30
 10
-843.66552984394559
 20
29.999999999999879
 30
0.0
 40
40.0
  1
37
 50
90.0
 41
0.9
 72
     1
 11
-843.66552984394559
 21
59.142857142857032
 31
0.0
  0
POINT
  5
10F
  8
DEFPOINTS
  6
CONTINUOUS
 62
     7
 10
-699.47400799593197
 20
-36.999999999998181
 30
0.0
  0
POINT
  5
110
  8
DEFPOINTS
  6
CONTINUOUS
 62
     7
 10
-694.99999999999807
 20
0.0
 30
0.0
  0
POINT
  5
111
  8
DEFPOINTS
  6
CONTINUOUS
 62
     7
 10
-833.66552984394525
 20
0.0000000000000393
 30
0.0
  0
LINE
  5
112
  8
SIZE
  6
CONTINUOUS
 62
    30
 10
-709.47400799593186
 20
-36.999999999998181
 30
0.0
 11
-843.66552984394536
 21
-36.999999999998131
 31
0.0
  0
LINE
  5
113
  8
SIZE
  6
CONTINUOUS
 62
    30
 10
-709.47400799593186
 20
-201.99999999999801
 30
0.0
 11
-843.66552984394536
 21
-201.99999999999801
 31
0.0
  0
LINE
  5
114
  8
SIZE
  6
CONTINUOUS
 62
    30
 10
-833.66552984394525
 20
-36.999999999998131
 30
0.0
 11
-833.66552984394525
 21
-201.99999999999801
 31
0.0
  0
CIRCLE
  5
115
  8
SIZE
  6
CONTINUOUS
 62
    30
 10
-833.66552984394525
 20
-36.999999999998131
 30
0.0
 40
5.0
  0
CIRCLE
  5
116
  8
SIZE
  6
CONTINUOUS
 62
    30
 10
-833.66552984394525
 20
-201.99999999999801
 30
0.0
 40
5.0
  0
TEXT
  5
117
  8
SIZE
  6
CONTINUOUS
 62
    30
 10
-843.66552984394559
 20
-162.35714285714101
 30
0.0
 40
40.0
  1
165
 50
90.0
 41
0.9
 72
     1
 11
-843.66552984394559
 21
-119.4999999999982
 31
0.0
  0
POINT
  5
118
  8
DEFPOINTS
  6
CONTINUOUS
 62
     7
 10
-699.47400799593197
 20
-36.999999999998181
 30
0.0
  0
POINT
  5
119
  8
DEFPOINTS
  6
CONTINUOUS
 62
     7
 10
-699.47400799593197
 20
-201.99999999999801
 30
0.0
  0
POINT
  5
11A
  8
DEFPOINTS
  6
CONTINUOUS
 62
     7
 10
-833.66552984394525
 20
-201.99999999999801
 30
0.0
  0
LINE
  5
11B
  8
SIZE
  6
CONTINUOUS
 62
    30
 10
-704.99999999999818
 20
0.0000000000000028
 30
0.0
 11
-978.25397301336614
 21
0.0000000000000802
 31
0.0
  0
LINE
  5
11C
  8
SIZE
  6
CONTINUOUS
 62
    30
 10
-945.57920639675115
 20
-276.99999999999801
 30
0.0
 11
-978.2539730133667
 21
-276.99999999999801
 31
0.0
  0
LINE
  5
11D
  8
SIZE
  6
CONTINUOUS
 62
    30
 10
-968.25397301336625
 20
0.0000000000000774
 30
0.0
 11
-968.2539730133667
 21
-276.99999999999801
 31
0.0
  0
CIRCLE
  5
11E
  8
SIZE
  6
CONTINUOUS
 62
    30
 10
-968.25397301336625
 20
0.0000000000000774
 30
0.0
 40
5.0
  0
CIRCLE
  5
11F
  8
SIZE
  6
CONTINUOUS
 62
    30
 10
-968.2539730133667
 20
-276.99999999999801
 30
0.0
 40
5.0
  0
TEXT
  5
120
  8
SIZE
  6
CONTINUOUS
 62
    30
 10
-978.25397301336648
 20
-184.78571428571331
 30
0.0
 40
40.0
  1
277
 50
90.0
 41
0.9
 72
     1
 11
-978.25397301336648
 21
-138.49999999999909
 31
0.0
  0
POINT
  5
121
  8
DEFPOINTS
  6
CONTINUOUS
 62
     7
 10
-694.99999999999807
 20
0.0
 30
0.0
  0
POINT
  5
122
  8
DEFPOINTS
  6
CONTINUOUS
 62
     7
 10
-935.57920639675126
 20
-276.99999999999801
 30
0.0
  0
POINT
  5
123
  8
DEFPOINTS
  6
CONTINUOUS
 62
     7
 10
-968.2539730133667
 20
-276.99999999999801
 30
0.0
  0
LINE
  5
124
  8
SIZE
  6
CONTINUOUS
 62
    30
 10
-679.99999999999807
 20
-66.474007995933775
 30
0.0
 11
-679.99999999999807
 21
-415.5657501349196
 31
0.0
  0
LINE
  5
125
  8
SIZE
  6
CONTINUOUS
 62
    30
 10
-694.99983222392598
 20
-263.06212738611788
 30
0.0
 11
-694.99983222392598
 21
-415.5657501349196
 31
0.0
  0
LINE
  5
126
  8
SIZE
  6
CONTINUOUS
 62
    30
 10
-679.99999999999807
 20
-405.5657501349196
 30
0.0
 11
-659.99999999999795
 21
-405.5657501349196
 31
0.0
  0
LINE
  5
127
  8
SIZE
  6
CONTINUOUS
 62
    30
 10
-694.99983222392598
 20
-405.5657501349196
 30
0.0
 11
-806.42840365249822
 21
-405.5657501349196
 31
0.0
  0
LINE
  5
128
  8
SIZE
  6
CONTINUOUS
 62
    30
 10
-679.99999999999807
 20
-405.5657501349196
 30
0.0
 11
-694.99983222392598
 21
-405.5657501349196
 31
0.0
  0
CIRCLE
  5
129
  8
SIZE
  6
CONTINUOUS
 62
    30
 10
-679.99999999999807
 20
-405.5657501349196
 30
0.0
 40
5.0
  0
CIRCLE
  5
12A
  8
SIZE
  6
CONTINUOUS
 62
    30
 10
-694.99983222392598
 20
-405.5657501349196
 30
0.0
 40
5.0
  0
TEXT
  5
12B
  8
SIZE
  6
CONTINUOUS
 62
    30
 10
-796.4284036524981
 20
-395.56575013491971
 30
0.0
 40
40.0
  1
15
 41
0.9
 72
     1
 11
-770.71411793821244
 21
-395.56575013491971
 31
0.0
  0
POINT
  5
12C
  8
DEFPOINTS
  6
CONTINUOUS
 62
     7
 10
-679.99999999999807
 20
-56.474007995933782
 30
0.0
  0
POINT
  5
12D
  8
DEFPOINTS
  6
CONTINUOUS
 62
     7
 10
-694.99983222392598
 20
-253.06212738611791
 30
0.0
  0
POINT
  5
12E
  8
DEFPOINTS
  6
CONTINUOUS
 62
     7
 10
-694.99983222392598
 20
-405.5657501349196
 30
0.0
  0
LINE
  5
12F
  8
SIZE
  6
CONTINUOUS
 62
    30
 10
-664.99999999999795
 20
-54.999999999998181
 30
0.0
 11
-664.99999999999795
 21
91.872471887654683
 31
0.0
  0
LINE
  5
130
  8
SIZE
  6
CONTINUOUS
 62
    30
 10
-694.99999999999807
 20
10.0
 30
0.0
 11
-694.99999999999807
 21
91.872471887654683
 31
0.0
  0
LINE
  5
131
  8
SIZE
  6
CONTINUOUS
 62
    30
 10
-664.99999999999795
 20
81.872471887654683
 30
0.0
 11
-694.99999999999807
 21
81.872471887654683
 31
0.0
  0
LINE
  5
132
  8
SIZE
  6
CONTINUOUS
 62
    30
 10
-694.99999999999807
 20
81.872471887654683
 30
0.0
 11
-793.2857142857124
 21
81.872471887654683
 31
0.0
  0
CIRCLE
  5
133
  8
SIZE
  6
CONTINUOUS
 62
    30
 10
-664.99999999999795
 20
81.872471887654683
 30
0.0
 40
5.0
  0
CIRCLE
  5
134
  8
SIZE
  6
CONTINUOUS
 62
    30
 10
-694.99999999999807
 20
81.872471887654683
 30
0.0
 40
5.0
  0
TEXT
  5
135
  8
SIZE
  6
CONTINUOUS
 62
    30
 10
-783.28571428571217
 20
91.872471887654527
 30
0.0
 40
40.0
  1
30
 41
0.9
 72
     1
 11
-754.14285714285495
 21
91.872471887654527
 31
0.0
  0
POINT
  5
136
  8
DEFPOINTS
  6
CONTINUOUS
 62
     7
 10
-664.99999999999795
 20
-64.999999999998181
 30
0.0
  0
POINT
  5
137
  8
DEFPOINTS
  6
CONTINUOUS
 62
     7
 10
-694.99999999999807
 20
0.0
 30
0.0
  0
POINT
  5
138
  8
DEFPOINTS
  6
CONTINUOUS
 62
     7
 10
-694.99999999999807
 20
81.872471887654683
 30
0.0
  0
LINE
  5
139
  8
SIZE
  6
CONTINUOUS
 62
    30
 10
-664.99999999999795
 20
-54.999999999998181
 30
0.0
 11
-664.99999999999795
 21
91.872471887654683
 31
0.0
  0
LINE
  5
13A
  8
SIZE
  6
CONTINUOUS
 62
    30
 10
665.00000000000159
 20
-54.999999999998181
 30
0.0
 11
665.00000000000159
 21
91.872471887654683
 31
0.0
  0
LINE
  5
13B
  8
SIZE
  6
CONTINUOUS
 62
    30
 10
-664.99999999999795
 20
81.872471887654683
 30
0.0
 11
665.00000000000159
 21
81.872471887654683
 31
0.0
  0
CIRCLE
  5
13C
  8
SIZE
  6
CONTINUOUS
 62
    30
 10
-664.99999999999795
 20
81.872471887654683
 30
0.0
 40
5.0
  0
CIRCLE
  5
13D
  8
SIZE
  6
CONTINUOUS
 62
    30
 10
665.00000000000159
 20
81.872471887654683
 30
0.0
 40
5.0
  0
TEXT
  5
13E
  8
SIZE
  6
CONTINUOUS
 62
    30
 10
-201.9428571428553
 20
91.872471887654527
 30
0.0
 40
40.0
  1
1330（吹出口開口）
 41
0.9
 72
     1
 11
0.000000000001819
 21
91.872471887654527
 31
0.0
  0
POINT
  5
13F
  8
DEFPOINTS
  6
CONTINUOUS
 62
     7
 10
-664.99999999999795
 20
-64.999999999998181
 30
0.0
  0
POINT
  5
140
  8
DEFPOINTS
  6
CONTINUOUS
 62
     7
 10
665.00000000000159
 20
-64.999999999998181
 30
0.0
  0
POINT
  5
141
  8
DEFPOINTS
  6
CONTINUOUS
 62
     7
 10
665.00000000000159
 20
81.872471887654683
 30
0.0
  0
LINE
  5
142
  8
SIZE
  6
CONTINUOUS
 62
    30
 10
-679.99999999999807
 20
24.416724963439261
 30
0.0
 11
-679.99999999999807
 21
158.78759657845501
 31
0.0
  0
LINE
  5
143
  8
SIZE
  6
CONTINUOUS
 62
    30
 10
-694.99999999999807
 20
10.0
 30
0.0
 11
-694.99999999999807
 21
158.78759657845501
 31
0.0
  0
LINE
  5
144
  8
SIZE
  6
CONTINUOUS
 62
    30
 10
-679.99999999999807
 20
148.78759657845509
 30
0.0
 11
-659.99999999999795
 21
148.78759657845509
 31
0.0
  0
LINE
  5
145
  8
SIZE
  6
CONTINUOUS
 62
    30
 10
-694.99999999999807
 20
148.78759657845509
 30
0.0
 11
-806.42857142856974
 21
148.78759657845509
 31
0.0
  0
LINE
  5
146
  8
SIZE
  6
CONTINUOUS
 62
    30
 10
-679.99999999999807
 20
148.78759657845509
 30
0.0
 11
-694.99999999999807
 21
148.78759657845509
 31
0.0
  0
CIRCLE
  5
147
  8
SIZE
  6
CONTINUOUS
 62
    30
 10
-679.99999999999807
 20
148.78759657845509
 30
0.0
 40
5.0
  0
CIRCLE
  5
148
  8
SIZE
  6
CONTINUOUS
 62
    30
 10
-694.99999999999807
 20
148.78759657845509
 30
0.0
 40
5.0
  0
TEXT
  5
149
  8
SIZE
  6
CONTINUOUS
 62
    30
 10
-796.42857142856928
 20
158.78759657845501
 30
0.0
 40
40.0
  1
15
 41
0.9
 72
     1
 11
-770.71428571428351
 21
158.78759657845501
 31
0.0
  0
POINT
  5
14A
  8
DEFPOINTS
  6
CONTINUOUS
 62
     7
 10
-679.99999999999807
 20
14.416724963439259
 30
0.0
  0
POINT
  5
14B
  8
DEFPOINTS
  6
CONTINUOUS
 62
     7
 10
-694.99999999999807
 20
0.0
 30
0.0
  0
POINT
  5
14C
  8
DEFPOINTS
  6
CONTINUOUS
 62
     7
 10
-694.99999999999807
 20
148.78759657845509
 30
0.0
  0
LINE
  5
14D
  8
SIZE
  6
CONTINUOUS
 62
    30
 10
-679.99999999999807
 20
24.416724963439261
 30
0.0
 11
-679.99999999999807
 21
158.78759657845501
 31
0.0
  0
LINE
  5
14E
  8
SIZE
  6
CONTINUOUS
 62
    30
 10
680.00000000000148
 20
24.416724963439261
 30
0.0
 11
680.00000000000148
 21
158.78759657845501
 31
0.0
  0
LINE
  5
14F
  8
SIZE
  6
CONTINUOUS
 62
    30
 10
-679.99999999999807
 20
148.78759657845509
 30
0.0
 11
680.00000000000148
 21
148.78759657845509
 31
0.0
  0
CIRCLE
  5
150
  8
SIZE
  6
CONTINUOUS
 62
    30
 10
-679.99999999999807
 20
148.78759657845509
 30
0.0
 40
5.0
  0
CIRCLE
  5
151
  8
SIZE
  6
CONTINUOUS
 62
    30
 10
680.00000000000148
 20
148.78759657845509
 30
0.0
 40
5.0
  0
TEXT
  5
152
  8
SIZE
  6
CONTINUOUS
 62
    30
 10
-59.999999999998167
 20
158.78759657845501
 30
0.0
 40
40.0
  1
1360
 41
0.9
 72
     1
 11
0.000000000001819
 21
158.78759657845501
 31
0.0
  0
POINT
  5
153
  8
DEFPOINTS
  6
CONTINUOUS
 62
     7
 10
-679.99999999999807
 20
14.416724963439259
 30
0.0
  0
POINT
  5
154
  8
DEFPOINTS
  6
CONTINUOUS
 62
     7
 10
680.00000000000148
 20
14.416724963439259
 30
0.0
  0
POINT
  5
155
  8
DEFPOINTS
  6
CONTINUOUS
 62
     7
 10
680.00000000000148
 20
148.78759657845509
 30
0.0
  0
LINE
  5
156
  8
SIZE
  6
CONTINUOUS
 62
    30
 10
-694.99999999999807
 20
10.0
 30
0.0
 11
-694.99999999999807
 21
225.64182984854401
 31
0.0
  0
LINE
  5
157
  8
SIZE
  6
CONTINUOUS
 62
    30
 10
-919.99999999999807
 20
-251.42079360324709
 30
0.0
 11
-919.99999999999807
 21
225.64182984854401
 31
0.0
  0
LINE
  5
158
  8
SIZE
  6
CONTINUOUS
 62
    30
 10
-694.99999999999807
 20
215.64182984854401
 30
0.0
 11
-919.99999999999807
 21
215.64182984854401
 31
0.0
  0
CIRCLE
  5
159
  8
SIZE
  6
CONTINUOUS
 62
    30
 10
-694.99999999999807
 20
215.64182984854401
 30
0.0
 40
5.0
  0
CIRCLE
  5
15A
  8
SIZE
  6
CONTINUOUS
 62
    30
 10
-919.99999999999807
 20
215.64182984854401
 30
0.0
 40
5.0
  0
TEXT
  5
15B
  8
SIZE
  6
CONTINUOUS
 62
    30
 10
-853.78571428571252
 20
225.64182984854409
 30
0.0
 40
40.0
  1
225
 41
0.9
 72
     1
 11
-807.49999999999807
 21
225.64182984854409
 31
0.0
  0
POINT
  5
15C
  8
DEFPOINTS
  6
CONTINUOUS
 62
     7
 10
-694.99999999999807
 20
0.0
 30
0.0
  0
POINT
  5
15D
  8
DEFPOINTS
  6
CONTINUOUS
 62
     7
 10
-919.99999999999807
 20
-261.42079360324709
 30
0.0
  0
POINT
  5
15E
  8
DEFPOINTS
  6
CONTINUOUS
 62
     7
 10
-919.99999999999807
 20
215.64182984854401
 30
0.0
  0
LINE
  5
15F
  8
SIZE
  6
CONTINUOUS
 62
    30
 10
-694.99999999999807
 20
10.0
 30
0.0
 11
-694.99999999999807
 21
225.64182984854401
 31
0.0
  0
LINE
  5
160
  8
SIZE
  6
CONTINUOUS
 62
    30
 10
695.00000000000171
 20
10.0
 30
0.0
 11
695.00000000000171
 21
225.64182984854401
 31
0.0
  0
LINE
  5
161
  8
SIZE
  6
CONTINUOUS
 62
    30
 10
-694.99999999999807
 20
215.64182984854401
 30
0.0
 11
695.00000000000171
 21
215.64182984854401
 31
0.0
  0
CIRCLE
  5
162
  8
SIZE
  6
CONTINUOUS
 62
    30
 10
-694.99999999999807
 20
215.64182984854401
 30
0.0
 40
5.0
  0
CIRCLE
  5
163
  8
SIZE
  6
CONTINUOUS
 62
    30
 10
695.00000000000171
 20
215.64182984854401
 30
0.0
 40
5.0
  0
TEXT
  5
164
  8
SIZE
  6
CONTINUOUS
 62
    30
 10
-59.999999999998167
 20
225.64182984854409
 30
0.0
 40
40.0
  1
1390
 41
0.9
 72
     1
 11
0.000000000001819
 21
225.64182984854409
 31
0.0
  0
POINT
  5
165
  8
DEFPOINTS
  6
CONTINUOUS
 62
     7
 10
-694.99999999999807
 20
0.0
 30
0.0
  0
POINT
  5
166
  8
DEFPOINTS
  6
CONTINUOUS
 62
     7
 10
695.00000000000171
 20
0.0
 30
0.0
  0
POINT
  5
167
  8
DEFPOINTS
  6
CONTINUOUS
 62
     7
 10
695.00000000000171
 20
215.64182984854401
 30
0.0
  0
LINE
  5
168
  8
SIZE
  6
CONTINUOUS
 62
    30
 10
695.00000000000171
 20
10.0
 30
0.0
 11
695.00000000000171
 21
225.64182984854401
 31
0.0
  0
LINE
  5
169
  8
SIZE
  6
CONTINUOUS
 62
    30
 10
720.00000000000171
 20
-243.062750554378
 30
0.0
 11
720.00000000000171
 21
225.64182984854401
 31
0.0
  0
LINE
  5
16A
  8
SIZE
  6
CONTINUOUS
 62
    30
 10
695.00000000000171
 20
215.64182984854401
 30
0.0
 11
720.00000000000171
 21
215.64182984854401
 31
0.0
  0
LINE
  5
16B
  8
SIZE
  6
CONTINUOUS
 62
    30
 10
720.00000000000171
 20
215.64182984854401
 30
0.0
 11
864.57142857143026
 21
215.64182984854401
 31
0.0
  0
CIRCLE
  5
16C
  8
SIZE
  6
CONTINUOUS
 62
    30
 10
695.00000000000171
 20
215.64182984854401
 30
0.0
 40
5.0
  0
CIRCLE
  5
16D
  8
SIZE
  6
CONTINUOUS
 62
    30
 10
720.00000000000171
 20
215.64182984854401
 30
0.0
 40
5.0
  0
TEXT
  5
16E
  8
SIZE
  6
CONTINUOUS
 62
    30
 10
750.00000000000148
 20
236.1180203247346
 30
0.0
 40
40.0
  1
(25)
 41
0.9
 72
     1
 11
802.28571428571593
 21
236.1180203247346
 31
0.0
  0
POINT
  5
16F
  8
DEFPOINTS
  6
CONTINUOUS
 62
     7
 10
695.00000000000171
 20
0.0
 30
0.0
  0
POINT
  5
170
  8
DEFPOINTS
  6
CONTINUOUS
 62
     7
 10
720.00000000000171
 20
-253.062750554378
 30
0.0
  0
POINT
  5
171
  8
DEFPOINTS
  6
CONTINUOUS
 62
     7
 10
720.00000000000171
 20
215.64182984854401
 30
0.0
  0
TEXT
  5
172
  8
NOTE
  6
CONTINUOUS
 62
     4
 10
-1239.4421705178299
 20
-379.65527317212212
 30
0.0
 40
40.0
  1
D PT3/4オネジ
 50
0.0000025044165917
 41
0.7
  7
STANDARD1
  0
LINE
  5
173
  8
NOTE
  6
CONTINUOUS
 62
     4
 10
-958.65882262891125
 20
-387.30761784039169
 30
0.0
 11
-1243.6895541837041
 21
-387.30761784039169
 31
0.0
  0
LINE
  5
174
  8
NOTE
  6
CONTINUOUS
 62
     4
 10
-958.65882262891125
 20
-387.30761784039169
 30
0.0
 11
-919.99999999999807
 21
-277.0
 31
0.0
  0
TEXT
  5
175
  8
NOTE
  6
CONTINUOUS
 62
     4
 10
-569.95367400409123
 20
-360.0397447870252
 30
0.0
 40
40.0
  1
C PT3/4メネジ
 50
0.0000025044165917
 41
0.7
  7
STANDARD1
  0
LINE
  5
176
  8
NOTE
  6
CONTINUOUS
 62
     4
 10
-289.17032611517232
 20
-367.69208945529488
 30
0.0
 11
-574.20105766996676
 21
-367.69208945529488
 31
0.0
  0
LINE
  5
177
  8
NOTE
  6
CONTINUOUS
 62
     4
 10
-574.20105766996676
 20
-367.69208945529488
 30
0.0
 11
-679.99999999999807
 21
-201.99999999999801
 31
0.0
  0
TEXT
  5
178
  8
NOTE
  6
CONTINUOUS
 62
     4
 10
-636.62476201889672
 20
22.15250907070185
 30
0.0
 40
40.0
  1
CR PT3/4メネジ
 50
0.0000025044165917
 41
0.7
  7
STANDARD1
  0
LINE
  5
179
  8
NOTE
  6
CONTINUOUS
 62
     4
 10
-325.761382899951
 20
14.50016440243234
 30
0.0
 11
-640.87214568477225
 21
14.50016440243234
 31
0.0
  0
LINE
  5
17A
  8
NOTE
  6
CONTINUOUS
 62
     4
 10
-640.87214568477225
 20
14.50016440243234
 30
0.0
 11
-679.99999999999807
 21
-36.999999999998181
 31
0.0
  0
LINE
  5
17B
  8
BASIS
  6
DASHDOT
 62
     6
 10
0.000000000001819
 20
18.12542923908039
 30
0.0
 11
0.000000000001819
 21
-312.98309167991818
 31
0.0
  0
CIRCLE
  5
17C
  8
ARRANGE
  6
CONTINUOUS
 62
     1
 10
0.000000000001819
 20
0.0
 30
0.0
 40
28.800000000000001
  0
LINE
  5
17D
  8
ARRANGE
  6
CONTINUOUS
 62
     1
 10
28.821513618047899
 20
-28.524875414586841
 30
0.0
 11
-28.821513618044261
 21
28.524875414586841
 31
0.0
  0
LINE
  5
17E
  8
ARRANGE
  6
CONTINUOUS
 62
     1
 10
28.7791276668504
 20
28.567638603641171
 30
0.0
 11
-28.779127666846762
 21
-28.56763860363754
 31
0.0
  0
TEXT
  5
17F
  8
NOTE
  6
CONTINUOUS
 62
     4
 10
737.30081124000014
 20
123.51200392696219
 30
0.0
 40
40.0
  1
AH 4-14×22長穴
 50
0.0000025044165917
 41
0.7
  7
STANDARD1
  0
LINE
  5
180
  8
NOTE
  6
CONTINUOUS
 62
     4
 10
1074.5054750287929
 20
115.8596592586927
 30
0.0
 11
733.0534275741245
 21
115.8596592586927
 31
0.0
  0
LINE
  5
181
  8
NOTE
  6
CONTINUOUS
 62
     4
 10
733.0534275741245
 20
115.8596592586927
 30
0.0
 11
680.00000000000148
 21
0.0
 31
0.0
  0
LINE
  5
182
  8
OUTLINE
  6
CONTINUOUS
 62
     3
 10
-694.99999999999807
 20
0.0
 30
0.0
 11
695.00000000000171
 21
0.0
 31
0.0
  0
LINE
  5
183
  8
OUTLINE
  6
CONTINUOUS
 62
     3
 10
695.00000000000171
 20
0.0
 30
0.0
 11
695.00000000000171
 21
-253.062750554378
 31
0.0
  0
LINE
  5
184
  8
OUTLINE
  6
CONTINUOUS
 62
     3
 10
720.00000000000171
 20
-253.06212738611791
 30
0.0
 11
-874.75990603257026
 21
-253.06212738611791
 31
0.0
  0
LINE
  5
185
  8
OUTLINE
  6
CONTINUOUS
 62
     3
 10
708.92716652873946
 20
-281.03103322202151
 30
0.0
 11
-864.7732332680913
 21
-299.00119840049211
 31
0.0
  0
LINE
  5
186
  8
OUTLINE
  6
CONTINUOUS
 62
     3
 10
-874.75990603257014
 20
-299.00000599200212
 30
0.0
 11
-874.75990603257014
 21
-253.06212738611791
 31
0.0
  0
LINE
  5
187
  8
OUTLINE
  6
CONTINUOUS
 62
     3
 10
-874.75990603257014
 20
-299.00000599200212
 30
0.0
 11
-864.77323326809153
 21
-299.00000599200212
 31
0.0
  0
LINE
  5
188
  8
OUTLINE
  6
CONTINUOUS
 62
     3
 10
720.00000000000171
 20
-281.03103322202151
 30
0.0
 11
720.00000000000171
 21
-253.062750554378
 31
0.0
  0
LINE
  5
189
  8
OUTLINE
  6
CONTINUOUS
 62
     3
 10
720.00000000000171
 20
-281.03103322202151
 30
0.0
 11
708.92716652873946
 21
-281.03103322202151
 31
0.0
  0
LINE
  5
18A
  8
OUTLINE
  6
CONTINUOUS
 62
     3
 10
-715.97145135477331
 20
-253.062750554378
 30
0.0
 11
-715.97145135477331
 21
-110.05218509091171
 31
0.0
  0
LINE
  5
18B
  8
OUTLINE
  6
CONTINUOUS
 62
     3
 10
-715.97145135477331
 20
-110.05218509091171
 30
0.0
 11
-694.99992703738064
 21
-110.05217118716421
 31
0.0
  0
LINE
  5
18C
  8
OUTLINE
  6
CONTINUOUS
 62
     3
 10
-694.99999999999807
 20
0.0
 30
0.0
 11
-694.99983222392598
 21
-253.062750554378
 31
0.0
  0
LINE
  5
18D
  8
NOTE
  6
CONTINUOUS
 62
     4
 10
-919.99999999999613
 20
-277.0
 30
0.0
 11
-935.8973206693862
 21
-299.44947625957508
 31
0.0
  0
LINE
  5
18E
  8
NOTE
  6
CONTINUOUS
 62
     4
 10
-919.99999999999613
 20
-277.0
 30
0.0
 11
-922.54274502294004
 21
-304.39047711416418
 31
0.0
  0
LINE
  5
18F
  8
NOTE
  6
CONTINUOUS
 62
     4
 10
-680.00000000000921
 20
-202.0000000000035
 30
0.0
 11
-670.77343838704655
 21
-227.9147515827735
 31
0.0
  0
LINE
  5
190
  8
NOTE
  6
CONTINUOUS
 62
     4
 10
-680.00000000000921
 20
-202.0000000000035
 30
0.0
 11
-659.05218720246546
 21
-219.82955209175091
 31
0.0
  0
LINE
  5
191
  8
NOTE
  6
CONTINUOUS
 62
     4
 10
-680.0
 20
-36.999999999998181
 30
0.0
 11
-658.44105004479923
 21
-19.91446618850021
 31
0.0
  0
LINE
  5
192
  8
NOTE
  6
CONTINUOUS
 62
     4
 10
-680.0
 20
-36.999999999998181
 30
0.0
 11
-669.87216893826724
 21
-11.42401855688875
 31
0.0
  0
LINE
  5
193
  8
NOTE
  6
CONTINUOUS
 62
     4
 10
680.00000000000364
 20
-0.000000000001819
 30
0.0
 11
698.0748536348583
 21
20.736524657548198
 31
0.0
  0
LINE
  5
194
  8
NOTE
  6
CONTINUOUS
 62
     4
 10
680.00000000000364
 20
-0.000000000001819
 30
0.0
 11
685.28501969537672
 21
26.995784034044831
 31
0.0
  0
LINE
  5
195
  8
DETAIL
  6
CONTINUOUS
 62
     5
 10
695.00000000000171
 20
-281.28806657955272
 30
0.0
 11
695.00000000000171
 21
-286.99999999999812
 31
0.0
  0
LINE
  5
196
  8
DETAIL
  6
CONTINUOUS
 62
     5
 10
695.00000000000171
 20
-286.99999999999812
 30
0.0
 11
186.2071296461832
 21
-286.99999999999812
 31
0.0
  0
LINE
  5
197
  8
OUTLINE
  6
CONTINUOUS
 62
     3
 10
695.00000000000171
 20
-281.28806657955272
 30
0.0
 11
695.00000000000171
 21
-286.99999999999812
 31
0.0
  0
LINE
  5
198
  8
OUTLINE
  6
CONTINUOUS
 62
     3
 10
695.00000000000171
 20
-286.99999999999812
 30
0.0
 11
186.2071296461832
 21
-286.99999999999812
 31
0.0
  0
LINE
  5
199
  8
SIZE
  6
CONTINUOUS
 62
    30
 10
705.00000000000171
 20
-0.0000000000000028
 30
0.0
 11
985.60522246888843
 21
-0.0000000000000823
 31
0.0
  0
LINE
  5
19A
  8
SIZE
  6
CONTINUOUS
 62
    30
 10
705.00000000000171
 20
-286.99999999999812
 30
0.0
 11
985.6052224688882
 21
-286.99999999999812
 31
0.0
  0
LINE
  5
19B
  8
SIZE
  6
CONTINUOUS
 62
    30
 10
975.60522246888843
 20
-0.0000000000000795
 30
0.0
 11
975.60522246888843
 21
-286.99999999999812
 31
0.0
  0
CIRCLE
  5
19C
  8
SIZE
  6
CONTINUOUS
 62
    30
 10
975.60522246888843
 20
-0.0000000000000795
 30
0.0
 40
5.0
  0
CIRCLE
  5
19D
  8
SIZE
  6
CONTINUOUS
 62
    30
 10
975.60522246888843
 20
-286.99999999999812
 30
0.0
 40
5.0
  0
TEXT
  5
19E
  8
SIZE
  6
CONTINUOUS
 62
    30
 10
965.60522246888854
 20
-189.78571428571331
 30
0.0
 40
40.0
  1
287
 50
90.0
 41
0.9
 72
     1
 11
965.60522246888854
 21
-143.49999999999901
 31
0.0
  0
POINT
  5
19F
  8
DEFPOINTS
  6
CONTINUOUS
 62
     7
 10
695.00000000000171
 20
0.0
 30
0.0
  0
POINT
  5
1A0
  8
DEFPOINTS
  6
CONTINUOUS
 62
     7
 10
695.00000000000171
 20
-286.99999999999812
 30
0.0
  0
POINT
  5
1A1
  8
DEFPOINTS
  6
CONTINUOUS
 62
     7
 10
975.60522246888843
 20
-286.99999999999812
 30
0.0
  0
TEXT
  5
1A2
  8
SIZE
  6
CONTINUOUS
 62
    30
 10
885.67701175041645
 20
-232.0932657722733
 30
0.0
 40
40.0
  1
（吹出口開口）
 50
89.999997495583386
 41
0.65
  7
STANDARD1
  0
TEXT
  5
1A3
  8
ETC
  6
CONTINUOUS
 62
    61
 10
474.00760775329309
 20
375.73359586753531
 30
0.0
 40
50.0
  1
LH-800WFRP_2
 50
0.0000029998804485
 41
0.8
  0
LINE
  5
1A6
  8
DETAIL
  6
CONTINUOUS
 62
     5
 10
-10.59917935197244
 20
-183.7999999999991
 30
0.0
 11
-10.59917935197336
 21
-66.199999999997999
 31
0.0
  0
LINE
  5
1A7
  8
DETAIL
  6
CONTINUOUS
 62
     5
 10
9.4008206480275458
 20
-183.79999999999831
 30
0.0
 11
-9.3991793519735456
 21
-183.79999999999831
 31
0.0
  0
LINE
  5
1A8
  8
DETAIL
  6
CONTINUOUS
 62
     5
 10
9.4008206480275458
 20
-66.199999999998894
 30
0.0
 11
-9.3991793519735456
 21
-66.199999999998894
 31
0.0
  0
ARC
  5
1A9
  8
DETAIL
  6
CONTINUOUS
 62
     5
 10
-9.3991793519735456
 20
-183.7999999999991
 30
0.0
 40
1.1999999999989071
 50
180.0
 51
270.0
  0
ARC
  5
1AA
  8
DETAIL
  6
CONTINUOUS
 62
     5
 10
-9.3991793519735456
 20
-66.199999999997999
 30
0.0
 40
1.199999999999817
 50
90.0
 51
180.0
  0
LINE
  5
1AB
  8
DETAIL
  6
CONTINUOUS
 62
     5
 10
-9.3991793519735456
 20
-66.199999999998894
 30
0.0
 11
-9.3991793519735456
 21
-183.79999999999831
 31
0.0
  0
LINE
  5
1AC
  8
DETAIL
  6
CONTINUOUS
 62
     5
 10
9.4008206480275458
 20
-66.199999999998894
 30
0.0
 11
9.4008206480274321
 21
-64.999999999998181
 31
0.0
  0
LINE
  5
1AD
  8
DETAIL
  6
CONTINUOUS
 62
     5
 10
9.4008206480275458
 20
-183.79999999999831
 30
0.0
 11
9.4008206480274321
 21
-184.99999999999801
 31
0.0
  0
ENDSEC
  0
EOF
