  0
SECTION
  2
HEADER
  9
$ACADVER
  1
AC1009
  9
$INSBASE
 10
0.0
 20
0.0
 30
0.0
  9
$EXTMIN
 10
-1074.5040733186811
 20
-467.51402640658659
 30
-0.0000000349181948
  9
$EXTMAX
 10
740.50599267997848
 20
591.52222481966237
 30
0.0000000814935747
  9
$LIMMIN
 10
-2970.0
 20
-2100.0
  9
$LIMMAX
 10
2970.0
 20
2100.0
  9
$ORTHOMODE
 70
     1
  9
$REGENMODE
 70
     0
  9
$FILLMODE
 70
     1
  9
$QTEXTMODE
 70
     0
  9
$MIRRTEXT
 70
     0
  9
$DRAGMODE
 70
     2
  9
$LTSCALE
 40
20.0
  9
$OSMODE
 70
   431
  9
$ATTMODE
 70
     1
  9
$TEXTSIZE
 40
64.0
  9
$TRACEWID
 40
0.05
  9
$TEXTSTYLE
  7
STANDARD
  9
$CLAYER
  8
SYMBOLLINE
  9
$CELTYPE
  6
CONTINUOUS
  9
$CECOLOR
 62
     7
  9
$DIMSCALE
 40
1.0
  9
$DIMASZ
 40
2.0
  9
$DIMEXO
 40
20.0
  9
$DIMDLI
 40
200.0
  9
$DIMRND
 40
0.0
  9
$DIMDLE
 40
0.0
  9
$DIMEXE
 40
30.0
  9
$DIMTP
 40
0.0
  9
$DIMTM
 40
0.0
  9
$DIMTXT
 40
64.0
  9
$DIMCEN
 40
0.09
  9
$DIMTSZ
 40
0.0
  9
$DIMTOL
 70
     0
  9
$DIMLIM
 70
     0
  9
$DIMTIH
 70
     0
  9
$DIMTOH
 70
     0
  9
$DIMSE1
 70
     0
  9
$DIMSE2
 70
     0
  9
$DIMTAD
 70
     1
  9
$DIMZIN
 70
     8
  9
$DIMBLK
  1

  9
$DIMASO
 70
     1
  9
$DIMSHO
 70
     0
  9
$DIMPOST
  1

  9
$DIMAPOST
  1

  9
$DIMALT
 70
     0
  9
$DIMALTD
 70
     2
  9
$DIMALTF
 40
25.399999999999999
  9
$DIMLFAC
 40
1.0
  9
$DIMTOFL
 70
     1
  9
$DIMTVP
 40
0.0
  9
$DIMTIX
 70
     1
  9
$DIMSOXD
 70
     0
  9
$DIMSAH
 70
     0
  9
$DIMBLK1
  1

  9
$DIMBLK2
  1

  9
$DIMSTYLE
  2
STANDARD
  9
$DIMCLRD
 70
     0
  9
$DIMCLRE
 70
     0
  9
$DIMCLRT
 70
     0
  9
$DIMTFAC
 40
1.0
  9
$DIMGAP
 40
0.09
  9
$LUNITS
 70
     2
  9
$LUPREC
 70
     4
  9
$SKETCHINC
 40
0.1
  9
$FILLETRAD
 40
0.0
  9
$AUNITS
 70
     1
  9
$AUPREC
 70
     3
  9
$MENU
  1
ACAD
  9
$ELEVATION
 40
0.0
  9
$PELEVATION
 40
0.0
  9
$THICKNESS
 40
0.0
  9
$LIMCHECK
 70
     0
  9
$BLIPMODE
 70
     0
  9
$CHAMFERA
 40
0.0
  9
$CHAMFERB
 40
0.0
  9
$SKPOLY
 70
     0
  9
$TDCREATE
 40
2449761.7318981481
  9
$TDUPDATE
 40
2456804.6208262038
  9
$TDINDWG
 40
0.0259590162
  9
$TDUSRTIMER
 40
0.0259573843
  9
$USRTIMER
 70
     1
  9
$ANGBASE
 50
0.0
  9
$ANGDIR
 70
     0
  9
$PDMODE
 70
     3
  9
$PDSIZE
 40
-2.0
  9
$PLINEWID
 40
0.0
  9
$COORDS
 70
     1
  9
$SPLFRAME
 70
     0
  9
$SPLINETYPE
 70
     6
  9
$SPLINESEGS
 70
     8
  9
$ATTDIA
 70
     0
  9
$ATTREQ
 70
     1
  9
$HANDLING
 70
     1
  9
$HANDSEED
  5
4C0
  9
$SURFTAB1
 70
     6
  9
$SURFTAB2
 70
     6
  9
$SURFTYPE
 70
     6
  9
$SURFU
 70
     6
  9
$SURFV
 70
     6
  9
$UCSNAME
  2

  9
$UCSORG
 10
0.0
 20
0.0
 30
0.0
  9
$UCSXDIR
 10
1.0
 20
0.0
 30
0.0
  9
$UCSYDIR
 10
0.0
 20
1.0
 30
0.0
  9
$PUCSNAME
  2

  9
$PUCSORG
 10
0.0
 20
0.0
 30
0.0
  9
$PUCSXDIR
 10
1.0
 20
0.0
 30
0.0
  9
$PUCSYDIR
 10
0.0
 20
1.0
 30
0.0
  9
$USERI1
 70
     0
  9
$USERI2
 70
     0
  9
$USERI3
 70
     0
  9
$USERI4
 70
     0
  9
$USERI5
 70
     0
  9
$USERR1
 40
20.0
  9
$USERR2
 40
0.0
  9
$USERR3
 40
0.0
  9
$USERR4
 40
0.0
  9
$USERR5
 40
0.0
  9
$WORLDVIEW
 70
     1
  9
$SHADEDGE
 70
     3
  9
$SHADEDIF
 70
    70
  9
$TILEMODE
 70
     1
  9
$MAXACTVP
 70
    64
  9
$PLIMCHECK
 70
     0
  9
$PEXTMIN
 10
1.0000000000000000E+020
 20
1.0000000000000000E+020
 30
1.0000000000000000E+020
  9
$PEXTMAX
 10
-1.0000000000000000E+020
 20
-1.0000000000000000E+020
 30
-1.0000000000000000E+020
  9
$PLIMMIN
 10
0.0
 20
0.0
  9
$PLIMMAX
 10
12.0
 20
9.0
  9
$UNITMODE
 70
     0
  9
$VISRETAIN
 70
     1
  9
$PLINEGEN
 70
     0
  9
$PSLTSCALE
 70
     1
  0
ENDSEC
  0
SECTION
  2
TABLES
  0
TABLE
  2
VPORT
 70
     1
  0
VPORT
  2
*ACTIVE
 70
     0
 10
0.0
 20
0.0
 11
1.0
 21
1.0
 12
-166.99904031935151
 22
62.00409920653783
 13
0.0
 23
0.0
 14
50.0
 24
50.0
 15
100.0
 25
100.0
 16
0.0
 26
0.0
 36
1.0
 17
0.0
 27
0.0
 37
0.0
 40
1173.6809307200031
 41
1.5540025412960601
 42
50.0
 43
0.0
 44
0.0
 50
0.0
 51
0.0
 71
     0
 72
  1000
 73
     1
 74
     0
 75
     0
 76
     0
 77
     0
 78
     0
  0
ENDTAB
  0
TABLE
  2
LTYPE
 70
     7
  0
LTYPE
  2
CONTINUOUS
 70
     0
  3
実線
 72
    65
 73
     0
 40
0.0
  0
LTYPE
  2
DASHDOT
 70
     0
  3
____ _ ____ _ ____ _ ____ _ ____ _ ____ _ ____
 72
    65
 73
     4
 40
5.5
 49
4.0
 49
-0.6
 49
0.3
 49
-0.6
  0
LTYPE
  2
DASHED
 70
     0
  3
_ _ _ _ _ _ _ _ _ _ _ _ _ _ _ _ _ _ _ _ _ _ _
 72
    65
 73
     2
 40
2.0
 49
1.1999999999999991
 49
-0.8
  0
LTYPE
  2
DOT
 70
     0
  3
...............................................
 72
    65
 73
     2
 40
0.8
 49
0.5
 49
-0.3
  0
LTYPE
  2
DASHDOT1
 70
     0
  3
____ _ ____ _ ____ _ ____ _ ____ _ ____ _ ____
 72
    65
 73
     4
 40
2.0
 49
1.5
 49
-0.2
 49
0.1
 49
-0.2
  0
LTYPE
  2
DIVIDE
 70
     0
  3
_____ _ _ _____ _ _ _____ _ _ _____ _ _ ____
 72
    65
 73
     6
 40
6.4000000000000004
 49
4.0
 49
-0.6
 49
0.3
 49
-0.6
 49
0.3
 49
-0.6
  0
LTYPE
  2
DIVIDE1
 70
     0
  3
_____ _ _ _____ _ _ _____ _ _ _____ _ _ ____
 72
    65
 73
     6
 40
3.2000000000000002
 49
2.0
 49
-0.3
 49
0.15
 49
-0.3
 49
0.15
 49
-0.3
  0
ENDTAB
  0
TABLE
  2
LAYER
 70
    12
  0
LAYER
  2
0
 70
     0
 62
     7
  6
CONTINUOUS
  0
LAYER
  2
SYMBOLLINE
 70
     0
 62
     7
  6
CONTINUOUS
  0
LAYER
  2
OUTLINE
 70
     0
 62
     7
  6
CONTINUOUS
  0
LAYER
  2
DETAIL
 70
     0
 62
     7
  6
CONTINUOUS
  0
LAYER
  2
BASIS
 70
     0
 62
     7
  6
CONTINUOUS
  0
LAYER
  2
NOTE
 70
     0
 62
     7
  6
CONTINUOUS
  0
LAYER
  2
DEFPOINTS
 70
     0
 62
     7
  6
CONTINUOUS
  0
LAYER
  2
SIZE
 70
     0
 62
     7
  6
CONTINUOUS
  0
LAYER
  2
ARRANGE
 70
     0
 62
     7
  6
CONTINUOUS
  0
LAYER
  2
ETC
 70
     0
 62
     7
  6
CONTINUOUS
  0
LAYER
  2
FIX
 70
     0
 62
     7
  6
CONTINUOUS
  0
LAYER
  2
SERVICESPACE
 70
     0
 62
     7
  6
CONTINUOUS
  0
ENDTAB
  0
TABLE
  2
STYLE
 70
     3
  0
STYLE
  2
STANDARD
 70
     0
 40
0.0
 41
0.9
 50
0.0
 71
     0
 42
64.0
  3
SIMPLEX
  4
BIGFONT
  0
STYLE
  2
ANNOTATIVE
 70
     0
 40
0.0
 41
1.0
 50
0.0
 71
     0
 42
0.2
  3
txt
  4

  0
STYLE
  2
STANDARD1
 70
     0
 40
0.0
 41
1.0
 50
0.0
 71
     0
 42
64.0
  3
MONOTXT
  4
BIGFONT
  0
ENDTAB
  0
TABLE
  2
VIEW
 70
     1
  0
VIEW
  2
ALL
 70
     0
 40
4282.6198079999967
 10
0.0
 20
41.309903999999989
 41
5940.0
 11
0.0
 21
0.0
 31
1.0
 12
0.0
 22
0.0
 32
0.0
 42
50.0
 43
0.0
 44
0.0
 50
0.0
 71
     0
  0
ENDTAB
  0
TABLE
  2
UCS
 70
     0
  0
ENDTAB
  0
TABLE
  2
APPID
 70
     4
  0
APPID
  2
ACAD
 70
     0
  0
APPID
  2
ACADANNOTATIVE
 70
     0
  0
APPID
  2
ACAD_MLEADERVER
 70
     0
  0
APPID
  2
ACAD_EXEMPT_FROM_CAD_STANDARDS
 70
     0
  0
ENDTAB
  0
TABLE
  2
DIMSTYLE
 70
     2
  0
DIMSTYLE
  2
STANDARD
 70
     0
  3

  4

  5

  6

  7

 40
1.0
 41
0.18
 42
0.0625
 43
0.38
 44
0.18
 45
0.0
 46
0.0
 47
0.0
 48
0.0
140
0.18
141
0.09
142
0.0
143
25.399999999999999
144
1.0
145
0.0
146
1.0
147
0.09
 71
     0
 72
     0
 73
     1
 74
     1
 75
     0
 76
     0
 77
     0
 78
     0
170
     0
171
     2
172
     0
173
     0
174
     0
175
     0
176
     0
177
     0
178
     0
  0
DIMSTYLE
  2
ANNOTATIVE
 70
     0
  3

  4

  5

  6

  7

 40
1.0
 41
0.18
 42
0.0625
 43
0.38
 44
0.18
 45
0.0
 46
0.0
 47
0.0
 48
0.0
140
0.18
141
0.09
142
0.0
143
25.399999999999999
144
1.0
145
0.0
146
1.0
147
0.09
 71
     0
 72
     0
 73
     1
 74
     1
 75
     0
 76
     0
 77
     0
 78
     0
170
     0
171
     2
172
     0
173
     0
174
     0
175
     0
176
     0
177
     0
178
     0
  0
ENDTAB
  0
ENDSEC
  0
SECTION
  2
BLOCKS
  0
BLOCK
  8
0
  2
$MODEL_SPACE
 70
     0
 10
0.0
 20
0.0
 30
0.0
  3
$MODEL_SPACE
  1

  0
ENDBLK
  5
46C
  8
0
  0
BLOCK
 67
     1
  8
0
  2
$PAPER_SPACE
 70
     0
 10
0.0
 20
0.0
 30
0.0
  3
$PAPER_SPACE
  1

  0
ENDBLK
  5
468
 67
     1
  8
0
  0
BLOCK
  8
0
 62
     7
  2
*D2
 70
     1
 10
0.0
 20
0.0
 30
0.0
  3
*D2
  1

  0
LINE
  5
107
  8
SYMBOLLINE
  6
CONTINUOUS
 62
     0
 10
-391.00011100000012
 20
-179.69865799999999
 30
0.0
 11
-391.00011100000012
 21
-190.3761025
 31
0.0
  0
LINE
  5
108
  8
SYMBOLLINE
  6
CONTINUOUS
 62
     0
 10
-525.00011099999995
 20
-140.3761025
 30
0.0
 11
-525.00011099999995
 21
-130.3761025
 31
0.0
  0
LINE
  5
109
  8
SYMBOLLINE
  6
CONTINUOUS
 62
     0
 10
-389.000111
 20
-160.3761025
 30
0.0
 11
-387.00011100000012
 21
-160.3761025
 31
0.0
  0
LINE
  5
10A
  8
SYMBOLLINE
  6
CONTINUOUS
 62
     0
 10
-527.00011099999995
 20
-160.3761025
 30
0.0
 11
-529.00011099999995
 21
-160.3761025
 31
0.0
  0
LINE
  5
10B
  8
SYMBOLLINE
  6
CONTINUOUS
 62
     0
 10
-391.00011100000012
 20
-160.3761025
 30
0.0
 11
-525.00011099999995
 21
-160.3761025
 31
0.0
  0
SOLID
  5
10C
  8
SYMBOLLINE
  6
CONTINUOUS
 62
     0
 10
-389.000111
 20
-160.04276916666669
 30
0.0
 11
-389.000111
 21
-160.70943583333309
 31
0.0
 12
-391.00011100000012
 22
-160.3761025
 32
0.0
 13
-391.00011100000012
 23
-160.3761025
 33
0.0
  0
SOLID
  5
10D
  8
SYMBOLLINE
  6
CONTINUOUS
 62
     0
 10
-527.00011099999995
 20
-160.04276916666669
 30
0.0
 11
-527.00011099999995
 21
-160.70943583333309
 31
0.0
 12
-525.00011099999995
 22
-160.3761025
 32
0.0
 13
-525.00011099999995
 23
-160.3761025
 33
0.0
  0
INSERT
  5
10E
  8
SYMBOLLINE
  6
CONTINUOUS
 62
     7
  2
*U3
 10
0.0
 20
0.0
 30
0.0
  0
POINT
  5
10F
  8
DEFPOINTS
  6
CONTINUOUS
 62
     0
 10
-391.00011100000012
 20
-159.69865799999999
 30
0.0
  0
POINT
  5
110
  8
DEFPOINTS
  6
CONTINUOUS
 62
     0
 10
-525.00011099999995
 20
-160.3761025
 30
0.0
  0
POINT
  5
111
  8
DEFPOINTS
  6
CONTINUOUS
 62
     0
 10
-525.00011099999995
 20
-160.3761025
 30
0.0
  0
ENDBLK
  5
106
  8
0
 62
     7
  0
BLOCK
  8
0
 62
     7
  2
*U3
 70
     1
 10
0.0
 20
0.0
 30
0.0
  3
*U3
  1

  0
TEXT
  5
18C
  8
SYMBOLLINE
  6
CONTINUOUS
 62
     0
 10
-527.94296814285724
 20
-160.2861025
 30
0.0
 40
64.0
  1
134
 41
0.9
  0
ENDBLK
  5
18E
  8
0
 62
     7
  0
BLOCK
  8
0
 62
     7
  2
*D4
 70
     1
 10
0.0
 20
0.0
 30
0.0
  3
*D4
  1

  0
LINE
  5
11F
  8
SYMBOLLINE
  6
CONTINUOUS
 62
     0
 10
-360.0
 20
101.0
 30
0.0
 11
-944.41148344342196
 21
101.0000000000002
 31
0.0
  0
LINE
  5
120
  8
SYMBOLLINE
  6
CONTINUOUS
 62
     0
 10
-535.0
 20
0.0000000000000057
 30
0.0
 11
-944.41148344342196
 21
0.0000000000001216
 31
0.0
  0
LINE
  5
121
  8
SYMBOLLINE
  6
CONTINUOUS
 62
     0
 10
-914.41148344342207
 20
103.0000000000001
 30
0.0
 11
-914.41148344342207
 21
105.0000000000001
 31
0.0
  0
LINE
  5
122
  8
SYMBOLLINE
  6
CONTINUOUS
 62
     0
 10
-914.41148344342207
 20
-1.9999999999998861
 30
0.0
 11
-914.41148344342207
 21
-3.9999999999998841
 31
0.0
  0
LINE
  5
123
  8
SYMBOLLINE
  6
CONTINUOUS
 62
     0
 10
-914.41148344342207
 20
101.0000000000001
 30
0.0
 11
-914.41148344342207
 21
0.0000000000001131
 31
0.0
  0
SOLID
  5
124
  8
SYMBOLLINE
  6
CONTINUOUS
 62
     0
 10
-914.74481677675556
 20
103.0000000000001
 30
0.0
 11
-914.0781501100887
 21
103.0000000000001
 31
0.0
 12
-914.41148344342207
 22
101.0000000000001
 32
0.0
 13
-914.41148344342207
 23
101.0000000000001
 33
0.0
  0
SOLID
  5
125
  8
SYMBOLLINE
  6
CONTINUOUS
 62
     0
 10
-914.74481677675556
 20
-1.9999999999998861
 30
0.0
 11
-914.0781501100887
 21
-1.9999999999998861
 31
0.0
 12
-914.41148344342207
 22
0.0000000000001131
 32
0.0
 13
-914.41148344342207
 23
0.0000000000001131
 33
0.0
  0
INSERT
  5
126
  8
SYMBOLLINE
  6
CONTINUOUS
 62
     7
  2
*U5
 10
0.0
 20
0.0
 30
0.0
  0
POINT
  5
127
  8
DEFPOINTS
  6
CONTINUOUS
 62
     0
 10
-340.0
 20
101.0
 30
0.0
  0
POINT
  5
128
  8
DEFPOINTS
  6
CONTINUOUS
 62
     0
 10
-515.0
 20
0.0
 30
0.0
  0
POINT
  5
129
  8
DEFPOINTS
  6
CONTINUOUS
 62
     0
 10
-914.41148344342207
 20
0.0000000000001131
 30
0.0
  0
ENDBLK
  5
11E
  8
0
 62
     7
  0
BLOCK
  8
0
 62
     7
  2
*U5
 70
     1
 10
0.0
 20
0.0
 30
0.0
  3
*U5
  1

  0
TEXT
  5
190
  8
SYMBOLLINE
  6
CONTINUOUS
 62
     0
 10
-914.50148344342222
 20
-5.7285714285714313
 30
0.0
 40
64.0
  1
101
 50
90.0
 41
0.9
  0
ENDBLK
  5
192
  8
0
 62
     7
  0
ENDSEC
  0
SECTION
  2
ENTITIES
  0
LINE
  5
8F
  8
SIZE
  6
CONTINUOUS
 62
    30
 10
-523.00011099999995
 20
-129.69865799999999
 30
0.0
 11
-704.76302099999998
 21
-129.69865799999999
 31
0.0
  0
LINE
  5
90
  8
NOTE
  6
CONTINUOUS
 62
     4
 10
-300.0
 20
286.0
 30
0.0
 11
-340.0
 21
286.0
 31
0.0
  0
LINE
  5
91
  8
NOTE
  6
CONTINUOUS
 62
     4
 10
-320.0
 20
306.0
 30
0.0
 11
-320.0
 21
266.0
 31
0.0
  0
LINE
  5
92
  8
NOTE
  6
CONTINUOUS
 62
     4
 10
-300.0
 20
121.0
 30
0.0
 11
-340.0
 21
121.0
 31
0.0
  0
LINE
  5
93
  8
NOTE
  6
CONTINUOUS
 62
     4
 10
-320.0
 20
141.0
 30
0.0
 11
-320.0
 21
101.0
 31
0.0
  0
LINE
  5
94
  8
NOTE
  6
CONTINUOUS
 62
     4
 10
-371.0
 20
56.0
 30
0.0
 11
-411.0
 21
56.0
 31
0.0
  0
LINE
  5
95
  8
NOTE
  6
CONTINUOUS
 62
     4
 10
-391.0
 20
76.0
 30
0.0
 11
-391.0
 21
36.0
 31
0.0
  0
TEXT
  5
96
  8
NOTE
  6
CONTINUOUS
 62
     4
 10
-613.39469800000006
 20
527.20918899999992
 30
0.0
 40
64.0
  1
CHR
 50
0.000003
 41
0.659722
  7
STANDARD1
  0
LINE
  5
97
  8
NOTE
  6
CONTINUOUS
 62
     4
 10
-320.000111
 20
286.0
 30
0.0
 11
-327.37642599999998
 21
325.31399199999998
 31
0.0
  0
LINE
  5
98
  8
NOTE
  6
CONTINUOUS
 62
     4
 10
-320.000111
 20
286.0
 30
0.0
 11
-346.04518300000001
 21
316.35875800000008
 31
0.0
  0
LINE
  5
99
  8
NOTE
  6
CONTINUOUS
 62
     4
 10
-433.27377000000001
 20
522.13883599999986
 30
0.0
 11
-320.0
 21
286.0
 31
0.0
  0
LINE
  5
9A
  8
NOTE
  6
CONTINUOUS
 62
     4
 10
-619.66192999999998
 20
522.13883599999986
 30
0.0
 11
-433.27377000000001
 21
522.13883599999986
 31
0.0
  0
TEXT
  5
9B
  8
NOTE
  6
CONTINUOUS
 62
     4
 10
-616.37532599999997
 20
402.500832
 30
0.0
 40
64.0
  1
CH
 50
0.000003
 41
0.659722
  7
STANDARD1
  0
LINE
  5
9C
  8
NOTE
  6
CONTINUOUS
 62
     4
 10
-320.000111
 20
121.0
 30
0.0
 11
-329.191711
 21
159.929609
 31
0.0
  0
LINE
  5
9D
  8
NOTE
  6
CONTINUOUS
 62
     4
 10
-320.000111
 20
121.0
 30
0.0
 11
-347.42507599999999
 21
150.11823000000001
 31
0.0
  0
LINE
  5
9E
  8
NOTE
  6
CONTINUOUS
 62
     4
 10
-468.74744199999998
 20
397.43047999999999
 30
0.0
 11
-320.0
 21
121.0
 31
0.0
  0
LINE
  5
9F
  8
NOTE
  6
CONTINUOUS
 62
     4
 10
-622.6425569999999
 20
397.43047999999999
 30
0.0
 11
-468.74744199999998
 21
397.43047999999999
 31
0.0
  0
TEXT
  5
A0
  8
NOTE
  6
CONTINUOUS
 62
     4
 10
-174.27034599999999
 20
-89.307006999999999
 30
0.0
 40
64.0
  1
Ｄ
 50
0.000003
 41
0.572917
  7
STANDARD1
  0
LINE
  5
A1
  8
NOTE
  6
CONTINUOUS
 62
     4
 10
-391.0
 20
56.0
 30
0.0
 11
-370.58703500000001
 21
21.600714
 31
0.0
  0
LINE
  5
A2
  8
NOTE
  6
CONTINUOUS
 62
     4
 10
-391.0
 20
56.0
 30
0.0
 11
-356.12221099999999
 21
36.415827
 31
0.0
  0
LINE
  5
A3
  8
NOTE
  6
CONTINUOUS
 62
     4
 10
-231.883948
 20
-99.353911999999994
 30
0.0
 11
-391.0
 21
56.0
 31
0.0
  0
LINE
  5
A4
  8
NOTE
  6
CONTINUOUS
 62
     4
 10
-231.883948
 20
-99.353911999999994
 30
0.0
 11
-97.789009000000036
 21
-99.353911999999994
 31
0.0
  0
POINT
  5
A5
  8
ARRANGE
  6
CONTINUOUS
 62
     1
 10
0.0
 20
0.0
 30
0.0
  0
LINE
  5
A6
  8
BASIS
  6
DASHDOT
 62
     6
 10
0.0
 20
427.46314299999989
 30
0.0
 11
0.0
 21
-50.237231999999999
 31
0.0
  0
LINE
  5
A7
  8
DETAIL
  6
CONTINUOUS
 62
     5
 10
525.0
 20
340.0
 30
0.0
 11
-525.0
 21
340.0
 31
0.0
  0
LINE
  5
A8
  8
DETAIL
  6
CONTINUOUS
 62
     5
 10
515.0
 20
0.0
 30
0.0
 11
-515.0
 21
0.0
 31
0.0
  0
LINE
  5
A9
  8
DETAIL
  6
CONTINUOUS
 62
     5
 10
-525.0
 20
340.0
 30
0.0
 11
-525.0
 21
36.0
 31
0.0
  0
LINE
  5
AA
  8
DETAIL
  6
CONTINUOUS
 62
     5
 10
525.0
 20
340.0
 30
0.0
 11
525.0
 21
36.0
 31
0.0
  0
LINE
  5
AB
  8
DETAIL
  6
CONTINUOUS
 62
     5
 10
-515.0
 20
36.0
 30
0.0
 11
-515.0
 21
0.0
 31
0.0
  0
LINE
  5
AC
  8
DETAIL
  6
CONTINUOUS
 62
     5
 10
525.0
 20
36.0
 30
0.0
 11
-525.0
 21
36.0
 31
0.0
  0
LINE
  5
AD
  8
DETAIL
  6
CONTINUOUS
 62
     5
 10
515.0
 20
36.0
 30
0.0
 11
515.0
 21
0.0
 31
0.0
  0
TEXT
  5
B7
  8
ETC
  6
CONTINUOUS
 62
    61
 10
163.82461148548671
 20
497.95600187594431
 30
0.0
 40
64.0
  1
LV-200WLFE-C_2
 50
0.000003
 41
0.638021
  7
STANDARD1
  0
LINE
  5
B8
  8
SIZE
  6
CONTINUOUS
 62
    30
 10
-978.10022794840222
 20
25.5
 30
0.0
 11
-978.10022794840222
 21
-172.4871894787066
 31
0.0
  0
LINE
  5
B9
  8
SIZE
  6
CONTINUOUS
 62
    30
 10
-978.10022794840222
 20
284.0
 30
0.0
 11
-978.10022794840222
 21
448.11623499999979
 31
0.0
  0
CIRCLE
  5
BA
  8
ARRANGE
  6
CONTINUOUS
 62
     1
 10
0.0
 20
0.0
 30
0.0
 40
40.0
  0
LINE
  5
BB
  8
OUTLINE
  6
CONTINUOUS
 62
     3
 10
515.0
 20
36.0
 30
0.0
 11
515.0
 21
0.0
 31
0.0
  0
LINE
  5
BD
  8
OUTLINE
  6
CONTINUOUS
 62
     3
 10
-515.0
 20
36.0
 30
0.0
 11
-515.0
 21
0.0
 31
0.0
  0
LINE
  5
BE
  8
OUTLINE
  6
CONTINUOUS
 62
     3
 10
525.0
 20
340.0
 30
0.0
 11
525.0
 21
36.0
 31
0.0
  0
LINE
  5
BF
  8
OUTLINE
  6
CONTINUOUS
 62
     3
 10
-525.0
 20
340.0
 30
0.0
 11
-525.0
 21
36.0
 31
0.0
  0
LINE
  5
C0
  8
OUTLINE
  6
CONTINUOUS
 62
     3
 10
515.0
 20
0.0
 30
0.0
 11
-515.0
 21
0.0
 31
0.0
  0
LINE
  5
C1
  8
OUTLINE
  6
CONTINUOUS
 62
     3
 10
525.0
 20
340.0
 30
0.0
 11
-525.0
 21
340.0
 31
0.0
  0
LINE
  5
C2
  8
OUTLINE
  6
CONTINUOUS
 62
     3
 10
525.0
 20
36.0
 30
0.0
 11
-525.0
 21
36.0
 31
0.0
  0
LINE
  5
C3
  8
SIZE
  6
BYBLOCK
 62
    30
 10
-390.0
 20
121.0
 30
0.0
 11
-1008.100227948402
 21
121.0
 31
0.0
  0
LINE
  5
C4
  8
SIZE
  6
BYBLOCK
 62
    30
 10
-390.0
 20
286.0
 30
0.0
 11
-1008.100227948402
 21
286.0
 31
0.0
  0
LINE
  5
C5
  8
SIZE
  6
BYBLOCK
 62
    30
 10
-978.10022794840222
 20
123.0
 30
0.0
 11
-978.10022794840222
 21
222.5
 31
0.0
  0
LINE
  5
C6
  8
SIZE
  6
BYBLOCK
 62
    30
 10
-978.10022794840222
 20
284.0
 30
0.0
 11
-978.10022794840222
 21
222.5
 31
0.0
  0
TEXT
  5
C7
  8
SIZE
  6
BYBLOCK
 62
    30
 10
-1010.100227948402
 20
295.76015999999998
 30
0.0
 40
64.0
  1
165
 50
90.0
 41
0.9
  0
LINE
  5
C9
  8
SIZE
  6
BYBLOCK
 62
    30
 10
-390.0
 20
121.0
 30
0.0
 11
-1008.100227948402
 21
121.0
 31
0.0
  0
LINE
  5
CA
  8
SIZE
  6
BYBLOCK
 62
    30
 10
-978.10022794840222
 20
2.0
 30
0.0
 11
-978.10022794840222
 21
119.0
 31
0.0
  0
TEXT
  5
CC
  8
SIZE
  6
BYBLOCK
 62
    30
 10
-1010.100227948402
 20
-138.43939476521521
 30
0.0
 40
64.0
  1
121
 50
90.0
 41
0.9
  0
LINE
  5
CD
  8
SIZE
  6
BYBLOCK
 62
    30
 10
-535.0
 20
0.0
 30
0.0
 11
-1008.100227948402
 21
0.0
 31
0.0
  0
LINE
  5
D2
  8
SIZE
  6
BYBLOCK
 62
    30
 10
-525.0
 20
15.0
 30
0.0
 11
-525.0
 21
-467.471858
 31
0.0
  0
LINE
  5
D3
  8
SIZE
  6
BYBLOCK
 62
    30
 10
525.0
 20
15.0
 30
0.0
 11
525.0
 21
-467.471858
 31
0.0
  0
LINE
  5
D4
  8
SIZE
  6
BYBLOCK
 62
    30
 10
-523.0
 20
-437.47185799999988
 30
0.0
 11
523.0
 21
-437.47185799999988
 31
0.0
  0
TEXT
  5
D5
  8
SIZE
  6
BYBLOCK
 62
    30
 10
-81.0
 20
-405.471858
 30
0.0
 40
64.0
  1
1050
 41
0.9
  0
LINE
  5
D6
  8
SIZE
  6
BYBLOCK
 62
    30
 10
-525.00011099999995
 20
14.000011000000001
 30
0.0
 11
-525.00011099999995
 21
-334.75221599999998
 31
0.0
  0
LINE
  5
D7
  8
SIZE
  6
BYBLOCK
 62
    30
 10
-320.000111
 20
60.000011000000001
 30
0.0
 11
-320.000111
 21
-334.75221599999998
 31
0.0
  0
LINE
  5
D8
  8
SIZE
  6
BYBLOCK
 62
    30
 10
-523.00011099999995
 20
-304.75221599999998
 30
0.0
 11
-322.000111
 21
-304.75221599999998
 31
0.0
  0
TEXT
  5
D9
  8
SIZE
  6
BYBLOCK
 62
    30
 10
-506.07154000000003
 20
-272.75221599999998
 30
0.0
 40
64.0
  1
205
 41
0.9
  0
LINE
  5
DA
  8
SIZE
  6
BYBLOCK
 62
    30
 10
-525.00011099999995
 20
-5.9999890000000002
 30
0.0
 11
-525.00011099999995
 21
-159.69865799999999
 31
0.0
  0
LINE
  5
DB
  8
SIZE
  6
BYBLOCK
 62
    30
 10
-391.00011100000012
 20
10.000011000000001
 30
0.0
 11
-391.00011100000012
 21
-159.69865799999999
 31
0.0
  0
LINE
  5
DC
  8
SIZE
  6
BYBLOCK
 62
    30
 10
-523.00011099999995
 20
-129.69865799999999
 30
0.0
 11
-523.00011099999995
 21
-129.69865799999999
 31
0.0
  0
LINE
  5
DD
  8
SIZE
  6
BYBLOCK
 62
    30
 10
-393.000111
 20
-129.69865799999999
 30
0.0
 11
-523.00011099999995
 21
-129.69865799999999
 31
0.0
  0
TEXT
  5
DE
  8
SIZE
  6
BYBLOCK
 62
    30
 10
-696.78946099999996
 20
-97.698657999999995
 30
0.0
 40
64.0
  1
134
 41
0.9
  0
LINE
  5
DF
  8
SIZE
  6
BYBLOCK
 62
    30
 10
546.00001100000009
 20
340.00001099999997
 30
0.0
 11
740.12281399999983
 21
340.00001099999997
 31
0.0
  0
LINE
  5
E0
  8
SIZE
  6
BYBLOCK
 62
    30
 10
536.00001099999986
 20
0.000011
 30
0.0
 11
740.12281399999983
 21
0.000011
 31
0.0
  0
LINE
  5
E1
  8
SIZE
  6
BYBLOCK
 62
    30
 10
710.12281399999995
 20
338.00001099999997
 30
0.0
 11
710.12281399999995
 21
2.0000110000000002
 31
0.0
  0
TEXT
  5
E2
  8
SIZE
  6
BYBLOCK
 62
    30
 10
678.12281399999995
 20
95.942868999999973
 30
0.0
 40
64.0
  1
340
 50
90.0
 41
0.9
  0
CIRCLE
  5
E3
  8
SIZE
  6
CONTINUOUS
 62
    30
 10
710.12281399999995
 20
0.000011
 30
0.0
 40
6.0
  0
CIRCLE
  5
E4
  8
SIZE
  6
CONTINUOUS
 62
    30
 10
710.12281399999995
 20
340.00001099999997
 30
0.0
 40
6.0
  0
CIRCLE
  5
E5
  8
SIZE
  6
CONTINUOUS
 62
    30
 10
-391.00011100000012
 20
-129.69865799999999
 30
0.0
 40
6.0
  0
CIRCLE
  5
E6
  8
SIZE
  6
CONTINUOUS
 62
    30
 10
-525.00011099999995
 20
-129.69865799999999
 30
0.0
 40
6.0
  0
CIRCLE
  5
E7
  8
SIZE
  6
CONTINUOUS
 62
    30
 10
-320.000111
 20
-304.75221599999998
 30
0.0
 40
6.0
  0
CIRCLE
  5
E8
  8
SIZE
  6
CONTINUOUS
 62
    30
 10
-525.00011099999995
 20
-304.75221599999998
 30
0.0
 40
6.0
  0
CIRCLE
  5
E9
  8
SIZE
  6
CONTINUOUS
 62
    30
 10
525.0
 20
-437.47185799999988
 30
0.0
 40
6.0
  0
CIRCLE
  5
EA
  8
SIZE
  6
CONTINUOUS
 62
    30
 10
-525.0
 20
-437.47185799999988
 30
0.0
 40
6.0
  0
CIRCLE
  5
EC
  8
SIZE
  6
CONTINUOUS
 62
    30
 10
-978.10022794840222
 20
0.0
 30
0.0
 40
6.0
  0
CIRCLE
  5
ED
  8
SIZE
  6
CONTINUOUS
 62
    30
 10
-978.10022794840222
 20
121.0
 30
0.0
 40
6.0
  0
CIRCLE
  5
EF
  8
SIZE
  6
CONTINUOUS
 62
    30
 10
-978.10022794840222
 20
286.0
 30
0.0
 40
6.0
  0
CIRCLE
  5
F0
  8
SIZE
  6
CONTINUOUS
 62
    30
 10
-978.10022794840222
 20
121.0
 30
0.0
 40
6.0
  0
LINE
  5
135
  8
SIZE
  6
CONTINUOUS
 62
    30
 10
-724.97587899999985
 20
25.5
 30
0.0
 11
-724.97587899999985
 21
-110.026737
 31
0.0
  0
LINE
  5
136
  8
SIZE
  6
BYBLOCK
 62
    30
 10
-461.64134403942069
 20
55.999999999999993
 30
0.0
 11
-754.97587899999985
 21
55.999999999999993
 31
0.0
  0
LINE
  5
137
  8
SIZE
  6
BYBLOCK
 62
    30
 10
-724.97587899999985
 20
2.0
 30
0.0
 11
-724.97587899999985
 21
55.999999999999993
 31
0.0
  0
LINE
  5
138
  8
SIZE
  6
BYBLOCK
 62
    30
 10
-535.0
 20
0.0
 30
0.0
 11
-754.97587899999985
 21
0.0
 31
0.0
  0
CIRCLE
  5
139
  8
SIZE
  6
CONTINUOUS
 62
    30
 10
-724.97587899999985
 20
0.0
 30
0.0
 40
6.0
  0
CIRCLE
  5
13A
  8
SIZE
  6
CONTINUOUS
 62
    30
 10
-724.97587899999985
 20
55.999999999999993
 30
0.0
 40
6.0
  0
CIRCLE
  5
13B
  8
SIZE
  6
CONTINUOUS
 62
    30
 10
-724.97587899999985
 20
55.999999999999993
 30
0.0
 40
6.0
  0
TEXT
  5
141
  8
SIZE
  6
BYBLOCK
 62
    30
 10
-753.06297776837755
 20
-113.2092448639123
 30
0.0
 40
64.0
  1
56
 50
90.0
 41
0.9
  0
ENDSEC
  0
EOF
