  0
SECTION
  2
HEADER
  9
$ACADVER
  1
AC1009
  9
$INSBASE
 10
0.0
 20
0.0
 30
0.0
  9
$EXTMIN
 10
-46.67814438776076
 20
-802.04771820228598
 30
-0.0000000349181948
  9
$EXTMAX
 10
993.83698662723862
 20
545.05921207026029
 30
0.0000000814935747
  9
$LIMMIN
 10
-2970.0
 20
-2100.0
  9
$LIMMAX
 10
2970.0
 20
2100.0
  9
$ORTHOMODE
 70
     1
  9
$REGENMODE
 70
     0
  9
$FILLMODE
 70
     1
  9
$QTEXTMODE
 70
     0
  9
$MIRRTEXT
 70
     0
  9
$DRAGMODE
 70
     2
  9
$LTSCALE
 40
20.0
  9
$OSMODE
 70
   431
  9
$ATTMODE
 70
     1
  9
$TEXTSIZE
 40
64.0
  9
$TRACEWID
 40
0.05
  9
$TEXTSTYLE
  7
STANDARD
  9
$CLAYER
  8
SYMBOLLINE
  9
$CELTYPE
  6
CONTINUOUS
  9
$CECOLOR
 62
     7
  9
$DIMSCALE
 40
1.0
  9
$DIMASZ
 40
2.0
  9
$DIMEXO
 40
20.0
  9
$DIMDLI
 40
200.0
  9
$DIMRND
 40
0.0
  9
$DIMDLE
 40
0.0
  9
$DIMEXE
 40
30.0
  9
$DIMTP
 40
0.0
  9
$DIMTM
 40
0.0
  9
$DIMTXT
 40
64.0
  9
$DIMCEN
 40
0.09
  9
$DIMTSZ
 40
0.0
  9
$DIMTOL
 70
     0
  9
$DIMLIM
 70
     0
  9
$DIMTIH
 70
     0
  9
$DIMTOH
 70
     0
  9
$DIMSE1
 70
     0
  9
$DIMSE2
 70
     0
  9
$DIMTAD
 70
     1
  9
$DIMZIN
 70
     8
  9
$DIMBLK
  1

  9
$DIMASO
 70
     1
  9
$DIMSHO
 70
     0
  9
$DIMPOST
  1

  9
$DIMAPOST
  1

  9
$DIMALT
 70
     0
  9
$DIMALTD
 70
     2
  9
$DIMALTF
 40
25.399999999999999
  9
$DIMLFAC
 40
1.0
  9
$DIMTOFL
 70
     1
  9
$DIMTVP
 40
0.0
  9
$DIMTIX
 70
     1
  9
$DIMSOXD
 70
     0
  9
$DIMSAH
 70
     0
  9
$DIMBLK1
  1

  9
$DIMBLK2
  1

  9
$DIMSTYLE
  2
STANDARD
  9
$DIMCLRD
 70
     0
  9
$DIMCLRE
 70
     0
  9
$DIMCLRT
 70
     0
  9
$DIMTFAC
 40
1.0
  9
$DIMGAP
 40
0.09
  9
$LUNITS
 70
     2
  9
$LUPREC
 70
     4
  9
$SKETCHINC
 40
0.1
  9
$FILLETRAD
 40
0.0
  9
$AUNITS
 70
     1
  9
$AUPREC
 70
     3
  9
$MENU
  1
ACAD
  9
$ELEVATION
 40
0.0
  9
$PELEVATION
 40
0.0
  9
$THICKNESS
 40
0.0
  9
$LIMCHECK
 70
     0
  9
$BLIPMODE
 70
     0
  9
$CHAMFERA
 40
0.0
  9
$CHAMFERB
 40
0.0
  9
$SKPOLY
 70
     0
  9
$TDCREATE
 40
2449761.7340972219
  9
$TDUPDATE
 40
2456804.6239840048
  9
$TDINDWG
 40
0.0723856713
  9
$TDUSRTIMER
 40
0.0723845949
  9
$USRTIMER
 70
     1
  9
$ANGBASE
 50
0.0
  9
$ANGDIR
 70
     0
  9
$PDMODE
 70
     3
  9
$PDSIZE
 40
-2.0
  9
$PLINEWID
 40
0.0
  9
$COORDS
 70
     1
  9
$SPLFRAME
 70
     0
  9
$SPLINETYPE
 70
     6
  9
$SPLINESEGS
 70
     8
  9
$ATTDIA
 70
     0
  9
$ATTREQ
 70
     1
  9
$HANDLING
 70
     1
  9
$HANDSEED
  5
28A
  9
$SURFTAB1
 70
     6
  9
$SURFTAB2
 70
     6
  9
$SURFTYPE
 70
     6
  9
$SURFU
 70
     6
  9
$SURFV
 70
     6
  9
$UCSNAME
  2

  9
$UCSORG
 10
0.0
 20
0.0
 30
0.0
  9
$UCSXDIR
 10
1.0
 20
0.0
 30
0.0
  9
$UCSYDIR
 10
0.0
 20
1.0
 30
0.0
  9
$PUCSNAME
  2

  9
$PUCSORG
 10
0.0
 20
0.0
 30
0.0
  9
$PUCSXDIR
 10
1.0
 20
0.0
 30
0.0
  9
$PUCSYDIR
 10
0.0
 20
1.0
 30
0.0
  9
$USERI1
 70
     0
  9
$USERI2
 70
     0
  9
$USERI3
 70
     0
  9
$USERI4
 70
     0
  9
$USERI5
 70
     0
  9
$USERR1
 40
20.0
  9
$USERR2
 40
0.0
  9
$USERR3
 40
0.0
  9
$USERR4
 40
0.0
  9
$USERR5
 40
0.0
  9
$WORLDVIEW
 70
     1
  9
$SHADEDGE
 70
     3
  9
$SHADEDIF
 70
    70
  9
$TILEMODE
 70
     1
  9
$MAXACTVP
 70
    64
  9
$PLIMCHECK
 70
     0
  9
$PEXTMIN
 10
1.0000000000000000E+020
 20
1.0000000000000000E+020
 30
1.0000000000000000E+020
  9
$PEXTMAX
 10
-1.0000000000000000E+020
 20
-1.0000000000000000E+020
 30
-1.0000000000000000E+020
  9
$PLIMMIN
 10
0.0
 20
0.0
  9
$PLIMMAX
 10
12.0
 20
9.0
  9
$UNITMODE
 70
     0
  9
$VISRETAIN
 70
     1
  9
$PLINEGEN
 70
     0
  9
$PSLTSCALE
 70
     1
  0
ENDSEC
  0
SECTION
  2
TABLES
  0
TABLE
  2
VPORT
 70
     1
  0
VPORT
  2
*ACTIVE
 70
     0
 10
0.0
 20
0.0
 11
1.0
 21
1.0
 12
473.5794211197391
 22
-128.49425306601279
 13
0.0
 23
0.0
 14
50.0
 24
50.0
 15
100.0
 25
100.0
 16
0.0
 26
0.0
 36
1.0
 17
0.0
 27
0.0
 37
0.0
 40
1357.3640896401041
 41
1.554002541296061
 42
50.0
 43
0.0
 44
0.0
 50
0.0
 51
0.0
 71
     0
 72
  1000
 73
     1
 74
     0
 75
     0
 76
     0
 77
     0
 78
     0
  0
ENDTAB
  0
TABLE
  2
LTYPE
 70
     8
  0
LTYPE
  2
CONTINUOUS
 70
     0
  3
実線
 72
    65
 73
     0
 40
0.0
  0
LTYPE
  2
DASHDOT
 70
     0
  3
____ _ ____ _ ____ _ ____ _ ____ _ ____ _ ____
 72
    65
 73
     4
 40
5.5
 49
4.0
 49
-0.6
 49
0.3
 49
-0.6
  0
LTYPE
  2
DASHED
 70
     0
  3
_ _ _ _ _ _ _ _ _ _ _ _ _ _ _ _ _ _ _ _ _ _ _
 72
    65
 73
     2
 40
2.0
 49
1.1999999999999991
 49
-0.8
  0
LTYPE
  2
DOT
 70
     0
  3
...............................................
 72
    65
 73
     2
 40
0.8
 49
0.5
 49
-0.3
  0
LTYPE
  2
DASHDOT1
 70
     0
  3
____ _ ____ _ ____ _ ____ _ ____ _ ____ _ ____
 72
    65
 73
     4
 40
2.0
 49
1.5
 49
-0.2
 49
0.1
 49
-0.2
  0
LTYPE
  2
DIVIDE
 70
     0
  3
_____ _ _ _____ _ _ _____ _ _ _____ _ _ ____
 72
    65
 73
     6
 40
6.4000000000000004
 49
4.0
 49
-0.6
 49
0.3
 49
-0.6
 49
0.3
 49
-0.6
  0
LTYPE
  2
DIVIDE1
 70
     0
  3
_____ _ _ _____ _ _ _____ _ _ _____ _ _ ____
 72
    65
 73
     6
 40
3.2000000000000002
 49
2.0
 49
-0.3
 49
0.15
 49
-0.3
 49
0.15
 49
-0.3
  0
ENDTAB
  0
TABLE
  2
LAYER
 70
    12
  0
LAYER
  2
0
 70
     0
 62
     7
  6
CONTINUOUS
  0
LAYER
  2
SYMBOLLINE
 70
     0
 62
     7
  6
CONTINUOUS
  0
LAYER
  2
OUTLINE
 70
     0
 62
     7
  6
CONTINUOUS
  0
LAYER
  2
DETAIL
 70
     0
 62
     7
  6
CONTINUOUS
  0
LAYER
  2
BASIS
 70
     0
 62
     7
  6
CONTINUOUS
  0
LAYER
  2
SIZE
 70
     0
 62
     7
  6
CONTINUOUS
  0
LAYER
  2
NOTE
 70
     0
 62
     7
  6
CONTINUOUS
  0
LAYER
  2
DEFPOINTS
 70
     0
 62
     7
  6
CONTINUOUS
  0
LAYER
  2
ARRANGE
 70
     0
 62
     7
  6
CONTINUOUS
  0
LAYER
  2
ETC
 70
     0
 62
     7
  6
CONTINUOUS
  0
LAYER
  2
FIX
 70
     0
 62
     7
  6
CONTINUOUS
  0
LAYER
  2
SERVICESPACE
 70
     0
 62
     7
  6
CONTINUOUS
  0
ENDTAB
  0
TABLE
  2
STYLE
 70
     3
  0
STYLE
  2
STANDARD
 70
     0
 40
0.0
 41
0.9
 50
0.0
 71
     0
 42
64.0
  3
SIMPLEX
  4
BIGFONT
  0
STYLE
  2
ANNOTATIVE
 70
     0
 40
0.0
 41
1.0
 50
0.0
 71
     0
 42
0.2
  3
txt
  4

  0
STYLE
  2
STANDARD1
 70
     0
 40
0.0
 41
1.0
 50
0.0
 71
     0
 42
64.0
  3
MONOTXT
  4
BIGFONT
  0
ENDTAB
  0
TABLE
  2
VIEW
 70
     1
  0
VIEW
  2
ALL
 70
     0
 40
4282.6198079999976
 10
0.0
 20
41.309903999999989
 41
5940.0
 11
0.0
 21
0.0
 31
1.0
 12
0.0
 22
0.0
 32
0.0
 42
50.0
 43
0.0
 44
0.0
 50
0.0
 71
     0
  0
ENDTAB
  0
TABLE
  2
UCS
 70
     0
  0
ENDTAB
  0
TABLE
  2
APPID
 70
     4
  0
APPID
  2
ACAD
 70
     0
  0
APPID
  2
ACADANNOTATIVE
 70
     0
  0
APPID
  2
ACAD_MLEADERVER
 70
     0
  0
APPID
  2
ACAD_EXEMPT_FROM_CAD_STANDARDS
 70
     0
  0
ENDTAB
  0
TABLE
  2
DIMSTYLE
 70
     3
  0
DIMSTYLE
  2
STANDARD
 70
     0
  3

  4

  5

  6

  7

 40
1.0
 41
0.18
 42
0.0625
 43
0.38
 44
0.18
 45
0.0
 46
0.0
 47
0.0
 48
0.0
140
0.18
141
0.09
142
0.0
143
25.399999999999999
144
1.0
145
0.0
146
1.0
147
0.09
 71
     0
 72
     0
 73
     1
 74
     1
 75
     0
 76
     0
 77
     0
 78
     0
170
     0
171
     2
172
     0
173
     0
174
     0
175
     0
176
     0
177
     0
178
     0
  0
DIMSTYLE
  2
ANNOTATIVE
 70
     0
  3

  4

  5

  6

  7

 40
1.0
 41
0.18
 42
0.0625
 43
0.38
 44
0.18
 45
0.0
 46
0.0
 47
0.0
 48
0.0
140
0.18
141
0.09
142
0.0
143
25.399999999999999
144
1.0
145
0.0
146
1.0
147
0.09
 71
     0
 72
     0
 73
     1
 74
     1
 75
     0
 76
     0
 77
     0
 78
     0
170
     0
171
     2
172
     0
173
     0
174
     0
175
     0
176
     0
177
     0
178
     0
  0
ENDTAB
  0
ENDSEC
  0
SECTION
  2
BLOCKS
  0
BLOCK
  8
0
  2
$MODEL_SPACE
 70
     0
 10
0.0
 20
0.0
 30
0.0
  3
$MODEL_SPACE
  1

  0
ENDBLK
  5
228
  8
0
  0
BLOCK
 67
     1
  8
0
  2
$PAPER_SPACE
 70
     0
 10
0.0
 20
0.0
 30
0.0
  3
$PAPER_SPACE
  1

  0
ENDBLK
  5
224
 67
     1
  8
0
  0
BLOCK
  8
0
 62
     7
  2
*D2
 70
     1
 10
0.0
 20
0.0
 30
0.0
  3
*D2
  1

  0
LINE
  5
193
  8
SYMBOLLINE
  6
CONTINUOUS
 62
     0
 10
-20.0
 20
330.0
 30
0.0
 11
-798.32937142269452
 21
330.00000000000028
 31
0.0
  0
LINE
  5
194
  8
SYMBOLLINE
  6
CONTINUOUS
 62
     0
 10
-20.0
 20
-330.0
 30
0.0
 11
-798.32937142269475
 21
-329.99999999999972
 31
0.0
  0
LINE
  5
195
  8
SYMBOLLINE
  6
CONTINUOUS
 62
     0
 10
-768.32937142269452
 20
328.00000000000028
 30
0.0
 11
-768.32937142269475
 21
-327.99999999999972
 31
0.0
  0
SOLID
  5
196
  8
SYMBOLLINE
  6
CONTINUOUS
 62
     0
 10
-768.66270475602789
 20
328.00000000000028
 30
0.0
 11
-767.99603808936115
 21
328.00000000000028
 31
0.0
 12
-768.32937142269452
 22
330.00000000000028
 32
0.0
 13
-768.32937142269452
 23
330.00000000000028
 33
0.0
  0
SOLID
  5
197
  8
SYMBOLLINE
  6
CONTINUOUS
 62
     0
 10
-768.66270475602812
 20
-327.99999999999972
 30
0.0
 11
-767.99603808936115
 21
-327.99999999999972
 31
0.0
 12
-768.32937142269475
 22
-329.99999999999972
 32
0.0
 13
-768.32937142269475
 23
-329.99999999999972
 33
0.0
  0
INSERT
  5
198
  8
SYMBOLLINE
  6
CONTINUOUS
 62
     7
  2
*U3
 10
0.0
 20
0.0
 30
0.0
  0
POINT
  5
199
  8
DEFPOINTS
  6
CONTINUOUS
 62
     0
 10
0.0
 20
330.0
 30
0.0
  0
POINT
  5
19A
  8
DEFPOINTS
  6
CONTINUOUS
 62
     0
 10
0.0
 20
-330.0
 30
0.0
  0
POINT
  5
19B
  8
DEFPOINTS
  6
CONTINUOUS
 62
     0
 10
-768.32937142269475
 20
-329.99999999999972
 30
0.0
  0
ENDBLK
  5
192
  8
0
 62
     7
  0
BLOCK
  8
0
 62
     7
  2
*U3
 70
     1
 10
0.0
 20
0.0
 30
0.0
  3
*U3
  1

  0
TEXT
  5
1B0
  8
SYMBOLLINE
  6
CONTINUOUS
 62
     0
 10
-768.41937142269455
 20
-74.057142857142736
 30
0.0
 40
64.0
  1
660
 50
90.0
 41
0.9
  0
ENDBLK
  5
1B2
  8
0
 62
     7
  0
ENDSEC
  0
SECTION
  2
ENTITIES
  0
LINE
  5
90
  8
NOTE
  6
CONTINUOUS
 62
     4
 10
279.0
 20
-340.0
 30
0.0
 11
279.0
 21
-300.0
 31
0.0
  0
LINE
  5
91
  8
NOTE
  6
CONTINUOUS
 62
     4
 10
259.0
 20
-392.0
 30
0.0
 11
299.0
 21
-392.0
 31
0.0
  0
LINE
  5
92
  8
NOTE
  6
CONTINUOUS
 62
     4
 10
279.0
 20
-412.0
 30
0.0
 11
279.0
 21
-372.0
 31
0.0
  0
TEXT
  5
93
  8
NOTE
  6
CONTINUOUS
 62
     4
 10
62.660253000000019
 20
-464.87378399999989
 30
0.0
 40
64.0
  1
Ｄ
 50
0.000003
 41
0.572917
  7
STANDARD1
  0
LINE
  5
94
  8
NOTE
  6
CONTINUOUS
 62
     4
 10
279.0
 20
-392.0
 30
0.0
 11
243.664446
 21
-410.74563099999989
 31
0.0
  0
LINE
  5
95
  8
NOTE
  6
CONTINUOUS
 62
     4
 10
279.0
 20
-392.0
 30
0.0
 11
257.7713280000001
 21
-425.90196899999989
 31
0.0
  0
LINE
  5
96
  8
NOTE
  6
CONTINUOUS
 62
     4
 10
179.21703600000001
 20
-484.87378200000012
 30
0.0
 11
279.0
 21
-392.0
 31
0.0
  0
LINE
  5
97
  8
NOTE
  6
CONTINUOUS
 62
     4
 10
52.661229000000013
 20
-484.87378200000012
 30
0.0
 11
179.21703600000001
 21
-484.87378200000012
 31
0.0
  0
TEXT
  5
98
  8
NOTE
  6
CONTINUOUS
 62
     4
 10
466.64181569176498
 20
-490.01550440844989
 30
0.0
 40
64.0
  1
CH,CHR
 50
0.000003
 41
0.6845240000000002
  7
STANDARD1
  0
LINE
  5
99
  8
NOTE
  6
CONTINUOUS
 62
     4
 10
278.999953
 20
-320.0
 30
0.0
 11
299.20404200000002
 21
-354.52238
 31
0.0
  0
LINE
  5
9A
  8
NOTE
  6
CONTINUOUS
 62
     4
 10
278.999953
 20
-320.0
 30
0.0
 11
313.758398
 21
-339.79521299999999
 31
0.0
  0
LINE
  5
9B
  8
NOTE
  6
CONTINUOUS
 62
     4
 10
456.64376869176499
 20
-510.01548840844993
 30
0.0
 11
278.999953
 21
-320.0
 31
0.0
  0
LINE
  5
9C
  8
NOTE
  6
CONTINUOUS
 62
     4
 10
456.64376869176499
 20
-510.01548840844993
 30
0.0
 11
734.09811240177805
 21
-510.01548840844993
 31
0.0
  0
LINE
  5
A4
  8
BASIS
  6
DASHDOT
 62
     6
 10
428.45001100000002
 20
0.0
 30
0.0
 11
-46.619531000000002
 21
0.0
 31
0.0
  0
LINE
  5
A5
  8
BASIS
  6
DASHDOT
 62
     6
 10
166.0
 20
390.0
 30
0.0
 11
166.0
 21
-410.0
 31
0.0
  0
POINT
  5
A6
  8
ARRANGE
  6
CONTINUOUS
 62
     1
 10
0.0
 20
0.0
 30
0.0
  0
LINE
  5
A7
  8
DETAIL
  6
CONTINUOUS
 62
     5
 10
332.0
 20
-392.0
 30
0.0
 11
332.0
 21
355.0
 31
0.0
  0
LINE
  5
A8
  8
DETAIL
  6
CONTINUOUS
 62
     5
 10
0.0
 20
-330.0
 30
0.0
 11
0.0
 21
330.0
 31
0.0
  0
LINE
  5
A9
  8
DETAIL
  6
CONTINUOUS
 62
     5
 10
209.0
 20
-290.0
 30
0.0
 11
114.0
 21
-290.0
 31
0.0
  0
LINE
  5
AA
  8
DETAIL
  6
CONTINUOUS
 62
     5
 10
209.0
 20
290.0
 30
0.0
 11
114.0
 21
290.0
 31
0.0
  0
LINE
  5
AB
  8
DETAIL
  6
CONTINUOUS
 62
     5
 10
332.0
 20
330.0
 30
0.0
 11
0.0
 21
330.0
 31
0.0
  0
LINE
  5
AC
  8
DETAIL
  6
CONTINUOUS
 62
     5
 10
332.0
 20
-330.0
 30
0.0
 11
0.0
 21
-330.0
 31
0.0
  0
LINE
  5
AD
  8
DETAIL
  6
CONTINUOUS
 62
     5
 10
209.0
 20
-290.0
 30
0.0
 11
209.0
 21
290.0
 31
0.0
  0
LINE
  5
AE
  8
DETAIL
  6
CONTINUOUS
 62
     5
 10
114.0
 20
-290.0
 30
0.0
 11
114.0
 21
290.0
 31
0.0
  0
LINE
  5
AF
  8
DETAIL
  6
CONTINUOUS
 62
     5
 10
332.0
 20
355.0
 30
0.0
 11
226.0
 21
355.0
 31
0.0
  0
LINE
  5
B0
  8
DETAIL
  6
CONTINUOUS
 62
     5
 10
332.0
 20
-392.0
 30
0.0
 11
226.0
 21
-392.0
 31
0.0
  0
LINE
  5
B1
  8
DETAIL
  6
CONTINUOUS
 62
     5
 10
226.0
 20
-392.0
 30
0.0
 11
226.0
 21
-330.0
 31
0.0
  0
LINE
  5
B2
  8
DETAIL
  6
CONTINUOUS
 62
     5
 10
226.0
 20
330.0
 30
0.0
 11
226.0
 21
355.0
 31
0.0
  0
LINE
  5
B5
  8
NOTE
  6
CONTINUOUS
 62
     4
 10
298.999953
 20
-320.0
 30
0.0
 11
258.999953
 21
-320.0
 31
0.0
  0
LINE
  5
B8
  8
SIZE
  6
CONTINUOUS
 62
    30
 10
636.36997928498465
 20
-348.0
 30
0.0
 11
636.36997928498465
 21
-171.395094
 31
0.0
  0
CIRCLE
  5
B9
  8
ARRANGE
  6
CONTINUOUS
 62
     1
 10
0.0
 20
0.0
 30
0.0
 40
40.0
  0
LINE
  5
BA
  8
SIZE
  6
CONTINUOUS
 62
    30
 10
330.0
 20
-649.66435905298215
 30
0.0
 11
484.858024
 21
-649.66435905298215
 31
0.0
  0
LINE
  5
BB
  8
OUTLINE
  6
CONTINUOUS
 62
     3
 10
332.0
 20
-330.0
 30
0.0
 11
0.0
 21
-330.0
 31
0.0
  0
LINE
  5
BC
  8
OUTLINE
  6
CONTINUOUS
 62
     3
 10
332.0
 20
330.0
 30
0.0
 11
0.0
 21
330.0
 31
0.0
  0
LINE
  5
BD
  8
OUTLINE
  6
CONTINUOUS
 62
     3
 10
0.0
 20
-330.0
 30
0.0
 11
0.0
 21
330.0
 31
0.0
  0
LINE
  5
BE
  8
OUTLINE
  6
CONTINUOUS
 62
     3
 10
332.0
 20
-330.0
 30
0.0
 11
332.0
 21
330.0
 31
0.0
  0
LINE
  5
BF
  8
SIZE
  6
CONTINUOUS
 62
    30
 10
332.0
 20
-408.89156635603092
 30
0.0
 11
332.0
 21
-801.89993605298184
 31
0.0
  0
LINE
  5
C0
  8
SIZE
  6
CONTINUOUS
 62
    30
 10
0.0
 20
-344.62363905298213
 30
0.0
 11
0.0
 21
-801.89993605298184
 31
0.0
  0
LINE
  5
C1
  8
SIZE
  6
CONTINUOUS
 62
    30
 10
330.0
 20
-771.89993605298218
 30
0.0
 11
2.0
 21
-771.89993605298218
 31
0.0
  0
TEXT
  5
C3
  8
SIZE
  6
CONTINUOUS
 62
    30
 10
92.942857000000004
 20
-739.89993605298184
 30
0.0
 40
64.0
  1
332
 41
0.9
  0
LINE
  5
C4
  8
SIZE
  6
CONTINUOUS
 62
    30
 10
332.0
 20
-408.89156635603092
 30
0.0
 11
332.0
 21
-679.66435905298215
 31
0.0
  0
LINE
  5
C5
  8
SIZE
  6
CONTINUOUS
 62
    30
 10
279.0
 20
-427.92384243773529
 30
0.0
 11
279.0
 21
-679.66435905298215
 31
0.0
  0
LINE
  5
C6
  8
SIZE
  6
CONTINUOUS
 62
    30
 10
330.0
 20
-649.66435905298215
 30
0.0
 11
281.0
 21
-649.66435905298215
 31
0.0
  0
TEXT
  5
C8
  8
SIZE
  6
CONTINUOUS
 62
    30
 10
353.47901200000001
 20
-617.66435905298215
 30
0.0
 40
64.0
  1
53
 41
0.9
  0
LINE
  5
C9
  8
SIZE
  6
CONTINUOUS
 62
    30
 10
352.0
 20
-392.0
 30
0.0
 11
666.36997928498465
 21
-392.0
 31
0.0
  0
LINE
  5
CA
  8
SIZE
  6
CONTINUOUS
 62
    30
 10
342.3432826076496
 20
-330.0
 30
0.0
 11
666.36997928498465
 21
-330.0
 31
0.0
  0
LINE
  5
CC
  8
SIZE
  6
CONTINUOUS
 62
    30
 10
636.36997928498465
 20
-330.0
 30
0.0
 11
636.36997928498465
 21
-390.0
 31
0.0
  0
TEXT
  5
CD
  8
SIZE
  6
CONTINUOUS
 62
    30
 10
604.36997928498477
 20
-291.43832800000001
 30
0.0
 40
64.0
  1
62
 50
90.0
 41
0.9
  0
LINE
  5
CE
  8
SIZE
  6
CONTINUOUS
 62
    30
 10
352.0
 20
-392.0
 30
0.0
 11
778.47612228498463
 21
-392.0
 31
0.0
  0
LINE
  5
CF
  8
SIZE
  6
CONTINUOUS
 62
    30
 10
181.70561465544591
 20
381.0
 30
0.0
 11
778.47612228498463
 21
381.0
 31
0.0
  0
LINE
  5
D0
  8
SIZE
  6
CONTINUOUS
 62
    30
 10
748.47612228498463
 20
-390.0
 30
0.0
 11
748.47612228498463
 21
379.0
 31
0.0
  0
TEXT
  5
D1
  8
SIZE
  6
CONTINUOUS
 62
    30
 10
716.47612228498474
 20
-85.557142999999982
 30
0.0
 40
64.0
  1
773
 50
90.0
 41
0.9
  0
CIRCLE
  5
D2
  8
SIZE
  6
CONTINUOUS
 62
    30
 10
748.47612228498463
 20
381.0
 30
0.0
 40
6.0
  0
CIRCLE
  5
D3
  8
SIZE
  6
CONTINUOUS
 62
    30
 10
748.47612228498463
 20
-392.0
 30
0.0
 40
6.0
  0
CIRCLE
  5
D4
  8
SIZE
  6
CONTINUOUS
 62
    30
 10
636.36997928498465
 20
-328.0
 30
0.0
 40
6.0
  0
CIRCLE
  5
D5
  8
SIZE
  6
CONTINUOUS
 62
    30
 10
636.36997928498465
 20
-392.0
 30
0.0
 40
6.0
  0
CIRCLE
  5
D6
  8
SIZE
  6
CONTINUOUS
 62
    30
 10
279.0
 20
-649.66435905298215
 30
0.0
 40
6.0
  0
CIRCLE
  5
D7
  8
SIZE
  6
CONTINUOUS
 62
    30
 10
332.0
 20
-649.66435905298215
 30
0.0
 40
6.0
  0
CIRCLE
  5
D8
  8
SIZE
  6
CONTINUOUS
 62
    30
 10
0.0
 20
-771.89993605298218
 30
0.0
 40
6.0
  0
CIRCLE
  5
D9
  8
SIZE
  6
CONTINUOUS
 62
    30
 10
332.0
 20
-771.89993605298218
 30
0.0
 40
6.0
  0
TEXT
  5
DF
  8
ETC
  6
CONTINUOUS
 62
    61
 10
442.45937665052941
 20
481.00589542922978
 30
0.0
 40
64.0
  1
LV-200WLFR-C_1
 50
0.000003
 41
0.638021
  7
STANDARD1
  0
LINE
  5
119
  8
DETAIL
  6
CONTINUOUS
 62
     5
 10
166.0
 20
381.0
 30
0.0
 11
37.999997838920542
 21
381.0
 31
0.0
  0
LINE
  5
11A
  8
DETAIL
  6
CONTINUOUS
 62
     5
 10
37.999997838920542
 20
381.0
 30
0.0
 11
37.999997838920542
 21
330.0
 31
0.0
  0
LINE
  5
11B
  8
DETAIL
  6
CONTINUOUS
 62
     5
 10
166.0
 20
381.0
 30
0.0
 11
166.0
 21
330.0
 31
0.0
  0
LINE
  5
136
  8
SIZE
  6
CONTINUOUS
 62
    30
 10
498.37612860764972
 20
-338.0
 30
0.0
 11
498.37612860764972
 21
-161.395094
 31
0.0
  0
LINE
  5
137
  8
SIZE
  6
CONTINUOUS
 62
    30
 10
342.3432826076496
 20
-330.0
 30
0.0
 11
528.37612860764955
 21
-330.0
 31
0.0
  0
LINE
  5
138
  8
SIZE
  6
CONTINUOUS
 62
    30
 10
320.34193169639002
 20
-320.0
 30
0.0
 11
528.37612860764955
 21
-320.0
 31
0.0
  0
LINE
  5
139
  8
SIZE
  6
CONTINUOUS
 62
    30
 10
498.37612860764972
 20
-320.0
 30
0.0
 11
498.37612860764972
 21
-328.0
 31
0.0
  0
TEXT
  5
13A
  8
SIZE
  6
CONTINUOUS
 62
    30
 10
466.37612860764949
 20
-281.4383279999999
 30
0.0
 40
64.0
  1
10
 50
90.0
 41
0.9
  0
CIRCLE
  5
13B
  8
SIZE
  6
CONTINUOUS
 62
    30
 10
498.37612860764972
 20
-318.0
 30
0.0
 40
6.0
  0
CIRCLE
  5
13C
  8
SIZE
  6
CONTINUOUS
 62
    30
 10
498.37612860764972
 20
-330.0
 30
0.0
 40
6.0
  0
ENDSEC
  0
EOF
