  0
SECTION
  2
HEADER
  9
$ACADVER
  1
AC1009
  9
$INSBASE
 10
0.0
 20
0.0
 30
0.0
  9
$EXTMIN
 10
-910.45072840113596
 20
-835.05247898289588
 30
-0.0000000000000058
  9
$EXTMAX
 10
964.37989430778907
 20
228.14942166226501
 30
0.0000000000000104
  9
$LIMMIN
 10
-2970.0
 20
-2100.0
  9
$LIMMAX
 10
2970.0
 20
2100.0
  9
$ORTHOMODE
 70
     1
  9
$REGENMODE
 70
     0
  9
$FILLMODE
 70
     1
  9
$QTEXTMODE
 70
     0
  9
$MIRRTEXT
 70
     0
  9
$DRAGMODE
 70
     2
  9
$LTSCALE
 40
20.0
  9
$OSMODE
 70
   431
  9
$ATTMODE
 70
     1
  9
$TEXTSIZE
 40
64.0
  9
$TRACEWID
 40
0.05
  9
$TEXTSTYLE
  7
STANDARD
  9
$CLAYER
  8
SYMBOLLINE
  9
$CELTYPE
  6
CONTINUOUS
  9
$CECOLOR
 62
     7
  9
$DIMSCALE
 40
1.0
  9
$DIMASZ
 40
2.0
  9
$DIMEXO
 40
20.0
  9
$DIMDLI
 40
200.0
  9
$DIMRND
 40
0.0
  9
$DIMDLE
 40
0.0
  9
$DIMEXE
 40
30.0
  9
$DIMTP
 40
0.0
  9
$DIMTM
 40
0.0
  9
$DIMTXT
 40
64.0
  9
$DIMCEN
 40
0.09
  9
$DIMTSZ
 40
0.0
  9
$DIMTOL
 70
     0
  9
$DIMLIM
 70
     0
  9
$DIMTIH
 70
     0
  9
$DIMTOH
 70
     0
  9
$DIMSE1
 70
     0
  9
$DIMSE2
 70
     0
  9
$DIMTAD
 70
     1
  9
$DIMZIN
 70
     8
  9
$DIMBLK
  1

  9
$DIMASO
 70
     1
  9
$DIMSHO
 70
     0
  9
$DIMPOST
  1

  9
$DIMAPOST
  1

  9
$DIMALT
 70
     0
  9
$DIMALTD
 70
     2
  9
$DIMALTF
 40
25.399999999999999
  9
$DIMLFAC
 40
1.0
  9
$DIMTOFL
 70
     1
  9
$DIMTVP
 40
0.0
  9
$DIMTIX
 70
     1
  9
$DIMSOXD
 70
     0
  9
$DIMSAH
 70
     0
  9
$DIMBLK1
  1

  9
$DIMBLK2
  1

  9
$DIMSTYLE
  2
STANDARD
  9
$DIMCLRD
 70
     0
  9
$DIMCLRE
 70
     0
  9
$DIMCLRT
 70
     0
  9
$DIMTFAC
 40
1.0
  9
$DIMGAP
 40
0.09
  9
$LUNITS
 70
     2
  9
$LUPREC
 70
     4
  9
$SKETCHINC
 40
0.1
  9
$FILLETRAD
 40
0.0
  9
$AUNITS
 70
     1
  9
$AUPREC
 70
     3
  9
$MENU
  1
ACAD
  9
$ELEVATION
 40
0.0
  9
$PELEVATION
 40
0.0
  9
$THICKNESS
 40
0.0
  9
$LIMCHECK
 70
     0
  9
$BLIPMODE
 70
     0
  9
$CHAMFERA
 40
0.0
  9
$CHAMFERB
 40
0.0
  9
$SKPOLY
 70
     0
  9
$TDCREATE
 40
2449761.731863426
  9
$TDUPDATE
 40
2456804.6201040051
  9
$TDINDWG
 40
0.0237155093
  9
$TDUSRTIMER
 40
0.0237140741
  9
$USRTIMER
 70
     1
  9
$ANGBASE
 50
0.0
  9
$ANGDIR
 70
     0
  9
$PDMODE
 70
     3
  9
$PDSIZE
 40
-2.0
  9
$PLINEWID
 40
0.0
  9
$COORDS
 70
     1
  9
$SPLFRAME
 70
     0
  9
$SPLINETYPE
 70
     6
  9
$SPLINESEGS
 70
     8
  9
$ATTDIA
 70
     0
  9
$ATTREQ
 70
     1
  9
$HANDLING
 70
     1
  9
$HANDSEED
  5
3AD
  9
$SURFTAB1
 70
     6
  9
$SURFTAB2
 70
     6
  9
$SURFTYPE
 70
     6
  9
$SURFU
 70
     6
  9
$SURFV
 70
     6
  9
$UCSNAME
  2

  9
$UCSORG
 10
0.0
 20
0.0
 30
0.0
  9
$UCSXDIR
 10
1.0
 20
0.0
 30
0.0
  9
$UCSYDIR
 10
0.0
 20
1.0
 30
0.0
  9
$PUCSNAME
  2

  9
$PUCSORG
 10
0.0
 20
0.0
 30
0.0
  9
$PUCSXDIR
 10
1.0
 20
0.0
 30
0.0
  9
$PUCSYDIR
 10
0.0
 20
1.0
 30
0.0
  9
$USERI1
 70
     0
  9
$USERI2
 70
     0
  9
$USERI3
 70
     0
  9
$USERI4
 70
     0
  9
$USERI5
 70
     0
  9
$USERR1
 40
20.0
  9
$USERR2
 40
0.0
  9
$USERR3
 40
0.0
  9
$USERR4
 40
0.0
  9
$USERR5
 40
0.0
  9
$WORLDVIEW
 70
     1
  9
$SHADEDGE
 70
     3
  9
$SHADEDIF
 70
    70
  9
$TILEMODE
 70
     1
  9
$MAXACTVP
 70
    64
  9
$PLIMCHECK
 70
     0
  9
$PEXTMIN
 10
1.0000000000000000E+020
 20
1.0000000000000000E+020
 30
1.0000000000000000E+020
  9
$PEXTMAX
 10
-1.0000000000000000E+020
 20
-1.0000000000000000E+020
 30
-1.0000000000000000E+020
  9
$PLIMMIN
 10
0.0
 20
0.0
  9
$PLIMMAX
 10
12.0
 20
9.0
  9
$UNITMODE
 70
     0
  9
$VISRETAIN
 70
     1
  9
$PLINEGEN
 70
     0
  9
$PSLTSCALE
 70
     1
  0
ENDSEC
  0
SECTION
  2
TABLES
  0
TABLE
  2
VPORT
 70
     1
  0
VPORT
  2
*ACTIVE
 70
     0
 10
0.0
 20
0.0
 11
1.0
 21
1.0
 12
26.964582953326499
 22
-303.45152866031549
 13
0.0
 23
0.0
 14
50.0
 24
50.0
 15
100.0
 25
100.0
 16
0.0
 26
0.0
 36
1.0
 17
0.0
 27
0.0
 37
0.0
 40
1212.364047685121
 41
1.5540025412960601
 42
50.0
 43
0.0
 44
0.0
 50
0.0
 51
0.0
 71
     0
 72
  1000
 73
     1
 74
     0
 75
     0
 76
     0
 77
     0
 78
     0
  0
ENDTAB
  0
TABLE
  2
LTYPE
 70
     7
  0
LTYPE
  2
CONTINUOUS
 70
     0
  3
実線
 72
    65
 73
     0
 40
0.0
  0
LTYPE
  2
DASHDOT
 70
     0
  3
____ _ ____ _ ____ _ ____ _ ____ _ ____ _ ____
 72
    65
 73
     4
 40
5.5
 49
4.0
 49
-0.6
 49
0.3
 49
-0.6
  0
LTYPE
  2
DASHED
 70
     0
  3
_ _ _ _ _ _ _ _ _ _ _ _ _ _ _ _ _ _ _ _ _ _ _
 72
    65
 73
     2
 40
2.0
 49
1.1999999999999991
 49
-0.8
  0
LTYPE
  2
DOT
 70
     0
  3
...............................................
 72
    65
 73
     2
 40
0.8
 49
0.5
 49
-0.3
  0
LTYPE
  2
DASHDOT1
 70
     0
  3
____ _ ____ _ ____ _ ____ _ ____ _ ____ _ ____
 72
    65
 73
     4
 40
2.0
 49
1.5
 49
-0.2
 49
0.1
 49
-0.2
  0
LTYPE
  2
DIVIDE
 70
     0
  3
_____ _ _ _____ _ _ _____ _ _ _____ _ _ ____
 72
    65
 73
     6
 40
6.4000000000000004
 49
4.0
 49
-0.6
 49
0.3
 49
-0.6
 49
0.3
 49
-0.6
  0
LTYPE
  2
DIVIDE1
 70
     0
  3
_____ _ _ _____ _ _ _____ _ _ _____ _ _ ____
 72
    65
 73
     6
 40
3.2000000000000002
 49
2.0
 49
-0.3
 49
0.15
 49
-0.3
 49
0.15
 49
-0.3
  0
ENDTAB
  0
TABLE
  2
LAYER
 70
    12
  0
LAYER
  2
0
 70
     0
 62
     7
  6
CONTINUOUS
  0
LAYER
  2
SYMBOLLINE
 70
     0
 62
     7
  6
CONTINUOUS
  0
LAYER
  2
OUTLINE
 70
     0
 62
     7
  6
CONTINUOUS
  0
LAYER
  2
DETAIL
 70
     0
 62
     7
  6
CONTINUOUS
  0
LAYER
  2
BASIS
 70
     0
 62
     7
  6
CONTINUOUS
  0
LAYER
  2
NOTE
 70
     0
 62
     7
  6
CONTINUOUS
  0
LAYER
  2
DEFPOINTS
 70
     0
 62
     7
  6
CONTINUOUS
  0
LAYER
  2
SIZE
 70
     0
 62
     7
  6
CONTINUOUS
  0
LAYER
  2
ARRANGE
 70
     0
 62
     7
  6
CONTINUOUS
  0
LAYER
  2
ETC
 70
     0
 62
     7
  6
CONTINUOUS
  0
LAYER
  2
FIX
 70
     0
 62
     7
  6
CONTINUOUS
  0
LAYER
  2
SERVICESPACE
 70
     0
 62
     7
  6
CONTINUOUS
  0
ENDTAB
  0
TABLE
  2
STYLE
 70
     3
  0
STYLE
  2
STANDARD
 70
     0
 40
0.0
 41
0.9
 50
0.0
 71
     0
 42
64.0
  3
SIMPLEX
  4
BIGFONT
  0
STYLE
  2
ANNOTATIVE
 70
     0
 40
0.0
 41
1.0
 50
0.0
 71
     0
 42
0.2
  3
txt
  4

  0
STYLE
  2
STANDARD1
 70
     0
 40
0.0
 41
1.0
 50
0.0
 71
     0
 42
64.0
  3
MONOTXT
  4
BIGFONT
  0
ENDTAB
  0
TABLE
  2
VIEW
 70
     1
  0
VIEW
  2
ALL
 70
     0
 40
4282.6198079999967
 10
0.0
 20
41.309903999999989
 41
5940.0
 11
0.0
 21
0.0
 31
1.0
 12
0.0
 22
0.0
 32
0.0
 42
50.0
 43
0.0
 44
0.0
 50
0.0
 71
     0
  0
ENDTAB
  0
TABLE
  2
UCS
 70
     0
  0
ENDTAB
  0
TABLE
  2
APPID
 70
     4
  0
APPID
  2
ACAD
 70
     0
  0
APPID
  2
ACADANNOTATIVE
 70
     0
  0
APPID
  2
ACAD_MLEADERVER
 70
     0
  0
APPID
  2
ACAD_EXEMPT_FROM_CAD_STANDARDS
 70
     0
  0
ENDTAB
  0
TABLE
  2
DIMSTYLE
 70
     2
  0
DIMSTYLE
  2
STANDARD
 70
     0
  3

  4

  5

  6

  7

 40
1.0
 41
0.18
 42
0.0625
 43
0.38
 44
0.18
 45
0.0
 46
0.0
 47
0.0
 48
0.0
140
0.18
141
0.09
142
0.0
143
25.399999999999999
144
1.0
145
0.0
146
1.0
147
0.09
 71
     0
 72
     0
 73
     1
 74
     1
 75
     0
 76
     0
 77
     0
 78
     0
170
     0
171
     2
172
     0
173
     0
174
     0
175
     0
176
     0
177
     0
178
     0
  0
DIMSTYLE
  2
ANNOTATIVE
 70
     0
  3

  4

  5

  6

  7

 40
1.0
 41
0.18
 42
0.0625
 43
0.38
 44
0.18
 45
0.0
 46
0.0
 47
0.0
 48
0.0
140
0.18
141
0.09
142
0.0
143
25.399999999999999
144
1.0
145
0.0
146
1.0
147
0.09
 71
     0
 72
     0
 73
     1
 74
     1
 75
     0
 76
     0
 77
     0
 78
     0
170
     0
171
     2
172
     0
173
     0
174
     0
175
     0
176
     0
177
     0
178
     0
  0
ENDTAB
  0
ENDSEC
  0
SECTION
  2
BLOCKS
  0
BLOCK
  8
0
  2
$MODEL_SPACE
 70
     0
 10
0.0
 20
0.0
 30
0.0
  3
$MODEL_SPACE
  1

  0
ENDBLK
  5
359
  8
0
  0
BLOCK
 67
     1
  8
0
  2
$PAPER_SPACE
 70
     0
 10
0.0
 20
0.0
 30
0.0
  3
$PAPER_SPACE
  1

  0
ENDBLK
  5
355
 67
     1
  8
0
  0
ENDSEC
  0
SECTION
  2
ENTITIES
  0
LINE
  5
8F
  8
NOTE
  6
CONTINUOUS
 62
     4
 10
-551.0
 20
-279.0
 30
0.0
 11
-591.0
 21
-279.0
 31
0.0
  0
LINE
  5
90
  8
NOTE
  6
CONTINUOUS
 62
     4
 10
-571.0
 20
-259.0
 30
0.0
 11
-571.0
 21
-299.0
 31
0.0
  0
LINE
  5
91
  8
NOTE
  6
CONTINUOUS
 62
     4
 10
-480.0
 20
-279.0
 30
0.0
 11
-520.0
 21
-279.0
 31
0.0
  0
LINE
  5
92
  8
NOTE
  6
CONTINUOUS
 62
     4
 10
-500.0
 20
-259.0
 30
0.0
 11
-500.0
 21
-299.0
 31
0.0
  0
LINE
  5
97
  8
NOTE
  6
CONTINUOUS
 62
     4
 10
-500.000111
 20
-279.00021596553017
 30
0.0
 11
-481.71504800000002
 21
-243.42414996553029
 31
0.0
  0
LINE
  5
98
  8
NOTE
  6
CONTINUOUS
 62
     4
 10
-500.000111
 20
-279.00021596553017
 30
0.0
 11
-501.95281499999999
 21
-239.0479069655301
 31
0.0
  0
LINE
  5
99
  8
NOTE
  6
CONTINUOUS
 62
     4
 10
-413.99559499999998
 20
127.944897
 30
0.0
 11
-500.0
 21
-279.0
 31
0.0
  0
TEXT
  5
9B
  8
NOTE
  6
CONTINUOUS
 62
     4
 10
-588.95700194633321
 20
145.944897
 30
0.0
 40
64.0
  1
Ｄ
 50
0.000003
 41
0.572917
  7
STANDARD1
  0
LINE
  5
9C
  8
NOTE
  6
CONTINUOUS
 62
     4
 10
-571.00011099999995
 20
-279.00097746060362
 30
0.0
 11
-566.48673699999995
 21
-239.25642546060359
 31
0.0
  0
LINE
  5
9D
  8
NOTE
  6
CONTINUOUS
 62
     4
 10
-571.00011099999995
 20
-279.00097746060362
 30
0.0
 11
-586.9636919999997
 21
-242.3244994606037
 31
0.0
  0
LINE
  5
9E
  8
NOTE
  6
CONTINUOUS
 62
     4
 10
-631.14305499999978
 20
125.944897
 30
0.0
 11
-571.0
 21
-279.0
 31
0.0
  0
LINE
  5
9F
  8
NOTE
  6
CONTINUOUS
 62
     4
 10
-496.143055
 20
125.944897
 30
0.0
 11
-631.14305499999978
 21
125.944897
 31
0.0
  0
POINT
  5
A0
  8
ARRANGE
  6
CONTINUOUS
 62
     1
 10
0.0
 20
0.0
 30
0.0
  0
LINE
  5
A1
  8
BASIS
  6
DASHDOT
 62
     6
 10
0.0
 20
64.870252000000022
 30
0.0
 11
0.0
 21
-414.87025199999988
 31
0.0
  0
LINE
  5
A2
  8
BASIS
  6
DASHDOT
 62
     6
 10
780.0
 20
-175.0
 30
0.0
 11
-780.0
 21
-175.0
 31
0.0
  0
LINE
  5
A3
  8
DETAIL
  6
CONTINUOUS
 62
     5
 10
705.0
 20
0.0
 30
0.0
 11
-705.0
 21
0.0
 31
0.0
  0
LINE
  5
A4
  8
DETAIL
  6
CONTINUOUS
 62
     5
 10
705.0
 20
-350.0
 30
0.0
 11
-705.0
 21
-350.0
 31
0.0
  0
LINE
  5
A5
  8
DETAIL
  6
CONTINUOUS
 62
     5
 10
705.0
 20
0.0
 30
0.0
 11
705.0
 21
-350.0
 31
0.0
  0
LINE
  5
A6
  8
DETAIL
  6
CONTINUOUS
 62
     5
 10
-705.0
 20
0.0
 30
0.0
 11
-705.0
 21
-350.0
 31
0.0
  0
LINE
  5
A7
  8
DETAIL
  6
CONTINUOUS
 62
     5
 10
705.0
 20
-320.0
 30
0.0
 11
-705.0
 21
-320.0
 31
0.0
  0
LINE
  5
A8
  8
DETAIL
  6
CONTINUOUS
 62
     5
 10
480.0
 20
-223.5
 30
0.0
 11
-480.0
 21
-223.5
 31
0.0
  0
LINE
  5
A9
  8
DETAIL
  6
CONTINUOUS
 62
     5
 10
480.0
 20
-103.5
 30
0.0
 11
-480.0
 21
-103.5
 31
0.0
  0
LINE
  5
AA
  8
DETAIL
  6
CONTINUOUS
 62
     5
 10
-120.0
 20
-103.5
 30
0.0
 11
-120.0
 21
-223.5
 31
0.0
  0
LINE
  5
AB
  8
DETAIL
  6
CONTINUOUS
 62
     5
 10
480.0
 20
-103.5
 30
0.0
 11
480.0
 21
-223.5
 31
0.0
  0
LINE
  5
AC
  8
DETAIL
  6
CONTINUOUS
 62
     5
 10
-240.0
 20
-103.5
 30
0.0
 11
-240.0
 21
-223.5
 31
0.0
  0
LINE
  5
AD
  8
DETAIL
  6
CONTINUOUS
 62
     5
 10
-360.0
 20
-103.5
 30
0.0
 11
-360.0
 21
-223.5
 31
0.0
  0
LINE
  5
AE
  8
DETAIL
  6
CONTINUOUS
 62
     5
 10
-480.0
 20
-103.5
 30
0.0
 11
-480.0
 21
-223.5
 31
0.0
  0
CIRCLE
  5
B1
  8
ARRANGE
  6
CONTINUOUS
 62
     1
 10
0.0
 20
0.0
 30
0.0
 40
40.0
  0
LINE
  5
B2
  8
OUTLINE
  6
CONTINUOUS
 62
     3
 10
705.0
 20
-350.0
 30
0.0
 11
-705.0
 21
-350.0
 31
0.0
  0
LINE
  5
B3
  8
OUTLINE
  6
CONTINUOUS
 62
     3
 10
705.0
 20
0.0
 30
0.0
 11
-705.0
 21
0.0
 31
0.0
  0
LINE
  5
B4
  8
OUTLINE
  6
CONTINUOUS
 62
     3
 10
-705.0
 20
0.0
 30
0.0
 11
-705.0
 21
-350.0
 31
0.0
  0
LINE
  5
B5
  8
OUTLINE
  6
CONTINUOUS
 62
     3
 10
705.0
 20
0.0
 30
0.0
 11
705.0
 21
-350.0
 31
0.0
  0
LINE
  5
B6
  8
SIZE
  6
BYBLOCK
 62
    30
 10
-705.0
 20
-370.0
 30
0.0
 11
-705.0
 21
-706.9302640064293
 31
0.0
  0
LINE
  5
B7
  8
SIZE
  6
BYBLOCK
 62
    30
 10
-500.0
 20
-316.0
 30
0.0
 11
-500.0
 21
-706.9302640064293
 31
0.0
  0
LINE
  5
B9
  8
SIZE
  6
BYBLOCK
 62
    30
 10
-502.0
 20
-676.93026400642896
 30
0.0
 11
-703.0
 21
-676.93026400642896
 31
0.0
  0
TEXT
  5
BA
  8
SIZE
  6
BYBLOCK
 62
    30
 10
-673.12334570389453
 20
-658.18686547005291
 30
0.0
 40
64.0
  1
205
 41
0.9
  0
LINE
  5
BB
  8
SIZE
  6
BYBLOCK
 62
    30
 10
-705.0
 20
-370.0
 30
0.0
 11
-705.0
 21
-568.30270200642894
 31
0.0
  0
LINE
  5
BC
  8
SIZE
  6
BYBLOCK
 62
    30
 10
-571.0
 20
-316.0
 30
0.0
 11
-571.0
 21
-568.30270200642894
 31
0.0
  0
LINE
  5
BE
  8
SIZE
  6
BYBLOCK
 62
    30
 10
-573.0
 20
-538.30270200642894
 30
0.0
 11
-703.0
 21
-538.30270200642894
 31
0.0
  0
TEXT
  5
BF
  8
SIZE
  6
BYBLOCK
 62
    30
 10
-702.62338228072554
 20
-506.30270200642912
 30
0.0
 40
64.0
  1
134
 41
0.9
  0
LINE
  5
C0
  8
SIZE
  6
BYBLOCK
 62
    30
 10
-725.0
 20
-350.0
 30
0.0
 11
-844.08944399999984
 21
-350.0
 31
0.0
  0
LINE
  5
C1
  8
SIZE
  6
BYBLOCK
 62
    30
 10
-627.0
 20
-279.0
 30
0.0
 11
-844.08944399999984
 21
-279.0
 31
0.0
  0
LINE
  5
C2
  8
SIZE
  6
BYBLOCK
 62
    30
 10
-814.08944399999984
 20
-277.0
 30
0.0
 11
-814.08944399999984
 21
-275.0
 31
0.0
  0
LINE
  5
C3
  8
SIZE
  6
BYBLOCK
 62
    30
 10
-814.08944399999984
 20
-352.0
 30
0.0
 11
-814.08944399999984
 21
-354.0
 31
0.0
  0
LINE
  5
C4
  8
SIZE
  6
BYBLOCK
 62
    30
 10
-814.08944399999984
 20
-279.0
 30
0.0
 11
-814.08944399999984
 21
-350.0
 31
0.0
  0
TEXT
  5
C5
  8
SIZE
  6
BYBLOCK
 62
    30
 10
-846.08944399999984
 20
-353.33758405187069
 30
0.0
 40
64.0
  1
71
 50
90.0
 41
0.9
  0
LINE
  5
C6
  8
SIZE
  6
BYBLOCK
 62
    30
 10
-705.00011099999995
 20
-371.00004999999999
 30
0.0
 11
-705.00011099999995
 21
-834.89715400642899
 31
0.0
  0
LINE
  5
C7
  8
SIZE
  6
BYBLOCK
 62
    30
 10
705.00001099999997
 20
-371.00004999999999
 30
0.0
 11
705.00001099999997
 21
-834.89715400642899
 31
0.0
  0
LINE
  5
C9
  8
SIZE
  6
BYBLOCK
 62
    30
 10
703.00001099999974
 20
-804.8971540064291
 30
0.0
 11
-703.00011099999995
 21
-804.8971540064291
 31
0.0
  0
TEXT
  5
CA
  8
SIZE
  6
BYBLOCK
 62
    30
 10
-80.574713460301581
 20
-772.8971540064291
 30
0.0
 40
64.0
  1
1410
 41
0.9
  0
LINE
  5
CB
  8
SIZE
  6
BYBLOCK
 62
    30
 10
-480.00011100000012
 20
-240.08752272317761
 30
0.0
 11
-480.00011100000012
 21
-599.51039284911667
 31
0.0
  0
LINE
  5
CC
  8
SIZE
  6
BYBLOCK
 62
    30
 10
480.00001099999997
 20
-240.08752272317761
 30
0.0
 11
480.00001099999997
 21
-599.51039284911667
 31
0.0
  0
LINE
  5
CE
  8
SIZE
  6
BYBLOCK
 62
    30
 10
478.00001099999992
 20
-569.51039284911701
 30
0.0
 11
-478.00011099999989
 21
-569.51039284911701
 31
0.0
  0
TEXT
  5
CF
  8
SIZE
  6
BYBLOCK
 62
    30
 10
-74.671861757812621
 20
-537.51039284911667
 30
0.0
 40
64.0
  1
960
 41
0.9
  0
LINE
  5
D0
  8
SIZE
  6
BYBLOCK
 62
    30
 10
726.00001099999986
 20
-0.00005
 30
0.0
 11
964.229015
 21
-0.00005
 31
0.0
  0
LINE
  5
D1
  8
SIZE
  6
BYBLOCK
 62
    30
 10
726.00001099999986
 20
-350.00004999999999
 30
0.0
 11
964.229015
 21
-350.00004999999999
 31
0.0
  0
LINE
  5
D2
  8
SIZE
  6
BYBLOCK
 62
    30
 10
934.22901499999955
 20
-2.0000499999999981
 30
0.0
 11
934.22901499999955
 21
-348.00004999999999
 31
0.0
  0
TEXT
  5
D3
  8
SIZE
  6
BYBLOCK
 62
    30
 10
902.22901499999989
 20
-249.05719300000001
 30
0.0
 40
64.0
  1
350
 50
90.0
 41
0.9
  0
CIRCLE
  5
D4
  8
SIZE
  6
CONTINUOUS
 62
    30
 10
934.22901499999955
 20
-350.00004999999999
 30
0.0
 40
6.0
  0
CIRCLE
  5
D5
  8
SIZE
  6
CONTINUOUS
 62
    30
 10
934.22901499999955
 20
-0.00005
 30
0.0
 40
6.0
  0
CIRCLE
  5
D6
  8
SIZE
  6
CONTINUOUS
 62
    30
 10
480.00001099999997
 20
-569.51039284911701
 30
0.0
 40
6.0
  0
CIRCLE
  5
D7
  8
SIZE
  6
CONTINUOUS
 62
    30
 10
-480.00011100000012
 20
-569.51039284911701
 30
0.0
 40
6.0
  0
CIRCLE
  5
D8
  8
SIZE
  6
CONTINUOUS
 62
    30
 10
705.00001099999997
 20
-804.8971540064291
 30
0.0
 40
6.0
  0
CIRCLE
  5
D9
  8
SIZE
  6
CONTINUOUS
 62
    30
 10
-705.00011099999995
 20
-804.8971540064291
 30
0.0
 40
6.0
  0
CIRCLE
  5
DA
  8
SIZE
  6
CONTINUOUS
 62
    30
 10
-814.08944399999984
 20
-350.0
 30
0.0
 40
6.0
  0
CIRCLE
  5
DB
  8
SIZE
  6
CONTINUOUS
 62
    30
 10
-814.08944399999984
 20
-279.0
 30
0.0
 40
6.0
  0
CIRCLE
  5
DC
  8
SIZE
  6
CONTINUOUS
 62
    30
 10
-571.0
 20
-538.30270200642894
 30
0.0
 40
6.0
  0
CIRCLE
  5
DD
  8
SIZE
  6
CONTINUOUS
 62
    30
 10
-705.0
 20
-538.30270200642894
 30
0.0
 40
6.0
  0
CIRCLE
  5
DE
  8
SIZE
  6
CONTINUOUS
 62
    30
 10
-500.0
 20
-676.93026400642896
 30
0.0
 40
6.0
  0
CIRCLE
  5
DF
  8
SIZE
  6
CONTINUOUS
 62
    30
 10
-705.0
 20
-676.93026400642896
 30
0.0
 40
6.0
  0
TEXT
  5
E5
  8
ETC
  6
CONTINUOUS
 62
    61
 10
366.36466949696751
 20
163.925116240417
 30
0.0
 40
64.0
  1
LV-400WLFE-C_1
 50
0.000003
 41
0.638021
  7
STANDARD1
  0
LINE
  5
F8
  8
DETAIL
  6
CONTINUOUS
 62
     5
 10
0.0
 20
-103.5
 30
0.0
 11
0.0
 21
-223.5
 31
0.0
  0
LINE
  5
1EB
  8
DETAIL
  6
CONTINUOUS
 62
     5
 10
120.0
 20
-103.5
 30
0.0
 11
120.0
 21
-223.5
 31
0.0
  0
LINE
  5
2B5
  8
DETAIL
  6
CONTINUOUS
 62
     5
 10
240.0
 20
-103.5
 30
0.0
 11
240.0
 21
-223.5
 31
0.0
  0
LINE
  5
2B6
  8
DETAIL
  6
CONTINUOUS
 62
     5
 10
360.0
 20
-103.5
 30
0.0
 11
360.0
 21
-223.5
 31
0.0
  0
TEXT
  5
37E
  8
NOTE
  6
CONTINUOUS
 62
     4
 10
-397.17870722130982
 20
150.94489779620361
 30
0.0
 40
64.0
  1
CH,CHR
 50
0.000003
 41
0.6845240000000002
  7
STANDARD1
  0
LINE
  5
37F
  8
NOTE
  6
CONTINUOUS
 62
     4
 10
-115.3574148770918
 20
127.94489779620361
 30
0.0
 11
-413.99559477659858
 21
127.94489779620361
 31
0.0
  0
ENDSEC
  0
EOF
