  0
SECTION
  2
HEADER
  9
$ACADVER
  1
AC1009
  9
$INSBASE
 10
0.0
 20
0.0
 30
0.0
  9
$EXTMIN
 10
-1243.9956506644339
 20
-432.90709277254967
 30
-0.0000000000000058
  9
$EXTMAX
 10
693.37464496886048
 20
801.40686861868744
 30
0.0000000000000104
  9
$LIMMIN
 10
-2970.0
 20
-2100.0
  9
$LIMMAX
 10
2970.0
 20
2100.0
  9
$ORTHOMODE
 70
     1
  9
$REGENMODE
 70
     0
  9
$FILLMODE
 70
     1
  9
$QTEXTMODE
 70
     0
  9
$MIRRTEXT
 70
     0
  9
$DRAGMODE
 70
     2
  9
$LTSCALE
 40
20.0
  9
$OSMODE
 70
   431
  9
$ATTMODE
 70
     1
  9
$TEXTSIZE
 40
64.0
  9
$TRACEWID
 40
0.05
  9
$TEXTSTYLE
  7
STANDARD
  9
$CLAYER
  8
SYMBOLLINE
  9
$CELTYPE
  6
CONTINUOUS
  9
$CECOLOR
 62
     7
  9
$DIMSCALE
 40
1.0
  9
$DIMASZ
 40
2.0
  9
$DIMEXO
 40
20.0
  9
$DIMDLI
 40
200.0
  9
$DIMRND
 40
0.0
  9
$DIMDLE
 40
0.0
  9
$DIMEXE
 40
30.0
  9
$DIMTP
 40
0.0
  9
$DIMTM
 40
0.0
  9
$DIMTXT
 40
64.0
  9
$DIMCEN
 40
0.09
  9
$DIMTSZ
 40
0.0
  9
$DIMTOL
 70
     0
  9
$DIMLIM
 70
     0
  9
$DIMTIH
 70
     0
  9
$DIMTOH
 70
     0
  9
$DIMSE1
 70
     0
  9
$DIMSE2
 70
     0
  9
$DIMTAD
 70
     1
  9
$DIMZIN
 70
     8
  9
$DIMBLK
  1

  9
$DIMASO
 70
     1
  9
$DIMSHO
 70
     0
  9
$DIMPOST
  1

  9
$DIMAPOST
  1

  9
$DIMALT
 70
     0
  9
$DIMALTD
 70
     2
  9
$DIMALTF
 40
25.399999999999999
  9
$DIMLFAC
 40
1.0
  9
$DIMTOFL
 70
     1
  9
$DIMTVP
 40
0.0
  9
$DIMTIX
 70
     1
  9
$DIMSOXD
 70
     0
  9
$DIMSAH
 70
     0
  9
$DIMBLK1
  1

  9
$DIMBLK2
  1

  9
$DIMSTYLE
  2
STANDARD
  9
$DIMCLRD
 70
     0
  9
$DIMCLRE
 70
     0
  9
$DIMCLRT
 70
     0
  9
$DIMTFAC
 40
1.0
  9
$DIMGAP
 40
0.09
  9
$LUNITS
 70
     2
  9
$LUPREC
 70
     4
  9
$SKETCHINC
 40
0.1
  9
$FILLETRAD
 40
0.0
  9
$AUNITS
 70
     1
  9
$AUPREC
 70
     3
  9
$MENU
  1
ACAD
  9
$ELEVATION
 40
0.0
  9
$PELEVATION
 40
0.0
  9
$THICKNESS
 40
0.0
  9
$LIMCHECK
 70
     0
  9
$BLIPMODE
 70
     0
  9
$CHAMFERA
 40
0.0
  9
$CHAMFERB
 40
0.0
  9
$SKPOLY
 70
     0
  9
$TDCREATE
 40
2449761.7341435179
  9
$TDUPDATE
 40
2456805.4045535298
  9
$TDINDWG
 40
0.0549365509
  9
$TDUSRTIMER
 40
0.0549347569
  9
$USRTIMER
 70
     1
  9
$ANGBASE
 50
0.0
  9
$ANGDIR
 70
     0
  9
$PDMODE
 70
     3
  9
$PDSIZE
 40
-2.0
  9
$PLINEWID
 40
0.0
  9
$COORDS
 70
     1
  9
$SPLFRAME
 70
     0
  9
$SPLINETYPE
 70
     6
  9
$SPLINESEGS
 70
     8
  9
$ATTDIA
 70
     0
  9
$ATTREQ
 70
     1
  9
$HANDLING
 70
     1
  9
$HANDSEED
  5
5F2
  9
$SURFTAB1
 70
     6
  9
$SURFTAB2
 70
     6
  9
$SURFTYPE
 70
     6
  9
$SURFU
 70
     6
  9
$SURFV
 70
     6
  9
$UCSNAME
  2

  9
$UCSORG
 10
0.0
 20
0.0
 30
0.0
  9
$UCSXDIR
 10
1.0
 20
0.0
 30
0.0
  9
$UCSYDIR
 10
0.0
 20
1.0
 30
0.0
  9
$PUCSNAME
  2

  9
$PUCSORG
 10
0.0
 20
0.0
 30
0.0
  9
$PUCSXDIR
 10
1.0
 20
0.0
 30
0.0
  9
$PUCSYDIR
 10
0.0
 20
1.0
 30
0.0
  9
$USERI1
 70
     0
  9
$USERI2
 70
     0
  9
$USERI3
 70
     0
  9
$USERI4
 70
     0
  9
$USERI5
 70
     0
  9
$USERR1
 40
20.0
  9
$USERR2
 40
0.0
  9
$USERR3
 40
0.0
  9
$USERR4
 40
0.0
  9
$USERR5
 40
0.0
  9
$WORLDVIEW
 70
     1
  9
$SHADEDGE
 70
     3
  9
$SHADEDIF
 70
    70
  9
$TILEMODE
 70
     1
  9
$MAXACTVP
 70
    64
  9
$PLIMCHECK
 70
     0
  9
$PEXTMIN
 10
1.0000000000000000E+020
 20
1.0000000000000000E+020
 30
1.0000000000000000E+020
  9
$PEXTMAX
 10
-1.0000000000000000E+020
 20
-1.0000000000000000E+020
 30
-1.0000000000000000E+020
  9
$PLIMMIN
 10
0.0
 20
0.0
  9
$PLIMMAX
 10
12.0
 20
9.0
  9
$UNITMODE
 70
     0
  9
$VISRETAIN
 70
     1
  9
$PLINEGEN
 70
     0
  9
$PSLTSCALE
 70
     1
  0
ENDSEC
  0
SECTION
  2
TABLES
  0
TABLE
  2
VPORT
 70
     1
  0
VPORT
  2
*ACTIVE
 70
     0
 10
0.0
 20
0.0
 11
1.0
 21
1.0
 12
-275.31050284778672
 22
184.2498879230688
 13
0.0
 23
0.0
 14
50.0
 24
50.0
 15
100.0
 25
100.0
 16
0.0
 26
0.0
 36
1.0
 17
0.0
 27
0.0
 37
0.0
 40
1252.8054881486539
 41
1.5540025412960601
 42
50.0
 43
0.0
 44
0.0
 50
0.0
 51
0.0
 71
     0
 72
  1000
 73
     1
 74
     0
 75
     0
 76
     0
 77
     0
 78
     0
  0
ENDTAB
  0
TABLE
  2
LTYPE
 70
     7
  0
LTYPE
  2
CONTINUOUS
 70
     0
  3
実線
 72
    65
 73
     0
 40
0.0
  0
LTYPE
  2
DASHDOT
 70
     0
  3
____ _ ____ _ ____ _ ____ _ ____ _ ____ _ ____
 72
    65
 73
     4
 40
5.5
 49
4.0
 49
-0.6
 49
0.3
 49
-0.6
  0
LTYPE
  2
DASHED
 70
     0
  3
_ _ _ _ _ _ _ _ _ _ _ _ _ _ _ _ _ _ _ _ _ _ _
 72
    65
 73
     2
 40
2.0
 49
1.1999999999999991
 49
-0.8
  0
LTYPE
  2
DOT
 70
     0
  3
...............................................
 72
    65
 73
     2
 40
0.8
 49
0.5
 49
-0.3
  0
LTYPE
  2
DASHDOT1
 70
     0
  3
____ _ ____ _ ____ _ ____ _ ____ _ ____ _ ____
 72
    65
 73
     4
 40
2.0
 49
1.5
 49
-0.2
 49
0.1
 49
-0.2
  0
LTYPE
  2
DIVIDE
 70
     0
  3
_____ _ _ _____ _ _ _____ _ _ _____ _ _ ____
 72
    65
 73
     6
 40
6.4000000000000004
 49
4.0
 49
-0.6
 49
0.3
 49
-0.6
 49
0.3
 49
-0.6
  0
LTYPE
  2
DIVIDE1
 70
     0
  3
_____ _ _ _____ _ _ _____ _ _ _____ _ _ ____
 72
    65
 73
     6
 40
3.2000000000000002
 49
2.0
 49
-0.3
 49
0.15
 49
-0.3
 49
0.15
 49
-0.3
  0
ENDTAB
  0
TABLE
  2
LAYER
 70
    12
  0
LAYER
  2
0
 70
     0
 62
     7
  6
CONTINUOUS
  0
LAYER
  2
SYMBOLLINE
 70
     0
 62
     7
  6
CONTINUOUS
  0
LAYER
  2
OUTLINE
 70
     0
 62
     7
  6
CONTINUOUS
  0
LAYER
  2
DETAIL
 70
     0
 62
     7
  6
CONTINUOUS
  0
LAYER
  2
BASIS
 70
     0
 62
     7
  6
CONTINUOUS
  0
LAYER
  2
NOTE
 70
     0
 62
     7
  6
CONTINUOUS
  0
LAYER
  2
DEFPOINTS
 70
     0
 62
     7
  6
CONTINUOUS
  0
LAYER
  2
SIZE
 70
     0
 62
     7
  6
CONTINUOUS
  0
LAYER
  2
ARRANGE
 70
     0
 62
     7
  6
CONTINUOUS
  0
LAYER
  2
ETC
 70
     0
 62
     7
  6
CONTINUOUS
  0
LAYER
  2
FIX
 70
     0
 62
     7
  6
CONTINUOUS
  0
LAYER
  2
SERVICESPACE
 70
     0
 62
     7
  6
CONTINUOUS
  0
ENDTAB
  0
TABLE
  2
STYLE
 70
     3
  0
STYLE
  2
STANDARD
 70
     0
 40
0.0
 41
0.9
 50
0.0
 71
     0
 42
64.0
  3
SIMPLEX
  4
BIGFONT
  0
STYLE
  2
ANNOTATIVE
 70
     0
 40
0.0
 41
1.0
 50
0.0
 71
     0
 42
0.2
  3
txt
  4

  0
STYLE
  2
STANDARD1
 70
     0
 40
0.0
 41
1.0
 50
0.0
 71
     0
 42
64.0
  3
MONOTXT
  4
BIGFONT
  0
ENDTAB
  0
TABLE
  2
VIEW
 70
     1
  0
VIEW
  2
ALL
 70
     0
 40
4282.6198079999967
 10
0.0
 20
41.309903999999989
 41
5940.0
 11
0.0
 21
0.0
 31
1.0
 12
0.0
 22
0.0
 32
0.0
 42
50.0
 43
0.0
 44
0.0
 50
0.0
 71
     0
  0
ENDTAB
  0
TABLE
  2
UCS
 70
     0
  0
ENDTAB
  0
TABLE
  2
APPID
 70
     4
  0
APPID
  2
ACAD
 70
     0
  0
APPID
  2
ACADANNOTATIVE
 70
     0
  0
APPID
  2
ACAD_MLEADERVER
 70
     0
  0
APPID
  2
ACAD_EXEMPT_FROM_CAD_STANDARDS
 70
     0
  0
ENDTAB
  0
TABLE
  2
DIMSTYLE
 70
     2
  0
DIMSTYLE
  2
STANDARD
 70
     0
  3

  4

  5

  6

  7

 40
1.0
 41
0.18
 42
0.0625
 43
0.38
 44
0.18
 45
0.0
 46
0.0
 47
0.0
 48
0.0
140
0.18
141
0.09
142
0.0
143
25.399999999999999
144
1.0
145
0.0
146
1.0
147
0.09
 71
     0
 72
     0
 73
     1
 74
     1
 75
     0
 76
     0
 77
     0
 78
     0
170
     0
171
     2
172
     0
173
     0
174
     0
175
     0
176
     0
177
     0
178
     0
  0
DIMSTYLE
  2
ANNOTATIVE
 70
     0
  3

  4

  5

  6

  7

 40
1.0
 41
0.18
 42
0.0625
 43
0.38
 44
0.18
 45
0.0
 46
0.0
 47
0.0
 48
0.0
140
0.18
141
0.09
142
0.0
143
25.399999999999999
144
1.0
145
0.0
146
1.0
147
0.09
 71
     0
 72
     0
 73
     1
 74
     1
 75
     0
 76
     0
 77
     0
 78
     0
170
     0
171
     2
172
     0
173
     0
174
     0
175
     0
176
     0
177
     0
178
     0
  0
ENDTAB
  0
ENDSEC
  0
SECTION
  2
BLOCKS
  0
BLOCK
  8
0
  2
$MODEL_SPACE
 70
     0
 10
0.0
 20
0.0
 30
0.0
  3
$MODEL_SPACE
  1

  0
ENDBLK
  5
586
  8
0
  0
BLOCK
 67
     1
  8
0
  2
$PAPER_SPACE
 70
     0
 10
0.0
 20
0.0
 30
0.0
  3
$PAPER_SPACE
  1

  0
ENDBLK
  5
582
 67
     1
  8
0
  0
BLOCK
  8
0
 62
     7
  2
*D2
 70
     1
 10
0.0
 20
0.0
 30
0.0
  3
*D2
  1

  0
LINE
  5
212
  8
SYMBOLLINE
  6
CONTINUOUS
 62
     0
 10
-300.0
 20
-20.0
 30
0.0
 11
-300.0
 21
-318.5955568046428
 31
0.0
  0
LINE
  5
213
  8
SYMBOLLINE
  6
CONTINUOUS
 62
     0
 10
300.0
 20
-20.0
 30
0.0
 11
300.0
 21
-318.5955568046428
 31
0.0
  0
LINE
  5
214
  8
SYMBOLLINE
  6
CONTINUOUS
 62
     0
 10
-298.0
 20
-288.5955568046428
 30
0.0
 11
298.0
 21
-288.5955568046428
 31
0.0
  0
SOLID
  5
215
  8
SYMBOLLINE
  6
CONTINUOUS
 62
     0
 10
-298.0
 20
-288.2622234713096
 30
0.0
 11
-298.0
 21
-288.92889013797628
 31
0.0
 12
-300.0
 22
-288.5955568046428
 32
0.0
 13
-300.0
 23
-288.5955568046428
 33
0.0
  0
SOLID
  5
216
  8
SYMBOLLINE
  6
CONTINUOUS
 62
     0
 10
298.0
 20
-288.2622234713096
 30
0.0
 11
298.0
 21
-288.92889013797628
 31
0.0
 12
300.0
 22
-288.5955568046428
 32
0.0
 13
300.0
 23
-288.5955568046428
 33
0.0
  0
INSERT
  5
217
  8
SYMBOLLINE
  6
CONTINUOUS
 62
     7
  2
*U3
 10
0.0
 20
0.0
 30
0.0
  0
POINT
  5
218
  8
DEFPOINTS
  6
CONTINUOUS
 62
     0
 10
-300.0
 20
0.0
 30
0.0
  0
POINT
  5
219
  8
DEFPOINTS
  6
CONTINUOUS
 62
     0
 10
300.0
 20
0.0
 30
0.0
  0
POINT
  5
21A
  8
DEFPOINTS
  6
CONTINUOUS
 62
     0
 10
300.0
 20
-288.5955568046428
 30
0.0
  0
ENDBLK
  5
1FF
  8
0
 62
     7
  0
BLOCK
  8
0
 62
     7
  2
*U3
 70
     1
 10
0.0
 20
0.0
 30
0.0
  3
*U3
  1

  0
TEXT
  5
40C
  8
SYMBOLLINE
  6
CONTINUOUS
 62
     0
 10
-60.704689933318072
 20
-288.50555680464288
 30
0.0
 40
64.0
  1
600
 41
0.9
  0
ENDBLK
  5
40E
  8
0
 62
     7
  0
BLOCK
  8
0
 62
     7
  2
A$C730E3263
 70
     0
 10
0.0
 20
0.0
 30
0.0
  3
A$C730E3263
  1

  0
LINE
  5
225
  8
DETAIL
  6
CONTINUOUS
 62
     5
 10
0.0000002481856427
 20
0.0000008123079169
 30
0.0
 11
680.00000024818564
 21
0.0000008123079169
 31
0.0
  0
LINE
  5
226
  8
OUTLINE
  6
CONTINUOUS
 62
     3
 10
0.0000002481856427
 20
0.0000008123079169
 30
0.0
 11
680.00000024818564
 21
0.0000008123079169
 31
0.0
  0
ENDBLK
  5
228
  8
0
 62
     7
  0
BLOCK
  8
0
 62
     7
  2
A$C1C387E6A
 70
     0
 10
0.0
 20
0.0
 30
0.0
  3
A$C1C387E6A
  1

  0
LINE
  5
234
  8
DETAIL
  6
CONTINUOUS
 62
     5
 10
-0.000002220344868
 20
0.0000001012026587
 30
0.0
 11
-0.000002220344868
 21
19.000000101202659
 31
0.0
  0
ENDBLK
  5
236
  8
0
 62
     7
  0
BLOCK
  8
0
 62
     7
  2
*D6
 70
     1
 10
0.0
 20
0.0
 30
0.0
  3
*D6
  1

  0
LINE
  5
282
  8
SYMBOLLINE
  6
CONTINUOUS
 62
     0
 10
381.0
 20
17.99999850665926
 30
0.0
 11
381.0
 21
-914.02652812220765
 31
0.0
  0
LINE
  5
283
  8
SYMBOLLINE
  6
CONTINUOUS
 62
     0
 10
-330.0
 20
-20.0
 30
0.0
 11
-330.00000000000011
 21
-914.02652812220765
 31
0.0
  0
LINE
  5
284
  8
SYMBOLLINE
  6
CONTINUOUS
 62
     0
 10
379.0
 20
-884.02652812220765
 30
0.0
 11
-328.00000000000011
 21
-884.02652812220765
 31
0.0
  0
SOLID
  5
285
  8
SYMBOLLINE
  6
CONTINUOUS
 62
     0
 10
379.0
 20
-883.69319478887394
 30
0.0
 11
379.0
 21
-884.35986145554114
 31
0.0
 12
381.0
 22
-884.02652812220765
 32
0.0
 13
381.0
 23
-884.02652812220765
 33
0.0
  0
SOLID
  5
286
  8
SYMBOLLINE
  6
CONTINUOUS
 62
     0
 10
-328.00000000000011
 20
-883.69319478887394
 30
0.0
 11
-328.00000000000011
 21
-884.35986145554114
 31
0.0
 12
-330.00000000000011
 22
-884.02652812220765
 32
0.0
 13
-330.00000000000011
 23
-884.02652812220765
 33
0.0
  0
INSERT
  5
287
  8
SYMBOLLINE
  6
CONTINUOUS
 62
     7
  2
*U7
 10
0.0
 20
0.0
 30
0.0
  0
POINT
  5
288
  8
DEFPOINTS
  6
CONTINUOUS
 62
     0
 10
381.0
 20
37.999998506659281
 30
0.0
  0
POINT
  5
289
  8
DEFPOINTS
  6
CONTINUOUS
 62
     0
 10
-330.0
 20
0.0
 30
0.0
  0
POINT
  5
28A
  8
DEFPOINTS
  6
CONTINUOUS
 62
     0
 10
-330.00000000000011
 20
-884.02652812220765
 30
0.0
  0
ENDBLK
  5
281
  8
0
 62
     7
  0
BLOCK
  8
0
 62
     7
  2
*U7
 70
     1
 10
0.0
 20
0.0
 30
0.0
  3
*U7
  1

  0
TEXT
  5
410
  8
SYMBOLLINE
  6
CONTINUOUS
 62
     0
 10
-30.728571428571481
 20
-883.93652812220751
 30
0.0
 40
64.0
  1
711
 41
0.9
  0
ENDBLK
  5
412
  8
0
 62
     7
  0
BLOCK
  8
0
 62
     7
  2
*D8
 70
     1
 10
0.0
 20
0.0
 30
0.0
  3
*D8
  1

  0
LINE
  5
2C4
  8
SYMBOLLINE
  6
CONTINUOUS
 62
     0
 10
330.0
 20
-20.0
 30
0.0
 11
329.99999999999989
 21
-472.45962761387221
 31
0.0
  0
LINE
  5
2C5
  8
SYMBOLLINE
  6
CONTINUOUS
 62
     0
 10
381.0
 20
17.99999850665926
 30
0.0
 11
381.0
 21
-472.45962761387221
 31
0.0
  0
LINE
  5
2C6
  8
SYMBOLLINE
  6
CONTINUOUS
 62
     0
 10
332.0
 20
-442.4596276138721
 30
0.0
 11
379.0
 21
-442.4596276138721
 31
0.0
  0
SOLID
  5
2C7
  8
SYMBOLLINE
  6
CONTINUOUS
 62
     0
 10
332.0
 20
-442.12629428053879
 30
0.0
 11
332.0
 21
-442.79296094720547
 31
0.0
 12
330.0
 22
-442.4596276138721
 32
0.0
 13
330.0
 23
-442.4596276138721
 33
0.0
  0
SOLID
  5
2C8
  8
SYMBOLLINE
  6
CONTINUOUS
 62
     0
 10
379.0
 20
-442.12629428053879
 30
0.0
 11
379.0
 21
-442.79296094720547
 31
0.0
 12
381.0
 22
-442.4596276138721
 32
0.0
 13
381.0
 23
-442.4596276138721
 33
0.0
  0
INSERT
  5
2C9
  8
SYMBOLLINE
  6
CONTINUOUS
 62
     7
  2
*U9
 10
0.0
 20
0.0
 30
0.0
  0
POINT
  5
2CA
  8
DEFPOINTS
  6
CONTINUOUS
 62
     0
 10
330.0
 20
0.0
 30
0.0
  0
POINT
  5
2CB
  8
DEFPOINTS
  6
CONTINUOUS
 62
     0
 10
381.0
 20
37.999998506659281
 30
0.0
  0
POINT
  5
2CC
  8
DEFPOINTS
  6
CONTINUOUS
 62
     0
 10
381.0
 20
-442.4596276138721
 30
0.0
  0
ENDBLK
  5
2A7
  8
0
 62
     7
  0
BLOCK
  8
0
 62
     7
  2
*U9
 70
     1
 10
0.0
 20
0.0
 30
0.0
  3
*U9
  1

  0
TEXT
  5
414
  8
SYMBOLLINE
  6
CONTINUOUS
 62
     0
 10
321.21428571428572
 20
-442.36962761387218
 30
0.0
 40
64.0
  1
51
 41
0.9
  0
ENDBLK
  5
416
  8
0
 62
     7
  0
BLOCK
  8
0
 62
     7
  2
*D10
 70
     1
 10
0.0
 20
0.0
 30
0.0
  3
*D10
  1

  0
LINE
  5
318
  8
SYMBOLLINE
  6
CONTINUOUS
 62
     0
 10
-360.00000229843857
 20
284.99999700000001
 30
0.0
 11
-428.07413169520339
 21
284.99999700000012
 31
0.0
  0
LINE
  5
319
  8
SYMBOLLINE
  6
CONTINUOUS
 62
     0
 10
-360.00000229843857
 20
120.0
 30
0.0
 11
-428.07413169520339
 21
120.0
 31
0.0
  0
LINE
  5
31A
  8
SYMBOLLINE
  6
CONTINUOUS
 62
     0
 10
-398.07413169520339
 20
282.99999700000012
 30
0.0
 11
-398.07413169520339
 21
122.0
 31
0.0
  0
SOLID
  5
31B
  8
SYMBOLLINE
  6
CONTINUOUS
 62
     0
 10
-398.40746502853682
 20
282.99999700000012
 30
0.0
 11
-397.74079836187019
 21
282.99999700000012
 31
0.0
 12
-398.07413169520339
 22
284.99999700000012
 32
0.0
 13
-398.07413169520339
 23
284.99999700000012
 33
0.0
  0
SOLID
  5
31C
  8
SYMBOLLINE
  6
CONTINUOUS
 62
     0
 10
-398.40746502853682
 20
122.0
 30
0.0
 11
-397.74079836187019
 21
122.0
 31
0.0
 12
-398.07413169520339
 22
120.0
 32
0.0
 13
-398.07413169520339
 23
120.0
 33
0.0
  0
INSERT
  5
31D
  8
SYMBOLLINE
  6
CONTINUOUS
 62
     7
  2
*U11
 10
0.0
 20
0.0
 30
0.0
  0
POINT
  5
31E
  8
DEFPOINTS
  6
CONTINUOUS
 62
     0
 10
-340.00000229843857
 20
284.99999700000001
 30
0.0
  0
POINT
  5
31F
  8
DEFPOINTS
  6
CONTINUOUS
 62
     0
 10
-340.00000229843857
 20
120.0
 30
0.0
  0
POINT
  5
320
  8
DEFPOINTS
  6
CONTINUOUS
 62
     0
 10
-398.07413169520339
 20
120.0
 30
0.0
  0
ENDBLK
  5
317
  8
0
 62
     7
  0
BLOCK
  8
0
 62
     7
  2
*U11
 70
     1
 10
0.0
 20
0.0
 30
0.0
  3
*U11
  1

  0
TEXT
  5
418
  8
SYMBOLLINE
  6
CONTINUOUS
 62
     0
 10
-398.16413169520342
 20
133.92856992857139
 30
0.0
 40
64.0
  1
165
 50
90.0
 41
0.9
  0
ENDBLK
  5
41A
  8
0
 62
     7
  0
BLOCK
  8
0
 62
     7
  2
*D12
 70
     1
 10
0.0
 20
0.0
 30
0.0
  3
*D12
  1

  0
LINE
  5
32F
  8
SYMBOLLINE
  6
CONTINUOUS
 62
     0
 10
-431.99999922901469
 20
54.99999850665926
 30
0.0
 11
-942.65508682364305
 21
54.999998506659402
 31
0.0
  0
LINE
  5
330
  8
SYMBOLLINE
  6
CONTINUOUS
 62
     0
 10
-350.0
 20
0.0000000000000057
 30
0.0
 11
-942.65508682364305
 21
0.0000000000001736
 31
0.0
  0
LINE
  5
331
  8
SYMBOLLINE
  6
CONTINUOUS
 62
     0
 10
-912.65508682364316
 20
56.999998506659402
 30
0.0
 11
-912.65508682364316
 21
58.999998506659402
 31
0.0
  0
LINE
  5
332
  8
SYMBOLLINE
  6
CONTINUOUS
 62
     0
 10
-912.65508682364316
 20
-1.999999999999833
 30
0.0
 11
-912.65508682364316
 21
-3.999999999999833
 31
0.0
  0
LINE
  5
333
  8
SYMBOLLINE
  6
CONTINUOUS
 62
     0
 10
-912.65508682364316
 20
54.999998506659402
 30
0.0
 11
-912.65508682364316
 21
0.0000000000001651
 31
0.0
  0
SOLID
  5
334
  8
SYMBOLLINE
  6
CONTINUOUS
 62
     0
 10
-912.98842015697642
 20
56.999998506659402
 30
0.0
 11
-912.32175349030979
 21
56.999998506659402
 31
0.0
 12
-912.65508682364316
 22
54.999998506659402
 32
0.0
 13
-912.65508682364316
 23
54.999998506659402
 33
0.0
  0
SOLID
  5
335
  8
SYMBOLLINE
  6
CONTINUOUS
 62
     0
 10
-912.98842015697642
 20
-1.999999999999833
 30
0.0
 11
-912.32175349030979
 21
-1.999999999999833
 31
0.0
 12
-912.65508682364316
 22
0.0000000000001651
 32
0.0
 13
-912.65508682364316
 23
0.0000000000001651
 33
0.0
  0
INSERT
  5
336
  8
SYMBOLLINE
  6
CONTINUOUS
 62
     7
  2
*U13
 10
0.0
 20
0.0
 30
0.0
  0
POINT
  5
337
  8
DEFPOINTS
  6
CONTINUOUS
 62
     0
 10
-411.99999922901492
 20
54.99999850665926
 30
0.0
  0
POINT
  5
338
  8
DEFPOINTS
  6
CONTINUOUS
 62
     0
 10
-330.0
 20
0.0
 30
0.0
  0
POINT
  5
339
  8
DEFPOINTS
  6
CONTINUOUS
 62
     0
 10
-912.65508682364316
 20
0.0000000000001651
 30
0.0
  0
ENDBLK
  5
32E
  8
0
 62
     7
  0
BLOCK
  8
0
 62
     7
  2
*U13
 70
     1
 10
0.0
 20
0.0
 30
0.0
  3
*U13
  1

  0
TEXT
  5
41C
  8
SYMBOLLINE
  6
CONTINUOUS
 62
     0
 10
-912.74508682364308
 20
-19.128572175241761
 30
0.0
 40
64.0
  1
55
 50
90.0
 41
0.9
  0
ENDBLK
  5
41E
  8
0
 62
     7
  0
BLOCK
  8
0
 62
     7
  2
*D14
 70
     1
 10
0.0
 20
0.0
 30
0.0
  3
*D14
  1

  0
LINE
  5
389
  8
SYMBOLLINE
  6
CONTINUOUS
 62
     0
 10
-320.00000229843857
 20
160.0
 30
0.0
 11
-320.00000229843852
 21
1352.0888996337469
 31
0.0
  0
LINE
  5
38A
  8
SYMBOLLINE
  6
CONTINUOUS
 62
     0
 10
-330.0
 20
351.0
 30
0.0
 11
-329.99999999999989
 21
1352.0888996337469
 31
0.0
  0
LINE
  5
38B
  8
SYMBOLLINE
  6
CONTINUOUS
 62
     0
 10
-318.00000229843852
 20
1322.088899633746
 30
0.0
 11
-316.00000229843852
 21
1322.088899633746
 31
0.0
  0
LINE
  5
38C
  8
SYMBOLLINE
  6
CONTINUOUS
 62
     0
 10
-331.99999999999989
 20
1322.088899633746
 30
0.0
 11
-333.99999999999989
 21
1322.088899633746
 31
0.0
  0
LINE
  5
38D
  8
SYMBOLLINE
  6
CONTINUOUS
 62
     0
 10
-320.00000229843852
 20
1322.088899633746
 30
0.0
 11
-329.99999999999989
 21
1322.088899633746
 31
0.0
  0
SOLID
  5
38E
  8
SYMBOLLINE
  6
CONTINUOUS
 62
     0
 10
-318.00000229843852
 20
1322.4222329670799
 30
0.0
 11
-318.00000229843852
 21
1321.755566300413
 31
0.0
 12
-320.00000229843852
 22
1322.088899633746
 32
0.0
 13
-320.00000229843852
 23
1322.088899633746
 33
0.0
  0
SOLID
  5
38F
  8
SYMBOLLINE
  6
CONTINUOUS
 62
     0
 10
-331.99999999999989
 20
1322.4222329670799
 30
0.0
 11
-331.99999999999989
 21
1321.755566300413
 31
0.0
 12
-329.99999999999989
 22
1322.088899633746
 32
0.0
 13
-329.99999999999989
 23
1322.088899633746
 33
0.0
  0
INSERT
  5
390
  8
SYMBOLLINE
  6
CONTINUOUS
 62
     7
  2
*U15
 10
0.0
 20
0.0
 30
0.0
  0
POINT
  5
391
  8
DEFPOINTS
  6
CONTINUOUS
 62
     0
 10
-320.00000229843857
 20
140.0
 30
0.0
  0
POINT
  5
392
  8
DEFPOINTS
  6
CONTINUOUS
 62
     0
 10
-330.0
 20
331.0
 30
0.0
  0
POINT
  5
393
  8
DEFPOINTS
  6
CONTINUOUS
 62
     0
 10
-329.99999999999989
 20
1322.088899633746
 30
0.0
  0
ENDBLK
  5
388
  8
0
 62
     7
  0
BLOCK
  8
0
 62
     7
  2
*U15
 70
     1
 10
0.0
 20
0.0
 30
0.0
  3
*U15
  1

  0
TEXT
  5
420
  8
SYMBOLLINE
  6
CONTINUOUS
 62
     0
 10
-366.14285829207631
 20
1322.1788996337459
 30
0.0
 40
64.0
  1
10
 41
0.9
  0
ENDBLK
  5
422
  8
0
 62
     7
  0
BLOCK
  8
0
 62
     7
  2
*D16
 70
     1
 10
0.0
 20
0.0
 30
0.0
  3
*D16
  1

  0
LINE
  5
398
  8
SYMBOLLINE
  6
CONTINUOUS
 62
     0
 10
-290.0
 20
370.0
 30
0.0
 11
-290.0
 21
1257.101140667206
 31
0.0
  0
LINE
  5
399
  8
SYMBOLLINE
  6
CONTINUOUS
 62
     0
 10
-330.0
 20
351.0
 30
0.0
 11
-329.99999999999989
 21
1257.101140667206
 31
0.0
  0
LINE
  5
39A
  8
SYMBOLLINE
  6
CONTINUOUS
 62
     0
 10
-287.99999999999989
 20
1227.101140667206
 30
0.0
 11
-285.99999999999989
 21
1227.101140667206
 31
0.0
  0
LINE
  5
39B
  8
SYMBOLLINE
  6
CONTINUOUS
 62
     0
 10
-331.99999999999989
 20
1227.101140667206
 30
0.0
 11
-333.99999999999989
 21
1227.101140667206
 31
0.0
  0
LINE
  5
39C
  8
SYMBOLLINE
  6
CONTINUOUS
 62
     0
 10
-290.0
 20
1227.101140667206
 30
0.0
 11
-329.99999999999989
 21
1227.101140667206
 31
0.0
  0
SOLID
  5
39D
  8
SYMBOLLINE
  6
CONTINUOUS
 62
     0
 10
-287.99999999999989
 20
1227.4344740005399
 30
0.0
 11
-287.99999999999989
 21
1226.767807333873
 31
0.0
 12
-290.0
 22
1227.101140667206
 32
0.0
 13
-290.0
 23
1227.101140667206
 33
0.0
  0
SOLID
  5
39E
  8
SYMBOLLINE
  6
CONTINUOUS
 62
     0
 10
-331.99999999999989
 20
1227.4344740005399
 30
0.0
 11
-331.99999999999989
 21
1226.767807333873
 31
0.0
 12
-329.99999999999989
 22
1227.101140667206
 32
0.0
 13
-329.99999999999989
 23
1227.101140667206
 33
0.0
  0
INSERT
  5
39F
  8
SYMBOLLINE
  6
CONTINUOUS
 62
     7
  2
*U17
 10
0.0
 20
0.0
 30
0.0
  0
POINT
  5
3A0
  8
DEFPOINTS
  6
CONTINUOUS
 62
     0
 10
-290.0
 20
350.0
 30
0.0
  0
POINT
  5
3A1
  8
DEFPOINTS
  6
CONTINUOUS
 62
     0
 10
-330.0
 20
331.0
 30
0.0
  0
POINT
  5
3A2
  8
DEFPOINTS
  6
CONTINUOUS
 62
     0
 10
-329.99999999999989
 20
1227.101140667206
 30
0.0
  0
ENDBLK
  5
397
  8
0
 62
     7
  0
BLOCK
  8
0
 62
     7
  2
*U17
 70
     1
 10
0.0
 20
0.0
 30
0.0
  3
*U17
  1

  0
TEXT
  5
424
  8
SYMBOLLINE
  6
CONTINUOUS
 62
     0
 10
-356.62857142857138
 20
1227.1911406672059
 30
0.0
 40
64.0
  1
40
 41
0.9
  0
ENDBLK
  5
426
  8
0
 62
     7
  0
ENDSEC
  0
SECTION
  2
ENTITIES
  0
LINE
  5
8F
  8
SIZE
  6
CONTINUOUS
 62
    30
 10
-570.0
 20
-244.64569635868421
 30
0.0
 11
-704.37177999999994
 21
-244.64569635868421
 31
0.0
  0
LINE
  5
97
  8
DETAIL
  6
CONTINUOUS
 62
     5
 10
-500.00000229843852
 20
304.99999700294688
 30
0.0
 11
-500.00000229843852
 21
264.99999700294688
 31
0.0
  0
TEXT
  5
A0
  8
NOTE
  6
CONTINUOUS
 62
     4
 10
-1009.8306342554411
 20
737.39916406683994
 30
0.0
 40
64.0
  1
CHR
 50
0.000003
 41
0.659722
  7
STANDARD1
  0
LINE
  5
A1
  8
NOTE
  6
CONTINUOUS
 62
     4
 10
-500.00000229843852
 20
284.999997002947
 30
0.0
 11
-515.43278329843838
 21
321.90296900294692
 31
0.0
  0
LINE
  5
A2
  8
NOTE
  6
CONTINUOUS
 62
     4
 10
-500.00000229843852
 20
284.999997002947
 30
0.0
 11
-531.81666829843857
 21
309.24251700294701
 31
0.0
  0
LINE
  5
A3
  8
NOTE
  6
CONTINUOUS
 62
     4
 10
-843.96950325544185
 20
729.86195206683965
 30
0.0
 11
-500.00000229843852
 21
284.999997002947
 31
0.0
  0
LINE
  5
A4
  8
NOTE
  6
CONTINUOUS
 62
     4
 10
-1012.3504022554411
 20
729.86195206683965
 30
0.0
 11
-843.96950325544185
 21
729.86195206683965
 31
0.0
  0
TEXT
  5
A5
  8
NOTE
  6
CONTINUOUS
 62
     4
 10
-984.34876152455593
 20
622.90845666777125
 30
0.0
 40
64.0
  1
CH
 50
0.000003
 41
0.659722
  7
STANDARD1
  0
LINE
  5
A6
  8
NOTE
  6
CONTINUOUS
 62
     4
 10
-500.00000229843857
 20
120.0
 30
0.0
 11
-518.02705929843876
 21
155.70749599999999
 31
0.0
  0
LINE
  5
A7
  8
NOTE
  6
CONTINUOUS
 62
     4
 10
-500.00000229843857
 20
120.0
 30
0.0
 11
-533.46563929843876
 21
141.91006899999999
 31
0.0
  0
LINE
  5
A8
  8
NOTE
  6
CONTINUOUS
 62
     4
 10
-835.87156252455566
 20
615.37124466777118
 30
0.0
 11
-500.00000229843857
 21
120.0
 31
0.0
  0
LINE
  5
A9
  8
NOTE
  6
CONTINUOUS
 62
     4
 10
-986.86853052455569
 20
615.37124466777118
 30
0.0
 11
-835.87156252455566
 21
615.37124466777118
 31
0.0
  0
TEXT
  5
AA
  8
NOTE
  6
CONTINUOUS
 62
     4
 10
-830.88641062762031
 20
-231.24826068056061
 30
0.0
 40
64.0
  1
Ｄ
 50
0.000003
 41
0.572917
  7
STANDARD1
  0
LINE
  5
AB
  8
NOTE
  6
CONTINUOUS
 62
     4
 10
-571.99999922901497
 20
54.99999850665926
 30
0.0
 11
-601.74894481845547
 21
28.260509198296401
 31
0.0
  0
LINE
  5
AC
  8
NOTE
  6
CONTINUOUS
 62
     4
 10
-571.99999922901497
 20
54.99999850665926
 30
0.0
 11
-584.39359655891269
 21
16.968448809610091
 31
0.0
  0
LINE
  5
AD
  8
NOTE
  6
CONTINUOUS
 62
     4
 10
-763.21141662762045
 20
-241.27803368056061
 30
0.0
 11
-571.99999922901497
 21
54.99999850665926
 31
0.0
  0
LINE
  5
AE
  8
NOTE
  6
CONTINUOUS
 62
     4
 10
-867.79300662762068
 20
-241.27803368056061
 30
0.0
 11
-763.21141662762045
 21
-241.27803368056061
 31
0.0
  0
LINE
  5
AF
  8
BASIS
  6
DASHDOT
 62
     6
 10
0.0
 20
-124.130848
 30
0.0
 11
0.0
 21
434.08870000000002
 31
0.0
  0
POINT
  5
B0
  8
ARRANGE
  6
CONTINUOUS
 62
     1
 10
0.0
 20
0.0
 30
0.0
  0
LINE
  5
B2
  8
DETAIL
  6
CONTINUOUS
 62
     5
 10
470.0
 20
331.0
 30
0.0
 11
470.0
 21
350.0
 31
0.0
  0
LINE
  5
B3
  8
DETAIL
  6
CONTINUOUS
 62
     5
 10
-470.0
 20
331.0
 30
0.0
 11
-470.0
 21
350.0
 31
0.0
  0
LINE
  5
B6
  8
DETAIL
  6
CONTINUOUS
 62
     5
 10
-470.0
 20
350.0
 30
0.0
 11
470.0
 21
350.0
 31
0.0
  0
LINE
  5
B7
  8
DETAIL
  6
CONTINUOUS
 62
     5
 10
-510.0
 20
331.0
 30
0.0
 11
510.0
 21
331.0
 31
0.0
  0
LINE
  5
B8
  8
DETAIL
  6
CONTINUOUS
 62
     5
 10
-510.0
 20
0.0
 30
0.0
 11
510.0
 21
0.0
 31
0.0
  0
LINE
  5
BF
  8
DETAIL
  6
CONTINUOUS
 62
     5
 10
510.0
 20
0.0
 30
0.0
 11
510.0
 21
36.99999850665926
 31
0.0
  0
LINE
  5
C0
  8
DETAIL
  6
CONTINUOUS
 62
     5
 10
-510.0
 20
0.0
 30
0.0
 11
-510.0
 21
36.99999850665926
 31
0.0
  0
LINE
  5
C2
  8
DETAIL
  6
CONTINUOUS
 62
     5
 10
-500.00000229843852
 20
304.99999700294688
 30
0.0
 11
-494.00000235220591
 21
304.99999700294688
 31
0.0
  0
LINE
  5
C3
  8
DETAIL
  6
CONTINUOUS
 62
     5
 10
-500.00000229843852
 20
264.99999700294688
 30
0.0
 11
-490.00000229843852
 21
264.99999700294688
 31
0.0
  0
CIRCLE
  5
CB
  8
ARRANGE
  6
CONTINUOUS
 62
     1
 10
0.0
 20
0.0
 30
0.0
 40
40.0
  0
LINE
  5
CC
  8
OUTLINE
  6
CONTINUOUS
 62
     3
 10
-510.0
 20
0.0
 30
0.0
 11
-510.0
 21
331.0
 31
0.0
  0
LINE
  5
CD
  8
OUTLINE
  6
CONTINUOUS
 62
     3
 10
510.0
 20
0.0
 30
0.0
 11
510.0
 21
331.0
 31
0.0
  0
LINE
  5
CF
  8
OUTLINE
  6
CONTINUOUS
 62
     3
 10
-510.0
 20
0.0
 30
0.0
 11
510.0
 21
0.0
 31
0.0
  0
LINE
  5
D0
  8
OUTLINE
  6
CONTINUOUS
 62
     3
 10
-510.0
 20
331.0
 30
0.0
 11
510.0
 21
331.0
 31
0.0
  0
LINE
  5
D4
  8
SIZE
  6
CONTINUOUS
 62
    30
 10
-522.98809029684401
 20
0.0
 30
0.0
 11
-1177.630315993463
 21
0.0
 31
0.0
  0
LINE
  5
D5
  8
SIZE
  6
CONTINUOUS
 62
    30
 10
-488.0
 20
350.0
 30
0.0
 11
-1177.630315993463
 21
350.0
 31
0.0
  0
LINE
  5
D6
  8
SIZE
  6
CONTINUOUS
 62
    30
 10
-1147.630315993463
 20
2.0
 30
0.0
 11
-1147.630315993463
 21
348.0
 31
0.0
  0
TEXT
  5
D7
  8
SIZE
  6
CONTINUOUS
 62
    30
 10
-1179.630315993463
 20
100.942857
 30
0.0
 40
64.0
  1
350
 50
90.0
 41
0.9
  0
LINE
  5
E3
  8
SIZE
  6
CONTINUOUS
 62
    30
 10
-522.98809029684401
 20
0.0
 30
0.0
 11
-853.74644000000012
 21
0.0
 31
0.0
  0
LINE
  5
E8
  8
SIZE
  6
CONTINUOUS
 62
    30
 10
-470.0
 20
371.000047
 30
0.0
 11
-470.0
 21
551.38794773546419
 31
0.0
  0
LINE
  5
E9
  8
SIZE
  6
CONTINUOUS
 62
    30
 10
470.0
 20
371.000047
 30
0.0
 11
470.0
 21
551.38794773546419
 31
0.0
  0
LINE
  5
EA
  8
SIZE
  6
CONTINUOUS
 62
    30
 10
-468.00005800000002
 20
521.38794773546419
 30
0.0
 11
467.99994199999992
 21
521.38794773546419
 31
0.0
  0
TEXT
  5
EB
  8
SIZE
  6
CONTINUOUS
 62
    30
 10
-74.685772999999983
 20
553.38794773546397
 30
0.0
 40
64.0
  1
940
 41
0.9
  0
LINE
  5
F6
  8
SIZE
  6
CONTINUOUS
 62
    30
 10
-572.0
 20
-70.0
 30
0.0
 11
-572.0
 21
-329.13419925190908
 31
0.0
  0
LINE
  5
F7
  8
SIZE
  6
CONTINUOUS
 62
    30
 10
-510.0
 20
-20.000000000000011
 30
0.0
 11
-510.0
 21
-274.64569635868418
 31
0.0
  0
LINE
  5
F8
  8
SIZE
  6
CONTINUOUS
 62
    30
 10
-570.0
 20
-244.64569635868421
 30
0.0
 11
-512.0
 21
-244.64569635868421
 31
0.0
  0
TEXT
  5
FA
  8
SIZE
  6
CONTINUOUS
 62
    30
 10
-683.59381499999995
 20
-220.9552676611593
 30
0.0
 40
64.0
  1
62
 41
0.9
  0
LINE
  5
FB
  8
SIZE
  6
CONTINUOUS
 62
    30
 10
-572.0
 20
18.0
 30
0.0
 11
-572.0
 21
-432.78767267476712
 31
0.0
  0
LINE
  5
FC
  8
SIZE
  6
CONTINUOUS
 62
    30
 10
561.0
 20
17.99999850665926
 30
0.0
 11
561.0
 21
-432.78767267476712
 31
0.0
  0
LINE
  5
FD
  8
SIZE
  6
CONTINUOUS
 62
    30
 10
-570.0
 20
-402.78767267476701
 30
0.0
 11
559.0
 21
-402.78767267476701
 31
0.0
  0
TEXT
  5
FE
  8
SIZE
  6
CONTINUOUS
 62
    30
 10
-80.557142999999982
 20
-370.78767267476712
 30
0.0
 40
64.0
  1
1133
 41
0.9
  0
LINE
  5
FF
  8
SIZE
  6
CONTINUOUS
 62
    30
 10
-510.0
 20
-20.0
 30
0.0
 11
-510.0
 21
-274.64569635868418
 31
0.0
  0
LINE
  5
100
  8
SIZE
  6
CONTINUOUS
 62
    30
 10
510.0
 20
-20.0
 30
0.0
 11
510.0
 21
-274.64569635868418
 31
0.0
  0
LINE
  5
101
  8
SIZE
  6
CONTINUOUS
 62
    30
 10
-508.0
 20
-244.64569635868421
 30
0.0
 11
508.0
 21
-244.64569635868421
 31
0.0
  0
TEXT
  5
102
  8
SIZE
  6
CONTINUOUS
 62
    30
 10
-74.057142999999982
 20
-219.8361633137238
 30
0.0
 40
64.0
  1
1020
 41
0.9
  0
CIRCLE
  5
10A
  8
SIZE
  6
CONTINUOUS
 62
    30
 10
510.0
 20
-244.64569635868421
 30
0.0
 40
6.0
  0
CIRCLE
  5
10B
  8
SIZE
  6
CONTINUOUS
 62
    30
 10
-510.0
 20
-244.64569635868421
 30
0.0
 40
6.0
  0
CIRCLE
  5
10C
  8
SIZE
  6
CONTINUOUS
 62
    30
 10
561.0
 20
-402.78767267476701
 30
0.0
 40
6.0
  0
CIRCLE
  5
10D
  8
SIZE
  6
CONTINUOUS
 62
    30
 10
-570.0
 20
-402.78767267476701
 30
0.0
 40
6.0
  0
CIRCLE
  5
10E
  8
SIZE
  6
CONTINUOUS
 62
    30
 10
-510.0
 20
-244.64569635868421
 30
0.0
 40
6.0
  0
CIRCLE
  5
10F
  8
SIZE
  6
CONTINUOUS
 62
    30
 10
-572.0
 20
-244.64569635868421
 30
0.0
 40
6.0
  0
CIRCLE
  5
113
  8
SIZE
  6
CONTINUOUS
 62
    30
 10
470.0
 20
521.38794773546419
 30
0.0
 40
6.0
  0
CIRCLE
  5
115
  8
SIZE
  6
CONTINUOUS
 62
    30
 10
-470.0
 20
521.38794773546419
 30
0.0
 40
6.0
  0
CIRCLE
  5
11C
  8
SIZE
  6
CONTINUOUS
 62
    30
 10
-1147.630315993463
 20
350.0
 30
0.0
 40
6.0
  0
CIRCLE
  5
11D
  8
SIZE
  6
CONTINUOUS
 62
    30
 10
-1147.630315993463
 20
0.0
 30
0.0
 40
6.0
  0
TEXT
  5
1F1
  8
ETC
  6
CONTINUOUS
 62
    61
 10
-15.46185512309971
 20
706.32328796092133
 30
0.0
 40
64.0
  1
LV-400WLFR-C_4
 50
0.000003
 41
0.638021
  7
STANDARD1
  0
LINE
  5
232
  8
DETAIL
  6
CONTINUOUS
 62
     5
 10
-490.00000222034492
 20
0.0000001012026587
 30
0.0
 11
-490.0000022312484
 21
36.999998506659267
 31
0.0
  0
LINE
  5
23C
  8
DETAIL
  6
CONTINUOUS
 62
     5
 10
490.00000086871739
 20
-0.0000011641304809
 30
0.0
 11
490.00000085781397
 21
36.999998506659267
 31
0.0
  0
LINE
  5
242
  8
DETAIL
  6
CONTINUOUS
 62
     5
 10
-490.00000230904737
 20
301.00000056785478
 30
0.0
 11
490.00000078001489
 21
300.9999987346668
 31
0.0
  0
LINE
  5
248
  8
DETAIL
  6
CONTINUOUS
 62
     5
 10
-495.00000666103449
 20
306.00000058263862
 30
0.0
 11
-495.00000666103449
 21
331.0
 31
0.0
  0
LINE
  5
249
  8
DETAIL
  6
CONTINUOUS
 62
     5
 10
494.99999864837258
 20
305.99999295735682
 30
0.0
 11
494.99999864837258
 21
330.9999981372444
 31
0.0
  0
LINE
  5
24F
  8
DETAIL
  6
CONTINUOUS
 62
     5
 10
-490.0000017340513
 20
300.9999993013285
 30
0.0
 11
-495.00000666103449
 21
306.00000058263862
 31
0.0
  0
LINE
  5
255
  8
DETAIL
  6
CONTINUOUS
 62
     5
 10
490.00000078001472
 20
300.9999987346668
 30
0.0
 11
495.00000570699802
 21
306.00000001597692
 31
0.0
  0
LINE
  5
25E
  8
DETAIL
  6
CONTINUOUS
 62
     5
 10
-571.99999922901497
 20
72.999998506659253
 30
0.0
 11
-571.99999922901497
 21
36.999998506659267
 31
0.0
  0
LINE
  5
25F
  8
DETAIL
  6
CONTINUOUS
 62
     5
 10
535.0
 20
36.999998506659267
 30
0.0
 11
-571.99999922901497
 21
36.999998506659267
 31
0.0
  0
LINE
  5
260
  8
DETAIL
  6
CONTINUOUS
 62
     5
 10
535.0
 20
72.999999536796622
 30
0.0
 11
-571.99999922901497
 21
72.999998506659253
 31
0.0
  0
LINE
  5
270
  8
DETAIL
  6
CONTINUOUS
 62
     5
 10
535.0
 20
72.999999536796622
 30
0.0
 11
535.0
 21
36.999999536796629
 31
0.0
  0
LINE
  5
27B
  8
DETAIL
  6
CONTINUOUS
 62
     5
 10
561.0
 20
157.00000066773859
 30
0.0
 11
561.0
 21
36.999998506659267
 31
0.0
  0
LINE
  5
27C
  8
DETAIL
  6
CONTINUOUS
 62
     5
 10
561.0
 20
36.999998506659267
 30
0.0
 11
510.0
 21
36.999998506659267
 31
0.0
  0
LINE
  5
27D
  8
DETAIL
  6
CONTINUOUS
 62
     5
 10
561.0
 20
157.00000066773859
 30
0.0
 11
510.0
 21
157.00000066773859
 31
0.0
  0
LINE
  5
28B
  8
DETAIL
  6
CONTINUOUS
 62
     5
 10
490.00000084720489
 20
72.99999947474015
 30
0.0
 11
490.00000078001489
 21
300.9999987346668
 31
0.0
  0
LINE
  5
28E
  8
DETAIL
  6
CONTINUOUS
 62
     5
 10
-490.00000224185749
 20
72.999998619739927
 30
0.0
 11
-490.00000230904737
 21
301.00000056785478
 31
0.0
  0
LINE
  5
291
  8
DETAIL
  6
CONTINUOUS
 62
     5
 10
-510.0
 20
72.999998592159301
 30
0.0
 11
-510.0
 21
331.0
 31
0.0
  0
LINE
  5
292
  8
DETAIL
  6
CONTINUOUS
 62
     5
 10
510.0
 20
72.99999950232079
 30
0.0
 11
510.0
 21
331.0
 31
0.0
  0
LINE
  5
29C
  8
SIZE
  6
CONTINUOUS
 62
    30
 10
559.0
 20
-244.64569635868421
 30
0.0
 11
693.37177999999994
 21
-244.64569635868421
 31
0.0
  0
LINE
  5
29D
  8
SIZE
  6
CONTINUOUS
 62
    30
 10
561.0
 20
17.99999850665926
 30
0.0
 11
561.0
 21
-274.64569635868429
 31
0.0
  0
LINE
  5
29E
  8
SIZE
  6
CONTINUOUS
 62
    30
 10
510.0
 20
-20.0
 30
0.0
 11
510.0
 21
-274.64569635868418
 31
0.0
  0
LINE
  5
29F
  8
SIZE
  6
CONTINUOUS
 62
    30
 10
559.0
 20
-244.64569635868421
 30
0.0
 11
512.0
 21
-244.64569635868421
 31
0.0
  0
TEXT
  5
2A1
  8
SIZE
  6
CONTINUOUS
 62
    30
 10
579.33667214285697
 20
-212.64569635868421
 30
0.0
 40
64.0
  1
51
 41
0.9
  0
CIRCLE
  5
2A2
  8
SIZE
  6
CONTINUOUS
 62
    30
 10
510.0
 20
-244.64569635868421
 30
0.0
 40
6.0
  0
CIRCLE
  5
2A3
  8
SIZE
  6
CONTINUOUS
 62
    30
 10
561.0
 20
-244.64569635868421
 30
0.0
 40
6.0
  0
LINE
  5
2E7
  8
SIZE
  6
CONTINUOUS
 62
    30
 10
-981.09885940436175
 20
118.0
 30
0.0
 11
-981.09885940436175
 21
311.0135986997953
 31
0.0
  0
LINE
  5
2E8
  8
SIZE
  6
CONTINUOUS
 62
    30
 10
-801.99982170731755
 20
2.0
 30
0.0
 11
-801.99982170731755
 21
-121.68673
 31
0.0
  0
LINE
  5
2E9
  8
SIZE
  6
CONTINUOUS
 62
    30
 10
-801.99977470731756
 20
282.99993899999998
 30
0.0
 11
-801.99977470731756
 21
503.67434754426222
 31
0.0
  0
LINE
  5
2EA
  8
SIZE
  6
CONTINUOUS
 62
    30
 10
-522.98809029684401
 20
0.0
 30
0.0
 11
-831.99982170731766
 21
0.0
 31
0.0
  0
LINE
  5
2EB
  8
SIZE
  6
CONTINUOUS
 62
    30
 10
-611.99999922901486
 20
54.99999850665926
 30
0.0
 11
-831.99982170731766
 21
55.0
 31
0.0
  0
LINE
  5
2EC
  8
SIZE
  6
CONTINUOUS
 62
    30
 10
-801.99982170731755
 20
2.0
 30
0.0
 11
-801.99982170731755
 21
25.5
 31
0.0
  0
LINE
  5
2ED
  8
SIZE
  6
CONTINUOUS
 62
    30
 10
-801.99982170731755
 20
53.0
 30
0.0
 11
-801.99982170731755
 21
25.5
 31
0.0
  0
TEXT
  5
2EE
  8
SIZE
  6
CONTINUOUS
 62
    30
 10
-828.37953059979964
 20
-102.673934
 30
0.0
 40
64.0
  1
55
 50
90.0
 41
0.9
  0
LINE
  5
2EF
  8
SIZE
  6
CONTINUOUS
 62
    30
 10
-522.98809029684401
 20
0.0
 30
0.0
 11
-1009.568296484366
 21
-0.0000029999999924
 31
0.0
  0
LINE
  5
2F0
  8
SIZE
  6
CONTINUOUS
 62
    30
 10
-540.00000229843863
 20
120.0
 30
0.0
 11
-1011.098859404362
 21
120.0
 31
0.0
  0
LINE
  5
2F1
  8
SIZE
  6
CONTINUOUS
 62
    30
 10
-981.09885940436175
 20
118.0
 30
0.0
 11
-981.09885940436175
 21
2.0229720643902711
 31
0.0
  0
TEXT
  5
2F2
  8
SIZE
  6
CONTINUOUS
 62
    30
 10
-1007.4785682968439
 20
162.94922600000001
 30
0.0
 40
64.0
  1
120
 50
90.0
 41
0.9
  0
LINE
  5
2F3
  8
SIZE
  6
CONTINUOUS
 62
    30
 10
-540.00000229843863
 20
120.0
 30
0.0
 11
-831.99982170731766
 21
120.0
 31
0.0
  0
LINE
  5
2F4
  8
SIZE
  6
CONTINUOUS
 62
    30
 10
-540.00000229843863
 20
284.99999700000001
 30
0.0
 11
-831.99977470731767
 21
284.99999700000001
 31
0.0
  0
LINE
  5
2F5
  8
SIZE
  6
CONTINUOUS
 62
    30
 10
-801.99977470731756
 20
282.99993899999998
 30
0.0
 11
-801.99982170731755
 21
122.0
 31
0.0
  0
TEXT
  5
2F6
  8
SIZE
  6
CONTINUOUS
 62
    30
 10
-828.37948359979964
 20
361.3073276914136
 30
0.0
 40
64.0
  1
165
 50
90.0
 41
0.9
  0
CIRCLE
  5
2F7
  8
SIZE
  6
CONTINUOUS
 62
    30
 10
-801.99977470731756
 20
284.99999700000001
 30
0.0
 40
6.0
  0
CIRCLE
  5
2F8
  8
SIZE
  6
CONTINUOUS
 62
    30
 10
-801.99982170731755
 20
120.0
 30
0.0
 40
6.0
  0
CIRCLE
  5
2F9
  8
SIZE
  6
CONTINUOUS
 62
    30
 10
-981.09885940436175
 20
120.0
 30
0.0
 40
6.0
  0
CIRCLE
  5
2FA
  8
SIZE
  6
CONTINUOUS
 62
    30
 10
-981.09885940436175
 20
-0.0000029999999924
 30
0.0
 40
6.0
  0
CIRCLE
  5
2FB
  8
SIZE
  6
CONTINUOUS
 62
    30
 10
-801.99982170731755
 20
55.0
 30
0.0
 40
6.0
  0
CIRCLE
  5
2FC
  8
SIZE
  6
CONTINUOUS
 62
    30
 10
-801.99982170731755
 20
0.0
 30
0.0
 40
6.0
  0
LINE
  5
2FD
  8
DETAIL
  6
CONTINUOUS
 62
     5
 10
-500.00000229843852
 20
140.0
 30
0.0
 11
-500.00000229843852
 21
100.0
 31
0.0
  0
LINE
  5
2FE
  8
DETAIL
  6
CONTINUOUS
 62
     5
 10
-500.00000229843852
 20
140.0
 30
0.0
 11
-490.00000229843852
 21
140.0
 31
0.0
  0
LINE
  5
2FF
  8
DETAIL
  6
CONTINUOUS
 62
     5
 10
-500.00000229843852
 20
100.0
 30
0.0
 11
-490.00000229843852
 21
100.0
 31
0.0
  0
LINE
  5
308
  8
NOTE
  6
CONTINUOUS
 62
     4
 10
-520.00000229843852
 20
120.0
 30
0.0
 11
-480.00000229843852
 21
120.0
 31
0.0
  0
LINE
  5
309
  8
NOTE
  6
CONTINUOUS
 62
     4
 10
-500.00000229843852
 20
140.0
 30
0.0
 11
-500.00000229843852
 21
100.0
 31
0.0
  0
LINE
  5
312
  8
NOTE
  6
CONTINUOUS
 62
     4
 10
-520.00000229843852
 20
284.99999700000001
 30
0.0
 11
-480.00000229843852
 21
284.99999700000001
 31
0.0
  0
LINE
  5
313
  8
NOTE
  6
CONTINUOUS
 62
     4
 10
-500.00000229843852
 20
304.99999700000001
 30
0.0
 11
-500.00000229843852
 21
264.99999700000001
 31
0.0
  0
LINE
  5
329
  8
NOTE
  6
CONTINUOUS
 62
     4
 10
-591.99999922901497
 20
54.99999850665926
 30
0.0
 11
-551.99999922901486
 21
54.99999850665926
 31
0.0
  0
LINE
  5
32A
  8
NOTE
  6
CONTINUOUS
 62
     4
 10
-571.99999922901497
 20
74.999998506659253
 30
0.0
 11
-571.99999922901497
 21
34.999998506659267
 31
0.0
  0
LINE
  5
37D
  8
SIZE
  6
CONTINUOUS
 62
    30
 10
-508.00000229843857
 20
519.89434545112556
 30
0.0
 11
-644.06580529843825
 21
519.89434545112556
 31
0.0
  0
LINE
  5
37E
  8
SIZE
  6
CONTINUOUS
 62
    30
 10
-500.00000229843852
 20
160.0
 30
0.0
 11
-500.00000229843852
 21
549.8943454511259
 31
0.0
  0
LINE
  5
37F
  8
SIZE
  6
CONTINUOUS
 62
    30
 10
-510.0
 20
351.0
 30
0.0
 11
-510.00000229843852
 21
549.8943454511259
 31
0.0
  0
LINE
  5
380
  8
SIZE
  6
CONTINUOUS
 62
    30
 10
-502.00000229843852
 20
519.89434545112556
 30
0.0
 11
-505.00000229843852
 21
519.89434545112556
 31
0.0
  0
LINE
  5
381
  8
SIZE
  6
CONTINUOUS
 62
    30
 10
-508.00000229843857
 20
519.89434545112556
 30
0.0
 11
-505.00000229843852
 21
519.89434545112556
 31
0.0
  0
TEXT
  5
382
  8
SIZE
  6
CONTINUOUS
 62
    30
 10
-625.49874758415262
 20
551.8943454511259
 30
0.0
 40
64.0
  1
10
 41
0.9
  0
CIRCLE
  5
383
  8
SIZE
  6
CONTINUOUS
 62
    30
 10
-510.00000229843852
 20
519.89434545112556
 30
0.0
 40
6.0
  0
CIRCLE
  5
384
  8
SIZE
  6
CONTINUOUS
 62
    30
 10
-500.00000229843852
 20
519.89434545112556
 30
0.0
 40
6.0
  0
LINE
  5
3B1
  8
SIZE
  6
CONTINUOUS
 62
    30
 10
508.0
 20
521.38794773546419
 30
0.0
 11
644.06580299999985
 21
521.38794773546419
 31
0.0
  0
LINE
  5
3B2
  8
SIZE
  6
CONTINUOUS
 62
    30
 10
470.0
 20
371.000047
 30
0.0
 11
470.0
 21
531.38794773546419
 31
0.0
  0
LINE
  5
3B3
  8
SIZE
  6
CONTINUOUS
 62
    30
 10
510.0
 20
351.0
 30
0.0
 11
510.0
 21
551.38794773546419
 31
0.0
  0
LINE
  5
3B4
  8
SIZE
  6
CONTINUOUS
 62
    30
 10
472.0
 20
521.38794773546419
 30
0.0
 11
501.0
 21
521.38794773546419
 31
0.0
  0
LINE
  5
3B5
  8
SIZE
  6
CONTINUOUS
 62
    30
 10
508.0
 20
521.38794773546419
 30
0.0
 11
501.0
 21
521.38794773546419
 31
0.0
  0
TEXT
  5
3B6
  8
SIZE
  6
CONTINUOUS
 62
    30
 10
532.31713200000002
 20
553.38794773546397
 30
0.0
 40
64.0
  1
40
 41
0.9
  0
CIRCLE
  5
3B7
  8
SIZE
  6
CONTINUOUS
 62
    30
 10
510.0
 20
521.38794773546419
 30
0.0
 40
6.0
  0
CIRCLE
  5
3B8
  8
SIZE
  6
CONTINUOUS
 62
    30
 10
470.0
 20
521.38794773546419
 30
0.0
 40
6.0
  0
ENDSEC
  0
EOF
