  0
SECTION
  2
HEADER
  9
$ACADVER
  1
AC1009
  9
$INSBASE
 10
0.0
 20
0.0
 30
0.0
  9
$EXTMIN
 10
-1478.0378963195069
 20
-1041.2414635123889
 30
-0.0000000000000058
  9
$EXTMAX
 10
1464.405119014089
 20
866.76544868462952
 30
0.0000000000000104
  9
$LIMMIN
 10
-4267.1522210604826
 20
-2696.0832101984129
  9
$LIMMAX
 10
7190.7174225864646
 20
5141.155363923066
  9
$ORTHOMODE
 70
     0
  9
$REGENMODE
 70
     1
  9
$FILLMODE
 70
     1
  9
$QTEXTMODE
 70
     0
  9
$MIRRTEXT
 70
     0
  9
$DRAGMODE
 70
     2
  9
$LTSCALE
 40
20.0
  9
$OSMODE
 70
   431
  9
$ATTMODE
 70
     1
  9
$TEXTSIZE
 40
64.0
  9
$TRACEWID
 40
0.05
  9
$TEXTSTYLE
  7
NOTE
  9
$CLAYER
  8
SYMBOLLINE
  9
$CELTYPE
  6
CONTINUOUS
  9
$CECOLOR
 62
     7
  9
$DIMSCALE
 40
1.0
  9
$DIMASZ
 40
30.0
  9
$DIMEXO
 40
20.0
  9
$DIMDLI
 40
80.0
  9
$DIMRND
 40
0.0
  9
$DIMDLE
 40
0.0
  9
$DIMEXE
 40
20.0
  9
$DIMTP
 40
0.0
  9
$DIMTM
 40
0.0
  9
$DIMTXT
 40
55.0
  9
$DIMCEN
 40
0.09
  9
$DIMTSZ
 40
0.0
  9
$DIMTOL
 70
     0
  9
$DIMLIM
 70
     0
  9
$DIMTIH
 70
     0
  9
$DIMTOH
 70
     0
  9
$DIMSE1
 70
     0
  9
$DIMSE2
 70
     0
  9
$DIMTAD
 70
     1
  9
$DIMZIN
 70
     8
  9
$DIMBLK
  1
SMALL
  9
$DIMASO
 70
     1
  9
$DIMSHO
 70
     0
  9
$DIMPOST
  1

  9
$DIMAPOST
  1

  9
$DIMALT
 70
     0
  9
$DIMALTD
 70
     2
  9
$DIMALTF
 40
25.399999999999999
  9
$DIMLFAC
 40
1.0
  9
$DIMTOFL
 70
     1
  9
$DIMTVP
 40
0.0
  9
$DIMTIX
 70
     0
  9
$DIMSOXD
 70
     0
  9
$DIMSAH
 70
     0
  9
$DIMBLK1
  1

  9
$DIMBLK2
  1

  9
$DIMSTYLE
  2
STANDARD
  9
$DIMCLRD
 70
     0
  9
$DIMCLRE
 70
     0
  9
$DIMCLRT
 70
     0
  9
$DIMTFAC
 40
1.0
  9
$DIMGAP
 40
0.09
  9
$LUNITS
 70
     2
  9
$LUPREC
 70
     4
  9
$SKETCHINC
 40
0.1
  9
$FILLETRAD
 40
18.0
  9
$AUNITS
 70
     1
  9
$AUPREC
 70
     3
  9
$MENU
  1
ACAD
  9
$ELEVATION
 40
0.0
  9
$PELEVATION
 40
0.0
  9
$THICKNESS
 40
0.0
  9
$LIMCHECK
 70
     0
  9
$BLIPMODE
 70
     0
  9
$CHAMFERA
 40
0.0
  9
$CHAMFERB
 40
0.0
  9
$SKPOLY
 70
     0
  9
$TDCREATE
 40
2450330.4399309959
  9
$TDUPDATE
 40
2455141.6598602198
  9
$TDINDWG
 40
3.5611601735999998
  9
$TDUSRTIMER
 40
3.5611554745
  9
$USRTIMER
 70
     1
  9
$ANGBASE
 50
0.0
  9
$ANGDIR
 70
     0
  9
$PDMODE
 70
     3
  9
$PDSIZE
 40
-2.0
  9
$PLINEWID
 40
0.0
  9
$COORDS
 70
     0
  9
$SPLFRAME
 70
     0
  9
$SPLINETYPE
 70
     6
  9
$SPLINESEGS
 70
     8
  9
$ATTDIA
 70
     0
  9
$ATTREQ
 70
     1
  9
$HANDLING
 70
     1
  9
$HANDSEED
  5
55D
  9
$SURFTAB1
 70
     6
  9
$SURFTAB2
 70
     6
  9
$SURFTYPE
 70
     6
  9
$SURFU
 70
     6
  9
$SURFV
 70
     6
  9
$UCSNAME
  2

  9
$UCSORG
 10
0.0
 20
0.0
 30
0.0
  9
$UCSXDIR
 10
1.0
 20
0.0
 30
0.0
  9
$UCSYDIR
 10
0.0
 20
1.0
 30
0.0
  9
$PUCSNAME
  2

  9
$PUCSORG
 10
0.0
 20
0.0
 30
0.0
  9
$PUCSXDIR
 10
1.0
 20
0.0
 30
0.0
  9
$PUCSYDIR
 10
0.0
 20
1.0
 30
0.0
  9
$USERI1
 70
     0
  9
$USERI2
 70
     0
  9
$USERI3
 70
     0
  9
$USERI4
 70
     0
  9
$USERI5
 70
     0
  9
$USERR1
 40
20.0
  9
$USERR2
 40
0.0
  9
$USERR3
 40
0.0
  9
$USERR4
 40
0.0
  9
$USERR5
 40
0.0
  9
$WORLDVIEW
 70
     1
  9
$SHADEDGE
 70
     3
  9
$SHADEDIF
 70
    70
  9
$TILEMODE
 70
     1
  9
$MAXACTVP
 70
    64
  9
$PLIMCHECK
 70
     0
  9
$PEXTMIN
 10
1.0000000000000000E+020
 20
1.0000000000000000E+020
 30
1.0000000000000000E+020
  9
$PEXTMAX
 10
-1.0000000000000000E+020
 20
-1.0000000000000000E+020
 30
-1.0000000000000000E+020
  9
$PLIMMIN
 10
0.0
 20
0.0
  9
$PLIMMAX
 10
12.0
 20
9.0
  9
$UNITMODE
 70
     0
  9
$VISRETAIN
 70
     1
  9
$PLINEGEN
 70
     0
  9
$PSLTSCALE
 70
     1
  0
ENDSEC
  0
SECTION
  2
TABLES
  0
TABLE
  2
VPORT
 70
     1
  0
VPORT
  2
*ACTIVE
 70
     0
 10
0.0
 20
0.0
 11
1.0
 21
1.0
 12
1461.782600762991
 22
1222.5360768623259
 13
0.0
 23
0.0
 14
50.0
 24
50.0
 15
100.0
 25
100.0
 16
0.0
 26
0.0
 36
1.0
 17
0.0
 27
0.0
 37
0.0
 40
7896.6866543297328
 41
1.548101265822784
 42
50.0
 43
0.0
 44
0.0
 50
0.0
 51
0.0
 71
     0
 72
  1000
 73
     1
 74
     0
 75
     0
 76
     0
 77
     0
 78
     0
  0
ENDTAB
  0
TABLE
  2
LTYPE
 70
     2
  0
LTYPE
  2
CONTINUOUS
 70
     0
  3
実線
 72
    65
 73
     0
 40
0.0
  0
LTYPE
  2
DASHDOT
 70
     0
  3
____ _ ____ _ ____ _ ____ _ ____ _ ____ _ ____
 72
    65
 73
     4
 40
5.5
 49
4.0
 49
-0.6
 49
0.3
 49
-0.6
  0
ENDTAB
  0
TABLE
  2
LAYER
 70
    12
  0
LAYER
  2
0
 70
     0
 62
     7
  6
CONTINUOUS
  0
LAYER
  2
SYMBOLLINE
 70
     0
 62
    15
  6
CONTINUOUS
  0
LAYER
  2
SIZE
 70
     0
 62
    30
  6
CONTINUOUS
  0
LAYER
  2
OUTLINE
 70
     0
 62
     3
  6
CONTINUOUS
  0
LAYER
  2
DETAIL
 70
     0
 62
     5
  6
CONTINUOUS
  0
LAYER
  2
BASIS
 70
     0
 62
     6
  6
DASHDOT
  0
LAYER
  2
NOTE
 70
     0
 62
     4
  6
CONTINUOUS
  0
LAYER
  2
ARRANGE
 70
     0
 62
     1
  6
CONTINUOUS
  0
LAYER
  2
FIX
 70
     0
 62
    11
  6
CONTINUOUS
  0
LAYER
  2
SERVICESPACE
 70
     0
 62
     2
  6
DASHDOT
  0
LAYER
  2
ETC
 70
     0
 62
    61
  6
CONTINUOUS
  0
LAYER
  2
DEFPOINTS
 70
     0
 62
     7
  6
CONTINUOUS
  0
ENDTAB
  0
TABLE
  2
STYLE
 70
     4
  0
STYLE
  2
STANDARD
 70
     0
 40
0.0
 41
0.9
 50
0.0
 71
     0
 42
64.0
  3
SIMPLEX
  4
BIGFONT
  0
STYLE
  2
ANNOTATIVE
 70
     0
 40
0.0
 41
1.0
 50
0.0
 71
     0
 42
0.2
  3
txt
  4

  0
STYLE
  2
NOTE
 70
     0
 40
0.0
 41
0.7
 50
0.0
 71
     0
 42
64.0
  3
SIMPLEX.shx
  4
BIGFONT.shx
  0
STYLE
  2
STANDARD1
 70
     0
 40
0.0
 41
1.0
 50
0.0
 71
     0
 42
64.0
  3
MONOTXT
  4
BIGFONT
  0
ENDTAB
  0
TABLE
  2
VIEW
 70
     5
  0
VIEW
  2
ALL
 70
     0
 40
9000.0
 10
241.50664699999999
 20
0.0
 41
12483.01
 11
0.0
 21
0.0
 31
1.0
 12
0.0
 22
0.0
 32
0.0
 42
50.0
 43
0.0
 44
0.0
 50
0.0
 71
     0
  0
ENDTAB
  0
TABLE
  2
UCS
 70
     0
  0
ENDTAB
  0
TABLE
  2
APPID
 70
     4
  0
APPID
  2
ACAD
 70
     0
  0
APPID
  2
ACADANNOTATIVE
 70
     0
  0
APPID
  2
ACAD_MLEADERVER
 70
     0
  0
APPID
  2
ACAD_EXEMPT_FROM_CAD_STANDARDS
 70
     0
  0
ENDTAB
  0
TABLE
  2
DIMSTYLE
 70
     2
  0
DIMSTYLE
  2
STANDARD
 70
     0
  3

  4

  5

  6

  7

 40
1.0
 41
0.18
 42
0.0625
 43
0.38
 44
0.18
 45
0.0
 46
0.0
 47
0.0
 48
0.0
140
0.18
141
0.09
142
0.0
143
25.399999999999999
144
1.0
145
0.0
146
1.0
147
0.09
 71
     0
 72
     0
 73
     1
 74
     1
 75
     0
 76
     0
 77
     0
 78
     0
170
     0
171
     2
172
     0
173
     0
174
     0
175
     0
176
     0
177
     0
178
     0
  0
DIMSTYLE
  2
ANNOTATIVE
 70
     0
  3

  4

  5

  6

  7

 40
1.0
 41
0.18
 42
0.0625
 43
0.38
 44
0.18
 45
0.0
 46
0.0
 47
0.0
 48
0.0
140
0.18
141
0.09
142
0.0
143
25.399999999999999
144
1.0
145
0.0
146
1.0
147
0.09
 71
     0
 72
     0
 73
     1
 74
     1
 75
     0
 76
     0
 77
     0
 78
     0
170
     0
171
     2
172
     0
173
     0
174
     0
175
     0
176
     0
177
     0
178
     0
  0
ENDTAB
  0
ENDSEC
  0
SECTION
  2
BLOCKS
  0
BLOCK
  8
0
  2
$MODEL_SPACE
 70
     0
 10
0.0
 20
0.0
 30
0.0
  3
$MODEL_SPACE
  1

  0
ENDBLK
  5
4F5
  8
0
  0
BLOCK
 67
     1
  8
0
  2
$PAPER_SPACE
 70
     0
 10
0.0
 20
0.0
 30
0.0
  3
$PAPER_SPACE
  1

  0
ENDBLK
  5
4F1
 67
     1
  8
0
  0
BLOCK
  8
0
  2
_SMALL
 70
     0
 10
0.0
 20
0.0
 30
0.0
  3
_SMALL
  1

  0
CIRCLE
  5
8D
  8
0
  6
CONTINUOUS
 62
     7
 10
0.0
 20
0.0
 30
0.0
 40
0.25
  0
ENDBLK
  5
8E
  8
0
  0
ENDSEC
  0
SECTION
  2
ENTITIES
  0
LINE
  5
8F
  8
DETAIL
  6
CONTINUOUS
 62
     5
 10
601.99999999999795
 20
-305.00000000000063
 30
0.0
 11
601.99999999999795
 21
304.99999999999937
 31
0.0
  0
LINE
  5
90
  8
DETAIL
  6
CONTINUOUS
 62
     5
 10
-602.00000000000193
 20
304.99999999999937
 30
0.0
 11
-602.00000000000193
 21
-305.00000000000063
 31
0.0
  0
LINE
  5
91
  8
BASIS
  6
DASHDOT
 62
     6
 10
-700.0
 20
-0.0000000000004547
 30
0.0
 11
700.0
 21
-0.0000000000004547
 31
0.0
  0
LINE
  5
92
  8
DETAIL
  6
CONTINUOUS
 62
     5
 10
-602.00000000000193
 20
304.99999999999937
 30
0.0
 11
601.99999999999795
 21
304.99999999999937
 31
0.0
  0
LINE
  5
93
  8
DETAIL
  6
CONTINUOUS
 62
     5
 10
-602.00000000000193
 20
-305.00000000000063
 30
0.0
 11
601.99999999999795
 21
-305.00000000000063
 31
0.0
  0
LINE
  5
94
  8
OUTLINE
  6
CONTINUOUS
 62
     3
 10
-602.00000000000193
 20
304.99999999999937
 30
0.0
 11
-602.00000000000193
 21
-305.00000000000063
 31
0.0
  0
LINE
  5
95
  8
OUTLINE
  6
CONTINUOUS
 62
     3
 10
-602.00000000000193
 20
-305.00000000000063
 30
0.0
 11
601.99999999999795
 21
-305.00000000000063
 31
0.0
  0
LINE
  5
96
  8
OUTLINE
  6
CONTINUOUS
 62
     3
 10
601.99999999999795
 20
-305.00000000000063
 30
0.0
 11
601.99999999999795
 21
304.99999999999937
 31
0.0
  0
LINE
  5
97
  8
OUTLINE
  6
CONTINUOUS
 62
     3
 10
601.99999999999795
 20
304.99999999999937
 30
0.0
 11
-602.00000000000193
 21
304.99999999999937
 31
0.0
  0
LINE
  5
98
  8
BASIS
  6
DASHDOT
 62
     6
 10
-0.0000000000018083
 20
350.0
 30
0.0
 11
-0.0000000000018083
 21
-350.0
 31
0.0
  0
CIRCLE
  5
99
  8
ARRANGE
  6
CONTINUOUS
 62
     1
 10
0.0000000000000107
 20
-0.0000000000004547
 30
0.0
 40
50.0
  0
LINE
  5
9A
  8
ARRANGE
  6
CONTINUOUS
 62
     1
 10
50.037350031328963
 20
-49.522353150325443
 30
0.0
 11
-50.037350031328963
 21
49.522353150325443
 31
0.0
  0
LINE
  5
9B
  8
ARRANGE
  6
CONTINUOUS
 62
     1
 10
49.96376331050125
 20
49.59659479798529
 30
0.0
 11
-49.963763310501221
 21
-49.596594797982561
 31
0.0
  0
LINE
  5
9C
  8
NOTE
  6
CONTINUOUS
 62
     4
 10
629.99999999999784
 20
-183.2833478760364
 30
0.0
 11
629.99999999999784
 21
-216.71665212396351
 31
0.0
  0
LINE
  5
9D
  8
NOTE
  6
CONTINUOUS
 62
     4
 10
613.28334787603444
 20
-200.0000000000004
 30
0.0
 11
646.71665212396124
 21
-200.0000000000004
 31
0.0
  0
CIRCLE
  5
9E
  8
FIX
  6
CONTINUOUS
 62
    11
 10
629.99999999999784
 20
-200.0000000000004
 30
0.0
 40
12.42149793872491
  0
LINE
  5
9F
  8
NOTE
  6
CONTINUOUS
 62
     4
 10
-629.99999999985744
 20
-199.99999999996271
 30
0.0
 11
-625.68594686407141
 21
-234.11361334613841
 31
0.0
  0
LINE
  5
A0
  8
NOTE
  6
CONTINUOUS
 62
     4
 10
-629.99999999985744
 20
-199.99999999996271
 30
0.0
 11
-643.32072752593342
 21
-231.7002821464192
 31
0.0
  0
LINE
  5
A1
  8
NOTE
  6
CONTINUOUS
 62
     4
 10
-698.44002791538151
 20
-827.39626205934462
 30
0.0
 11
-629.99999999986949
 21
-199.99999999998241
 31
0.0
  0
LINE
  5
A2
  8
NOTE
  6
CONTINUOUS
 62
     4
 10
629.99999999999784
 20
216.7166521239626
 30
0.0
 11
629.99999999999784
 21
183.2833478760364
 31
0.0
  0
LINE
  5
A3
  8
NOTE
  6
CONTINUOUS
 62
     4
 10
613.28334787603444
 20
199.9999999999994
 30
0.0
 11
646.71665212396124
 21
199.9999999999994
 31
0.0
  0
CIRCLE
  5
A4
  8
FIX
  6
CONTINUOUS
 62
    11
 10
629.99999999999784
 20
199.9999999999994
 30
0.0
 40
12.42149793872491
  0
ARC
  5
A5
  8
DETAIL
  6
CONTINUOUS
 62
     5
 10
629.99999999999784
 20
215.99999999999949
 30
0.0
 40
9.0
 50
0.0
 51
180.0
  0
ARC
  5
A6
  8
DETAIL
  6
CONTINUOUS
 62
     5
 10
629.99999999999784
 20
183.9999999999994
 30
0.0
 40
9.0
 50
180.0
 51
0.0
  0
LINE
  5
A7
  8
DETAIL
  6
CONTINUOUS
 62
     5
 10
620.99999999999784
 20
215.99999999999949
 30
0.0
 11
620.99999999999784
 21
183.9999999999994
 31
0.0
  0
LINE
  5
A8
  8
DETAIL
  6
CONTINUOUS
 62
     5
 10
638.99999999999784
 20
183.9999999999994
 30
0.0
 11
638.99999999999784
 21
215.99999999999949
 31
0.0
  0
ARC
  5
A9
  8
DETAIL
  6
CONTINUOUS
 62
     5
 10
629.99999999999784
 20
-184.0000000000004
 30
0.0
 40
9.0
 50
0.0
 51
180.0
  0
ARC
  5
AA
  8
DETAIL
  6
CONTINUOUS
 62
     5
 10
629.99999999999784
 20
-215.99999999999949
 30
0.0
 40
9.0
 50
180.0
 51
0.0
  0
LINE
  5
AB
  8
DETAIL
  6
CONTINUOUS
 62
     5
 10
620.99999999999784
 20
-184.0000000000004
 30
0.0
 11
620.99999999999784
 21
-215.99999999999949
 31
0.0
  0
LINE
  5
AC
  8
DETAIL
  6
CONTINUOUS
 62
     5
 10
638.99999999999784
 20
-215.99999999999949
 30
0.0
 11
638.99999999999784
 21
-184.0000000000004
 31
0.0
  0
LINE
  5
AD
  8
DETAIL
  6
CONTINUOUS
 62
     5
 10
648.99999999999795
 20
-291.04267081351281
 30
0.0
 11
648.99999999999795
 21
-0.0000000000004547
 31
0.0
  0
LINE
  5
AE
  8
DETAIL
  6
CONTINUOUS
 62
     5
 10
601.99999999999795
 20
-300.00000000000068
 30
0.0
 11
644.84068057351215
 21
-300.00000000000068
 31
0.0
  0
LINE
  5
AF
  8
DETAIL
  6
CONTINUOUS
 62
     5
 10
648.99999999999795
 20
-291.04267081351281
 30
0.0
 11
644.84068057351215
 21
-299.9999999999996
 31
0.0
  0
LINE
  5
B0
  8
DETAIL
  6
CONTINUOUS
 62
     5
 10
648.99999999999795
 20
291.04267081351151
 30
0.0
 11
648.99999999999795
 21
-0.0000000000004547
 31
0.0
  0
LINE
  5
B1
  8
DETAIL
  6
CONTINUOUS
 62
     5
 10
601.99999999999795
 20
299.9999999999996
 30
0.0
 11
644.84068057351249
 21
300.00000000000028
 31
0.0
  0
LINE
  5
B2
  8
DETAIL
  6
CONTINUOUS
 62
     5
 10
648.99999999999795
 20
291.04267081351151
 30
0.0
 11
644.8406805735126
 21
299.9999999999996
 31
0.0
  0
LINE
  5
B3
  8
NOTE
  6
CONTINUOUS
 62
     4
 10
-630.00000000000136
 20
-183.2833478760364
 30
0.0
 11
-630.00000000000136
 21
-216.71665212396351
 31
0.0
  0
LINE
  5
B4
  8
NOTE
  6
CONTINUOUS
 62
     4
 10
-613.28334787603831
 20
-200.0000000000004
 30
0.0
 11
-646.71665212396465
 21
-200.0000000000004
 31
0.0
  0
CIRCLE
  5
B5
  8
FIX
  6
CONTINUOUS
 62
    11
 10
-630.00000000000136
 20
-200.0000000000004
 30
0.0
 40
12.42149793872491
  0
LINE
  5
B6
  8
NOTE
  6
CONTINUOUS
 62
     4
 10
-630.00000000000136
 20
216.7166521239626
 30
0.0
 11
-630.00000000000136
 21
183.2833478760364
 31
0.0
  0
LINE
  5
B7
  8
NOTE
  6
CONTINUOUS
 62
     4
 10
-613.28334787603831
 20
199.9999999999994
 30
0.0
 11
-646.71665212396465
 21
199.9999999999994
 31
0.0
  0
CIRCLE
  5
B8
  8
FIX
  6
CONTINUOUS
 62
    11
 10
-630.00000000000136
 20
199.9999999999994
 30
0.0
 40
12.42149793872491
  0
ARC
  5
B9
  8
DETAIL
  6
CONTINUOUS
 62
     5
 10
-630.00000000000136
 20
215.99999999999949
 30
0.0
 40
9.0
 50
0.0
 51
180.0
  0
ARC
  5
BA
  8
DETAIL
  6
CONTINUOUS
 62
     5
 10
-630.00000000000136
 20
183.9999999999994
 30
0.0
 40
9.0
 50
180.0
 51
0.0
  0
LINE
  5
BB
  8
DETAIL
  6
CONTINUOUS
 62
     5
 10
-621.00000000000148
 20
215.99999999999949
 30
0.0
 11
-621.00000000000148
 21
183.9999999999994
 31
0.0
  0
LINE
  5
BC
  8
DETAIL
  6
CONTINUOUS
 62
     5
 10
-639.00000000000125
 20
183.9999999999994
 30
0.0
 11
-639.00000000000125
 21
215.99999999999949
 31
0.0
  0
ARC
  5
BD
  8
DETAIL
  6
CONTINUOUS
 62
     5
 10
-630.00000000000136
 20
-184.0000000000004
 30
0.0
 40
9.0
 50
0.0
 51
180.0
  0
ARC
  5
BE
  8
DETAIL
  6
CONTINUOUS
 62
     5
 10
-630.00000000000136
 20
-215.99999999999949
 30
0.0
 40
9.0
 50
180.0
 51
0.0
  0
LINE
  5
BF
  8
DETAIL
  6
CONTINUOUS
 62
     5
 10
-621.00000000000148
 20
-184.0000000000004
 30
0.0
 11
-621.00000000000148
 21
-215.99999999999949
 31
0.0
  0
LINE
  5
C0
  8
DETAIL
  6
CONTINUOUS
 62
     5
 10
-639.00000000000125
 20
-215.99999999999949
 30
0.0
 11
-639.00000000000125
 21
-184.0000000000004
 31
0.0
  0
LINE
  5
C1
  8
DETAIL
  6
CONTINUOUS
 62
     5
 10
-649.00000000000159
 20
-291.04267081351281
 30
0.0
 11
-649.00000000000159
 21
-0.0000000000004547
 31
0.0
  0
LINE
  5
C2
  8
DETAIL
  6
CONTINUOUS
 62
     5
 10
-602.00000000000159
 20
-299.9999999999996
 30
0.0
 11
-644.84068057351578
 21
-300.00000000000068
 31
0.0
  0
LINE
  5
C3
  8
DETAIL
  6
CONTINUOUS
 62
     5
 10
-649.00000000000159
 20
-291.04267081351281
 30
0.0
 11
-644.84068057351578
 21
-299.9999999999996
 31
0.0
  0
LINE
  5
C4
  8
DETAIL
  6
CONTINUOUS
 62
     5
 10
-649.00000000000159
 20
291.04267081351151
 30
0.0
 11
-649.00000000000159
 21
-0.0000000000004547
 31
0.0
  0
LINE
  5
C5
  8
DETAIL
  6
CONTINUOUS
 62
     5
 10
-602.00000000000159
 20
299.9999999999996
 30
0.0
 11
-644.84068057351578
 21
300.00000000000028
 31
0.0
  0
LINE
  5
C6
  8
DETAIL
  6
CONTINUOUS
 62
     5
 10
-649.00000000000159
 20
291.04267081351151
 30
0.0
 11
-644.84068057351578
 21
299.9999999999996
 31
0.0
  0
LINE
  5
C7
  8
DETAIL
  6
CONTINUOUS
 62
     5
 10
-572.00000000000193
 20
-340.00000000000068
 30
0.0
 11
439.99999999999778
 21
-340.00000000000068
 31
0.0
  0
LINE
  5
C8
  8
DETAIL
  6
CONTINUOUS
 62
     5
 10
-1.0
 20
340.00000000000051
 30
0.0
 11
-301.0
 21
340.00000000000051
 31
0.0
  0
LINE
  5
C9
  8
OUTLINE
  6
CONTINUOUS
 62
     3
 10
601.99999999999795
 20
304.99999999999937
 30
0.0
 11
-602.00000000000193
 21
304.99999999999937
 31
0.0
  0
LINE
  5
CA
  8
DETAIL
  6
CONTINUOUS
 62
     5
 10
-572.00000000000193
 20
-340.00000000000068
 30
0.0
 11
-572.00000000000193
 21
-305.00000000000063
 31
0.0
  0
LINE
  5
CB
  8
DETAIL
  6
CONTINUOUS
 62
     5
 10
439.99999999999778
 20
-340.00000000000068
 30
0.0
 11
439.99999999999778
 21
-305.00000000000063
 31
0.0
  0
LINE
  5
CC
  8
NOTE
  6
CONTINUOUS
 62
     4
 10
-526.00000000000193
 20
-319.75000634295242
 30
0.0
 11
-526.00000000000193
 21
-340.24999365721669
 31
0.0
  0
LINE
  5
CD
  8
NOTE
  6
CONTINUOUS
 62
     4
 10
-515.75000634286891
 20
-330.00000000000063
 30
0.0
 11
-536.24999365713495
 21
-330.00000000000063
 31
0.0
  0
LINE
  5
CE
  8
NOTE
  6
CONTINUOUS
 62
     4
 10
-296.00000000000199
 20
-319.75000634295242
 30
0.0
 11
-296.00000000000199
 21
-340.24999365721669
 31
0.0
  0
LINE
  5
CF
  8
NOTE
  6
CONTINUOUS
 62
     4
 10
-285.75000634286909
 20
-330.00000000000063
 30
0.0
 11
-306.24999365713501
 21
-330.00000000000063
 31
0.0
  0
LINE
  5
D0
  8
NOTE
  6
CONTINUOUS
 62
     4
 10
-66.000000000002032
 20
-319.75000634295242
 30
0.0
 11
-66.000000000002032
 21
-340.24999365721669
 31
0.0
  0
LINE
  5
D1
  8
NOTE
  6
CONTINUOUS
 62
     4
 10
-55.750006342869007
 20
-330.00000000000063
 30
0.0
 11
-76.24999365713505
 21
-330.00000000000063
 31
0.0
  0
LINE
  5
D2
  8
NOTE
  6
CONTINUOUS
 62
     4
 10
163.9999999999979
 20
-319.75000634295242
 30
0.0
 11
163.9999999999979
 21
-340.24999365721669
 31
0.0
  0
LINE
  5
D3
  8
NOTE
  6
CONTINUOUS
 62
     4
 10
174.2499936571308
 20
-330.00000000000063
 30
0.0
 11
153.75000634286479
 21
-330.00000000000063
 31
0.0
  0
LINE
  5
D4
  8
NOTE
  6
CONTINUOUS
 62
     4
 10
393.99999999999773
 20
-319.75000634295242
 30
0.0
 11
393.99999999999773
 21
-340.24999365721669
 31
0.0
  0
LINE
  5
D5
  8
NOTE
  6
CONTINUOUS
 62
     4
 10
404.24999365713069
 20
-330.00000000000063
 30
0.0
 11
383.75000634286482
 21
-330.00000000000063
 31
0.0
  0
LINE
  5
D6
  8
DETAIL
  6
CONTINUOUS
 62
     5
 10
-301.0
 20
340.00000000000051
 30
0.0
 11
-301.0
 21
304.99999999999937
 31
0.0
  0
LINE
  5
D7
  8
DETAIL
  6
CONTINUOUS
 62
     5
 10
-1.0
 20
340.00000000000051
 30
0.0
 11
-1.0
 21
304.99999999999937
 31
0.0
  0
LINE
  5
D8
  8
NOTE
  6
CONTINUOUS
 62
     4
 10
439.99999999999778
 20
-319.75000634303751
 30
0.0
 11
439.99999999999778
 21
-340.24999365730162
 31
0.0
  0
LINE
  5
D9
  8
NOTE
  6
CONTINUOUS
 62
     4
 10
450.24999365713091
 20
-330.00000000008453
 30
0.0
 11
429.75000634286482
 21
-330.00000000008453
 31
0.0
  0
LINE
  5
DA
  8
NOTE
  6
CONTINUOUS
 62
     4
 10
-572.00000000000193
 20
-319.75000634295242
 30
0.0
 11
-572.00000000000193
 21
-340.24999365721669
 31
0.0
  0
LINE
  5
DB
  8
NOTE
  6
CONTINUOUS
 62
     4
 10
-561.75000634286891
 20
-329.99999999999937
 30
0.0
 11
-582.24999365713495
 21
-329.99999999999937
 31
0.0
  0
LINE
  5
DC
  8
NOTE
  6
CONTINUOUS
 62
     4
 10
-31.000000000000909
 20
340.24999365703019
 30
0.0
 11
-31.000000000000909
 21
319.7500063427662
 31
0.0
  0
LINE
  5
DD
  8
NOTE
  6
CONTINUOUS
 62
     4
 10
-20.750006342867891
 20
329.99999999998238
 30
0.0
 11
-41.249993657133899
 21
329.99999999998238
 31
0.0
  0
LINE
  5
DE
  8
NOTE
  6
CONTINUOUS
 62
     4
 10
-271.0
 20
340.24999365704718
 30
0.0
 11
-271.0
 21
319.75000634278319
 31
0.0
  0
LINE
  5
DF
  8
NOTE
  6
CONTINUOUS
 62
     4
 10
-260.75000634286721
 20
329.99999999999937
 30
0.0
 11
-281.24999365713307
 21
329.99999999999937
 31
0.0
  0
LINE
  5
E0
  8
NOTE
  6
CONTINUOUS
 62
     4
 10
-301.0
 20
340.00000000000051
 30
0.0
 11
-301.0
 21
319.75000634278319
 31
0.0
  0
LINE
  5
E1
  8
NOTE
  6
CONTINUOUS
 62
     4
 10
-290.75000634286721
 20
329.99999999999937
 30
0.0
 11
-311.24999365713307
 21
329.99999999999937
 31
0.0
  0
LINE
  5
E2
  8
NOTE
  6
CONTINUOUS
 62
     4
 10
-1.0
 20
340.00000000000051
 30
0.0
 11
-1.0
 21
319.75000634278319
 31
0.0
  0
LINE
  5
E3
  8
NOTE
  6
CONTINUOUS
 62
     4
 10
9.2499936571329862
 20
329.99999999999937
 30
0.0
 11
-11.249993657133031
 21
329.99999999999937
 31
0.0
  0
CIRCLE
  5
E4
  8
DETAIL
  6
CONTINUOUS
 62
     5
 10
-271.0
 20
329.99999999999937
 30
0.0
 40
1.5
  0
CIRCLE
  5
E5
  8
DETAIL
  6
CONTINUOUS
 62
     5
 10
-31.000000000000909
 20
329.99999999998238
 30
0.0
 40
1.5
  0
CIRCLE
  5
E6
  8
DETAIL
  6
CONTINUOUS
 62
     5
 10
-526.00000000000193
 20
-330.00000000000063
 30
0.0
 40
1.5
  0
CIRCLE
  5
E7
  8
DETAIL
  6
CONTINUOUS
 62
     5
 10
-296.00000000000199
 20
-330.00000000000063
 30
0.0
 40
1.5
  0
CIRCLE
  5
E8
  8
DETAIL
  6
CONTINUOUS
 62
     5
 10
-66.000000000002032
 20
-329.99999999991559
 30
0.0
 40
1.5
  0
CIRCLE
  5
E9
  8
DETAIL
  6
CONTINUOUS
 62
     5
 10
163.9999999999979
 20
-330.00000000000063
 30
0.0
 40
1.5
  0
CIRCLE
  5
EA
  8
DETAIL
  6
CONTINUOUS
 62
     5
 10
393.99999999999773
 20
-330.00000000000063
 30
0.0
 40
1.5
  0
LINE
  5
EB
  8
DETAIL
  6
CONTINUOUS
 62
     5
 10
458.69999999989648
 20
-348.00000000000068
 30
0.0
 11
457.69999999989648
 21
-305.00000000000063
 31
0.0
  0
LINE
  5
EC
  8
DETAIL
  6
CONTINUOUS
 62
     5
 10
565.99999999999784
 20
-348.00000000000068
 30
0.0
 11
548.65997512422246
 21
-348.00000000000068
 31
0.0
  0
LINE
  5
ED
  8
DETAIL
  6
CONTINUOUS
 62
     5
 10
548.65997512422246
 20
-348.00000000000068
 30
0.0
 11
546.64999999999907
 21
-305.00000000000063
 31
0.0
  0
LINE
  5
EE
  8
DETAIL
  6
CONTINUOUS
 62
     5
 10
475.99999999999773
 20
-348.00000000000068
 30
0.0
 11
458.69999999989648
 21
-348.00000000000068
 31
0.0
  0
LINE
  5
EF
  8
DETAIL
  6
CONTINUOUS
 62
     5
 10
565.99999999999784
 20
-348.00000000000068
 30
0.0
 11
583.340024875773
 21
-348.00000000000068
 31
0.0
  0
LINE
  5
F0
  8
DETAIL
  6
CONTINUOUS
 62
     5
 10
583.340024875773
 20
-348.00000000000068
 30
0.0
 11
585.34999999999627
 21
-305.00000000000063
 31
0.0
  0
LINE
  5
F1
  8
DETAIL
  6
CONTINUOUS
 62
     5
 10
493.30000000009898
 20
-348.00000000000068
 30
0.0
 11
494.30000000009892
 21
-305.00000000000063
 31
0.0
  0
LINE
  5
F2
  8
DETAIL
  6
CONTINUOUS
 62
     5
 10
475.99999999999773
 20
-348.00000000000068
 30
0.0
 11
493.30000000009898
 21
-348.00000000000068
 31
0.0
  0
LINE
  5
F3
  8
NOTE
  6
CONTINUOUS
 62
     4
 10
565.99999999999784
 20
-358.2499936570477
 30
0.0
 11
565.99999999999784
 21
-337.75000634278348
 31
0.0
  0
LINE
  5
F4
  8
NOTE
  6
CONTINUOUS
 62
     4
 10
566.00000000003331
 20
-347.99999999977149
 30
0.0
 11
573.6441862291764
 21
-381.52485774570459
 31
0.0
  0
LINE
  5
F5
  8
NOTE
  6
CONTINUOUS
 62
     4
 10
566.00000000003331
 20
-347.99999999977149
 30
0.0
 11
589.382488706
 21
-373.21128501073861
 31
0.0
  0
LINE
  5
F6
  8
NOTE
  6
CONTINUOUS
 62
     4
 10
853.24722132246961
 20
-881.54972273391058
 30
0.0
 11
566.00000000000523
 21
-347.99999999978968
 31
0.0
  0
LINE
  5
F7
  8
NOTE
  6
CONTINUOUS
 62
     4
 10
576.2499936571304
 20
-348.00000000000068
 30
0.0
 11
555.75000634286482
 21
-348.00000000000068
 31
0.0
  0
LINE
  5
F8
  8
NOTE
  6
CONTINUOUS
 62
     4
 10
475.99999999999773
 20
-358.2499936570477
 30
0.0
 11
475.99999999999773
 21
-337.75000634278348
 31
0.0
  0
LINE
  5
F9
  8
NOTE
  6
CONTINUOUS
 62
     4
 10
476.00000000002711
 20
-348.00000000022339
 30
0.0
 11
497.39463887457248
 21
-321.08125007719451
 31
0.0
  0
LINE
  5
FA
  8
NOTE
  6
CONTINUOUS
 62
     4
 10
476.00000000002711
 20
-348.00000000022339
 30
0.0
 11
481.06892531314662
 21
-313.99035921766159
 31
0.0
  0
LINE
  5
FB
  8
NOTE
  6
CONTINUOUS
 62
     4
 10
535.14752552466882
 20
-208.8274352255423
 30
0.0
 11
476.00000000005849
 21
-348.00000000023431
 31
0.0
  0
LINE
  5
FC
  8
NOTE
  6
CONTINUOUS
 62
     4
 10
486.2499936571308
 20
-348.00000000000068
 30
0.0
 11
465.75000634286482
 21
-348.00000000000068
 31
0.0
  0
LINE
  5
FD
  8
SIZE
  6
CONTINUOUS
 62
    30
 10
601.99999999999795
 20
324.9999999999996
 30
0.0
 11
601.99999999999795
 21
686.25001965863726
 31
0.0
  0
LINE
  5
FE
  8
SIZE
  6
CONTINUOUS
 62
    30
 10
-1.0
 20
360.2499936570473
 30
0.0
 11
-0.9999999999999856
 21
686.25001965863726
 31
0.0
  0
LINE
  5
FF
  8
SIZE
  6
CONTINUOUS
 62
    30
 10
601.99999999999795
 20
666.25001965863748
 30
0.0
 11
-0.9999999999999856
 21
666.25001965863748
 31
0.0
  0
CIRCLE
  5
100
  8
SIZE
  6
CONTINUOUS
 62
    30
 10
601.99999999999795
 20
666.25001965863748
 30
0.0
 40
7.5
  0
CIRCLE
  5
101
  8
SIZE
  6
CONTINUOUS
 62
    30
 10
-0.9999999999999856
 20
666.25001965863748
 30
0.0
 40
7.5
  0
TEXT
  5
102
  8
SIZE
  6
CONTINUOUS
 62
    30
 10
255.35714285714059
 20
684.25001965863737
 30
0.0
 40
55.0
  1
603
 41
0.9
 72
     1
 11
318.99999999999773
 21
684.25001965863737
 31
0.0
  0
POINT
  5
103
  8
DEFPOINTS
  6
CONTINUOUS
 62
     7
 10
601.99999999999795
 20
304.99999999999937
 30
0.0
  0
POINT
  5
105
  8
DEFPOINTS
  6
CONTINUOUS
 62
     7
 10
-0.9999999999999856
 20
666.25001965863748
 30
0.0
  0
LINE
  5
106
  8
SIZE
  6
CONTINUOUS
 62
    30
 10
-1.0
 20
360.2499936570473
 30
0.0
 11
-0.9999999999999856
 21
686.25001965863726
 31
0.0
  0
LINE
  5
107
  8
SIZE
  6
CONTINUOUS
 62
    30
 10
-301.0
 20
360.0000000000004
 30
0.0
 11
-301.0
 21
686.25001965863726
 31
0.0
  0
LINE
  5
108
  8
SIZE
  6
CONTINUOUS
 62
    30
 10
-0.9999999999999856
 20
666.25001965863748
 30
0.0
 11
-301.0
 21
666.25001965863748
 31
0.0
  0
CIRCLE
  5
109
  8
SIZE
  6
CONTINUOUS
 62
    30
 10
-0.9999999999999856
 20
666.25001965863748
 30
0.0
 40
7.5
  0
CIRCLE
  5
10A
  8
SIZE
  6
CONTINUOUS
 62
    30
 10
-301.0
 20
666.25001965863748
 30
0.0
 40
7.5
  0
TEXT
  5
10B
  8
SIZE
  6
CONTINUOUS
 62
    30
 10
-221.91976436937799
 20
684.25001965863737
 30
0.0
 40
55.0
  1
300
 41
0.9
 72
     1
 11
-158.2769072265209
 21
684.25001965863737
 31
0.0
  0
POINT
  5
10D
  8
DEFPOINTS
  6
CONTINUOUS
 62
     7
 10
-301.0
 20
340.00000000000051
 30
0.0
  0
POINT
  5
10E
  8
DEFPOINTS
  6
CONTINUOUS
 62
     7
 10
-301.0
 20
666.25001965863748
 30
0.0
  0
LINE
  5
10F
  8
SIZE
  6
CONTINUOUS
 62
    30
 10
-1.0
 20
360.2499936570473
 30
0.0
 11
-1.0
 21
565.37154682373875
 31
0.0
  0
LINE
  5
110
  8
SIZE
  6
CONTINUOUS
 62
    30
 10
-31.000000000000909
 20
360.2499936570473
 30
0.0
 11
-31.000000000000892
 21
565.37154682373875
 31
0.0
  0
LINE
  5
111
  8
SIZE
  6
CONTINUOUS
 62
    30
 10
-31.000000000000899
 20
545.37154682372147
 30
0.0
 11
-0.999999999999992
 21
545.37154682372147
 31
0.0
  0
LINE
  5
112
  8
SIZE
  6
CONTINUOUS
 62
    30
 10
-1.0
 20
545.37154682373875
 30
0.0
 11
147.4973463045944
 21
545.37154682373875
 31
0.0
  0
CIRCLE
  5
113
  8
SIZE
  6
CONTINUOUS
 62
    30
 10
-31.000000000000899
 20
545.37154682372147
 30
0.0
 40
7.5
  0
CIRCLE
  5
114
  8
SIZE
  6
CONTINUOUS
 62
    30
 10
-1.0
 20
545.37154682373875
 30
0.0
 40
7.5
  0
TEXT
  5
115
  8
SIZE
  6
CONTINUOUS
 62
    30
 10
48.867469810616058
 20
563.37154682373875
 30
0.0
 40
55.0
  1
30
 41
0.9
 72
     1
 11
88.938898382044627
 21
563.37154682373875
 31
0.0
  0
POINT
  5
118
  8
DEFPOINTS
  6
CONTINUOUS
 62
     7
 10
-31.000000000000899
 20
545.37154682372147
 30
0.0
  0
LINE
  5
119
  8
SIZE
  6
CONTINUOUS
 62
    30
 10
-31.000000000000909
 20
360.24999365703042
 30
0.0
 11
-31.000000000000899
 21
565.3715468237217
 31
0.0
  0
LINE
  5
11A
  8
SIZE
  6
CONTINUOUS
 62
    30
 10
-271.0
 20
360.2499936570473
 30
0.0
 11
-271.0
 21
565.37154682373875
 31
0.0
  0
LINE
  5
11B
  8
SIZE
  6
CONTINUOUS
 62
    30
 10
-31.000000000000899
 20
545.37154682373875
 30
0.0
 11
-271.0
 21
545.37154682373875
 31
0.0
  0
CIRCLE
  5
11C
  8
SIZE
  6
CONTINUOUS
 62
    30
 10
-31.000000000000899
 20
545.37154682372147
 30
0.0
 40
7.5
  0
CIRCLE
  5
11D
  8
SIZE
  6
CONTINUOUS
 62
    30
 10
-271.0
 20
545.37154682373875
 30
0.0
 40
7.5
  0
TEXT
  5
11E
  8
SIZE
  6
CONTINUOUS
 62
    30
 10
-209.70713712939249
 20
563.37154682373875
 30
0.0
 40
55.0
  1
240
 41
0.9
 72
     1
 11
-146.06427998653541
 21
563.37154682373875
 31
0.0
  0
POINT
  5
120
  8
DEFPOINTS
  6
CONTINUOUS
 62
     7
 10
-271.0
 20
340.24999365704718
 30
0.0
  0
POINT
  5
121
  8
DEFPOINTS
  6
CONTINUOUS
 62
     7
 10
-271.0
 20
545.37154682373875
 30
0.0
  0
TEXT
  5
122
  8
NOTE
  6
CONTINUOUS
 62
     4
 10
34.646612066886313
 20
205.19035092817239
 30
0.0
 40
60.0
  1
6-%%C3
 41
0.8
  0
LINE
  5
123
  8
NOTE
  6
CONTINUOUS
 62
     4
 10
22.418787366201371
 20
192.09236828884531
 30
0.0
 11
222.97908430444559
 21
192.09236828884531
 31
0.0
  0
LINE
  5
124
  8
NOTE
  6
CONTINUOUS
 62
     4
 10
-31.0
 20
329.99999999980952
 30
0.0
 11
-25.988281661448141
 21
295.98188204355108
 31
0.0
  0
LINE
  5
125
  8
NOTE
  6
CONTINUOUS
 62
     4
 10
-31.0
 20
329.99999999980952
 30
0.0
 11
-9.6506652313664798
 21
303.04530514110718
 31
0.0
  0
LINE
  5
126
  8
NOTE
  6
CONTINUOUS
 62
     4
 10
22.418787366201371
 20
192.09236828884531
 30
0.0
 11
-31.0
 21
329.99999999980952
 31
0.0
  0
LINE
  5
127
  8
SIZE
  6
CONTINUOUS
 62
    30
 10
-321.00000000000011
 20
340.00000000000051
 30
0.0
 11
-403.6790022964924
 21
340.00000000000051
 31
0.0
  0
LINE
  5
128
  8
SIZE
  6
CONTINUOUS
 62
    30
 10
-293.74999365713307
 20
329.99999999999937
 30
0.0
 11
-403.6790022964924
 21
329.9999999999996
 31
0.0
  0
LINE
  5
129
  8
SIZE
  6
CONTINUOUS
 62
    30
 10
-383.67900229649251
 20
329.9999999999996
 30
0.0
 11
-383.67900229649251
 21
299.9999999999996
 31
0.0
  0
LINE
  5
12A
  8
SIZE
  6
CONTINUOUS
 62
    30
 10
-383.67900229649251
 20
340.00000000000051
 30
0.0
 11
-383.6790022964924
 21
506.71428571428618
 31
0.0
  0
LINE
  5
12B
  8
SIZE
  6
CONTINUOUS
 62
    30
 10
-383.67900229649251
 20
329.9999999999996
 30
0.0
 11
-383.67900229649251
 21
340.00000000000051
 31
0.0
  0
CIRCLE
  5
12C
  8
SIZE
  6
CONTINUOUS
 62
    30
 10
-383.67900229649251
 20
329.9999999999996
 30
0.0
 40
7.5
  0
CIRCLE
  5
12D
  8
SIZE
  6
CONTINUOUS
 62
    30
 10
-383.67900229649251
 20
340.00000000000051
 30
0.0
 40
7.5
  0
TEXT
  5
12E
  8
SIZE
  6
CONTINUOUS
 62
    30
 10
-401.6790022964924
 20
418.00000000000028
 30
0.0
 40
55.0
  1
10
 50
90.0
 41
0.9
 72
     1
 11
-401.6790022964924
 21
453.35714285714312
 31
0.0
  0
POINT
  5
12F
  8
DEFPOINTS
  6
CONTINUOUS
 62
     7
 10
-301.0
 20
340.00000000000051
 30
0.0
  0
POINT
  5
130
  8
DEFPOINTS
  6
CONTINUOUS
 62
     7
 10
-281.24999365713307
 20
329.99999999999937
 30
0.0
  0
POINT
  5
131
  8
DEFPOINTS
  6
CONTINUOUS
 62
     7
 10
-383.67900229649251
 20
329.9999999999996
 30
0.0
  0
LINE
  5
132
  8
SIZE
  6
CONTINUOUS
 62
    30
 10
-321.00000000000011
 20
304.99999999999937
 30
0.0
 11
-503.15935690965841
 21
304.9999999999996
 31
0.0
  0
LINE
  5
133
  8
SIZE
  6
CONTINUOUS
 62
    30
 10
-321.00000000000011
 20
340.00000000000051
 30
0.0
 11
-503.15935690965841
 21
340.00000000000051
 31
0.0
  0
LINE
  5
134
  8
SIZE
  6
CONTINUOUS
 62
    30
 10
-483.15935690965819
 20
304.9999999999996
 30
0.0
 11
-483.15935690965819
 21
274.9999999999996
 31
0.0
  0
LINE
  5
135
  8
SIZE
  6
CONTINUOUS
 62
    30
 10
-483.15935690965819
 20
340.00000000000051
 30
0.0
 11
-483.15935690965819
 21
516.14285714285768
 31
0.0
  0
LINE
  5
136
  8
SIZE
  6
CONTINUOUS
 62
    30
 10
-483.15935690965819
 20
304.9999999999996
 30
0.0
 11
-483.15935690965819
 21
340.00000000000051
 31
0.0
  0
CIRCLE
  5
137
  8
SIZE
  6
CONTINUOUS
 62
    30
 10
-483.15935690965819
 20
304.9999999999996
 30
0.0
 40
7.5
  0
CIRCLE
  5
138
  8
SIZE
  6
CONTINUOUS
 62
    30
 10
-483.15935690965819
 20
340.00000000000051
 30
0.0
 40
7.5
  0
TEXT
  5
139
  8
SIZE
  6
CONTINUOUS
 62
    30
 10
-501.15935690965819
 20
418.00000000000028
 30
0.0
 40
55.0
  1
35
 50
90.0
 41
0.9
 72
     1
 11
-501.15935690965819
 21
458.0714285714289
 31
0.0
  0
POINT
  5
13A
  8
DEFPOINTS
  6
CONTINUOUS
 62
     7
 10
-301.0
 20
304.99999999999937
 30
0.0
  0
POINT
  5
13B
  8
DEFPOINTS
  6
CONTINUOUS
 62
     7
 10
-301.0
 20
340.00000000000051
 30
0.0
  0
POINT
  5
13C
  8
DEFPOINTS
  6
CONTINUOUS
 62
     7
 10
-483.15935690965819
 20
340.00000000000051
 30
0.0
  0
LINE
  5
13D
  8
SIZE
  6
CONTINUOUS
 62
    30
 10
-592.00000000000193
 20
-340.00000000000068
 30
0.0
 11
-756.41400066403594
 21
-340.00000000000063
 31
0.0
  0
LINE
  5
13E
  8
SIZE
  6
CONTINUOUS
 62
    30
 10
-556.24999365713506
 20
-330.00000000000063
 30
0.0
 11
-756.41400066403594
 21
-330.00000000000063
 31
0.0
  0
LINE
  5
13F
  8
SIZE
  6
CONTINUOUS
 62
    30
 10
-736.41400066403594
 20
-330.00000000000063
 30
0.0
 11
-736.41400066403594
 21
-300.00000000000063
 31
0.0
  0
LINE
  5
140
  8
SIZE
  6
CONTINUOUS
 62
    30
 10
-736.41400066403594
 20
-340.00000000000063
 30
0.0
 11
-736.41400066403594
 21
-509.8076607706663
 31
0.0
  0
LINE
  5
141
  8
SIZE
  6
CONTINUOUS
 62
    30
 10
-736.41400066403594
 20
-330.00000000000063
 30
0.0
 11
-736.41400066403594
 21
-340.00000000000063
 31
0.0
  0
CIRCLE
  5
142
  8
SIZE
  6
CONTINUOUS
 62
    30
 10
-736.41400066403594
 20
-330.00000000000063
 30
0.0
 40
7.5
  0
CIRCLE
  5
143
  8
SIZE
  6
CONTINUOUS
 62
    30
 10
-736.41400066403594
 20
-340.00000000000063
 30
0.0
 40
7.5
  0
TEXT
  5
144
  8
SIZE
  6
CONTINUOUS
 62
    30
 10
-754.41400066403594
 20
-491.80766077066619
 30
0.0
 40
55.0
  1
10
 50
90.0
 41
0.9
 72
     1
 11
-754.41400066403594
 21
-456.45051791352353
 31
0.0
  0
POINT
  5
145
  8
DEFPOINTS
  6
CONTINUOUS
 62
     7
 10
-572.00000000000193
 20
-340.00000000000068
 30
0.0
  0
POINT
  5
146
  8
DEFPOINTS
  6
CONTINUOUS
 62
     7
 10
-536.24999365713495
 20
-330.00000000000063
 30
0.0
  0
POINT
  5
147
  8
DEFPOINTS
  6
CONTINUOUS
 62
     7
 10
-736.41400066403594
 20
-330.00000000000063
 30
0.0
  0
LINE
  5
148
  8
SIZE
  6
CONTINUOUS
 62
    30
 10
-664.84068057351556
 20
-300.00000000000068
 30
0.0
 11
-877.06456544352295
 21
-300.00000000000068
 31
0.0
  0
LINE
  5
149
  8
SIZE
  6
CONTINUOUS
 62
    30
 10
-666.71665212396465
 20
-200.0000000000004
 30
0.0
 11
-877.06456544352295
 21
-200.0000000000004
 31
0.0
  0
LINE
  5
14A
  8
SIZE
  6
CONTINUOUS
 62
    30
 10
-857.06456544352329
 20
-300.00000000000068
 30
0.0
 11
-857.06456544352295
 21
-200.0000000000004
 31
0.0
  0
CIRCLE
  5
14B
  8
SIZE
  6
CONTINUOUS
 62
    30
 10
-857.06456544352329
 20
-300.00000000000068
 30
0.0
 40
7.5
  0
CIRCLE
  5
14C
  8
SIZE
  6
CONTINUOUS
 62
    30
 10
-857.06456544352295
 20
-200.0000000000004
 30
0.0
 40
7.5
  0
TEXT
  5
14D
  8
SIZE
  6
CONTINUOUS
 62
    30
 10
-875.06456544352295
 20
-308.92857142857201
 30
0.0
 40
55.0
  1
100
 50
90.0
 41
0.9
 72
     1
 11
-875.06456544352295
 21
-250.0000000000006
 31
0.0
  0
POINT
  5
14E
  8
DEFPOINTS
  6
CONTINUOUS
 62
     7
 10
-644.84068057351578
 20
-300.00000000000068
 30
0.0
  0
POINT
  5
14F
  8
DEFPOINTS
  6
CONTINUOUS
 62
     7
 10
-646.71665212396465
 20
-200.0000000000004
 30
0.0
  0
POINT
  5
150
  8
DEFPOINTS
  6
CONTINUOUS
 62
     7
 10
-857.06456544352295
 20
-200.0000000000004
 30
0.0
  0
LINE
  5
151
  8
SIZE
  6
CONTINUOUS
 62
    30
 10
-666.71665212396465
 20
-200.0000000000004
 30
0.0
 11
-877.06456544352272
 21
-200.00000000000031
 31
0.0
  0
LINE
  5
152
  8
SIZE
  6
CONTINUOUS
 62
    30
 10
-659.00000000000136
 20
199.9999999999994
 30
0.0
 11
-877.06456544352272
 21
199.9999999999996
 31
0.0
  0
LINE
  5
153
  8
SIZE
  6
CONTINUOUS
 62
    30
 10
-857.06456544352295
 20
-200.00000000000031
 30
0.0
 11
-857.06456544352295
 21
199.9999999999994
 31
0.0
  0
CIRCLE
  5
154
  8
SIZE
  6
CONTINUOUS
 62
    30
 10
-857.06456544352295
 20
-200.00000000000031
 30
0.0
 40
7.5
  0
CIRCLE
  5
155
  8
SIZE
  6
CONTINUOUS
 62
    30
 10
-857.06456544352295
 20
199.9999999999994
 30
0.0
 40
7.5
  0
TEXT
  5
156
  8
SIZE
  6
CONTINUOUS
 62
    30
 10
-875.06456544352295
 20
-63.642857142857672
 30
0.0
 40
55.0
  1
400
 50
90.0
 41
0.9
 72
     1
 11
-875.06456544352295
 21
-0.0000000000005405
 31
0.0
  0
POINT
  5
157
  8
DEFPOINTS
  6
CONTINUOUS
 62
     7
 10
-646.71665212396465
 20
-200.0000000000004
 30
0.0
  0
POINT
  5
158
  8
DEFPOINTS
  6
CONTINUOUS
 62
     7
 10
-639.00000000000125
 20
199.9999999999994
 30
0.0
  0
POINT
  5
159
  8
DEFPOINTS
  6
CONTINUOUS
 62
     7
 10
-857.06456544352295
 20
199.9999999999994
 30
0.0
  0
LINE
  5
15A
  8
SERVICESPACE
  6
DASHDOT
 62
     2
 10
-602.00000000000193
 20
504.99999999999949
 30
0.0
 11
-602.00000000000193
 21
-655.00000000000057
 31
0.0
  0
LINE
  5
15B
  8
SERVICESPACE
  6
DASHDOT
 62
     2
 10
601.99999999999795
 20
-655.00000000000057
 30
0.0
 11
601.99999999999795
 21
504.99999999999949
 31
0.0
  0
LINE
  5
15C
  8
SERVICESPACE
  6
DASHDOT
 62
     2
 10
-602.00000000000193
 20
-305.00000000000063
 30
0.0
 11
601.99999999999795
 21
-305.00000000000063
 31
0.0
  0
LINE
  5
15D
  8
SERVICESPACE
  6
DASHDOT
 62
     2
 10
-602.00000000000193
 20
304.99999999999937
 30
0.0
 11
601.99999999999795
 21
304.99999999999937
 31
0.0
  0
LINE
  5
15E
  8
SERVICESPACE
  6
DASHDOT
 62
     2
 10
701.99999999999795
 20
-655.00000000000057
 30
0.0
 11
701.99999999999795
 21
504.99999999999949
 31
0.0
  0
LINE
  5
15F
  8
SERVICESPACE
  6
DASHDOT
 62
     2
 10
-702.00000000000171
 20
504.99999999999949
 30
0.0
 11
-702.00000000000171
 21
-655.00000000000057
 31
0.0
  0
LINE
  5
160
  8
SERVICESPACE
  6
DASHDOT
 62
     2
 10
-702.00000000000171
 20
-655.00000000000057
 30
0.0
 11
701.99999999999795
 21
-655.00000000000057
 31
0.0
  0
LINE
  5
161
  8
SERVICESPACE
  6
DASHDOT
 62
     2
 10
-702.00000000000171
 20
504.99999999999949
 30
0.0
 11
701.99999999999795
 21
504.99999999999949
 31
0.0
  0
LINE
  5
162
  8
SERVICESPACE
  6
DASHDOT
 62
     2
 10
-602.00000000000193
 20
504.99999999999949
 30
0.0
 11
-702.00000000000171
 21
-655.00000000000057
 31
0.0
  0
LINE
  5
163
  8
SERVICESPACE
  6
DASHDOT
 62
     2
 10
-702.00000000000171
 20
504.99999999999949
 30
0.0
 11
-602.00000000000193
 21
-655.00000000000057
 31
0.0
  0
TEXT
  5
164
  8
NOTE
  6
CONTINUOUS
 62
     4
 10
-191.69287719154889
 20
-628.79834594137037
 30
0.0
 40
60.0
  1
サービススペース
 41
0.8
  0
TEXT
  5
165
  8
NOTE
  6
CONTINUOUS
 62
     4
 10
85.462140403075978
 20
398.23835600568958
 30
0.0
 40
60.0
  1
サービススペース
 41
0.8
  0
LINE
  5
166
  8
NOTE
  6
CONTINUOUS
 62
     4
 10
-95.522153156669958
 20
-425.50144023484711
 30
0.0
 11
-104.69199143223069
 21
-425.50144023484711
 31
0.0
  0
LINE
  5
167
  8
NOTE
  6
CONTINUOUS
 62
     4
 10
-104.69199143223069
 20
-425.50144023484711
 30
0.0
 11
-104.69199143223069
 21
-391.04392071518549
 31
0.0
  0
LINE
  5
168
  8
NOTE
  6
CONTINUOUS
 62
     4
 10
-121.5323193546175
 20
-391.04392071518549
 30
0.0
 11
-104.69199143223069
 21
-391.04392071518549
 31
0.0
  0
LINE
  5
169
  8
NOTE
  6
CONTINUOUS
 62
     4
 10
-95.52215315666966
 20
-364.80663771986661
 30
0.0
 11
-121.5323193546178
 21
-391.04392071518549
 31
0.0
  0
LINE
  5
16A
  8
NOTE
  6
CONTINUOUS
 62
     4
 10
-95.52215315666966
 20
-425.50144023484711
 30
0.0
 11
-86.35231488110891
 21
-425.50144023484711
 31
0.0
  0
LINE
  5
16B
  8
NOTE
  6
CONTINUOUS
 62
     4
 10
-86.35231488110891
 20
-425.50144023484711
 30
0.0
 11
-86.352314881108342
 21
-391.04392071518549
 31
0.0
  0
LINE
  5
16C
  8
NOTE
  6
CONTINUOUS
 62
     4
 10
-69.511986958721522
 20
-391.0439207151864
 30
0.0
 11
-86.352314881108342
 21
-391.04392071518549
 31
0.0
  0
LINE
  5
16D
  8
NOTE
  6
CONTINUOUS
 62
     4
 10
-95.522153156669447
 20
-364.80663771986661
 30
0.0
 11
-69.511986958721252
 21
-391.0439207151864
 31
0.0
  0
TEXT
  5
16E
  8
NOTE
  6
CONTINUOUS
 62
     4
 10
-58.884978889546673
 20
-421.98411470076672
 30
0.0
 40
60.0
  1
吸込口
 41
0.8
  0
LINE
  5
16F
  8
NOTE
  6
CONTINUOUS
 62
     4
 10
-239.10272925867989
 20
373.33157318365272
 30
0.0
 11
-248.27256753424041
 21
373.33157318365272
 31
0.0
  0
LINE
  5
170
  8
NOTE
  6
CONTINUOUS
 62
     4
 10
-248.27256753424041
 20
373.33157318365272
 30
0.0
 11
-248.27256753424041
 21
407.78909270331451
 31
0.0
  0
LINE
  5
171
  8
NOTE
  6
CONTINUOUS
 62
     4
 10
-265.11289545662743
 20
407.78909270331451
 30
0.0
 11
-248.27256753424041
 21
407.78909270331451
 31
0.0
  0
LINE
  5
172
  8
NOTE
  6
CONTINUOUS
 62
     4
 10
-239.1027292586796
 20
434.02637569863322
 30
0.0
 11
-265.11289545662783
 21
407.78909270331451
 31
0.0
  0
LINE
  5
173
  8
NOTE
  6
CONTINUOUS
 62
     4
 10
-239.1027292586796
 20
373.33157318365272
 30
0.0
 11
-229.9328909831186
 21
373.33157318365272
 31
0.0
  0
LINE
  5
174
  8
NOTE
  6
CONTINUOUS
 62
     4
 10
-229.9328909831186
 20
373.33157318365272
 30
0.0
 11
-229.93289098311811
 21
407.78909270331451
 31
0.0
  0
LINE
  5
175
  8
NOTE
  6
CONTINUOUS
 62
     4
 10
-213.09256306073121
 20
407.7890927033136
 30
0.0
 11
-229.93289098311811
 21
407.78909270331451
 31
0.0
  0
LINE
  5
176
  8
NOTE
  6
CONTINUOUS
 62
     4
 10
-239.10272925867909
 20
434.02637569863322
 30
0.0
 11
-213.09256306073101
 21
407.7890927033136
 31
0.0
  0
TEXT
  5
177
  8
NOTE
  6
CONTINUOUS
 62
     4
 10
-202.46555499155659
 20
376.84889871773339
 30
0.0
 40
60.0
  1
吹出口
 41
0.8
  0
LINE
  5
178
  8
SIZE
  6
CONTINUOUS
 62
    30
 10
475.99999999999773
 20
-378.24999365704753
 30
0.0
 11
475.99999999999773
 21
-471.81998203759758
 31
0.0
  0
LINE
  5
179
  8
SIZE
  6
CONTINUOUS
 62
    30
 10
565.99999999999784
 20
-378.24999365704753
 30
0.0
 11
565.99999999999784
 21
-471.81998203759758
 31
0.0
  0
LINE
  5
17A
  8
SIZE
  6
CONTINUOUS
 62
    30
 10
475.99999999999773
 20
-451.81998203759758
 30
0.0
 11
565.99999999999784
 21
-451.81998203759758
 31
0.0
  0
CIRCLE
  5
17B
  8
SIZE
  6
CONTINUOUS
 62
    30
 10
475.99999999999773
 20
-451.81998203759758
 30
0.0
 40
7.5
  0
CIRCLE
  5
17C
  8
SIZE
  6
CONTINUOUS
 62
    30
 10
565.99999999999784
 20
-451.81998203759758
 30
0.0
 40
7.5
  0
TEXT
  5
17D
  8
SIZE
  6
CONTINUOUS
 62
    30
 10
480.92857142856923
 20
-433.81998203759758
 30
0.0
 40
55.0
  1
90
 41
0.9
 72
     1
 11
520.99999999999784
 21
-433.81998203759758
 31
0.0
  0
POINT
  5
17E
  8
DEFPOINTS
  6
CONTINUOUS
 62
     7
 10
475.99999999999773
 20
-358.2499936570477
 30
0.0
  0
POINT
  5
17F
  8
DEFPOINTS
  6
CONTINUOUS
 62
     7
 10
565.99999999999784
 20
-358.2499936570477
 30
0.0
  0
POINT
  5
180
  8
DEFPOINTS
  6
CONTINUOUS
 62
     7
 10
565.99999999999784
 20
-451.81998203759758
 30
0.0
  0
LINE
  5
181
  8
SIZE
  6
CONTINUOUS
 62
    30
 10
565.99999999999784
 20
-378.24999365704753
 30
0.0
 11
565.99999999999784
 21
-471.81998203759758
 31
0.0
  0
LINE
  5
182
  8
SIZE
  6
CONTINUOUS
 62
    30
 10
601.99999999999795
 20
-325.00000000000068
 30
0.0
 11
601.99999999999795
 21
-471.81998203759758
 31
0.0
  0
LINE
  5
183
  8
SIZE
  6
CONTINUOUS
 62
    30
 10
565.99999999999784
 20
-451.81998203759758
 30
0.0
 11
601.99999999999795
 21
-451.81998203759758
 31
0.0
  0
LINE
  5
184
  8
SIZE
  6
CONTINUOUS
 62
    30
 10
583.99999999999807
 20
-451.81998203759758
 30
0.0
 11
562.5108056489056
 21
-627.8553410901045
 31
0.0
  0
LINE
  5
185
  8
SIZE
  6
CONTINUOUS
 62
    30
 10
562.5108056489056
 20
-627.8553410901045
 30
0.0
 11
448.7250913631915
 21
-627.8553410901045
 31
0.0
  0
TEXT
  5
186
  8
SIZE
  6
CONTINUOUS
 62
    30
 10
466.72509136319161
 20
-609.8553410901045
 30
0.0
 40
55.0
  1
36
 41
0.9
 72
     1
 11
505.61794850604872
 21
-609.8553410901045
 31
0.0
  0
CIRCLE
  5
187
  8
SIZE
  6
CONTINUOUS
 62
    30
 10
565.99999999999784
 20
-451.81998203759758
 30
0.0
 40
7.5
  0
CIRCLE
  5
188
  8
SIZE
  6
CONTINUOUS
 62
    30
 10
601.99999999999795
 20
-451.81998203759758
 30
0.0
 40
7.5
  0
POINT
  5
189
  8
DEFPOINTS
  6
CONTINUOUS
 62
     7
 10
565.99999999999784
 20
-358.2499936570477
 30
0.0
  0
POINT
  5
18A
  8
DEFPOINTS
  6
CONTINUOUS
 62
     7
 10
601.99999999999795
 20
-305.00000000000063
 30
0.0
  0
POINT
  5
18B
  8
DEFPOINTS
  6
CONTINUOUS
 62
     7
 10
601.99999999999795
 20
-451.81998203759758
 30
0.0
  0
LINE
  5
18C
  8
SIZE
  6
CONTINUOUS
 62
    30
 10
513.30000000009875
 20
-348.00000000000068
 30
0.0
 11
815.59200739496509
 21
-348.00000000000068
 31
0.0
  0
LINE
  5
18D
  8
SIZE
  6
CONTINUOUS
 62
    30
 10
621.99999999999784
 20
-305.00000000000063
 30
0.0
 11
815.59200739496509
 21
-305.00000000000063
 31
0.0
  0
LINE
  5
18E
  8
SIZE
  6
CONTINUOUS
 62
    30
 10
795.59200739496464
 20
-305.00000000000063
 30
0.0
 11
795.59200739496464
 21
-348.00000000000068
 31
0.0
  0
LINE
  5
18F
  8
SIZE
  6
CONTINUOUS
 62
    30
 10
795.59200739496464
 20
-348.00000000000068
 30
0.0
 11
795.59200739496464
 21
-494.88596051962418
 31
0.0
  0
CIRCLE
  5
190
  8
SIZE
  6
CONTINUOUS
 62
    30
 10
795.59200739496464
 20
-305.00000000000063
 30
0.0
 40
7.5
  0
CIRCLE
  5
191
  8
SIZE
  6
CONTINUOUS
 62
    30
 10
795.59200739496464
 20
-348.00000000000068
 30
0.0
 40
7.5
  0
TEXT
  5
192
  8
SIZE
  6
CONTINUOUS
 62
    30
 10
777.59200739496509
 20
-476.88596051962429
 30
0.0
 40
55.0
  1
43
 50
90.0
 41
0.9
 72
     1
 11
777.59200739496509
 21
-436.81453194819568
 31
0.0
  0
POINT
  5
193
  8
DEFPOINTS
  6
CONTINUOUS
 62
     7
 10
493.30000000009898
 20
-348.00000000000068
 30
0.0
  0
POINT
  5
194
  8
DEFPOINTS
  6
CONTINUOUS
 62
     7
 10
601.99999999999795
 20
-305.00000000000063
 30
0.0
  0
POINT
  5
195
  8
DEFPOINTS
  6
CONTINUOUS
 62
     7
 10
795.59200739496464
 20
-305.00000000000063
 30
0.0
  0
LINE
  5
196
  8
SIZE
  6
CONTINUOUS
 62
    30
 10
393.99999999999773
 20
-360.24999365721681
 30
0.0
 11
393.99999999999773
 21
-531.0140224600965
 31
0.0
  0
LINE
  5
197
  8
SIZE
  6
CONTINUOUS
 62
    30
 10
-526.00000000000193
 20
-360.24999365721681
 30
0.0
 11
-526.00000000000193
 21
-531.0140224600965
 31
0.0
  0
LINE
  5
198
  8
SIZE
  6
CONTINUOUS
 62
    30
 10
393.99999999999773
 20
-511.01402246009661
 30
0.0
 11
-526.00000000000193
 21
-511.01402246009661
 31
0.0
  0
CIRCLE
  5
199
  8
SIZE
  6
CONTINUOUS
 62
    30
 10
393.99999999999773
 20
-511.01402246009661
 30
0.0
 40
7.5
  0
CIRCLE
  5
19A
  8
SIZE
  6
CONTINUOUS
 62
    30
 10
-526.00000000000193
 20
-511.01402246009661
 30
0.0
 40
7.5
  0
TEXT
  5
19B
  8
SIZE
  6
CONTINUOUS
 62
    30
 10
-284.2714285714307
 20
-493.01402246009661
 30
0.0
 40
55.0
  1
4×230=920
 41
0.9
 72
     1
 11
-66.000000000002132
 21
-493.01402246009661
 31
0.0
  0
POINT
  5
19C
  8
DEFPOINTS
  6
CONTINUOUS
 62
     7
 10
393.99999999999773
 20
-340.24999365721669
 30
0.0
  0
POINT
  5
19D
  8
DEFPOINTS
  6
CONTINUOUS
 62
     7
 10
-526.00000000000193
 20
-340.24999365721669
 30
0.0
  0
POINT
  5
19E
  8
DEFPOINTS
  6
CONTINUOUS
 62
     7
 10
-526.00000000000193
 20
-511.01402246009661
 30
0.0
  0
LINE
  5
19F
  8
SIZE
  6
CONTINUOUS
 62
    30
 10
-526.00000000000193
 20
-360.24999365721658
 30
0.0
 11
-526.00000000000193
 21
-531.0140224600965
 31
0.0
  0
LINE
  5
1A0
  8
SIZE
  6
CONTINUOUS
 62
    30
 10
-572.00000000000193
 20
-360.00000000000063
 30
0.0
 11
-572.00000000000193
 21
-531.0140224600965
 31
0.0
  0
LINE
  5
1A1
  8
SIZE
  6
CONTINUOUS
 62
    30
 10
-526.00000000000193
 20
-511.01402246009661
 30
0.0
 11
-572.00000000000193
 21
-511.01402246009661
 31
0.0
  0
LINE
  5
1A2
  8
SIZE
  6
CONTINUOUS
 62
    30
 10
-549.00000000000193
 20
-511.01402246009661
 30
0.0
 11
-510.15000000000191
 21
-640.51402246009661
 31
0.0
  0
LINE
  5
1A3
  8
SIZE
  6
CONTINUOUS
 62
    30
 10
-510.15000000000191
 20
-640.51402246009661
 30
0.0
 11
-396.36428571428758
 21
-640.51402246009661
 31
0.0
  0
TEXT
  5
1A4
  8
SIZE
  6
CONTINUOUS
 62
    30
 10
-492.15000000000191
 20
-622.5140224600965
 30
0.0
 40
55.0
  1
46
 41
0.9
 72
     1
 11
-453.2571428571448
 21
-622.5140224600965
 31
0.0
  0
CIRCLE
  5
1A5
  8
SIZE
  6
CONTINUOUS
 62
    30
 10
-526.00000000000193
 20
-511.01402246009661
 30
0.0
 40
7.5
  0
CIRCLE
  5
1A6
  8
SIZE
  6
CONTINUOUS
 62
    30
 10
-572.00000000000193
 20
-511.01402246009661
 30
0.0
 40
7.5
  0
POINT
  5
1A7
  8
DEFPOINTS
  6
CONTINUOUS
 62
     7
 10
-526.00000000000193
 20
-340.24999365721669
 30
0.0
  0
POINT
  5
1A8
  8
DEFPOINTS
  6
CONTINUOUS
 62
     7
 10
-572.00000000000193
 20
-340.00000000000068
 30
0.0
  0
POINT
  5
1A9
  8
DEFPOINTS
  6
CONTINUOUS
 62
     7
 10
-572.00000000000193
 20
-511.01402246009661
 30
0.0
  0
LINE
  5
1AA
  8
SIZE
  6
CONTINUOUS
 62
    30
 10
-572.00000000000193
 20
-360.24999365721681
 30
0.0
 11
-572.00000000000193
 21
-777.27010249823093
 31
0.0
  0
LINE
  5
1AB
  8
SIZE
  6
CONTINUOUS
 62
    30
 10
439.99999999999778
 20
-360.24999365730167
 30
0.0
 11
439.99999999999778
 21
-777.27010249823093
 31
0.0
  0
LINE
  5
1AC
  8
SIZE
  6
CONTINUOUS
 62
    30
 10
-572.00000000000193
 20
-757.27010249823093
 30
0.0
 11
439.99999999999778
 21
-757.27010249823093
 31
0.0
  0
CIRCLE
  5
1AD
  8
SIZE
  6
CONTINUOUS
 62
    30
 10
-572.00000000000193
 20
-757.27010249823093
 30
0.0
 40
7.5
  0
CIRCLE
  5
1AE
  8
SIZE
  6
CONTINUOUS
 62
    30
 10
439.99999999999778
 20
-757.27010249823093
 30
0.0
 40
7.5
  0
TEXT
  5
1AF
  8
SIZE
  6
CONTINUOUS
 62
    30
 10
-143.7857142857163
 20
-739.27010249823093
 30
0.0
 40
55.0
  1
1012
 41
0.9
 72
     1
 11
-66.000000000002032
 21
-739.27010249823093
 31
0.0
  0
POINT
  5
1B0
  8
DEFPOINTS
  6
CONTINUOUS
 62
     7
 10
-572.00000000000193
 20
-340.24999365721669
 30
0.0
  0
POINT
  5
1B1
  8
DEFPOINTS
  6
CONTINUOUS
 62
     7
 10
439.99999999999778
 20
-340.24999365730162
 30
0.0
  0
POINT
  5
1B2
  8
DEFPOINTS
  6
CONTINUOUS
 62
     7
 10
439.99999999999778
 20
-757.27010249823093
 30
0.0
  0
LINE
  5
1B3
  8
SIZE
  6
CONTINUOUS
 62
    30
 10
721.99999999999773
 20
-655.00000000000057
 30
0.0
 11
960.02567242958116
 21
-655.00000000000057
 31
0.0
  0
LINE
  5
1B4
  8
SIZE
  6
CONTINUOUS
 62
    30
 10
621.99999999999784
 20
-305.00000000000063
 30
0.0
 11
960.02567242958116
 21
-305.00000000000068
 31
0.0
  0
LINE
  5
1B5
  8
SIZE
  6
CONTINUOUS
 62
    30
 10
940.02567242958105
 20
-655.00000000000057
 30
0.0
 11
940.02567242958105
 21
-305.00000000000068
 31
0.0
  0
CIRCLE
  5
1B6
  8
SIZE
  6
CONTINUOUS
 62
    30
 10
940.02567242958105
 20
-655.00000000000057
 30
0.0
 40
7.5
  0
CIRCLE
  5
1B7
  8
SIZE
  6
CONTINUOUS
 62
    30
 10
940.02567242958105
 20
-305.00000000000068
 30
0.0
 40
7.5
  0
TEXT
  5
1B8
  8
SIZE
  6
CONTINUOUS
 62
    30
 10
922.02567242958105
 20
-543.64285714285768
 30
0.0
 40
55.0
  1
350
 50
90.0
 41
0.9
 72
     1
 11
922.02567242958105
 21
-480.00000000000063
 31
0.0
  0
POINT
  5
1B9
  8
DEFPOINTS
  6
CONTINUOUS
 62
     7
 10
701.99999999999795
 20
-655.00000000000057
 30
0.0
  0
POINT
  5
1BA
  8
DEFPOINTS
  6
CONTINUOUS
 62
     7
 10
601.99999999999795
 20
-305.00000000000063
 30
0.0
  0
POINT
  5
1BB
  8
DEFPOINTS
  6
CONTINUOUS
 62
     7
 10
940.02567242958105
 20
-305.00000000000068
 30
0.0
  0
LINE
  5
1BC
  8
SIZE
  6
CONTINUOUS
 62
    30
 10
621.99999999999807
 20
-305.00000000000063
 30
0.0
 11
960.02567242958105
 21
-305.00000000000068
 31
0.0
  0
LINE
  5
1BD
  8
SIZE
  6
CONTINUOUS
 62
    30
 10
621.99999999999807
 20
304.99999999999937
 30
0.0
 11
960.02567242958116
 21
304.99999999999932
 31
0.0
  0
LINE
  5
1BE
  8
SIZE
  6
CONTINUOUS
 62
    30
 10
940.02567242958105
 20
-305.00000000000068
 30
0.0
 11
940.02567242958105
 21
304.99999999999932
 31
0.0
  0
CIRCLE
  5
1BF
  8
SIZE
  6
CONTINUOUS
 62
    30
 10
940.02567242958105
 20
-305.00000000000068
 30
0.0
 40
7.5
  0
CIRCLE
  5
1C0
  8
SIZE
  6
CONTINUOUS
 62
    30
 10
940.02567242958105
 20
304.99999999999932
 30
0.0
 40
7.5
  0
TEXT
  5
1C1
  8
SIZE
  6
CONTINUOUS
 62
    30
 10
922.02567242958105
 20
-58.928571428571949
 30
0.0
 40
55.0
  1
610
 50
90.0
 41
0.9
 72
     1
 11
922.02567242958105
 21
-0.0000000000005369
 31
0.0
  0
POINT
  5
1C2
  8
DEFPOINTS
  6
CONTINUOUS
 62
     7
 10
601.99999999999795
 20
-305.00000000000063
 30
0.0
  0
POINT
  5
1C3
  8
DEFPOINTS
  6
CONTINUOUS
 62
     7
 10
601.99999999999795
 20
304.99999999999937
 30
0.0
  0
POINT
  5
1C4
  8
DEFPOINTS
  6
CONTINUOUS
 62
     7
 10
940.02567242958105
 20
304.99999999999932
 30
0.0
  0
LINE
  5
1C5
  8
SIZE
  6
CONTINUOUS
 62
    30
 10
621.99999999999807
 20
304.99999999999937
 30
0.0
 11
960.02567242958116
 21
304.99999999999932
 31
0.0
  0
LINE
  5
1C6
  8
SIZE
  6
CONTINUOUS
 62
    30
 10
721.99999999999807
 20
504.99999999999949
 30
0.0
 11
960.02567242958116
 21
504.99999999999909
 31
0.0
  0
LINE
  5
1C7
  8
SIZE
  6
CONTINUOUS
 62
    30
 10
940.02567242958105
 20
304.99999999999932
 30
0.0
 11
940.02567242958105
 21
504.99999999999909
 31
0.0
  0
CIRCLE
  5
1C8
  8
SIZE
  6
CONTINUOUS
 62
    30
 10
940.02567242958105
 20
304.99999999999932
 30
0.0
 40
7.5
  0
CIRCLE
  5
1C9
  8
SIZE
  6
CONTINUOUS
 62
    30
 10
940.02567242958105
 20
504.99999999999909
 30
0.0
 40
7.5
  0
TEXT
  5
1CA
  8
SIZE
  6
CONTINUOUS
 62
    30
 10
922.02567242958105
 20
341.35714285714249
 30
0.0
 40
55.0
  1
200
 50
90.0
 41
0.9
 72
     1
 11
922.02567242958105
 21
404.9999999999996
 31
0.0
  0
POINT
  5
1CB
  8
DEFPOINTS
  6
CONTINUOUS
 62
     7
 10
601.99999999999795
 20
304.99999999999937
 30
0.0
  0
POINT
  5
1CC
  8
DEFPOINTS
  6
CONTINUOUS
 62
     7
 10
701.99999999999795
 20
504.99999999999949
 30
0.0
  0
POINT
  5
1CD
  8
DEFPOINTS
  6
CONTINUOUS
 62
     7
 10
940.02567242958105
 20
504.99999999999909
 30
0.0
  0
TEXT
  5
1CE
  8
NOTE
  6
CONTINUOUS
 62
     4
 10
-1465.706167026091
 20
-804.26274812987242
 30
0.0
 40
60.0
  1
AH 4-18×50 (%%C16ボルト)
 50
359.99999749558327
 41
0.7
  7
STANDARD1
  0
LINE
  5
1CF
  8
NOTE
  6
CONTINUOUS
 62
     4
 10
-1477.661497384589
 20
-827.39626205934462
 30
0.0
 11
-698.44002791538151
 21
-827.39626205934462
 31
0.0
  0
TEXT
  5
1D0
  8
NOTE
  6
CONTINUOUS
 62
     4
 10
388.6539596393219
 20
-190.69392129607169
 30
0.0
 40
60.0
  1
D R1
 50
359.99999749558327
 41
0.7
  7
STANDARD1
  0
LINE
  5
1D1
  8
NOTE
  6
CONTINUOUS
 62
     4
 10
368.27827600718842
 20
-208.8274352255423
 30
0.0
 11
535.14752552466882
 21
-208.8274352255423
 31
0.0
  0
TEXT
  5
1D2
  8
NOTE
  6
CONTINUOUS
 62
     4
 10
859.71300908283217
 20
-868.45174009458435
 30
0.0
 40
60.0
  1
CDR R1
 41
0.8
  0
LINE
  5
1D3
  8
NOTE
  6
CONTINUOUS
 62
     4
 10
1194.352685222229
 20
-881.54972273391058
 30
0.0
 11
852.87934208417084
 21
-881.54972273391058
 31
0.0
  0
TEXT
  5
1D4
  8
NOTE
  6
CONTINUOUS
 62
     4
 10
1117.742632153972
 20
-845.04473070539473
 30
0.0
 40
44.79999999999999
  1
1
 41
0.9
  0
TEXT
  5
1D5
  8
NOTE
  6
CONTINUOUS
 62
     4
 10
1131.523288079864
 20
-859.54672574796859
 30
0.0
 40
44.79999999999999
  1
/
 41
0.9
  0
TEXT
  5
1D6
  8
NOTE
  6
CONTINUOUS
 62
     4
 10
1154.0732656567179
 20
-874.57336726512563
 30
0.0
 40
44.79999999999999
  1
4
 41
0.9
  0
TEXT
  5
1D7
  8
NOTE
  6
CONTINUOUS
 62
     4
 10
863.32726375315883
 20
-771.73284247414813
 30
0.0
 40
60.0
  1
CD R1
 41
0.8
  0
LINE
  5
1D8
  8
NOTE
  6
CONTINUOUS
 62
     4
 10
1161.7972418006259
 20
-784.8308251134747
 30
0.0
 11
801.17665806085824
 21
-784.83082511347504
 31
0.0
  0
TEXT
  5
1D9
  8
NOTE
  6
CONTINUOUS
 62
     4
 10
1076.8742384994839
 20
-748.3258330849585
 30
0.0
 40
44.79999999999999
  1
1
 41
0.9
  0
TEXT
  5
1DA
  8
NOTE
  6
CONTINUOUS
 62
     4
 10
1090.6548944253771
 20
-762.8278281275326
 30
0.0
 40
44.79999999999999
  1
/
 41
0.9
  0
TEXT
  5
1DB
  8
NOTE
  6
CONTINUOUS
 62
     4
 10
1113.2048720022319
 20
-777.85446964468974
 30
0.0
 40
44.79999999999999
  1
4
 41
0.9
  0
TEXT
  5
1DC
  8
ETC
  6
CONTINUOUS
 62
    61
 10
796.26051542555786
 20
710.35687696513185
 30
0.0
 40
80.0
  1
MB-P100MT_1
 50
0.0000029998804485
 41
0.8
  0
LINE
  5
1DD
  8
SIZE
  6
CONTINUOUS
 62
    30
 10
629.99999999999784
 20
-236.7166521239636
 30
0.0
 11
629.99999999999784
 21
-893.20401391868495
 31
0.0
  0
LINE
  5
1DE
  8
SIZE
  6
CONTINUOUS
 62
    30
 10
-630.00000000000136
 20
-236.7166521239636
 30
0.0
 11
-630.00000000000136
 21
-893.20401391868495
 31
0.0
  0
LINE
  5
1DF
  8
SIZE
  6
CONTINUOUS
 62
    30
 10
629.99999999999784
 20
-873.20401391868484
 30
0.0
 11
-630.00000000000136
 21
-873.20401391868484
 31
0.0
  0
CIRCLE
  5
1E0
  8
SIZE
  6
CONTINUOUS
 62
    30
 10
629.99999999999784
 20
-873.20401391868484
 30
0.0
 40
7.5
  0
CIRCLE
  5
1E1
  8
SIZE
  6
CONTINUOUS
 62
    30
 10
-630.00000000000136
 20
-873.20401391868484
 30
0.0
 40
7.5
  0
TEXT
  5
1E2
  8
SIZE
  6
CONTINUOUS
 62
    30
 10
-246.32142857143069
 20
-855.20401391868461
 30
0.0
 40
55.0
  1
1260 吊下げ寸法
 41
0.9
 72
     1
 11
-0.0000000000020748
 21
-855.20401391868461
 31
0.0
  0
POINT
  5
1E3
  8
DEFPOINTS
  6
CONTINUOUS
 62
     7
 10
629.99999999999784
 20
-216.71665212396351
 30
0.0
  0
POINT
  5
1E4
  8
DEFPOINTS
  6
CONTINUOUS
 62
     7
 10
-630.00000000000136
 20
-216.71665212396351
 30
0.0
  0
POINT
  5
1E5
  8
DEFPOINTS
  6
CONTINUOUS
 62
     7
 10
-630.00000000000136
 20
-873.20401391868484
 30
0.0
  0
LINE
  5
1E6
  8
SIZE
  6
CONTINUOUS
 62
    30
 10
-649.00000000000159
 20
-311.04267081351281
 30
0.0
 11
-649.00000000000159
 21
-1040.720314472838
 31
0.0
  0
LINE
  5
1E7
  8
SIZE
  6
CONTINUOUS
 62
    30
 10
648.99999999999795
 20
-311.04267081351139
 30
0.0
 11
648.99999999999795
 21
-1040.720314472838
 31
0.0
  0
LINE
  5
1E8
  8
SIZE
  6
CONTINUOUS
 62
    30
 10
-649.00000000000159
 20
-1020.720314472839
 30
0.0
 11
648.99999999999795
 21
-1020.720314472839
 31
0.0
  0
CIRCLE
  5
1E9
  8
SIZE
  6
CONTINUOUS
 62
    30
 10
-649.00000000000159
 20
-1020.720314472839
 30
0.0
 40
7.5
  0
CIRCLE
  5
1EA
  8
SIZE
  6
CONTINUOUS
 62
    30
 10
648.99999999999795
 20
-1020.720314472839
 30
0.0
 40
7.5
  0
TEXT
  5
1EB
  8
SIZE
  6
CONTINUOUS
 62
    30
 10
-82.500000000001805
 20
-1002.720314472839
 30
0.0
 40
55.0
  1
1298
 41
0.9
 72
     1
 11
-0.000000000001819
 21
-1002.720314472839
 31
0.0
  0
POINT
  5
1EC
  8
DEFPOINTS
  6
CONTINUOUS
 62
     7
 10
-649.00000000000159
 20
-291.04267081351281
 30
0.0
  0
POINT
  5
1ED
  8
DEFPOINTS
  6
CONTINUOUS
 62
     7
 10
648.99999999999795
 20
-291.04267081351151
 30
0.0
  0
POINT
  5
1EE
  8
DEFPOINTS
  6
CONTINUOUS
 62
     7
 10
648.99999999999795
 20
-1020.720314472839
 30
0.0
  0
LINE
  5
1EF
  8
SIZE
  6
CONTINUOUS
 62
    30
 10
-702.00000000000171
 20
524.99999999999943
 30
0.0
 11
-702.00000000000171
 21
813.59345626165623
 31
0.0
  0
LINE
  5
1F0
  8
SIZE
  6
CONTINUOUS
 62
    30
 10
-602.00000000000193
 20
324.9999999999996
 30
0.0
 11
-602.00000000000193
 21
813.59345626165623
 31
0.0
  0
LINE
  5
1F1
  8
SIZE
  6
CONTINUOUS
 62
    30
 10
-702.00000000000171
 20
793.59345626165623
 30
0.0
 11
-602.00000000000193
 21
793.59345626165623
 31
0.0
  0
CIRCLE
  5
1F2
  8
SIZE
  6
CONTINUOUS
 62
    30
 10
-702.00000000000171
 20
793.59345626165623
 30
0.0
 40
7.5
  0
CIRCLE
  5
1F3
  8
SIZE
  6
CONTINUOUS
 62
    30
 10
-602.00000000000193
 20
793.59345626165623
 30
0.0
 40
7.5
  0
TEXT
  5
1F4
  8
SIZE
  6
CONTINUOUS
 62
    30
 10
-710.92857142857326
 20
811.59345626165623
 30
0.0
 40
55.0
  1
100
 41
0.9
 72
     1
 11
-652.00000000000193
 21
811.59345626165623
 31
0.0
  0
POINT
  5
1F5
  8
DEFPOINTS
  6
CONTINUOUS
 62
     7
 10
-702.00000000000171
 20
504.99999999999949
 30
0.0
  0
POINT
  5
1F6
  8
DEFPOINTS
  6
CONTINUOUS
 62
     7
 10
-602.00000000000193
 20
304.99999999999937
 30
0.0
  0
POINT
  5
1F7
  8
DEFPOINTS
  6
CONTINUOUS
 62
     7
 10
-602.00000000000193
 20
793.59345626165623
 30
0.0
  0
LINE
  5
1F8
  8
SIZE
  6
CONTINUOUS
 62
    30
 10
-602.00000000000193
 20
324.99999999999949
 30
0.0
 11
-602.00000000000193
 21
813.59345626165623
 31
0.0
  0
LINE
  5
1F9
  8
SIZE
  6
CONTINUOUS
 62
    30
 10
601.99999999999795
 20
324.99999999999949
 30
0.0
 11
601.99999999999795
 21
813.59345626165623
 31
0.0
  0
LINE
  5
1FA
  8
SIZE
  6
CONTINUOUS
 62
    30
 10
-602.00000000000193
 20
793.59345626165623
 30
0.0
 11
601.99999999999795
 21
793.59345626165623
 31
0.0
  0
CIRCLE
  5
1FB
  8
SIZE
  6
CONTINUOUS
 62
    30
 10
-602.00000000000193
 20
793.59345626165623
 30
0.0
 40
7.5
  0
CIRCLE
  5
1FC
  8
SIZE
  6
CONTINUOUS
 62
    30
 10
601.99999999999795
 20
793.59345626165623
 30
0.0
 40
7.5
  0
TEXT
  5
1FD
  8
SIZE
  6
CONTINUOUS
 62
    30
 10
-216.62142857143041
 20
811.59345626165623
 30
0.0
 40
55.0
  1
1204 本体寸法
 41
0.9
 72
     1
 11
-0.0000000000019327
 21
811.59345626165623
 31
0.0
  0
POINT
  5
1FE
  8
DEFPOINTS
  6
CONTINUOUS
 62
     7
 10
-602.00000000000193
 20
304.99999999999937
 30
0.0
  0
POINT
  5
1FF
  8
DEFPOINTS
  6
CONTINUOUS
 62
     7
 10
601.99999999999795
 20
304.99999999999937
 30
0.0
  0
POINT
  5
200
  8
DEFPOINTS
  6
CONTINUOUS
 62
     7
 10
601.99999999999795
 20
793.59345626165623
 30
0.0
  0
LINE
  5
201
  8
SIZE
  6
CONTINUOUS
 62
    30
 10
601.99999999999795
 20
324.99999999999949
 30
0.0
 11
601.99999999999795
 21
813.59345626165623
 31
0.0
  0
LINE
  5
202
  8
SIZE
  6
CONTINUOUS
 62
    30
 10
701.99999999999795
 20
524.99999999999955
 30
0.0
 11
701.99999999999795
 21
813.59345626165623
 31
0.0
  0
LINE
  5
203
  8
SIZE
  6
CONTINUOUS
 62
    30
 10
601.99999999999795
 20
793.59345626165623
 30
0.0
 11
701.99999999999795
 21
793.59345626165623
 31
0.0
  0
TEXT
  5
204
  8
SIZE
  6
CONTINUOUS
 62
    30
 10
593.07142857142662
 20
811.59345626165623
 30
0.0
 40
55.0
  1
100
 41
0.9
 72
     1
 11
651.99999999999795
 21
811.59345626165623
 31
0.0
  0
CIRCLE
  5
205
  8
SIZE
  6
CONTINUOUS
 62
    30
 10
601.99999999999795
 20
793.59345626165623
 30
0.0
 40
7.5
  0
CIRCLE
  5
206
  8
SIZE
  6
CONTINUOUS
 62
    30
 10
701.99999999999795
 20
793.59345626165623
 30
0.0
 40
7.5
  0
POINT
  5
207
  8
DEFPOINTS
  6
CONTINUOUS
 62
     7
 10
601.99999999999795
 20
304.99999999999937
 30
0.0
  0
POINT
  5
208
  8
DEFPOINTS
  6
CONTINUOUS
 62
     7
 10
701.99999999999795
 20
504.99999999999949
 30
0.0
  0
POINT
  5
209
  8
DEFPOINTS
  6
CONTINUOUS
 62
     7
 10
701.99999999999795
 20
793.59345626165623
 30
0.0
  0
LINE
  5
20A
  8
SIZE
  6
CONTINUOUS
 62
    30
 10
721.99999999999773
 20
504.99999999999949
 30
0.0
 11
1135.4662413993551
 21
504.99999999999949
 31
0.0
  0
LINE
  5
20B
  8
SIZE
  6
CONTINUOUS
 62
    30
 10
721.99999999999773
 20
-655.00000000000057
 30
0.0
 11
1135.4662413993551
 21
-655.00000000000057
 31
0.0
  0
LINE
  5
20C
  8
SIZE
  6
CONTINUOUS
 62
    30
 10
1115.4662413993551
 20
504.99999999999949
 30
0.0
 11
1115.4662413993551
 21
-655.00000000000057
 31
0.0
  0
CIRCLE
  5
20D
  8
SIZE
  6
CONTINUOUS
 62
    30
 10
1115.4662413993551
 20
504.99999999999949
 30
0.0
 40
7.5
  0
CIRCLE
  5
20E
  8
SIZE
  6
CONTINUOUS
 62
    30
 10
1115.4662413993551
 20
-655.00000000000057
 30
0.0
 40
7.5
  0
TEXT
  5
20F
  8
SIZE
  6
CONTINUOUS
 62
    30
 10
1097.4662413993551
 20
-152.7857142857147
 30
0.0
 40
55.0
  1
1160
 50
90.0
 41
0.9
 72
     1
 11
1097.4662413993551
 21
-75.000000000000455
 31
0.0
  0
POINT
  5
210
  8
DEFPOINTS
  6
CONTINUOUS
 62
     7
 10
701.99999999999795
 20
504.99999999999949
 30
0.0
  0
POINT
  5
211
  8
DEFPOINTS
  6
CONTINUOUS
 62
     7
 10
701.99999999999795
 20
-655.00000000000057
 30
0.0
  0
POINT
  5
212
  8
DEFPOINTS
  6
CONTINUOUS
 62
     7
 10
1115.4662413993551
 20
-655.00000000000057
 30
0.0
  0
LINE
  5
242
  8
SERVICESPACE
  6
DASHDOT
 62
     2
 10
701.9999966090669
 20
505.00000051970392
 30
0.0
 11
601.99999660906713
 21
-654.99999948029586
 31
0.0
  0
LINE
  5
243
  8
SERVICESPACE
  6
DASHDOT
 62
     2
 10
601.99999660906713
 20
505.00000051970392
 30
0.0
 11
701.9999966090669
 21
-654.99999948029586
 31
0.0
  0
LINE
  5
249
  8
SERVICESPACE
  6
DASHDOT
 62
     2
 10
-602.00000000000193
 20
504.99999999999949
 30
0.0
 11
601.99999999999795
 21
305.00000051970397
 31
0.0
  0
LINE
  5
24F
  8
SERVICESPACE
  6
DASHDOT
 62
     2
 10
-602.00000000000193
 20
304.99999999999932
 30
0.0
 11
601.99999999999795
 21
504.99999999999949
 31
0.0
  0
LINE
  5
256
  8
SERVICESPACE
  6
DASHDOT
 62
     2
 10
-602.00000000000193
 20
-305.00000000000063
 30
0.0
 11
601.99999999999795
 21
-654.99999948029563
 31
0.0
  0
LINE
  5
257
  8
SERVICESPACE
  6
DASHDOT
 62
     2
 10
-602.00000000000193
 20
-655.00000000000057
 30
0.0
 11
601.99999999999795
 21
-305.00000000000063
 31
0.0
  0
ENDSEC
  0
EOF
