  0
SECTION
  2
HEADER
  9
$ACADVER
  1
AC1009
  9
$INSBASE
 10
0.0
 20
0.0
 30
0.0
  9
$EXTMIN
 10
-921.19410271752713
 20
-961.11832736165888
 30
-0.0000000000112498
  9
$EXTMAX
 10
1182.923640929574
 20
547.46877178544673
 30
0.0000000000002956
  9
$LIMMIN
 10
-4267.1522210604826
 20
-2696.0832101984129
  9
$LIMMAX
 10
7190.7174225864646
 20
5141.155363923066
  9
$ORTHOMODE
 70
     1
  9
$REGENMODE
 70
     1
  9
$FILLMODE
 70
     1
  9
$QTEXTMODE
 70
     0
  9
$MIRRTEXT
 70
     0
  9
$DRAGMODE
 70
     2
  9
$LTSCALE
 40
20.0
  9
$OSMODE
 70
   431
  9
$ATTMODE
 70
     1
  9
$TEXTSIZE
 40
64.0
  9
$TRACEWID
 40
0.05
  9
$TEXTSTYLE
  7
NOTE
  9
$CLAYER
  8
SYMBOLLINE
  9
$CELTYPE
  6
CONTINUOUS
  9
$CECOLOR
 62
     7
  9
$DIMSCALE
 40
1.0
  9
$DIMASZ
 40
30.0
  9
$DIMEXO
 40
20.0
  9
$DIMDLI
 40
80.0
  9
$DIMRND
 40
0.0
  9
$DIMDLE
 40
0.0
  9
$DIMEXE
 40
20.0
  9
$DIMTP
 40
0.0
  9
$DIMTM
 40
0.0
  9
$DIMTXT
 40
55.0
  9
$DIMCEN
 40
0.09
  9
$DIMTSZ
 40
0.0
  9
$DIMTOL
 70
     0
  9
$DIMLIM
 70
     0
  9
$DIMTIH
 70
     0
  9
$DIMTOH
 70
     0
  9
$DIMSE1
 70
     0
  9
$DIMSE2
 70
     0
  9
$DIMTAD
 70
     1
  9
$DIMZIN
 70
     8
  9
$DIMBLK
  1
SMALL
  9
$DIMASO
 70
     1
  9
$DIMSHO
 70
     0
  9
$DIMPOST
  1

  9
$DIMAPOST
  1

  9
$DIMALT
 70
     0
  9
$DIMALTD
 70
     2
  9
$DIMALTF
 40
25.399999999999999
  9
$DIMLFAC
 40
1.0
  9
$DIMTOFL
 70
     1
  9
$DIMTVP
 40
0.0
  9
$DIMTIX
 70
     0
  9
$DIMSOXD
 70
     0
  9
$DIMSAH
 70
     0
  9
$DIMBLK1
  1

  9
$DIMBLK2
  1

  9
$DIMSTYLE
  2
STANDARD
  9
$DIMCLRD
 70
     0
  9
$DIMCLRE
 70
     0
  9
$DIMCLRT
 70
     0
  9
$DIMTFAC
 40
1.0
  9
$DIMGAP
 40
0.09
  9
$LUNITS
 70
     2
  9
$LUPREC
 70
     4
  9
$SKETCHINC
 40
0.1
  9
$FILLETRAD
 40
18.0
  9
$AUNITS
 70
     1
  9
$AUPREC
 70
     3
  9
$MENU
  1
ACAD
  9
$ELEVATION
 40
0.0
  9
$PELEVATION
 40
0.0
  9
$THICKNESS
 40
0.0
  9
$LIMCHECK
 70
     0
  9
$BLIPMODE
 70
     0
  9
$CHAMFERA
 40
0.0
  9
$CHAMFERB
 40
0.0
  9
$SKPOLY
 70
     0
  9
$TDCREATE
 40
2450330.4399309959
  9
$TDUPDATE
 40
2455141.6624693638
  9
$TDINDWG
 40
3.5138588889000002
  9
$TDUSRTIMER
 40
3.5138145717999998
  9
$USRTIMER
 70
     1
  9
$ANGBASE
 50
0.0
  9
$ANGDIR
 70
     0
  9
$PDMODE
 70
     3
  9
$PDSIZE
 40
-2.0
  9
$PLINEWID
 40
0.0
  9
$COORDS
 70
     0
  9
$SPLFRAME
 70
     0
  9
$SPLINETYPE
 70
     6
  9
$SPLINESEGS
 70
     8
  9
$ATTDIA
 70
     0
  9
$ATTREQ
 70
     1
  9
$HANDLING
 70
     1
  9
$HANDSEED
  5
68C
  9
$SURFTAB1
 70
     6
  9
$SURFTAB2
 70
     6
  9
$SURFTYPE
 70
     6
  9
$SURFU
 70
     6
  9
$SURFV
 70
     6
  9
$UCSNAME
  2

  9
$UCSORG
 10
0.0
 20
0.0
 30
0.0
  9
$UCSXDIR
 10
1.0
 20
0.0
 30
0.0
  9
$UCSYDIR
 10
0.0
 20
1.0
 30
0.0
  9
$PUCSNAME
  2

  9
$PUCSORG
 10
0.0
 20
0.0
 30
0.0
  9
$PUCSXDIR
 10
1.0
 20
0.0
 30
0.0
  9
$PUCSYDIR
 10
0.0
 20
1.0
 30
0.0
  9
$USERI1
 70
     0
  9
$USERI2
 70
     0
  9
$USERI3
 70
     0
  9
$USERI4
 70
     0
  9
$USERI5
 70
     0
  9
$USERR1
 40
20.0
  9
$USERR2
 40
0.0
  9
$USERR3
 40
0.0
  9
$USERR4
 40
0.0
  9
$USERR5
 40
0.0
  9
$WORLDVIEW
 70
     1
  9
$SHADEDGE
 70
     3
  9
$SHADEDIF
 70
    70
  9
$TILEMODE
 70
     1
  9
$MAXACTVP
 70
    64
  9
$PLIMCHECK
 70
     0
  9
$PEXTMIN
 10
1.0000000000000000E+020
 20
1.0000000000000000E+020
 30
1.0000000000000000E+020
  9
$PEXTMAX
 10
-1.0000000000000000E+020
 20
-1.0000000000000000E+020
 30
-1.0000000000000000E+020
  9
$PLIMMIN
 10
0.0
 20
0.0
  9
$PLIMMAX
 10
12.0
 20
9.0
  9
$UNITMODE
 70
     0
  9
$VISRETAIN
 70
     1
  9
$PLINEGEN
 70
     0
  9
$PSLTSCALE
 70
     1
  0
ENDSEC
  0
SECTION
  2
TABLES
  0
TABLE
  2
VPORT
 70
     1
  0
VPORT
  2
*ACTIVE
 70
     0
 10
0.0
 20
0.0
 11
1.0
 21
1.0
 12
1461.782600762991
 22
1222.5360768623259
 13
0.0
 23
0.0
 14
50.0
 24
50.0
 15
100.0
 25
100.0
 16
0.0
 26
0.0
 36
1.0
 17
0.0
 27
0.0
 37
0.0
 40
7896.6866543297328
 41
1.548101265822784
 42
50.0
 43
0.0
 44
0.0
 50
0.0
 51
0.0
 71
     0
 72
  1000
 73
     1
 74
     0
 75
     0
 76
     0
 77
     0
 78
     0
  0
ENDTAB
  0
TABLE
  2
LTYPE
 70
     2
  0
LTYPE
  2
CONTINUOUS
 70
     0
  3
実線
 72
    65
 73
     0
 40
0.0
  0
LTYPE
  2
DASHDOT
 70
     0
  3
____ _ ____ _ ____ _ ____ _ ____ _ ____ _ ____
 72
    65
 73
     4
 40
5.5
 49
4.0
 49
-0.6
 49
0.3
 49
-0.6
  0
ENDTAB
  0
TABLE
  2
LAYER
 70
    12
  0
LAYER
  2
0
 70
     0
 62
     7
  6
CONTINUOUS
  0
LAYER
  2
SYMBOLLINE
 70
     0
 62
    15
  6
CONTINUOUS
  0
LAYER
  2
SIZE
 70
     0
 62
    30
  6
CONTINUOUS
  0
LAYER
  2
OUTLINE
 70
     0
 62
     3
  6
CONTINUOUS
  0
LAYER
  2
DETAIL
 70
     0
 62
     5
  6
CONTINUOUS
  0
LAYER
  2
BASIS
 70
     0
 62
     6
  6
DASHDOT
  0
LAYER
  2
NOTE
 70
     0
 62
     4
  6
CONTINUOUS
  0
LAYER
  2
ARRANGE
 70
     0
 62
     1
  6
CONTINUOUS
  0
LAYER
  2
FIX
 70
     0
 62
    11
  6
CONTINUOUS
  0
LAYER
  2
SERVICESPACE
 70
     0
 62
     2
  6
DASHDOT
  0
LAYER
  2
ETC
 70
     0
 62
    61
  6
CONTINUOUS
  0
LAYER
  2
DEFPOINTS
 70
     0
 62
     7
  6
CONTINUOUS
  0
ENDTAB
  0
TABLE
  2
STYLE
 70
     4
  0
STYLE
  2
STANDARD
 70
     0
 40
0.0
 41
0.9
 50
0.0
 71
     0
 42
64.0
  3
SIMPLEX
  4
BIGFONT
  0
STYLE
  2
ANNOTATIVE
 70
     0
 40
0.0
 41
1.0
 50
0.0
 71
     0
 42
0.2
  3
txt
  4

  0
STYLE
  2
NOTE
 70
     0
 40
0.0
 41
0.7
 50
0.0
 71
     0
 42
64.0
  3
SIMPLEX.shx
  4
BIGFONT.shx
  0
STYLE
  2
STANDARD1
 70
     0
 40
0.0
 41
1.0
 50
0.0
 71
     0
 42
64.0
  3
MONOTXT
  4
BIGFONT
  0
ENDTAB
  0
TABLE
  2
VIEW
 70
     3
  0
VIEW
  2
ALL
 70
     0
 40
9000.0
 10
241.50664699999999
 20
0.0
 41
12483.01
 11
0.0
 21
0.0
 31
1.0
 12
0.0
 22
0.0
 32
0.0
 42
50.0
 43
0.0
 44
0.0
 50
0.0
 71
     0
  0
ENDTAB
  0
TABLE
  2
UCS
 70
     0
  0
ENDTAB
  0
TABLE
  2
APPID
 70
     4
  0
APPID
  2
ACAD
 70
     0
  0
APPID
  2
ACADANNOTATIVE
 70
     0
  0
APPID
  2
ACAD_MLEADERVER
 70
     0
  0
APPID
  2
ACAD_EXEMPT_FROM_CAD_STANDARDS
 70
     0
  0
ENDTAB
  0
TABLE
  2
DIMSTYLE
 70
     2
  0
DIMSTYLE
  2
STANDARD
 70
     0
  3

  4

  5

  6

  7

 40
1.0
 41
0.18
 42
0.0625
 43
0.38
 44
0.18
 45
0.0
 46
0.0
 47
0.0
 48
0.0
140
0.18
141
0.09
142
0.0
143
25.399999999999999
144
1.0
145
0.0
146
1.0
147
0.09
 71
     0
 72
     0
 73
     1
 74
     1
 75
     0
 76
     0
 77
     0
 78
     0
170
     0
171
     2
172
     0
173
     0
174
     0
175
     0
176
     0
177
     0
178
     0
  0
DIMSTYLE
  2
ANNOTATIVE
 70
     0
  3

  4

  5

  6

  7

 40
1.0
 41
0.18
 42
0.0625
 43
0.38
 44
0.18
 45
0.0
 46
0.0
 47
0.0
 48
0.0
140
0.18
141
0.09
142
0.0
143
25.399999999999999
144
1.0
145
0.0
146
1.0
147
0.09
 71
     0
 72
     0
 73
     1
 74
     1
 75
     0
 76
     0
 77
     0
 78
     0
170
     0
171
     2
172
     0
173
     0
174
     0
175
     0
176
     0
177
     0
178
     0
  0
ENDTAB
  0
ENDSEC
  0
SECTION
  2
BLOCKS
  0
BLOCK
  8
0
  2
$MODEL_SPACE
 70
     0
 10
0.0
 20
0.0
 30
0.0
  3
$MODEL_SPACE
  1

  0
ENDBLK
  5
637
  8
0
  0
BLOCK
 67
     1
  8
0
  2
$PAPER_SPACE
 70
     0
 10
0.0
 20
0.0
 30
0.0
  3
$PAPER_SPACE
  1

  0
ENDBLK
  5
633
 67
     1
  8
0
  0
BLOCK
  8
0
  2
_SMALL
 70
     0
 10
0.0
 20
0.0
 30
0.0
  3
_SMALL
  1

  0
CIRCLE
  5
8D
  8
0
  6
CONTINUOUS
 62
     7
 10
0.0
 20
0.0
 30
0.0
 40
0.25
  0
ENDBLK
  5
8E
  8
0
  0
ENDSEC
  0
SECTION
  2
ENTITIES
  0
LINE
  5
8F
  8
BASIS
  6
DASHDOT
 62
     6
 10
0.0
 20
59.658067335949447
 30
0.0
 11
0.0
 21
-610.68668763728238
 31
0.0
  0
CIRCLE
  5
90
  8
ARRANGE
  6
CONTINUOUS
 62
     1
 10
0.0
 20
-0.0000000000018154
 30
0.0
 40
50.0
  0
LINE
  5
91
  8
ARRANGE
  6
CONTINUOUS
 62
     1
 10
50.037350031328963
 20
-49.522353150327021
 30
0.0
 11
-50.037350031328963
 21
49.52235315032339
 31
0.0
  0
LINE
  5
92
  8
ARRANGE
  6
CONTINUOUS
 62
     1
 10
49.963763310501221
 20
49.596594797983933
 30
0.0
 11
-49.963763310501221
 21
-49.596594797983933
 31
0.0
  0
LINE
  5
93
  8
DETAIL
  6
CONTINUOUS
 62
     5
 10
602.0
 20
-0.0000000000018154
 30
0.0
 11
-602.0
 21
-0.0000000000018154
 31
0.0
  0
LINE
  5
94
  8
DETAIL
  6
CONTINUOUS
 62
     5
 10
649.0
 20
-521.00000000000057
 30
0.0
 11
649.0
 21
-524.00000000000045
 31
0.0
  0
LINE
  5
95
  8
DETAIL
  6
CONTINUOUS
 62
     5
 10
602.0
 20
-552.0
 30
0.0
 11
-602.0
 21
-552.0
 31
0.0
  0
LINE
  5
96
  8
DETAIL
  6
CONTINUOUS
 62
     5
 10
-602.0
 20
-552.0
 30
0.0
 11
-602.0
 21
-0.0000000000018154
 31
0.0
  0
LINE
  5
97
  8
DETAIL
  6
CONTINUOUS
 62
     5
 10
602.0
 20
-552.0
 30
0.0
 11
602.0
 21
-0.0000000000018154
 31
0.0
  0
LINE
  5
98
  8
DETAIL
  6
CONTINUOUS
 62
     5
 10
602.0
 20
-10.00000000008639
 30
0.0
 11
-602.0
 21
-10.00000000008639
 31
0.0
  0
LINE
  5
99
  8
DETAIL
  6
CONTINUOUS
 62
     5
 10
605.0
 20
-524.00000000000045
 30
0.0
 11
649.0
 21
-524.00000000000045
 31
0.0
  0
LINE
  5
9A
  8
DETAIL
  6
CONTINUOUS
 62
     5
 10
602.0
 20
-521.00000000000057
 30
0.0
 11
649.0
 21
-521.00000000000057
 31
0.0
  0
LINE
  5
9B
  8
DETAIL
  6
CONTINUOUS
 62
     5
 10
555.0
 20
-552.0
 30
0.0
 11
555.0
 21
-555.00000000000011
 31
0.0
  0
LINE
  5
9C
  8
DETAIL
  6
CONTINUOUS
 62
     5
 10
605.0
 20
-555.00000000000011
 30
0.0
 11
555.0
 21
-555.00000000000011
 31
0.0
  0
LINE
  5
9D
  8
DETAIL
  6
CONTINUOUS
 62
     5
 10
602.0
 20
-552.0
 30
0.0
 11
555.0
 21
-552.0
 31
0.0
  0
LINE
  5
9E
  8
DETAIL
  6
CONTINUOUS
 62
     5
 10
602.0
 20
-552.0
 30
0.0
 11
555.0
 21
-552.0
 31
0.0
  0
LINE
  5
9F
  8
DETAIL
  6
CONTINUOUS
 62
     5
 10
605.0
 20
-555.00000000000011
 30
0.0
 11
605.0
 21
-524.00000000000045
 31
0.0
  0
LINE
  5
A0
  8
NOTE
  6
CONTINUOUS
 62
     4
 10
630.0
 20
-504.28334787603723
 30
0.0
 11
630.0
 21
-537.71665212396363
 31
0.0
  0
LINE
  5
A1
  8
NOTE
  6
CONTINUOUS
 62
     4
 10
613.28334787603671
 20
-521.00000000000057
 30
0.0
 11
646.71665212396329
 21
-521.00000000000057
 31
0.0
  0
CIRCLE
  5
A2
  8
FIX
  6
CONTINUOUS
 62
    11
 10
630.0
 20
-521.00000000000057
 30
0.0
 40
12.42149793872491
  0
LINE
  5
A3
  8
DETAIL
  6
CONTINUOUS
 62
     5
 10
-649.0
 20
-521.00000000000057
 30
0.0
 11
-649.0
 21
-524.00000000000045
 31
0.0
  0
LINE
  5
A4
  8
DETAIL
  6
CONTINUOUS
 62
     5
 10
-605.0
 20
-555.00000000000011
 30
0.0
 11
-605.0
 21
-524.00000000000045
 31
0.0
  0
LINE
  5
A5
  8
DETAIL
  6
CONTINUOUS
 62
     5
 10
-605.0
 20
-524.00000000000045
 30
0.0
 11
-649.0
 21
-524.00000000000045
 31
0.0
  0
LINE
  5
A6
  8
DETAIL
  6
CONTINUOUS
 62
     5
 10
-602.0
 20
-521.00000000000057
 30
0.0
 11
-649.0
 21
-521.00000000000057
 31
0.0
  0
LINE
  5
A7
  8
DETAIL
  6
CONTINUOUS
 62
     5
 10
-555.0
 20
-552.0
 30
0.0
 11
-555.0
 21
-555.00000000000011
 31
0.0
  0
LINE
  5
A8
  8
DETAIL
  6
CONTINUOUS
 62
     5
 10
-605.0
 20
-555.00000000000011
 30
0.0
 11
-555.0
 21
-555.00000000000011
 31
0.0
  0
LINE
  5
A9
  8
DETAIL
  6
CONTINUOUS
 62
     5
 10
-602.0
 20
-552.0
 30
0.0
 11
-555.0
 21
-552.0
 31
0.0
  0
LINE
  5
AA
  8
DETAIL
  6
CONTINUOUS
 62
     5
 10
-602.0
 20
-552.0
 30
0.0
 11
-555.0
 21
-552.0
 31
0.0
  0
LINE
  5
AB
  8
NOTE
  6
CONTINUOUS
 62
     4
 10
-630.0
 20
-504.28334787603723
 30
0.0
 11
-630.0
 21
-537.71665212396363
 31
0.0
  0
LINE
  5
AC
  8
NOTE
  6
CONTINUOUS
 62
     4
 10
-613.28334787603671
 20
-521.00000000000057
 30
0.0
 11
-646.71665212396329
 21
-521.00000000000057
 31
0.0
  0
CIRCLE
  5
AD
  8
FIX
  6
CONTINUOUS
 62
    11
 10
-630.0
 20
-521.00000000000057
 30
0.0
 40
12.42149793872491
  0
LINE
  5
AE
  8
DETAIL
  6
CONTINUOUS
 62
     5
 10
529.80415148834811
 20
-515.32053327899507
 30
0.0
 11
-602.0
 21
-515.32053327899496
 31
0.0
  0
LINE
  5
AF
  8
DETAIL
  6
CONTINUOUS
 62
     5
 10
440.0
 20
-259.0
 30
0.0
 11
-572.0
 21
-259.0
 31
0.0
  0
LINE
  5
B0
  8
OUTLINE
  6
CONTINUOUS
 62
     3
 10
-602.0
 20
-0.0000000000018154
 30
0.0
 11
602.0
 21
-0.0000000000018154
 31
0.0
  0
LINE
  5
B1
  8
OUTLINE
  6
CONTINUOUS
 62
     3
 10
602.0
 20
-0.0000000000018154
 30
0.0
 11
602.0
 21
-552.0
 31
0.0
  0
LINE
  5
B2
  8
OUTLINE
  6
CONTINUOUS
 62
     3
 10
602.0
 20
-552.0
 30
0.0
 11
-602.0
 21
-552.0
 31
0.0
  0
LINE
  5
B3
  8
OUTLINE
  6
CONTINUOUS
 62
     3
 10
-602.0
 20
-552.0
 30
0.0
 11
-602.0
 21
-0.0000000000018154
 31
0.0
  0
LINE
  5
B4
  8
NOTE
  6
CONTINUOUS
 62
     4
 10
566.00000000003604
 20
-223.75000634295239
 30
0.0
 11
566.00000000003604
 21
-244.24999365721669
 31
0.0
  0
LINE
  5
B5
  8
NOTE
  6
CONTINUOUS
 62
     4
 10
566.00000000009379
 20
-234.00000000010041
 30
0.0
 11
582.32416928642635
 21
-203.73663655348449
 31
0.0
  0
LINE
  5
B6
  8
NOTE
  6
CONTINUOUS
 62
     4
 10
566.00000000009379
 20
-234.00000000010041
 30
0.0
 11
595.26882728395685
 21
-215.95324352099021
 31
0.0
  0
LINE
  5
B7
  8
NOTE
  6
CONTINUOUS
 62
     4
 10
786.1389654376901
 20
65.602462371385613
 30
0.0
 11
566.00000000003581
 21
-234.0
 31
0.0
  0
LINE
  5
B8
  8
NOTE
  6
CONTINUOUS
 62
     4
 10
576.2499936571686
 20
-234.0
 30
0.0
 11
555.75000634290291
 21
-234.0
 31
0.0
  0
LINE
  5
B9
  8
NOTE
  6
CONTINUOUS
 62
     4
 10
475.99999999997391
 20
-293.7500063431043
 30
0.0
 11
475.99999999997391
 21
-314.24999365736852
 31
0.0
  0
LINE
  5
BA
  8
NOTE
  6
CONTINUOUS
 62
     4
 10
475.99999999971118
 20
-304.00000000011858
 30
0.0
 11
506.88756070879202
 21
-319.10987304504067
 31
0.0
  0
LINE
  5
BB
  8
NOTE
  6
CONTINUOUS
 62
     4
 10
475.99999999971118
 20
-304.00000000011858
 30
0.0
 11
495.1944752965673
 21
-332.52931453915539
 31
0.0
  0
LINE
  5
BC
  8
NOTE
  6
CONTINUOUS
 62
     4
 10
486.2499936571067
 20
-304.00000000015177
 30
0.0
 11
465.75000634284078
 21
-304.00000000015177
 31
0.0
  0
LINE
  5
BD
  8
NOTE
  6
CONTINUOUS
 62
     4
 10
566.00000000014165
 20
-499.75000634271998
 30
0.0
 11
566.00000000014165
 21
-520.24999365698432
 31
0.0
  0
LINE
  5
BE
  8
NOTE
  6
CONTINUOUS
 62
     4
 10
566.0
 20
-509.99999999973039
 30
0.0
 11
589.38791325918066
 21
-535.20625286230074
 31
0.0
  0
LINE
  5
BF
  8
NOTE
  6
CONTINUOUS
 62
     4
 10
566.0
 20
-509.99999999973039
 30
0.0
 11
573.65140010424102
 21
-543.52321205397345
 31
0.0
  0
LINE
  5
C0
  8
NOTE
  6
CONTINUOUS
 62
     4
 10
730.47785737689605
 20
-820.08795620214005
 30
0.0
 11
566.00000000014302
 21
-510.0
 31
0.0
  0
LINE
  5
C1
  8
NOTE
  6
CONTINUOUS
 62
     4
 10
576.24999365727444
 20
-509.99999999976768
 30
0.0
 11
555.75000634300852
 21
-509.99999999976768
 31
0.0
  0
LINE
  5
C2
  8
NOTE
  6
CONTINUOUS
 62
     4
 10
627.26105661910049
 20
-426.46052033862247
 30
0.0
 11
475.99999999987278
 21
-304.0
 31
0.0
  0
LINE
  5
C3
  8
DETAIL
  6
CONTINUOUS
 62
     5
 10
-572.0
 20
-259.0
 30
0.0
 11
-572.00000000000011
 21
-10.00000000008639
 31
0.0
  0
LINE
  5
C4
  8
DETAIL
  6
CONTINUOUS
 62
     5
 10
440.0
 20
-259.0
 30
0.0
 11
440.0
 21
-10.00000000008639
 31
0.0
  0
LINE
  5
C5
  8
NOTE
  6
CONTINUOUS
 62
     4
 10
393.99999999999977
 20
0.2499936570457101
 30
0.0
 11
393.99999999999977
 21
-20.249993657218511
 31
0.0
  0
LINE
  5
C6
  8
NOTE
  6
CONTINUOUS
 62
     4
 10
404.24999365713279
 20
-10.000000000001799
 30
0.0
 11
383.75000634286681
 21
-10.000000000001799
 31
0.0
  0
LINE
  5
C7
  8
NOTE
  6
CONTINUOUS
 62
     4
 10
163.9999999999998
 20
0.2499936570459659
 30
0.0
 11
163.9999999999998
 21
-20.249993657218251
 31
0.0
  0
LINE
  5
C8
  8
NOTE
  6
CONTINUOUS
 62
     4
 10
174.24999365713271
 20
-10.00000000000156
 30
0.0
 11
153.75000634286681
 21
-10.00000000000156
 31
0.0
  0
LINE
  5
C9
  8
NOTE
  6
CONTINUOUS
 62
     4
 10
393.99999999999977
 20
-248.75000634286781
 30
0.0
 11
393.99999999999977
 21
-269.24999365713188
 31
0.0
  0
LINE
  5
CA
  8
NOTE
  6
CONTINUOUS
 62
     4
 10
404.24999365713279
 20
-258.9999999999153
 30
0.0
 11
383.75000634286693
 21
-258.9999999999153
 31
0.0
  0
LINE
  5
CB
  8
NOTE
  6
CONTINUOUS
 62
     4
 10
163.9999999999998
 20
-248.75000634286789
 30
0.0
 11
163.9999999999998
 21
-269.24999365713199
 31
0.0
  0
LINE
  5
CC
  8
NOTE
  6
CONTINUOUS
 62
     4
 10
174.2499936571329
 20
-258.9999999999153
 30
0.0
 11
153.7500063428669
 21
-258.9999999999153
 31
0.0
  0
LINE
  5
CD
  8
NOTE
  6
CONTINUOUS
 62
     4
 10
-66.0
 20
-248.75000634286789
 30
0.0
 11
-66.0
 21
-269.24999365713239
 31
0.0
  0
LINE
  5
CE
  8
NOTE
  6
CONTINUOUS
 62
     4
 10
-55.750006342866982
 20
-258.99999999991559
 30
0.0
 11
-76.249993657133018
 21
-258.99999999991559
 31
0.0
  0
LINE
  5
CF
  8
NOTE
  6
CONTINUOUS
 62
     4
 10
-66.000000000000099
 20
0.2499936570457101
 30
0.0
 11
-66.000000000000099
 21
-20.249993657218511
 31
0.0
  0
LINE
  5
D0
  8
NOTE
  6
CONTINUOUS
 62
     4
 10
-55.750006342867088
 20
-10.000000000001799
 30
0.0
 11
-76.249993657133089
 21
-10.000000000001799
 31
0.0
  0
LINE
  5
D1
  8
NOTE
  6
CONTINUOUS
 62
     4
 10
-296.0
 20
0.2499936571303501
 30
0.0
 11
-296.0
 21
-20.249993657133871
 31
0.0
  0
LINE
  5
D2
  8
NOTE
  6
CONTINUOUS
 62
     4
 10
-285.75000634286721
 20
-9.999999999917172
 30
0.0
 11
-306.24999365713307
 21
-9.999999999917172
 31
0.0
  0
LINE
  5
D3
  8
NOTE
  6
CONTINUOUS
 62
     4
 10
-296.0
 20
-248.75000634286789
 30
0.0
 11
-296.0
 21
-269.24999365713239
 31
0.0
  0
LINE
  5
D4
  8
NOTE
  6
CONTINUOUS
 62
     4
 10
-285.75000634286693
 20
-258.99999999991559
 30
0.0
 11
-306.24999365713279
 21
-258.99999999991559
 31
0.0
  0
LINE
  5
D5
  8
NOTE
  6
CONTINUOUS
 62
     4
 10
-526.0
 20
-248.75000634286789
 30
0.0
 11
-526.0
 21
-269.24999365713239
 31
0.0
  0
LINE
  5
D6
  8
NOTE
  6
CONTINUOUS
 62
     4
 10
-515.75000634286698
 20
-258.99999999991559
 30
0.0
 11
-536.2499936571329
 21
-258.99999999991559
 31
0.0
  0
LINE
  5
D7
  8
NOTE
  6
CONTINUOUS
 62
     4
 10
-526.0
 20
0.2499936570457101
 30
0.0
 11
-526.0
 21
-20.249993657218511
 31
0.0
  0
LINE
  5
D8
  8
NOTE
  6
CONTINUOUS
 62
     4
 10
-515.75000634286698
 20
-10.000000000001799
 30
0.0
 11
-536.2499936571329
 21
-10.000000000001799
 31
0.0
  0
LINE
  5
D9
  8
NOTE
  6
CONTINUOUS
 62
     4
 10
-572.0
 20
-206.75000634295259
 30
0.0
 11
-572.0
 21
-227.24999365721681
 31
0.0
  0
LINE
  5
DA
  8
NOTE
  6
CONTINUOUS
 62
     4
 10
-561.75000634286698
 20
-216.99999999999989
 30
0.0
 11
-582.24999365713302
 21
-216.99999999999989
 31
0.0
  0
LINE
  5
DB
  8
NOTE
  6
CONTINUOUS
 62
     4
 10
-572.0
 20
-41.750006343038869
 30
0.0
 11
-572.0
 21
-62.249993657303087
 31
0.0
  0
LINE
  5
DC
  8
NOTE
  6
CONTINUOUS
 62
     4
 10
-561.75000634286698
 20
-52.000000000086402
 30
0.0
 11
-582.24999365713302
 21
-52.000000000086402
 31
0.0
  0
LINE
  5
DD
  8
NOTE
  6
CONTINUOUS
 62
     4
 10
440.0
 20
-41.750006343038869
 30
0.0
 11
440.0
 21
-62.249993657303087
 31
0.0
  0
LINE
  5
DE
  8
NOTE
  6
CONTINUOUS
 62
     4
 10
450.24999365713302
 20
-52.000000000086402
 30
0.0
 11
429.75000634286693
 21
-52.000000000086402
 31
0.0
  0
LINE
  5
DF
  8
NOTE
  6
CONTINUOUS
 62
     4
 10
440.0
 20
-206.75000634295259
 30
0.0
 11
440.0
 21
-227.24999365721681
 31
0.0
  0
LINE
  5
E0
  8
NOTE
  6
CONTINUOUS
 62
     4
 10
450.24999365713302
 20
-216.99999999999989
 30
0.0
 11
429.75000634286693
 21
-216.99999999999989
 31
0.0
  0
LINE
  5
E1
  8
DETAIL
  6
CONTINUOUS
 62
     5
 10
-563.41875727978913
 20
-259.0
 30
0.0
 11
-563.41875727978902
 21
-189.4126827530032
 31
0.0
  0
LINE
  5
E2
  8
DETAIL
  6
CONTINUOUS
 62
     5
 10
-554.83751455957804
 20
-259.0
 30
0.0
 11
-554.83751455957804
 21
-186.49545250485781
 31
0.0
  0
LINE
  5
E3
  8
DETAIL
  6
CONTINUOUS
 62
     5
 10
-546.2562718393674
 20
-259.0
 30
0.0
 11
-546.2562718393674
 21
-183.57822225671239
 31
0.0
  0
LINE
  5
E4
  8
DETAIL
  6
CONTINUOUS
 62
     5
 10
-537.67502911915653
 20
-259.0
 30
0.0
 11
-537.67502911915653
 21
-180.66099200856681
 31
0.0
  0
LINE
  5
E5
  8
DETAIL
  6
CONTINUOUS
 62
     5
 10
-527.66875093692215
 20
-258.99999999991559
 30
0.0
 11
-527.66875093692215
 21
-177.25931484637451
 31
0.0
  0
LINE
  5
E6
  8
DETAIL
  6
CONTINUOUS
 62
     5
 10
-519.0875082167114
 20
-259.0
 30
0.0
 11
-519.0875082167114
 21
-174.34208459822881
 31
0.0
  0
LINE
  5
E7
  8
DETAIL
  6
CONTINUOUS
 62
     5
 10
-510.50626549650042
 20
-259.0
 30
0.0
 11
-510.5062654965003
 21
-171.42485435008331
 31
0.0
  0
LINE
  5
E8
  8
DETAIL
  6
CONTINUOUS
 62
     5
 10
-501.9250227762895
 20
-258.99999999991559
 30
0.0
 11
-501.9250227762895
 21
-168.50762410193781
 31
0.0
  0
LINE
  5
E9
  8
DETAIL
  6
CONTINUOUS
 62
     5
 10
-493.34378005607857
 20
-258.99999999991559
 30
0.0
 11
-493.34378005607857
 21
-165.59039385379259
 31
0.0
  0
LINE
  5
EA
  8
DETAIL
  6
CONTINUOUS
 62
     5
 10
-484.76253733586782
 20
-259.0
 30
0.0
 11
-484.76253733586782
 21
-162.67316360564701
 31
0.0
  0
LINE
  5
EB
  8
DETAIL
  6
CONTINUOUS
 62
     5
 10
-476.1812946156569
 20
-259.0
 30
0.0
 11
-476.1812946156569
 21
-159.7559333575015
 31
0.0
  0
LINE
  5
EC
  8
DETAIL
  6
CONTINUOUS
 62
     5
 10
-467.60005189544597
 20
-259.0
 30
0.0
 11
-467.60005189544597
 21
-156.838703109356
 31
0.0
  0
LINE
  5
ED
  8
DETAIL
  6
CONTINUOUS
 62
     5
 10
-459.01880917523511
 20
-259.0
 30
0.0
 11
-459.01880917523511
 21
-153.92147286121059
 31
0.0
  0
LINE
  5
EE
  8
DETAIL
  6
CONTINUOUS
 62
     5
 10
-450.4375664550243
 20
-259.0
 30
0.0
 11
-450.4375664550243
 21
-151.00424261306509
 31
0.0
  0
LINE
  5
EF
  8
DETAIL
  6
CONTINUOUS
 62
     5
 10
-441.85632373481309
 20
-259.0
 30
0.0
 11
-441.85632373481349
 21
-148.0870123649197
 31
0.0
  0
LINE
  5
F0
  8
DETAIL
  6
CONTINUOUS
 62
     5
 10
-433.27508101460228
 20
-259.0
 30
0.0
 11
-433.27508101460228
 21
-145.1697821167742
 31
0.0
  0
LINE
  5
F1
  8
DETAIL
  6
CONTINUOUS
 62
     5
 10
-424.69383829439158
 20
-258.99999999991559
 30
0.0
 11
-424.69383829439158
 21
-142.2525518686287
 31
0.0
  0
LINE
  5
F2
  8
DETAIL
  6
CONTINUOUS
 62
     5
 10
-416.11259557418077
 20
-258.99999999991559
 30
0.0
 11
-416.11259557418077
 21
-139.3353216204832
 31
0.0
  0
LINE
  5
F3
  8
DETAIL
  6
CONTINUOUS
 62
     5
 10
-407.53135285397002
 20
-259.0
 30
0.0
 11
-407.53135285397002
 21
-136.41809137233781
 31
0.0
  0
LINE
  5
F4
  8
DETAIL
  6
CONTINUOUS
 62
     5
 10
-398.95011013375921
 20
-259.0
 30
0.0
 11
-398.95011013375921
 21
-133.50086112419231
 31
0.0
  0
LINE
  5
F5
  8
DETAIL
  6
CONTINUOUS
 62
     5
 10
-390.36886741354817
 20
-259.0
 30
0.0
 11
-390.36886741354829
 21
-130.5836308760467
 31
0.0
  0
LINE
  5
F6
  8
DETAIL
  6
CONTINUOUS
 62
     5
 10
-381.78762469333742
 20
-259.0
 30
0.0
 11
-381.78762469333742
 21
-127.6664006279013
 31
0.0
  0
LINE
  5
F7
  8
DETAIL
  6
CONTINUOUS
 62
     5
 10
-373.20638197312661
 20
-259.0
 30
0.0
 11
-373.20638197312661
 21
-124.7491703797559
 31
0.0
  0
LINE
  5
F8
  8
DETAIL
  6
CONTINUOUS
 62
     5
 10
431.41875727978891
 20
-10.00000000008623
 30
0.0
 11
431.41875727978891
 21
-79.587317247083121
 31
0.0
  0
LINE
  5
F9
  8
DETAIL
  6
CONTINUOUS
 62
     5
 10
422.8375145595781
 20
-10.00000000008623
 30
0.0
 11
422.83751455957832
 21
-82.504547495228479
 31
0.0
  0
LINE
  5
FA
  8
DETAIL
  6
CONTINUOUS
 62
     5
 10
414.25627183936717
 20
-10.00000000008623
 30
0.0
 11
414.25627183936751
 21
-85.421777743374008
 31
0.0
  0
LINE
  5
FB
  8
DETAIL
  6
CONTINUOUS
 62
     5
 10
405.67502911915648
 20
-10.00000000008623
 30
0.0
 11
405.67502911915659
 21
-88.339007991519495
 31
0.0
  0
LINE
  5
FC
  8
DETAIL
  6
CONTINUOUS
 62
     5
 10
395.66875093692209
 20
-10.00000000017082
 30
0.0
 11
395.66875093692209
 21
-91.740685153712008
 31
0.0
  0
LINE
  5
FD
  8
DETAIL
  6
CONTINUOUS
 62
     5
 10
387.08750821671111
 20
-10.00000000008623
 30
0.0
 11
387.08750821671129
 21
-94.657915401857394
 31
0.0
  0
LINE
  5
FE
  8
DETAIL
  6
CONTINUOUS
 62
     5
 10
378.50626549650042
 20
-10.00000000008623
 30
0.0
 11
378.50626549650042
 21
-97.575145650002924
 31
0.0
  0
LINE
  5
FF
  8
DETAIL
  6
CONTINUOUS
 62
     5
 10
369.92502277628961
 20
-10.00000000017082
 30
0.0
 11
369.92502277628961
 21
-100.4923758981482
 31
0.0
  0
LINE
  5
100
  8
DETAIL
  6
CONTINUOUS
 62
     5
 10
361.3437800560788
 20
-10.00000000017082
 30
0.0
 11
361.3437800560788
 21
-103.4096061462939
 31
0.0
  0
LINE
  5
101
  8
DETAIL
  6
CONTINUOUS
 62
     5
 10
352.76253733586782
 20
-10.00000000008623
 30
0.0
 11
352.76253733586782
 21
-106.3268363944392
 31
0.0
  0
LINE
  5
102
  8
DETAIL
  6
CONTINUOUS
 62
     5
 10
344.1812946156569
 20
-10.00000000008623
 30
0.0
 11
344.1812946156569
 21
-109.2440666425847
 31
0.0
  0
LINE
  5
103
  8
DETAIL
  6
CONTINUOUS
 62
     5
 10
335.60005189544597
 20
-10.00000000008623
 30
0.0
 11
335.60005189544597
 21
-112.1612968907303
 31
0.0
  0
LINE
  5
104
  8
DETAIL
  6
CONTINUOUS
 62
     5
 10
327.01880917523528
 20
-10.00000000008623
 30
0.0
 11
327.01880917523522
 21
-115.0785271388756
 31
0.0
  0
LINE
  5
105
  8
DETAIL
  6
CONTINUOUS
 62
     5
 10
318.4375664550243
 20
-10.00000000008623
 30
0.0
 11
318.4375664550243
 21
-117.9957573870211
 31
0.0
  0
LINE
  5
106
  8
DETAIL
  6
CONTINUOUS
 62
     5
 10
309.85632373481337
 20
-10.000000000086221
 30
0.0
 11
309.8563237348136
 21
-120.9129876351665
 31
0.0
  0
LINE
  5
107
  8
DETAIL
  6
CONTINUOUS
 62
     5
 10
301.27508101460262
 20
-10.000000000086221
 30
0.0
 11
301.27508101460262
 21
-123.830217883312
 31
0.0
  0
LINE
  5
108
  8
DETAIL
  6
CONTINUOUS
 62
     5
 10
292.69383829439181
 20
-10.00000000017085
 30
0.0
 11
292.69383829439181
 21
-126.7474481314575
 31
0.0
  0
LINE
  5
109
  8
DETAIL
  6
CONTINUOUS
 62
     5
 10
284.112595574181
 20
-10.00000000017085
 30
0.0
 11
284.112595574181
 21
-129.664678379603
 31
0.0
  0
LINE
  5
10A
  8
DETAIL
  6
CONTINUOUS
 62
     5
 10
275.53135285397008
 20
-10.000000000086271
 30
0.0
 11
275.53135285397008
 21
-132.5819086277485
 31
0.0
  0
LINE
  5
10B
  8
DETAIL
  6
CONTINUOUS
 62
     5
 10
266.9501101337591
 20
-10.00000000008626
 30
0.0
 11
266.9501101337591
 21
-135.49913887589389
 31
0.0
  0
LINE
  5
10C
  8
DETAIL
  6
CONTINUOUS
 62
     5
 10
258.36886741354829
 20
-10.00000000008626
 30
0.0
 11
258.36886741354829
 21
-138.41636912403951
 31
0.0
  0
LINE
  5
10D
  8
DETAIL
  6
CONTINUOUS
 62
     5
 10
249.78762469333751
 20
-10.00000000008626
 30
0.0
 11
249.78762469333751
 21
-141.33359937218481
 31
0.0
  0
LINE
  5
10E
  8
DETAIL
  6
CONTINUOUS
 62
     5
 10
241.20638197312661
 20
-10.00000000008626
 30
0.0
 11
241.20638197312661
 21
-144.25082962033039
 31
0.0
  0
CIRCLE
  5
10F
  8
DETAIL
  6
CONTINUOUS
 62
     5
 10
566.00000000014165
 20
-509.99999999985232
 30
0.0
 40
17.340024875775271
  0
CIRCLE
  5
110
  8
DETAIL
  6
CONTINUOUS
 62
     5
 10
566.00000000014165
 20
-509.99999999985232
 30
0.0
 40
19.349999999998531
  0
CIRCLE
  5
111
  8
DETAIL
  6
CONTINUOUS
 62
     5
 10
475.99999999987278
 20
-304.0
 30
0.0
 40
17.300000000000178
  0
CIRCLE
  5
112
  8
DETAIL
  6
CONTINUOUS
 62
     5
 10
475.99999999987278
 20
-304.0
 30
0.0
 40
18.300000000000171
  0
CIRCLE
  5
113
  8
DETAIL
  6
CONTINUOUS
 62
     5
 10
566.00000000003604
 20
-234.0
 30
0.0
 40
17.340024875775271
  0
CIRCLE
  5
114
  8
DETAIL
  6
CONTINUOUS
 62
     5
 10
566.00000000003604
 20
-234.0
 30
0.0
 40
19.349999999998531
  0
LINE
  5
115
  8
DETAIL
  6
CONTINUOUS
 62
     5
 10
513.49257373280864
 20
-10.00000000008639
 30
0.0
 11
513.49257373280864
 21
-515.32053327899507
 31
0.0
  0
LINE
  5
116
  8
DETAIL
  6
CONTINUOUS
 62
     5
 10
529.804151488348
 20
-10.00000000008639
 30
0.0
 11
529.80415148834811
 21
-515.32053327899507
 31
0.0
  0
POLYLINE
  5
117
  8
DETAIL
  6
CONTINUOUS
 62
     5
 66
     1
 10
0.0
 20
0.0
 30
0.0
 70
     1
  0
VERTEX
  5
67B
  8
DETAIL
  6
CONTINUOUS
 62
     5
 10
-553.51876254181116
 20
-367.63079349315427
 30
0.0
  0
VERTEX
  5
67C
  8
DETAIL
  6
CONTINUOUS
 62
     5
 10
430.85938286635047
 20
-367.63079349315427
 30
0.0
  0
VERTEX
  5
67D
  8
DETAIL
  6
CONTINUOUS
 62
     5
 10
430.85938286635047
 20
-482.32182168041629
 30
0.0
  0
VERTEX
  5
67E
  8
DETAIL
  6
CONTINUOUS
 62
     5
 10
-553.51876254181116
 20
-482.32182168041629
 30
0.0
  0
SEQEND
  5
67F
  8
DETAIL
  6
CONTINUOUS
 62
     5
  0
TEXT
  5
11D
  8
ETC
  6
CONTINUOUS
 62
    61
 10
477.52748927439188
 20
467.08390439926279
 30
0.0
 40
80.0
  1
MB-P100MT_2
 50
0.0000029998804485
 41
0.8
  0
TEXT
  5
11E
  8
NOTE
  6
CONTINUOUS
 62
     4
 10
-537.26559527892573
 20
-692.14951216187444
 30
0.0
 40
60.0
  1
AH 4-18×50 (%%C16ボルト)
 50
359.99999749558327
 41
0.7
  7
STANDARD1
  0
LINE
  5
11F
  8
NOTE
  6
CONTINUOUS
 62
     4
 10
-549.22092563742228
 20
-710.2830260913455
 30
0.0
 11
240.9767337427256
 21
-710.2830260913455
 31
0.0
  0
LINE
  5
120
  8
SIZE
  6
CONTINUOUS
 62
    30
 10
622.0
 20
-0.0000000000018211
 30
0.0
 11
1055.4035552806261
 21
-0.0000000000019439
 31
0.0
  0
LINE
  5
121
  8
SIZE
  6
CONTINUOUS
 62
    30
 10
596.24999365716894
 20
-234.0
 30
0.0
 11
1055.403555280662
 21
-234.00000000000011
 31
0.0
  0
LINE
  5
122
  8
SIZE
  6
CONTINUOUS
 62
    30
 10
1035.403555280627
 20
-0.0000000000019382
 30
0.0
 11
1035.403555280627
 21
-234.00000000000011
 31
0.0
  0
CIRCLE
  5
123
  8
SIZE
  6
CONTINUOUS
 62
    30
 10
1035.403555280627
 20
-0.0000000000019382
 30
0.0
 40
7.5
  0
CIRCLE
  5
124
  8
SIZE
  6
CONTINUOUS
 62
    30
 10
1035.4035552806631
 20
-234.00000000000011
 30
0.0
 40
7.5
  0
TEXT
  5
125
  8
SIZE
  6
CONTINUOUS
 62
    30
 10
1017.403555280627
 20
-181.2690103013887
 30
0.0
 40
55.0
  1
234
 50
90.0
 41
0.9
 72
     1
 11
1017.403555280627
 21
-116.44758172996021
 31
0.0
  0
POINT
  5
126
  8
DEFPOINTS
  6
CONTINUOUS
 62
     7
 10
602.0
 20
-0.0000000000018154
 30
0.0
  0
POINT
  5
127
  8
DEFPOINTS
  6
CONTINUOUS
 62
     7
 10
576.2499936571686
 20
-234.0
 30
0.0
  0
POINT
  5
128
  8
DEFPOINTS
  6
CONTINUOUS
 62
     7
 10
1035.4035552806631
 20
-234.00000000000011
 30
0.0
  0
LINE
  5
129
  8
SIZE
  6
CONTINUOUS
 62
    30
 10
596.24999365716849
 20
-234.0
 30
0.0
 11
1055.4035552806631
 21
-234.00000000000011
 31
0.0
  0
LINE
  5
12A
  8
SIZE
  6
CONTINUOUS
 62
    30
 10
596.2499936572741
 20
-509.99999999976768
 30
0.0
 11
1055.4035552807679
 21
-509.99999999976768
 31
0.0
  0
LINE
  5
12B
  8
SIZE
  6
CONTINUOUS
 62
    30
 10
1035.403555280627
 20
-234.00000000000011
 30
0.0
 11
1035.4035552807679
 21
-509.99999999976768
 31
0.0
  0
CIRCLE
  5
12C
  8
SIZE
  6
CONTINUOUS
 62
    30
 10
1035.4035552806631
 20
-234.00000000000011
 30
0.0
 40
7.5
  0
CIRCLE
  5
12D
  8
SIZE
  6
CONTINUOUS
 62
    30
 10
1035.4035552807679
 20
-509.99999999976768
 30
0.0
 40
7.5
  0
TEXT
  5
12E
  8
SIZE
  6
CONTINUOUS
 62
    30
 10
1017.403555280627
 20
-441.20088635209959
 30
0.0
 40
55.0
  1
276
 50
90.0
 41
0.9
 72
     1
 11
1017.403555280627
 21
-378.73660063781392
 31
0.0
  0
POINT
  5
12F
  8
DEFPOINTS
  6
CONTINUOUS
 62
     7
 10
576.2499936571686
 20
-234.0
 30
0.0
  0
POINT
  5
130
  8
DEFPOINTS
  6
CONTINUOUS
 62
     7
 10
576.24999365727444
 20
-509.99999999976768
 30
0.0
  0
POINT
  5
131
  8
DEFPOINTS
  6
CONTINUOUS
 62
     7
 10
1035.4035552807679
 20
-509.99999999976768
 30
0.0
  0
LINE
  5
132
  8
SIZE
  6
CONTINUOUS
 62
    30
 10
622.0
 20
-0.0000000000018211
 30
0.0
 11
930.46876499813163
 21
-0.0000000000019085
 31
0.0
  0
LINE
  5
133
  8
SIZE
  6
CONTINUOUS
 62
    30
 10
506.24999365710647
 20
-304.00000000015177
 30
0.0
 11
930.46876499810526
 21
-304.00000000015177
 31
0.0
  0
LINE
  5
134
  8
SIZE
  6
CONTINUOUS
 62
    30
 10
910.46876499813152
 20
-0.0000000000019028
 30
0.0
 11
910.46876499813129
 21
-304.00000000015177
 31
0.0
  0
CIRCLE
  5
135
  8
SIZE
  6
CONTINUOUS
 62
    30
 10
910.46876499813152
 20
-0.0000000000019028
 30
0.0
 40
7.5
  0
CIRCLE
  5
136
  8
SIZE
  6
CONTINUOUS
 62
    30
 10
910.46876499810537
 20
-304.00000000015177
 30
0.0
 40
7.5
  0
TEXT
  5
137
  8
SIZE
  6
CONTINUOUS
 62
    30
 10
892.46876499813152
 20
-213.68301330220959
 30
0.0
 40
55.0
  1
304
 50
90.0
 41
0.9
 72
     1
 11
892.46876499813152
 21
-148.861584730781
 31
0.0
  0
POINT
  5
138
  8
DEFPOINTS
  6
CONTINUOUS
 62
     7
 10
602.0
 20
-0.0000000000018154
 30
0.0
  0
POINT
  5
139
  8
DEFPOINTS
  6
CONTINUOUS
 62
     7
 10
486.2499936571067
 20
-304.00000000015177
 30
0.0
  0
POINT
  5
13A
  8
DEFPOINTS
  6
CONTINUOUS
 62
     7
 10
910.46876499810537
 20
-304.00000000015177
 30
0.0
  0
LINE
  5
13B
  8
SIZE
  6
CONTINUOUS
 62
    30
 10
622.0
 20
-0.0000000000018211
 30
0.0
 11
1182.1489877386739
 21
-0.0000000000019798
 31
0.0
  0
LINE
  5
13C
  8
SIZE
  6
CONTINUOUS
 62
    30
 10
622.0
 20
-552.0
 30
0.0
 11
1182.1489877386739
 21
-552.00000000000045
 31
0.0
  0
LINE
  5
13D
  8
SIZE
  6
CONTINUOUS
 62
    30
 10
1162.1489877386739
 20
-0.0000000000019741
 30
0.0
 11
1162.1489877386739
 21
-552.00000000000045
 31
0.0
  0
CIRCLE
  5
13E
  8
SIZE
  6
CONTINUOUS
 62
    30
 10
1162.1489877386739
 20
-0.0000000000019741
 30
0.0
 40
7.5
  0
CIRCLE
  5
13F
  8
SIZE
  6
CONTINUOUS
 62
    30
 10
1162.1489877386739
 20
-552.00000000000045
 30
0.0
 40
7.5
  0
TEXT
  5
140
  8
SIZE
  6
CONTINUOUS
 62
    30
 10
1144.1489877386739
 20
-349.64285714285899
 30
0.0
 40
55.0
  1
552
 50
90.0
 41
0.9
 72
     1
 11
1144.1489877386739
 21
-286.00000000000182
 31
0.0
  0
POINT
  5
141
  8
DEFPOINTS
  6
CONTINUOUS
 62
     7
 10
602.0
 20
-0.0000000000018154
 30
0.0
  0
POINT
  5
142
  8
DEFPOINTS
  6
CONTINUOUS
 62
     7
 10
602.0
 20
-552.0
 30
0.0
  0
POINT
  5
143
  8
DEFPOINTS
  6
CONTINUOUS
 62
     7
 10
1162.1489877386739
 20
-552.00000000000045
 30
0.0
  0
LINE
  5
144
  8
SIZE
  6
CONTINUOUS
 62
    30
 10
-622.0
 20
-0.0000000000018098
 30
0.0
 11
-753.20813971583254
 21
-0.0000000000017726
 31
0.0
  0
LINE
  5
145
  8
SIZE
  6
CONTINUOUS
 62
    30
 10
-622.0
 20
-10.00000000008639
 30
0.0
 11
-753.20813971583254
 21
-10.00000000008634
 31
0.0
  0
LINE
  5
146
  8
SIZE
  6
CONTINUOUS
 62
    30
 10
-733.20813971583254
 20
-10.00000000008634
 30
0.0
 11
-733.20813971583254
 21
-40.000000000086352
 31
0.0
  0
LINE
  5
147
  8
SIZE
  6
CONTINUOUS
 62
    30
 10
-733.20813971583254
 20
-0.0000000000017783
 30
0.0
 11
-733.20813971583254
 21
166.7142857142839
 31
0.0
  0
LINE
  5
148
  8
SIZE
  6
CONTINUOUS
 62
    30
 10
-733.20813971583254
 20
-10.00000000008634
 30
0.0
 11
-733.20813971583254
 21
-0.0000000000017783
 31
0.0
  0
CIRCLE
  5
149
  8
SIZE
  6
CONTINUOUS
 62
    30
 10
-733.20813971583254
 20
-10.00000000008634
 30
0.0
 40
7.5
  0
CIRCLE
  5
14A
  8
SIZE
  6
CONTINUOUS
 62
    30
 10
-733.20813971583254
 20
-0.0000000000017783
 30
0.0
 40
7.5
  0
TEXT
  5
14B
  8
SIZE
  6
CONTINUOUS
 62
    30
 10
-751.20813971583254
 20
77.999999999998153
 30
0.0
 40
55.0
  1
10
 50
90.0
 41
0.9
 72
     1
 11
-751.20813971583254
 21
113.357142857141
 31
0.0
  0
POINT
  5
14C
  8
DEFPOINTS
  6
CONTINUOUS
 62
     7
 10
-602.0
 20
-0.0000000000018154
 30
0.0
  0
POINT
  5
14D
  8
DEFPOINTS
  6
CONTINUOUS
 62
     7
 10
-602.0
 20
-10.00000000008639
 30
0.0
  0
POINT
  5
14E
  8
DEFPOINTS
  6
CONTINUOUS
 62
     7
 10
-733.20813971583254
 20
-10.00000000008634
 30
0.0
  0
LINE
  5
14F
  8
SIZE
  6
CONTINUOUS
 62
    30
 10
-622.0
 20
-10.000000000086381
 30
0.0
 11
-753.20813971583254
 21
-10.00000000008634
 31
0.0
  0
LINE
  5
150
  8
SIZE
  6
CONTINUOUS
 62
    30
 10
-592.0
 20
-52.000000000086402
 30
0.0
 11
-753.20813971583254
 21
-52.000000000086352
 31
0.0
  0
LINE
  5
151
  8
SIZE
  6
CONTINUOUS
 62
    30
 10
-733.20813971583254
 20
-10.00000000008635
 30
0.0
 11
-733.20813971583254
 21
-52.000000000086352
 31
0.0
  0
LINE
  5
152
  8
SIZE
  6
CONTINUOUS
 62
    30
 10
-733.20813971583254
 20
-31.000000000086349
 30
0.0
 11
-847.87588916002642
 21
-50.99542646620452
 31
0.0
  0
LINE
  5
153
  8
SIZE
  6
CONTINUOUS
 62
    30
 10
-847.87588916002642
 20
-50.99542646620452
 30
0.0
 11
-847.87588916002642
 21
-167.1382836090614
 31
0.0
  0
TEXT
  5
154
  8
SIZE
  6
CONTINUOUS
 62
    30
 10
-865.87588916002642
 20
-149.1382836090618
 30
0.0
 40
55.0
  1
42
 50
90.0
 41
0.9
 72
     1
 11
-865.87588916002642
 21
-109.0668550376332
 31
0.0
  0
CIRCLE
  5
155
  8
SIZE
  6
CONTINUOUS
 62
    30
 10
-733.20813971583254
 20
-10.00000000008635
 30
0.0
 40
7.5
  0
CIRCLE
  5
156
  8
SIZE
  6
CONTINUOUS
 62
    30
 10
-733.20813971583254
 20
-52.000000000086352
 30
0.0
 40
7.5
  0
POINT
  5
157
  8
DEFPOINTS
  6
CONTINUOUS
 62
     7
 10
-602.0
 20
-10.00000000008639
 30
0.0
  0
POINT
  5
158
  8
DEFPOINTS
  6
CONTINUOUS
 62
     7
 10
-572.0
 20
-52.000000000086402
 30
0.0
  0
POINT
  5
159
  8
DEFPOINTS
  6
CONTINUOUS
 62
     7
 10
-733.20813971583254
 20
-52.000000000086352
 30
0.0
  0
LINE
  5
15A
  8
SIZE
  6
CONTINUOUS
 62
    30
 10
-592.0
 20
-52.000000000086402
 30
0.0
 11
-753.20813971583254
 21
-52.000000000086352
 31
0.0
  0
LINE
  5
15B
  8
SIZE
  6
CONTINUOUS
 62
    30
 10
-602.24999365713302
 20
-216.99999999999989
 30
0.0
 11
-753.20813971583254
 21
-216.99999999999989
 31
0.0
  0
LINE
  5
15C
  8
SIZE
  6
CONTINUOUS
 62
    30
 10
-733.20813971583254
 20
-52.000000000086352
 30
0.0
 11
-733.20813971583254
 21
-216.99999999999989
 31
0.0
  0
CIRCLE
  5
15D
  8
SIZE
  6
CONTINUOUS
 62
    30
 10
-733.20813971583254
 20
-52.000000000086352
 30
0.0
 40
7.5
  0
CIRCLE
  5
15E
  8
SIZE
  6
CONTINUOUS
 62
    30
 10
-733.20813971583254
 20
-216.99999999999989
 30
0.0
 40
7.5
  0
TEXT
  5
15F
  8
SIZE
  6
CONTINUOUS
 62
    30
 10
-751.20813971583254
 20
-196.51692332158089
 30
0.0
 40
55.0
  1
165
 50
90.0
 41
0.9
 72
     1
 11
-751.20813971583254
 21
-137.5883518930095
 31
0.0
  0
POINT
  5
160
  8
DEFPOINTS
  6
CONTINUOUS
 62
     7
 10
-572.0
 20
-52.000000000086402
 30
0.0
  0
POINT
  5
161
  8
DEFPOINTS
  6
CONTINUOUS
 62
     7
 10
-582.24999365713302
 20
-216.99999999999989
 30
0.0
  0
POINT
  5
162
  8
DEFPOINTS
  6
CONTINUOUS
 62
     7
 10
-733.20813971583254
 20
-216.99999999999989
 30
0.0
  0
LINE
  5
163
  8
SIZE
  6
CONTINUOUS
 62
    30
 10
-602.24999365713302
 20
-216.99999999999989
 30
0.0
 11
-753.20813971583254
 21
-216.99999999999989
 31
0.0
  0
LINE
  5
164
  8
SIZE
  6
CONTINUOUS
 62
    30
 10
-592.0
 20
-259.0
 30
0.0
 11
-753.20813971583254
 21
-259.0
 31
0.0
  0
LINE
  5
165
  8
SIZE
  6
CONTINUOUS
 62
    30
 10
-733.20813971583254
 20
-216.99999999999989
 30
0.0
 11
-733.20813971583254
 21
-259.0
 31
0.0
  0
LINE
  5
166
  8
SIZE
  6
CONTINUOUS
 62
    30
 10
-733.20813971583254
 20
-415.49761021345108
 30
0.0
 11
-733.20813971583254
 21
-259.0
 31
0.0
  0
TEXT
  5
167
  8
SIZE
  6
CONTINUOUS
 62
    30
 10
-751.20813971583254
 20
-397.49761021345148
 30
0.0
 40
55.0
  1
42
 50
90.0
 41
0.9
 72
     1
 11
-751.20813971583254
 21
-357.42618164202293
 31
0.0
  0
CIRCLE
  5
168
  8
SIZE
  6
CONTINUOUS
 62
    30
 10
-733.20813971583254
 20
-216.99999999999989
 30
0.0
 40
7.5
  0
CIRCLE
  5
169
  8
SIZE
  6
CONTINUOUS
 62
    30
 10
-733.20813971583254
 20
-259.0
 30
0.0
 40
7.5
  0
POINT
  5
16A
  8
DEFPOINTS
  6
CONTINUOUS
 62
     7
 10
-582.24999365713302
 20
-216.99999999999989
 30
0.0
  0
POINT
  5
16B
  8
DEFPOINTS
  6
CONTINUOUS
 62
     7
 10
-572.0
 20
-259.0
 30
0.0
  0
POINT
  5
16C
  8
DEFPOINTS
  6
CONTINUOUS
 62
     7
 10
-733.20813971583254
 20
-259.0
 30
0.0
  0
LINE
  5
16D
  8
SIZE
  6
CONTINUOUS
 62
    30
 10
-622.0
 20
-10.00000000008639
 30
0.0
 11
-645.33605566168251
 21
-10.000000000086381
 31
0.0
  0
LINE
  5
16E
  8
SIZE
  6
CONTINUOUS
 62
    30
 10
-592.0
 20
-259.0
 30
0.0
 11
-645.33605566168251
 21
-259.0
 31
0.0
  0
LINE
  5
16F
  8
SIZE
  6
CONTINUOUS
 62
    30
 10
-625.33605566168251
 20
-10.00000000008639
 30
0.0
 11
-625.33605566168251
 21
-259.0
 31
0.0
  0
CIRCLE
  5
170
  8
SIZE
  6
CONTINUOUS
 62
    30
 10
-625.33605566168251
 20
-10.00000000008639
 30
0.0
 40
7.5
  0
CIRCLE
  5
171
  8
SIZE
  6
CONTINUOUS
 62
    30
 10
-625.33605566168251
 20
-259.0
 30
0.0
 40
7.5
  0
TEXT
  5
172
  8
SIZE
  6
CONTINUOUS
 62
    30
 10
-643.33605566168251
 20
-197.91595885688631
 30
0.0
 40
55.0
  1
249
 50
90.0
 41
0.9
 72
     1
 11
-643.33605566168251
 21
-135.45167314260061
 31
0.0
  0
POINT
  5
173
  8
DEFPOINTS
  6
CONTINUOUS
 62
     7
 10
-602.0
 20
-10.00000000008639
 30
0.0
  0
POINT
  5
174
  8
DEFPOINTS
  6
CONTINUOUS
 62
     7
 10
-572.0
 20
-259.0
 30
0.0
  0
POINT
  5
175
  8
DEFPOINTS
  6
CONTINUOUS
 62
     7
 10
-625.33605566168251
 20
-259.0
 30
0.0
  0
LINE
  5
176
  8
SIZE
  6
CONTINUOUS
 62
    30
 10
-649.0
 20
-544.0
 30
0.0
 11
-649.0
 21
-960.54208618544192
 31
0.0
  0
LINE
  5
177
  8
SIZE
  6
CONTINUOUS
 62
    30
 10
649.0
 20
-544.0
 30
0.0
 11
649.0
 21
-960.54208618544192
 31
0.0
  0
LINE
  5
178
  8
SIZE
  6
CONTINUOUS
 62
    30
 10
-649.0
 20
-940.54208618544203
 30
0.0
 11
649.0
 21
-940.54208618544203
 31
0.0
  0
CIRCLE
  5
179
  8
SIZE
  6
CONTINUOUS
 62
    30
 10
-649.0
 20
-940.54208618544203
 30
0.0
 40
7.5
  0
CIRCLE
  5
17A
  8
SIZE
  6
CONTINUOUS
 62
    30
 10
649.0
 20
-940.54208618544203
 30
0.0
 40
7.5
  0
TEXT
  5
17B
  8
SIZE
  6
CONTINUOUS
 62
    30
 10
-82.499999999999986
 20
-922.54208618544158
 30
0.0
 40
55.0
  1
1298
 41
0.9
 72
     1
 11
0.0
 21
-922.54208618544158
 31
0.0
  0
POINT
  5
17C
  8
DEFPOINTS
  6
CONTINUOUS
 62
     7
 10
-649.0
 20
-524.00000000000045
 30
0.0
  0
POINT
  5
17D
  8
DEFPOINTS
  6
CONTINUOUS
 62
     7
 10
649.0
 20
-524.00000000000045
 30
0.0
  0
POINT
  5
17E
  8
DEFPOINTS
  6
CONTINUOUS
 62
     7
 10
649.0
 20
-940.54208618544203
 30
0.0
  0
LINE
  5
17F
  8
SIZE
  6
CONTINUOUS
 62
    30
 10
-630.0
 20
-557.71665212396363
 30
0.0
 11
-630.0
 21
-857.21149551212545
 31
0.0
  0
LINE
  5
180
  8
SIZE
  6
CONTINUOUS
 62
    30
 10
630.0
 20
-557.71665212396363
 30
0.0
 11
630.0
 21
-857.21149551212545
 31
0.0
  0
LINE
  5
181
  8
SIZE
  6
CONTINUOUS
 62
    30
 10
-630.0
 20
-837.21149551212557
 30
0.0
 11
630.0
 21
-837.21149551212557
 31
0.0
  0
CIRCLE
  5
182
  8
SIZE
  6
CONTINUOUS
 62
    30
 10
-630.0
 20
-837.21149551212557
 30
0.0
 40
7.5
  0
CIRCLE
  5
183
  8
SIZE
  6
CONTINUOUS
 62
    30
 10
630.0
 20
-837.21149551212557
 30
0.0
 40
7.5
  0
TEXT
  5
184
  8
SIZE
  6
CONTINUOUS
 62
    30
 10
-246.32142857142861
 20
-819.21149551212545
 30
0.0
 40
55.0
  1
1260 吊下げ寸法
 41
0.9
 72
     1
 11
0.0
 21
-819.21149551212545
 31
0.0
  0
POINT
  5
185
  8
DEFPOINTS
  6
CONTINUOUS
 62
     7
 10
-630.0
 20
-537.71665212396363
 30
0.0
  0
POINT
  5
186
  8
DEFPOINTS
  6
CONTINUOUS
 62
     7
 10
630.0
 20
-537.71665212396363
 30
0.0
  0
POINT
  5
187
  8
DEFPOINTS
  6
CONTINUOUS
 62
     7
 10
630.0
 20
-837.21149551212557
 30
0.0
  0
LINE
  5
188
  8
SIZE
  6
CONTINUOUS
 62
    30
 10
-572.00000000000011
 20
9.9999999999136033
 30
0.0
 11
-572.00000000000011
 21
129.78227341427001
 31
0.0
  0
LINE
  5
189
  8
SIZE
  6
CONTINUOUS
 62
    30
 10
-526.0
 20
19.999999999998181
 30
0.0
 11
-526.0
 21
129.78227341427001
 31
0.0
  0
LINE
  5
18A
  8
SIZE
  6
CONTINUOUS
 62
    30
 10
-526.0
 20
109.78227341426999
 30
0.0
 11
-572.00000000000011
 21
109.78227341426999
 31
0.0
  0
LINE
  5
18B
  8
SIZE
  6
CONTINUOUS
 62
    30
 10
-572.00000000000011
 20
109.78227341426999
 30
0.0
 11
-715.78571428571445
 21
109.78227341426999
 31
0.0
  0
CIRCLE
  5
18C
  8
SIZE
  6
CONTINUOUS
 62
    30
 10
-526.0
 20
109.78227341426999
 30
0.0
 40
7.5
  0
CIRCLE
  5
18D
  8
SIZE
  6
CONTINUOUS
 62
    30
 10
-572.00000000000011
 20
109.78227341426999
 30
0.0
 40
7.5
  0
TEXT
  5
18E
  8
SIZE
  6
CONTINUOUS
 62
    30
 10
-697.78571428571445
 20
127.78227341427009
 30
0.0
 40
55.0
  1
46
 41
0.9
 72
     1
 11
-658.89285714285734
 21
127.78227341427009
 31
0.0
  0
POINT
  5
18F
  8
DEFPOINTS
  6
CONTINUOUS
 62
     7
 10
-572.00000000000011
 20
-10.00000000008639
 30
0.0
  0
POINT
  5
190
  8
DEFPOINTS
  6
CONTINUOUS
 62
     7
 10
-526.0
 20
-0.0000000000018154
 30
0.0
  0
POINT
  5
191
  8
DEFPOINTS
  6
CONTINUOUS
 62
     7
 10
-526.0
 20
109.78227341426999
 30
0.0
  0
LINE
  5
192
  8
SIZE
  6
CONTINUOUS
 62
    30
 10
-526.0
 20
19.999999999998181
 30
0.0
 11
-526.0
 21
129.78227341427001
 31
0.0
  0
LINE
  5
193
  8
SIZE
  6
CONTINUOUS
 62
    30
 10
393.99999999999977
 20
19.999999999998181
 30
0.0
 11
393.99999999999977
 21
129.78227341427001
 31
0.0
  0
LINE
  5
194
  8
SIZE
  6
CONTINUOUS
 62
    30
 10
-526.0
 20
109.78227341426999
 30
0.0
 11
393.99999999999977
 21
109.78227341426999
 31
0.0
  0
CIRCLE
  5
195
  8
SIZE
  6
CONTINUOUS
 62
    30
 10
-526.0
 20
109.78227341426999
 30
0.0
 40
7.5
  0
CIRCLE
  5
196
  8
SIZE
  6
CONTINUOUS
 62
    30
 10
393.99999999999977
 20
109.78227341426999
 30
0.0
 40
7.5
  0
TEXT
  5
197
  8
SIZE
  6
CONTINUOUS
 62
    30
 10
-284.2714285714286
 20
127.78227341427009
 30
0.0
 40
55.0
  1
4×230=920
 41
0.9
 72
     1
 11
-66.000000000000099
 21
127.78227341427009
 31
0.0
  0
POINT
  5
198
  8
DEFPOINTS
  6
CONTINUOUS
 62
     7
 10
-526.0
 20
-0.0000000000018154
 30
0.0
  0
POINT
  5
199
  8
DEFPOINTS
  6
CONTINUOUS
 62
     7
 10
393.99999999999977
 20
-0.0000000000018154
 30
0.0
  0
POINT
  5
19A
  8
DEFPOINTS
  6
CONTINUOUS
 62
     7
 10
393.99999999999977
 20
109.78227341426999
 30
0.0
  0
LINE
  5
19B
  8
SIZE
  6
CONTINUOUS
 62
    30
 10
-572.00000000000011
 20
9.9999999999136033
 30
0.0
 11
-572.00000000000011
 21
269.68916215504743
 31
0.0
  0
LINE
  5
19C
  8
SIZE
  6
CONTINUOUS
 62
    30
 10
440.0
 20
9.9999999999136033
 30
0.0
 11
440.0
 21
269.68916215504743
 31
0.0
  0
LINE
  5
19D
  8
SIZE
  6
CONTINUOUS
 62
    30
 10
-572.00000000000011
 20
249.6891621550476
 30
0.0
 11
440.0
 21
249.6891621550476
 31
0.0
  0
CIRCLE
  5
19E
  8
SIZE
  6
CONTINUOUS
 62
    30
 10
-572.00000000000011
 20
249.6891621550476
 30
0.0
 40
7.5
  0
CIRCLE
  5
19F
  8
SIZE
  6
CONTINUOUS
 62
    30
 10
440.0
 20
249.6891621550476
 30
0.0
 40
7.5
  0
TEXT
  5
1A0
  8
SIZE
  6
CONTINUOUS
 62
    30
 10
-143.78571428571431
 20
267.6891621550476
 30
0.0
 40
55.0
  1
1012
 41
0.9
 72
     1
 11
-66.000000000000043
 21
267.6891621550476
 31
0.0
  0
POINT
  5
1A1
  8
DEFPOINTS
  6
CONTINUOUS
 62
     7
 10
-572.00000000000011
 20
-10.00000000008639
 30
0.0
  0
POINT
  5
1A2
  8
DEFPOINTS
  6
CONTINUOUS
 62
     7
 10
440.0
 20
-10.00000000008639
 30
0.0
  0
POINT
  5
1A3
  8
DEFPOINTS
  6
CONTINUOUS
 62
     7
 10
440.0
 20
249.6891621550476
 30
0.0
  0
LINE
  5
1A4
  8
SIZE
  6
CONTINUOUS
 62
    30
 10
476.0
 20
-401.24999365721698
 30
0.0
 11
476.0
 21
-703.05333609049444
 31
0.0
  0
LINE
  5
1A5
  8
SIZE
  6
CONTINUOUS
 62
    30
 10
566.0
 20
-257.84835911121269
 30
0.0
 11
566.0
 21
-703.05333609049444
 31
0.0
  0
LINE
  5
1A6
  8
SIZE
  6
CONTINUOUS
 62
    30
 10
476.0
 20
-683.0533360904941
 30
0.0
 11
566.0
 21
-683.0533360904941
 31
0.0
  0
CIRCLE
  5
1A7
  8
SIZE
  6
CONTINUOUS
 62
    30
 10
476.0
 20
-683.0533360904941
 30
0.0
 40
7.5
  0
CIRCLE
  5
1A8
  8
SIZE
  6
CONTINUOUS
 62
    30
 10
566.0
 20
-683.0533360904941
 30
0.0
 40
7.5
  0
TEXT
  5
1A9
  8
SIZE
  6
CONTINUOUS
 62
    30
 10
480.92857142857139
 20
-665.05333609049444
 30
0.0
 40
55.0
  1
90
 41
0.9
 72
     1
 11
521.0
 21
-665.05333609049444
 31
0.0
  0
POINT
  5
1AA
  8
DEFPOINTS
  6
CONTINUOUS
 62
     7
 10
475.99999999997391
 20
-314.24999365736852
 30
0.0
  0
POINT
  5
1AB
  8
DEFPOINTS
  6
CONTINUOUS
 62
     7
 10
566.00000000003604
 20
-244.24999365721669
 30
0.0
  0
POINT
  5
1AC
  8
DEFPOINTS
  6
CONTINUOUS
 62
     7
 10
566.0
 20
-683.0533360904941
 30
0.0
  0
LINE
  5
1AD
  8
SIZE
  6
CONTINUOUS
 62
    30
 10
566.0
 20
-257.84835911121269
 30
0.0
 11
566.0
 21
-703.05333609049376
 31
0.0
  0
LINE
  5
1AE
  8
SIZE
  6
CONTINUOUS
 62
    30
 10
602.0
 20
-572.00000000000011
 30
0.0
 11
602.0
 21
-703.05333609049376
 31
0.0
  0
LINE
  5
1AF
  8
SIZE
  6
CONTINUOUS
 62
    30
 10
566.0
 20
-683.0533360904941
 30
0.0
 11
602.0
 21
-683.0533360904941
 31
0.0
  0
LINE
  5
1B0
  8
SIZE
  6
CONTINUOUS
 62
    30
 10
584.0
 20
-683.0533360904941
 30
0.0
 11
532.49508670289276
 21
-807.46481358926439
 31
0.0
  0
LINE
  5
1B1
  8
SIZE
  6
CONTINUOUS
 62
    30
 10
532.49508670289276
 20
-807.46481358926439
 30
0.0
 11
418.7093724171786
 21
-807.46481358926439
 31
0.0
  0
TEXT
  5
1B2
  8
SIZE
  6
CONTINUOUS
 62
    30
 10
436.70937241717871
 20
-789.46481358926428
 30
0.0
 40
55.0
  1
36
 41
0.9
 72
     1
 11
475.60222956003582
 21
-789.46481358926428
 31
0.0
  0
CIRCLE
  5
1B3
  8
SIZE
  6
CONTINUOUS
 62
    30
 10
566.0
 20
-683.0533360904941
 30
0.0
 40
7.5
  0
CIRCLE
  5
1B4
  8
SIZE
  6
CONTINUOUS
 62
    30
 10
602.0
 20
-683.0533360904941
 30
0.0
 40
7.5
  0
POINT
  5
1B5
  8
DEFPOINTS
  6
CONTINUOUS
 62
     7
 10
566.00000000003604
 20
-244.24999365721669
 30
0.0
  0
POINT
  5
1B6
  8
DEFPOINTS
  6
CONTINUOUS
 62
     7
 10
602.0
 20
-552.0
 30
0.0
  0
POINT
  5
1B7
  8
DEFPOINTS
  6
CONTINUOUS
 62
     7
 10
602.0
 20
-683.0533360904941
 30
0.0
  0
TEXT
  5
1B8
  8
NOTE
  6
CONTINUOUS
 62
     4
 10
640.2592842457226
 20
-408.32700640915118
 30
0.0
 40
60.0
  1
D R1
 50
359.99999749558327
 41
0.7
  7
STANDARD1
  0
LINE
  5
1B9
  8
NOTE
  6
CONTINUOUS
 62
     4
 10
627.26105661910049
 20
-426.46052033862247
 30
0.0
 11
776.44160951772415
 21
-426.46052033862281
 31
0.0
  0
TEXT
  5
1BA
  8
NOTE
  6
CONTINUOUS
 62
     4
 10
809.84600584023542
 20
78.700445010712428
 30
0.0
 40
60.0
  1
CDR R1
 41
0.8
  0
LINE
  5
1BB
  8
NOTE
  6
CONTINUOUS
 62
     4
 10
1175.7316019166769
 20
65.602462371385613
 30
0.0
 11
786.1389654376901
 21
65.602462371385613
 31
0.0
  0
TEXT
  5
1BC
  8
NOTE
  6
CONTINUOUS
 62
     4
 10
1067.875628911376
 20
102.1074543999019
 30
0.0
 40
44.79999999999999
  1
1
 41
0.9
  0
TEXT
  5
1BD
  8
NOTE
  6
CONTINUOUS
 62
     4
 10
1081.6562848372671
 20
87.605459357328073
 30
0.0
 40
44.79999999999999
  1
/
 41
0.9
  0
TEXT
  5
1BE
  8
NOTE
  6
CONTINUOUS
 62
     4
 10
1104.206262414122
 20
72.578817840170785
 30
0.0
 40
44.79999999999999
  1
4
 41
0.9
  0
TEXT
  5
1BF
  8
NOTE
  6
CONTINUOUS
 62
     4
 10
754.1848977794416
 20
-806.98997356281325
 30
0.0
 40
60.0
  1
CD R1
 41
0.8
  0
LINE
  5
1C0
  8
NOTE
  6
CONTINUOUS
 62
     4
 10
1049.640913525418
 20
-820.08795620214005
 30
0.0
 11
730.47785737689605
 21
-820.08795620214005
 31
0.0
  0
TEXT
  5
1C1
  8
NOTE
  6
CONTINUOUS
 62
     4
 10
967.73187252576793
 20
-783.58296417362362
 30
0.0
 40
44.79999999999999
  1
1
 41
0.9
  0
TEXT
  5
1C2
  8
NOTE
  6
CONTINUOUS
 62
     4
 10
981.51252845166005
 20
-798.08495921619738
 30
0.0
 40
44.79999999999999
  1
/
 41
0.9
  0
TEXT
  5
1C3
  8
NOTE
  6
CONTINUOUS
 62
     4
 10
1004.062506028515
 20
-813.11160073335475
 30
0.0
 40
44.79999999999999
  1
4
 41
0.9
  0
LINE
  5
1C4
  8
NOTE
  6
CONTINUOUS
 62
     4
 10
-629.99999999991735
 20
-520.99999999981321
 30
0.0
 11
-625.52082562782653
 21
-555.0923256308871
 31
0.0
  0
LINE
  5
1C5
  8
NOTE
  6
CONTINUOUS
 62
     4
 10
-629.99999999991735
 20
-520.99999999981321
 30
0.0
 11
-609.07475799264671
 21
-548.28523257947165
 31
0.0
  0
LINE
  5
1C6
  8
NOTE
  6
CONTINUOUS
 62
     4
 10
-549.22092563742228
 20
-710.2830260913455
 30
0.0
 11
-629.99999999997908
 21
-520.99999999987165
 31
0.0
  0
LINE
  5
1C7
  8
SIZE
  6
CONTINUOUS
 62
    30
 10
-602.0
 20
19.999999999998181
 30
0.0
 11
-602.0
 21
408.37486601973052
 31
0.0
  0
LINE
  5
1C8
  8
SIZE
  6
CONTINUOUS
 62
    30
 10
602.0
 20
19.999999999998181
 30
0.0
 11
602.0
 21
408.37486601973052
 31
0.0
  0
LINE
  5
1C9
  8
SIZE
  6
CONTINUOUS
 62
    30
 10
-602.0
 20
388.37486601973052
 30
0.0
 11
602.0
 21
388.37486601973052
 31
0.0
  0
CIRCLE
  5
1CA
  8
SIZE
  6
CONTINUOUS
 62
    30
 10
-602.0
 20
388.37486601973052
 30
0.0
 40
7.5
  0
CIRCLE
  5
1CB
  8
SIZE
  6
CONTINUOUS
 62
    30
 10
602.0
 20
388.37486601973052
 30
0.0
 40
7.5
  0
TEXT
  5
1CC
  8
SIZE
  6
CONTINUOUS
 62
    30
 10
-216.62142857142851
 20
406.37486601973052
 30
0.0
 40
55.0
  1
1204 本体寸法
 41
0.9
 72
     1
 11
0.0
 21
406.37486601973052
 31
0.0
  0
POINT
  5
1CD
  8
DEFPOINTS
  6
CONTINUOUS
 62
     7
 10
-602.0
 20
-0.0000000000018154
 30
0.0
  0
POINT
  5
1CE
  8
DEFPOINTS
  6
CONTINUOUS
 62
     7
 10
602.0
 20
-0.0000000000018154
 30
0.0
  0
POINT
  5
1CF
  8
DEFPOINTS
  6
CONTINUOUS
 62
     7
 10
602.0
 20
388.37486601973052
 30
0.0
  0
ENDSEC
  0
EOF
