  0
SECTION
  2
HEADER
  9
$ACADVER
  1
AC1009
  9
$INSBASE
 10
0.0
 20
0.0
 30
0.0
  9
$EXTMIN
 10
-1555.838677529202
 20
-1060.3753467722629
 30
-0.0000000000000058
  9
$EXTMAX
 10
1276.4594115974101
 20
393.79977185457028
 30
0.0000000000000104
  9
$LIMMIN
 10
-4267.1522210604826
 20
-2696.0832101984129
  9
$LIMMAX
 10
7190.7174225864646
 20
5141.155363923066
  9
$ORTHOMODE
 70
     1
  9
$REGENMODE
 70
     1
  9
$FILLMODE
 70
     1
  9
$QTEXTMODE
 70
     0
  9
$MIRRTEXT
 70
     0
  9
$DRAGMODE
 70
     2
  9
$LTSCALE
 40
20.0
  9
$OSMODE
 70
   431
  9
$ATTMODE
 70
     1
  9
$TEXTSIZE
 40
64.0
  9
$TRACEWID
 40
0.05
  9
$TEXTSTYLE
  7
NOTE
  9
$CLAYER
  8
SYMBOLLINE
  9
$CELTYPE
  6
CONTINUOUS
  9
$CECOLOR
 62
     7
  9
$DIMSCALE
 40
1.0
  9
$DIMASZ
 40
30.0
  9
$DIMEXO
 40
20.0
  9
$DIMDLI
 40
80.0
  9
$DIMRND
 40
0.0
  9
$DIMDLE
 40
0.0
  9
$DIMEXE
 40
20.0
  9
$DIMTP
 40
0.0
  9
$DIMTM
 40
0.0
  9
$DIMTXT
 40
55.0
  9
$DIMCEN
 40
0.09
  9
$DIMTSZ
 40
0.0
  9
$DIMTOL
 70
     0
  9
$DIMLIM
 70
     0
  9
$DIMTIH
 70
     0
  9
$DIMTOH
 70
     0
  9
$DIMSE1
 70
     0
  9
$DIMSE2
 70
     0
  9
$DIMTAD
 70
     1
  9
$DIMZIN
 70
     8
  9
$DIMBLK
  1
SMALL
  9
$DIMASO
 70
     1
  9
$DIMSHO
 70
     0
  9
$DIMPOST
  1

  9
$DIMAPOST
  1

  9
$DIMALT
 70
     0
  9
$DIMALTD
 70
     2
  9
$DIMALTF
 40
25.399999999999999
  9
$DIMLFAC
 40
1.0
  9
$DIMTOFL
 70
     1
  9
$DIMTVP
 40
0.0
  9
$DIMTIX
 70
     0
  9
$DIMSOXD
 70
     0
  9
$DIMSAH
 70
     0
  9
$DIMBLK1
  1

  9
$DIMBLK2
  1

  9
$DIMSTYLE
  2
STANDARD
  9
$DIMCLRD
 70
     0
  9
$DIMCLRE
 70
     0
  9
$DIMCLRT
 70
     0
  9
$DIMTFAC
 40
1.0
  9
$DIMGAP
 40
0.09
  9
$LUNITS
 70
     2
  9
$LUPREC
 70
     4
  9
$SKETCHINC
 40
0.1
  9
$FILLETRAD
 40
18.0
  9
$AUNITS
 70
     1
  9
$AUPREC
 70
     3
  9
$MENU
  1
ACAD
  9
$ELEVATION
 40
0.0
  9
$PELEVATION
 40
0.0
  9
$THICKNESS
 40
0.0
  9
$LIMCHECK
 70
     0
  9
$BLIPMODE
 70
     0
  9
$CHAMFERA
 40
0.0
  9
$CHAMFERB
 40
0.0
  9
$SKPOLY
 70
     0
  9
$TDCREATE
 40
2450330.4399309959
  9
$TDUPDATE
 40
2455141.6645179279
  9
$TDINDWG
 40
3.5131490045999998
  9
$TDUSRTIMER
 40
3.5131435764000001
  9
$USRTIMER
 70
     1
  9
$ANGBASE
 50
0.0
  9
$ANGDIR
 70
     0
  9
$PDMODE
 70
     3
  9
$PDSIZE
 40
-2.0
  9
$PLINEWID
 40
0.0
  9
$COORDS
 70
     0
  9
$SPLFRAME
 70
     0
  9
$SPLINETYPE
 70
     6
  9
$SPLINESEGS
 70
     8
  9
$ATTDIA
 70
     0
  9
$ATTREQ
 70
     1
  9
$HANDLING
 70
     1
  9
$HANDSEED
  5
529
  9
$SURFTAB1
 70
     6
  9
$SURFTAB2
 70
     6
  9
$SURFTYPE
 70
     6
  9
$SURFU
 70
     6
  9
$SURFV
 70
     6
  9
$UCSNAME
  2

  9
$UCSORG
 10
0.0
 20
0.0
 30
0.0
  9
$UCSXDIR
 10
1.0
 20
0.0
 30
0.0
  9
$UCSYDIR
 10
0.0
 20
1.0
 30
0.0
  9
$PUCSNAME
  2

  9
$PUCSORG
 10
0.0
 20
0.0
 30
0.0
  9
$PUCSXDIR
 10
1.0
 20
0.0
 30
0.0
  9
$PUCSYDIR
 10
0.0
 20
1.0
 30
0.0
  9
$USERI1
 70
     0
  9
$USERI2
 70
     0
  9
$USERI3
 70
     0
  9
$USERI4
 70
     0
  9
$USERI5
 70
     0
  9
$USERR1
 40
20.0
  9
$USERR2
 40
0.0
  9
$USERR3
 40
0.0
  9
$USERR4
 40
0.0
  9
$USERR5
 40
0.0
  9
$WORLDVIEW
 70
     1
  9
$SHADEDGE
 70
     3
  9
$SHADEDIF
 70
    70
  9
$TILEMODE
 70
     1
  9
$MAXACTVP
 70
    64
  9
$PLIMCHECK
 70
     0
  9
$PEXTMIN
 10
1.0000000000000000E+020
 20
1.0000000000000000E+020
 30
1.0000000000000000E+020
  9
$PEXTMAX
 10
-1.0000000000000000E+020
 20
-1.0000000000000000E+020
 30
-1.0000000000000000E+020
  9
$PLIMMIN
 10
0.0
 20
0.0
  9
$PLIMMAX
 10
12.0
 20
9.0
  9
$UNITMODE
 70
     0
  9
$VISRETAIN
 70
     1
  9
$PLINEGEN
 70
     0
  9
$PSLTSCALE
 70
     1
  0
ENDSEC
  0
SECTION
  2
TABLES
  0
TABLE
  2
VPORT
 70
     1
  0
VPORT
  2
*ACTIVE
 70
     0
 10
0.0
 20
0.0
 11
1.0
 21
1.0
 12
1461.782600762991
 22
1222.5360768623259
 13
0.0
 23
0.0
 14
50.0
 24
50.0
 15
100.0
 25
100.0
 16
0.0
 26
0.0
 36
1.0
 17
0.0
 27
0.0
 37
0.0
 40
7896.6866543297328
 41
1.548101265822784
 42
50.0
 43
0.0
 44
0.0
 50
0.0
 51
0.0
 71
     0
 72
  1000
 73
     1
 74
     0
 75
     0
 76
     0
 77
     0
 78
     0
  0
ENDTAB
  0
TABLE
  2
LTYPE
 70
     2
  0
LTYPE
  2
CONTINUOUS
 70
     0
  3
実線
 72
    65
 73
     0
 40
0.0
  0
LTYPE
  2
DASHDOT
 70
     0
  3
____ _ ____ _ ____ _ ____ _ ____ _ ____ _ ____
 72
    65
 73
     4
 40
5.5
 49
4.0
 49
-0.6
 49
0.3
 49
-0.6
  0
ENDTAB
  0
TABLE
  2
LAYER
 70
    12
  0
LAYER
  2
0
 70
     0
 62
     7
  6
CONTINUOUS
  0
LAYER
  2
SYMBOLLINE
 70
     0
 62
    15
  6
CONTINUOUS
  0
LAYER
  2
SIZE
 70
     0
 62
    30
  6
CONTINUOUS
  0
LAYER
  2
OUTLINE
 70
     0
 62
     3
  6
CONTINUOUS
  0
LAYER
  2
DETAIL
 70
     0
 62
     5
  6
CONTINUOUS
  0
LAYER
  2
BASIS
 70
     0
 62
     6
  6
DASHDOT
  0
LAYER
  2
NOTE
 70
     0
 62
     4
  6
CONTINUOUS
  0
LAYER
  2
ARRANGE
 70
     0
 62
     1
  6
CONTINUOUS
  0
LAYER
  2
FIX
 70
     0
 62
    11
  6
CONTINUOUS
  0
LAYER
  2
SERVICESPACE
 70
     0
 62
     2
  6
DASHDOT
  0
LAYER
  2
ETC
 70
     0
 62
    61
  6
CONTINUOUS
  0
LAYER
  2
DEFPOINTS
 70
     0
 62
     7
  6
CONTINUOUS
  0
ENDTAB
  0
TABLE
  2
STYLE
 70
     4
  0
STYLE
  2
STANDARD
 70
     0
 40
0.0
 41
0.9
 50
0.0
 71
     0
 42
64.0
  3
SIMPLEX
  4
BIGFONT
  0
STYLE
  2
ANNOTATIVE
 70
     0
 40
0.0
 41
1.0
 50
0.0
 71
     0
 42
0.2
  3
txt
  4

  0
STYLE
  2
NOTE
 70
     0
 40
0.0
 41
0.7
 50
0.0
 71
     0
 42
64.0
  3
SIMPLEX.shx
  4
BIGFONT.shx
  0
STYLE
  2
STANDARD1
 70
     0
 40
0.0
 41
1.0
 50
0.0
 71
     0
 42
64.0
  3
MONOTXT
  4
BIGFONT
  0
ENDTAB
  0
TABLE
  2
VIEW
 70
     3
  0
VIEW
  2
ALL
 70
     0
 40
9000.0
 10
241.50664699999999
 20
0.0
 41
12483.01
 11
0.0
 21
0.0
 31
1.0
 12
0.0
 22
0.0
 32
0.0
 42
50.0
 43
0.0
 44
0.0
 50
0.0
 71
     0
  0
ENDTAB
  0
TABLE
  2
UCS
 70
     0
  0
ENDTAB
  0
TABLE
  2
APPID
 70
     4
  0
APPID
  2
ACAD
 70
     0
  0
APPID
  2
ACADANNOTATIVE
 70
     0
  0
APPID
  2
ACAD_MLEADERVER
 70
     0
  0
APPID
  2
ACAD_EXEMPT_FROM_CAD_STANDARDS
 70
     0
  0
ENDTAB
  0
TABLE
  2
DIMSTYLE
 70
     2
  0
DIMSTYLE
  2
STANDARD
 70
     0
  3

  4

  5

  6

  7

 40
1.0
 41
0.18
 42
0.0625
 43
0.38
 44
0.18
 45
0.0
 46
0.0
 47
0.0
 48
0.0
140
0.18
141
0.09
142
0.0
143
25.399999999999999
144
1.0
145
0.0
146
1.0
147
0.09
 71
     0
 72
     0
 73
     1
 74
     1
 75
     0
 76
     0
 77
     0
 78
     0
170
     0
171
     2
172
     0
173
     0
174
     0
175
     0
176
     0
177
     0
178
     0
  0
DIMSTYLE
  2
ANNOTATIVE
 70
     0
  3

  4

  5

  6

  7

 40
1.0
 41
0.18
 42
0.0625
 43
0.38
 44
0.18
 45
0.0
 46
0.0
 47
0.0
 48
0.0
140
0.18
141
0.09
142
0.0
143
25.399999999999999
144
1.0
145
0.0
146
1.0
147
0.09
 71
     0
 72
     0
 73
     1
 74
     1
 75
     0
 76
     0
 77
     0
 78
     0
170
     0
171
     2
172
     0
173
     0
174
     0
175
     0
176
     0
177
     0
178
     0
  0
ENDTAB
  0
ENDSEC
  0
SECTION
  2
BLOCKS
  0
BLOCK
  8
0
  2
$MODEL_SPACE
 70
     0
 10
0.0
 20
0.0
 30
0.0
  3
$MODEL_SPACE
  1

  0
ENDBLK
  5
4D9
  8
0
  0
BLOCK
 67
     1
  8
0
  2
$PAPER_SPACE
 70
     0
 10
0.0
 20
0.0
 30
0.0
  3
$PAPER_SPACE
  1

  0
ENDBLK
  5
4D5
 67
     1
  8
0
  0
BLOCK
  8
0
  2
_SMALL
 70
     0
 10
0.0
 20
0.0
 30
0.0
  3
_SMALL
  1

  0
CIRCLE
  5
8D
  8
0
  6
CONTINUOUS
 62
     7
 10
0.0
 20
0.0
 30
0.0
 40
0.25
  0
ENDBLK
  5
8E
  8
0
  0
ENDSEC
  0
SECTION
  2
ENTITIES
  0
LINE
  5
8F
  8
BASIS
  6
DASHDOT
 62
     6
 10
0.0
 20
59.658067335951273
 30
0.0
 11
0.0
 21
-610.68668763728056
 31
0.0
  0
CIRCLE
  5
90
  8
ARRANGE
  6
CONTINUOUS
 62
     1
 10
0.0
 20
0.0
 30
0.0
 40
50.0
  0
LINE
  5
91
  8
ARRANGE
  6
CONTINUOUS
 62
     1
 10
-50.037350031328963
 20
-49.522353150325202
 30
0.0
 11
50.03735003132806
 21
49.522353150325202
 31
0.0
  0
LINE
  5
92
  8
ARRANGE
  6
CONTINUOUS
 62
     1
 10
-49.963763310501221
 20
49.596594797985738
 30
0.0
 11
49.963763310500333
 21
-49.596594797982121
 31
0.0
  0
LINE
  5
93
  8
DETAIL
  6
CONTINUOUS
 62
     5
 10
-602.0
 20
0.0
 30
0.0
 11
601.99999999999875
 21
0.0
 31
0.0
  0
LINE
  5
94
  8
DETAIL
  6
CONTINUOUS
 62
     5
 10
301.0
 20
-205.0
 30
0.0
 11
1.0
 21
-205.0
 31
0.0
  0
LINE
  5
95
  8
DETAIL
  6
CONTINUOUS
 62
     5
 10
301.0
 20
-427.0
 30
0.0
 11
1.0
 21
-427.0
 31
0.0
  0
LINE
  5
96
  8
DETAIL
  6
CONTINUOUS
 62
     5
 10
-601.99999999999955
 20
-552.00000000000034
 30
0.0
 11
601.99999999999875
 21
-552.0
 31
0.0
  0
LINE
  5
97
  8
DETAIL
  6
CONTINUOUS
 62
     5
 10
-648.99999999999989
 20
-521.00000000000034
 30
0.0
 11
-648.99999999999989
 21
-524.00000000000034
 31
0.0
  0
LINE
  5
98
  8
DETAIL
  6
CONTINUOUS
 62
     5
 10
601.99999999999875
 20
-552.00000000000034
 30
0.0
 11
601.99999999999875
 21
0.0
 31
0.0
  0
LINE
  5
99
  8
DETAIL
  6
CONTINUOUS
 62
     5
 10
1.0
 20
-427.0
 30
0.0
 11
1.0
 21
-205.0
 31
0.0
  0
LINE
  5
9A
  8
DETAIL
  6
CONTINUOUS
 62
     5
 10
301.0
 20
-427.0
 30
0.0
 11
301.0
 21
-205.0
 31
0.0
  0
LINE
  5
9B
  8
DETAIL
  6
CONTINUOUS
 62
     5
 10
-601.99999999999955
 20
-552.0
 30
0.0
 11
-602.0
 21
0.0
 31
0.0
  0
LINE
  5
9C
  8
DETAIL
  6
CONTINUOUS
 62
     5
 10
-604.99999999999977
 20
-555.00000000000034
 30
0.0
 11
-604.99999999999977
 21
-524.00000000000034
 31
0.0
  0
LINE
  5
9D
  8
DETAIL
  6
CONTINUOUS
 62
     5
 10
-604.99999999999977
 20
-524.00000000000034
 30
0.0
 11
-648.99999999999989
 21
-524.00000000000034
 31
0.0
  0
LINE
  5
9E
  8
DETAIL
  6
CONTINUOUS
 62
     5
 10
-601.99999999999955
 20
-521.00000000000034
 30
0.0
 11
-648.99999999999989
 21
-521.00000000000034
 31
0.0
  0
LINE
  5
9F
  8
DETAIL
  6
CONTINUOUS
 62
     5
 10
-554.99999999999977
 20
-552.00000000000034
 30
0.0
 11
-554.99999999999977
 21
-555.00000000000034
 31
0.0
  0
LINE
  5
A0
  8
DETAIL
  6
CONTINUOUS
 62
     5
 10
-604.99999999999977
 20
-555.00000000000034
 30
0.0
 11
-554.99999999999977
 21
-555.00000000000034
 31
0.0
  0
LINE
  5
A1
  8
DETAIL
  6
CONTINUOUS
 62
     5
 10
-601.99999999999955
 20
-552.00000000000034
 30
0.0
 11
-554.99999999999977
 21
-552.00000000000034
 31
0.0
  0
LINE
  5
A2
  8
DETAIL
  6
CONTINUOUS
 62
     5
 10
-601.99999999999955
 20
-552.00000000000034
 30
0.0
 11
-554.99999999999977
 21
-552.00000000000034
 31
0.0
  0
LINE
  5
A3
  8
NOTE
  6
CONTINUOUS
 62
     4
 10
-629.99999999999977
 20
-504.28334787603688
 30
0.0
 11
-629.99999999999977
 21
-537.7166521239634
 31
0.0
  0
LINE
  5
A4
  8
NOTE
  6
CONTINUOUS
 62
     4
 10
-613.2833478760366
 20
-521.00000000000034
 30
0.0
 11
-646.71665212396283
 21
-521.00000000000034
 31
0.0
  0
CIRCLE
  5
A5
  8
FIX
  6
CONTINUOUS
 62
    11
 10
-629.99999999999977
 20
-521.00000000000034
 30
0.0
 40
12.42149793872491
  0
LINE
  5
A6
  8
DETAIL
  6
CONTINUOUS
 62
     5
 10
649.00000000000011
 20
-521.00000000000034
 30
0.0
 11
649.00000000000011
 21
-524.00000000000034
 31
0.0
  0
LINE
  5
A7
  8
DETAIL
  6
CONTINUOUS
 62
     5
 10
604.99999999999898
 20
-555.00000000000034
 30
0.0
 11
604.99999999999898
 21
-524.00000000000034
 31
0.0
  0
LINE
  5
A8
  8
DETAIL
  6
CONTINUOUS
 62
     5
 10
604.99999999999898
 20
-524.00000000000034
 30
0.0
 11
649.00000000000011
 21
-524.00000000000034
 31
0.0
  0
LINE
  5
A9
  8
DETAIL
  6
CONTINUOUS
 62
     5
 10
601.99999999999875
 20
-521.00000000000034
 30
0.0
 11
649.00000000000011
 21
-521.00000000000034
 31
0.0
  0
LINE
  5
AA
  8
DETAIL
  6
CONTINUOUS
 62
     5
 10
555.00000000000011
 20
-552.00000000000034
 30
0.0
 11
555.00000000000011
 21
-555.00000000000034
 31
0.0
  0
LINE
  5
AB
  8
DETAIL
  6
CONTINUOUS
 62
     5
 10
604.99999999999898
 20
-555.00000000000034
 30
0.0
 11
555.00000000000011
 21
-555.00000000000034
 31
0.0
  0
LINE
  5
AC
  8
DETAIL
  6
CONTINUOUS
 62
     5
 10
601.99999999999875
 20
-552.00000000000034
 30
0.0
 11
555.00000000000011
 21
-552.00000000000034
 31
0.0
  0
LINE
  5
AD
  8
DETAIL
  6
CONTINUOUS
 62
     5
 10
601.99999999999875
 20
-552.00000000000034
 30
0.0
 11
555.00000000000011
 21
-552.00000000000034
 31
0.0
  0
LINE
  5
AE
  8
NOTE
  6
CONTINUOUS
 62
     4
 10
630.00000000000011
 20
-504.28334787603688
 30
0.0
 11
630.00000000000011
 21
-537.7166521239634
 31
0.0
  0
LINE
  5
AF
  8
NOTE
  6
CONTINUOUS
 62
     4
 10
613.28334787603671
 20
-521.00000000000034
 30
0.0
 11
646.71665212396215
 21
-521.00000000000034
 31
0.0
  0
CIRCLE
  5
B0
  8
FIX
  6
CONTINUOUS
 62
    11
 10
630.00000000000011
 20
-521.00000000000034
 30
0.0
 40
12.42149793872491
  0
LINE
  5
B1
  8
DETAIL
  6
CONTINUOUS
 62
     5
 10
-601.99999999999955
 20
-515.32053327899507
 30
0.0
 11
601.99999999999875
 21
-515.32053327899496
 31
0.0
  0
LINE
  5
B2
  8
NOTE
  6
CONTINUOUS
 62
     4
 10
271.0
 20
-188.2833478760366
 30
0.0
 11
271.0
 21
-221.71665212396331
 31
0.0
  0
LINE
  5
B3
  8
NOTE
  6
CONTINUOUS
 62
     4
 10
254.28334787603669
 20
-205.0
 30
0.0
 11
287.71665212396317
 21
-205.0
 31
0.0
  0
LINE
  5
B4
  8
NOTE
  6
CONTINUOUS
 62
     4
 10
300.99999999999949
 20
-299.28334787603683
 30
0.0
 11
300.99999999999949
 21
-332.71665212396317
 31
0.0
  0
LINE
  5
B5
  8
NOTE
  6
CONTINUOUS
 62
     4
 10
284.28334787603683
 20
-316.0
 30
0.0
 11
317.71665212396232
 21
-316.0
 31
0.0
  0
LINE
  5
B6
  8
NOTE
  6
CONTINUOUS
 62
     4
 10
271.0
 20
-410.28334787603671
 30
0.0
 11
271.0
 21
-443.71665212396312
 31
0.0
  0
LINE
  5
B7
  8
NOTE
  6
CONTINUOUS
 62
     4
 10
254.28334787603669
 20
-427.0
 30
0.0
 11
287.71665212396317
 21
-427.0
 31
0.0
  0
LINE
  5
B8
  8
NOTE
  6
CONTINUOUS
 62
     4
 10
30.999999999999549
 20
-410.28334787603649
 30
0.0
 11
30.999999999999549
 21
-443.71665212396312
 31
0.0
  0
LINE
  5
B9
  8
NOTE
  6
CONTINUOUS
 62
     4
 10
14.283347876037171
 20
-426.99999999999989
 30
0.0
 11
47.716652123962831
 21
-426.99999999999989
 31
0.0
  0
LINE
  5
BA
  8
NOTE
  6
CONTINUOUS
 62
     4
 10
0.9999999999995453
 20
-299.28334787603683
 30
0.0
 11
0.9999999999995453
 21
-332.71665212396317
 31
0.0
  0
LINE
  5
BB
  8
NOTE
  6
CONTINUOUS
 62
     4
 10
-15.71665212396281
 20
-316.0
 30
0.0
 11
17.716652123962831
 21
-316.0
 31
0.0
  0
LINE
  5
BC
  8
NOTE
  6
CONTINUOUS
 62
     4
 10
31.0
 20
-188.2833478760366
 30
0.0
 11
31.0
 21
-221.71665212396331
 31
0.0
  0
LINE
  5
BD
  8
NOTE
  6
CONTINUOUS
 62
     4
 10
14.283347876037171
 20
-204.99999999999989
 30
0.0
 11
47.716652123962831
 21
-204.99999999999989
 31
0.0
  0
LINE
  5
BE
  8
OUTLINE
  6
CONTINUOUS
 62
     3
 10
-602.0
 20
0.0
 30
0.0
 11
601.99999999999875
 21
0.0
 31
0.0
  0
LINE
  5
BF
  8
OUTLINE
  6
CONTINUOUS
 62
     3
 10
601.99999999999875
 20
0.0
 30
0.0
 11
601.99999999999875
 21
-552.0
 31
0.0
  0
LINE
  5
C0
  8
OUTLINE
  6
CONTINUOUS
 62
     3
 10
601.99999999999875
 20
-552.0
 30
0.0
 11
-602.0
 21
-552.0
 31
0.0
  0
LINE
  5
C1
  8
OUTLINE
  6
CONTINUOUS
 62
     3
 10
-602.0
 20
-552.0
 30
0.0
 11
-602.0
 21
0.0
 31
0.0
  0
LINE
  5
C2
  8
DETAIL
  6
CONTINUOUS
 62
     5
 10
-602.0
 20
-10.0
 30
0.0
 11
601.99999999999875
 21
-10.0
 31
0.0
  0
LINE
  5
C3
  8
NOTE
  6
CONTINUOUS
 62
     4
 10
-566.0
 20
-223.7500063430021
 30
0.0
 11
-566.0
 21
-244.24999365726609
 31
0.0
  0
LINE
  5
C4
  8
NOTE
  6
CONTINUOUS
 62
     4
 10
-576.24999365713359
 20
-234.00000000004951
 30
0.0
 11
-555.75000634286675
 21
-234.00000000004951
 31
0.0
  0
LINE
  5
C5
  8
NOTE
  6
CONTINUOUS
 62
     4
 10
-566.00000000005002
 20
-499.75000634300881
 30
0.0
 11
-566.00000000005002
 21
-520.24999365727331
 31
0.0
  0
LINE
  5
C6
  8
NOTE
  6
CONTINUOUS
 62
     4
 10
-576.24999365718361
 20
-510.00000000005662
 30
0.0
 11
-555.75000634291655
 21
-510.00000000005662
 31
0.0
  0
LINE
  5
C7
  8
NOTE
  6
CONTINUOUS
 62
     4
 10
-566.00000000005809
 20
-234.00000000015001
 30
0.0
 11
-582.32416928639122
 21
-203.73663655353391
 31
0.0
  0
LINE
  5
C8
  8
NOTE
  6
CONTINUOUS
 62
     4
 10
-566.00000000005809
 20
-234.00000000015001
 30
0.0
 11
-595.26882728392115
 21
-215.95324352103989
 31
0.0
  0
LINE
  5
C9
  8
NOTE
  6
CONTINUOUS
 62
     4
 10
-786.13896543768988
 20
65.602462371387446
 30
0.0
 11
-566.00000000003638
 21
-234.0
 31
0.0
  0
LINE
  5
CA
  8
NOTE
  6
CONTINUOUS
 62
     4
 10
-566.0
 20
-510.00000000003052
 30
0.0
 11
-593.49962013146126
 21
-530.64268787288825
 31
0.0
  0
LINE
  5
CB
  8
NOTE
  6
CONTINUOUS
 62
     4
 10
-566.0
 20
-510.00000000003052
 30
0.0
 11
-579.49402523103163
 21
-541.62690236262745
 31
0.0
  0
LINE
  5
CC
  8
NOTE
  6
CONTINUOUS
 62
     4
 10
-841.90807013857545
 20
-887.57402069309103
 30
0.0
 11
-565.9999999999776
 21
-510.0
 31
0.0
  0
TEXT
  5
CD
  8
ETC
  6
CONTINUOUS
 62
    61
 10
593.20779596881403
 20
313.54456119624138
 30
0.0
 40
80.0
  1
MB-P100MT_3
 50
359.99999700011961
 41
0.8
  7
STANDARD1
  0
TEXT
  5
CE
  8
NOTE
  6
CONTINUOUS
 62
     4
 10
-1547.400127346368
 20
-678.40158333239992
 30
0.0
 40
60.0
  1
AH 4-18×50 (%%C16ボルト)
 50
0.0000025044165941
 41
0.7
  7
STANDARD1
  0
LINE
  5
CF
  8
NOTE
  6
CONTINUOUS
 62
     4
 10
-765.44479698787234
 20
-696.53506360492815
 30
0.0
 11
-1555.642456368023
 21
-696.53506360492815
 31
0.0
  0
LINE
  5
D0
  8
SIZE
  6
CONTINUOUS
 62
    30
 10
-622.0
 20
0.0000000000000057
 30
0.0
 11
-872.22449566450518
 21
0.0000000000000765
 31
0.0
  0
LINE
  5
D1
  8
SIZE
  6
CONTINUOUS
 62
    30
 10
-596.2499936571337
 20
-234.00000000004951
 30
0.0
 11
-872.22449566450518
 21
-234.00000000004931
 31
0.0
  0
LINE
  5
D2
  8
SIZE
  6
CONTINUOUS
 62
    30
 10
-852.2244956645053
 20
0.0000000000000709
 30
0.0
 11
-852.22449566450484
 21
-234.00000000004931
 31
0.0
  0
CIRCLE
  5
D3
  8
SIZE
  6
CONTINUOUS
 62
    30
 10
-852.2244956645053
 20
0.0000000000000709
 30
0.0
 40
7.5
  0
CIRCLE
  5
D4
  8
SIZE
  6
CONTINUOUS
 62
    30
 10
-852.2244956645053
 20
-234.00000000004931
 30
0.0
 40
7.5
  0
TEXT
  5
D5
  8
SIZE
  6
CONTINUOUS
 62
    30
 10
-870.2244956645053
 20
-178.76457761038171
 30
0.0
 40
55.0
  1
234
 50
90.0
 41
0.9
 72
     1
 11
-870.2244956645053
 21
-113.94314903895319
 31
0.0
  0
POINT
  5
D6
  8
DEFPOINTS
  6
CONTINUOUS
 62
     7
 10
-602.0
 20
0.0
 30
0.0
  0
POINT
  5
D7
  8
DEFPOINTS
  6
CONTINUOUS
 62
     7
 10
-576.24999365713359
 20
-234.00000000004951
 30
0.0
  0
POINT
  5
D8
  8
DEFPOINTS
  6
CONTINUOUS
 62
     7
 10
-852.2244956645053
 20
-234.00000000004931
 30
0.0
  0
LINE
  5
D9
  8
SIZE
  6
CONTINUOUS
 62
    30
 10
-596.2499936571337
 20
-234.00000000004951
 30
0.0
 11
-872.22449566450518
 21
-234.00000000004931
 31
0.0
  0
LINE
  5
DA
  8
SIZE
  6
CONTINUOUS
 62
    30
 10
-596.24999365718361
 20
-510.00000000005662
 30
0.0
 11
-872.22449566455532
 21
-510.0000000000561
 31
0.0
  0
LINE
  5
DB
  8
SIZE
  6
CONTINUOUS
 62
    30
 10
-852.22449566450484
 20
-234.00000000004931
 30
0.0
 11
-852.2244956645053
 21
-510.0000000000561
 31
0.0
  0
CIRCLE
  5
DC
  8
SIZE
  6
CONTINUOUS
 62
    30
 10
-852.22449566450484
 20
-234.00000000004931
 30
0.0
 40
7.5
  0
CIRCLE
  5
DD
  8
SIZE
  6
CONTINUOUS
 62
    30
 10
-852.22449566455521
 20
-510.0000000000561
 30
0.0
 40
7.5
  0
TEXT
  5
DE
  8
SIZE
  6
CONTINUOUS
 62
    30
 10
-870.22449566450473
 20
-435.35681620127428
 30
0.0
 40
55.0
  1
276
 50
90.0
 41
0.9
 72
     1
 11
-870.22449566450473
 21
-372.89253048698862
 31
0.0
  0
POINT
  5
DF
  8
DEFPOINTS
  6
CONTINUOUS
 62
     7
 10
-576.24999365713359
 20
-234.00000000004951
 30
0.0
  0
POINT
  5
E0
  8
DEFPOINTS
  6
CONTINUOUS
 62
     7
 10
-576.24999365718361
 20
-510.00000000005662
 30
0.0
  0
POINT
  5
E1
  8
DEFPOINTS
  6
CONTINUOUS
 62
     7
 10
-852.22449566455521
 20
-510.0000000000561
 30
0.0
  0
LINE
  5
E2
  8
SIZE
  6
CONTINUOUS
 62
    30
 10
-622.0
 20
0.0000000000000057
 30
0.0
 11
-999.23601882595233
 21
0.0000000000001125
 31
0.0
  0
LINE
  5
E3
  8
SIZE
  6
CONTINUOUS
 62
    30
 10
-622.0
 20
-552.00000000000034
 30
0.0
 11
-999.23601882595233
 21
-552.0
 31
0.0
  0
LINE
  5
E4
  8
SIZE
  6
CONTINUOUS
 62
    30
 10
-979.23601882595233
 20
0.0000000000001069
 30
0.0
 11
-979.23601882595233
 21
-552.00000000000011
 31
0.0
  0
CIRCLE
  5
E5
  8
SIZE
  6
CONTINUOUS
 62
    30
 10
-979.23601882595233
 20
0.0000000000001069
 30
0.0
 40
7.5
  0
CIRCLE
  5
E6
  8
SIZE
  6
CONTINUOUS
 62
    30
 10
-979.23601882595233
 20
-552.0
 30
0.0
 40
7.5
  0
TEXT
  5
E7
  8
SIZE
  6
CONTINUOUS
 62
    30
 10
-997.23601882595233
 20
-349.64285714285722
 30
0.0
 40
55.0
  1
552
 50
90.0
 41
0.9
 72
     1
 11
-997.23601882595233
 21
-286.00000000000011
 31
0.0
  0
POINT
  5
E8
  8
DEFPOINTS
  6
CONTINUOUS
 62
     7
 10
-602.0
 20
0.0
 30
0.0
  0
POINT
  5
E9
  8
DEFPOINTS
  6
CONTINUOUS
 62
     7
 10
-601.99999999999955
 20
-552.00000000000034
 30
0.0
  0
POINT
  5
EA
  8
DEFPOINTS
  6
CONTINUOUS
 62
     7
 10
-979.23601882595233
 20
-552.0
 30
0.0
  0
LINE
  5
EB
  8
SIZE
  6
CONTINUOUS
 62
    30
 10
649.00000000000011
 20
-544.00000000000034
 30
0.0
 11
649.00000000000011
 21
-1059.9602677324019
 31
0.0
  0
LINE
  5
EC
  8
SIZE
  6
CONTINUOUS
 62
    30
 10
-648.99999999999989
 20
-544.00000000000034
 30
0.0
 11
-648.99999999999989
 21
-1059.9602677324019
 31
0.0
  0
LINE
  5
ED
  8
SIZE
  6
CONTINUOUS
 62
    30
 10
649.00000000000011
 20
-1039.9602677324019
 30
0.0
 11
-648.99999999999989
 21
-1039.9602677324019
 31
0.0
  0
CIRCLE
  5
EE
  8
SIZE
  6
CONTINUOUS
 62
    30
 10
649.00000000000011
 20
-1039.9602677324019
 30
0.0
 40
7.5
  0
CIRCLE
  5
EF
  8
SIZE
  6
CONTINUOUS
 62
    30
 10
-648.99999999999989
 20
-1039.9602677324019
 30
0.0
 40
7.5
  0
TEXT
  5
F0
  8
SIZE
  6
CONTINUOUS
 62
    30
 10
-82.499999999999872
 20
-1021.960267732401
 30
0.0
 40
55.0
  1
1298
 41
0.9
 72
     1
 11
0.0000000000001137
 21
-1021.960267732401
 31
0.0
  0
POINT
  5
F1
  8
DEFPOINTS
  6
CONTINUOUS
 62
     7
 10
649.00000000000011
 20
-524.00000000000034
 30
0.0
  0
POINT
  5
F2
  8
DEFPOINTS
  6
CONTINUOUS
 62
     7
 10
-648.99999999999989
 20
-524.00000000000034
 30
0.0
  0
POINT
  5
F3
  8
DEFPOINTS
  6
CONTINUOUS
 62
     7
 10
-648.99999999999989
 20
-1039.9602677324019
 30
0.0
  0
LINE
  5
F4
  8
SIZE
  6
CONTINUOUS
 62
    30
 10
630.00000000000011
 20
-557.71665212396363
 30
0.0
 11
630.00000000000011
 21
-927.60488786547273
 31
0.0
  0
LINE
  5
F5
  8
SIZE
  6
CONTINUOUS
 62
    30
 10
-629.99999999999977
 20
-557.71665212396363
 30
0.0
 11
-629.99999999999977
 21
-927.60488786547273
 31
0.0
  0
LINE
  5
F6
  8
SIZE
  6
CONTINUOUS
 62
    30
 10
630.00000000000011
 20
-907.60488786547307
 30
0.0
 11
-629.99999999999977
 21
-907.60488786547307
 31
0.0
  0
CIRCLE
  5
F7
  8
SIZE
  6
CONTINUOUS
 62
    30
 10
630.00000000000011
 20
-907.60488786547307
 30
0.0
 40
7.5
  0
CIRCLE
  5
F8
  8
SIZE
  6
CONTINUOUS
 62
    30
 10
-629.99999999999977
 20
-907.60488786547307
 30
0.0
 40
7.5
  0
TEXT
  5
F9
  8
SIZE
  6
CONTINUOUS
 62
    30
 10
-246.3214285714285
 20
-889.60488786547285
 30
0.0
 40
55.0
  1
1260 吊下げ寸法
 41
0.9
 72
     1
 11
0.0000000000001137
 21
-889.60488786547285
 31
0.0
  0
POINT
  5
FA
  8
DEFPOINTS
  6
CONTINUOUS
 62
     7
 10
630.00000000000011
 20
-537.7166521239634
 30
0.0
  0
POINT
  5
FB
  8
DEFPOINTS
  6
CONTINUOUS
 62
     7
 10
-629.99999999999977
 20
-537.7166521239634
 30
0.0
  0
POINT
  5
FC
  8
DEFPOINTS
  6
CONTINUOUS
 62
     7
 10
-629.99999999999977
 20
-907.60488786547307
 30
0.0
  0
LINE
  5
FD
  8
SIZE
  6
CONTINUOUS
 62
    30
 10
-565.99999999999989
 20
-259.74037994877682
 30
0.0
 11
-565.99999999999989
 21
-680.84981551963961
 31
0.0
  0
LINE
  5
FE
  8
SIZE
  6
CONTINUOUS
 62
    30
 10
-601.99999999999955
 20
-572.00000000000034
 30
0.0
 11
-601.99999999999955
 21
-680.84981551963961
 31
0.0
  0
LINE
  5
FF
  8
SIZE
  6
CONTINUOUS
 62
    30
 10
-565.99999999999989
 20
-660.84981551963961
 30
0.0
 11
-601.99999999999955
 21
-660.84981551963961
 31
0.0
  0
LINE
  5
100
  8
SIZE
  6
CONTINUOUS
 62
    30
 10
-419.62752615541223
 20
-660.84981551963961
 30
0.0
 11
-565.99999999999989
 21
-660.84981551963961
 31
0.0
  0
TEXT
  5
101
  8
SIZE
  6
CONTINUOUS
 62
    30
 10
-515.4132404411265
 20
-642.84981551963961
 30
0.0
 40
55.0
  1
36
 41
0.9
 72
     1
 11
-476.52038329826928
 21
-642.84981551963961
 31
0.0
  0
CIRCLE
  5
102
  8
SIZE
  6
CONTINUOUS
 62
    30
 10
-565.99999999999989
 20
-660.84981551963961
 30
0.0
 40
7.5
  0
CIRCLE
  5
103
  8
SIZE
  6
CONTINUOUS
 62
    30
 10
-601.99999999999955
 20
-660.84981551963961
 30
0.0
 40
7.5
  0
POINT
  5
104
  8
DEFPOINTS
  6
CONTINUOUS
 62
     7
 10
-566.0
 20
-244.24999365726609
 30
0.0
  0
POINT
  5
105
  8
DEFPOINTS
  6
CONTINUOUS
 62
     7
 10
-601.99999999999955
 20
-552.00000000000034
 30
0.0
  0
POINT
  5
106
  8
DEFPOINTS
  6
CONTINUOUS
 62
     7
 10
-601.99999999999955
 20
-660.84981551963961
 30
0.0
  0
LINE
  5
107
  8
NOTE
  6
CONTINUOUS
 62
     4
 10
-629.99999999994964
 20
-520.99999999988972
 30
0.0
 11
-657.49962013141135
 21
-541.64268787274705
 31
0.0
  0
LINE
  5
108
  8
NOTE
  6
CONTINUOUS
 62
     4
 10
-629.99999999994964
 20
-520.99999999988972
 30
0.0
 11
-643.49402523098126
 21
-552.6269023624867
 31
0.0
  0
LINE
  5
109
  8
NOTE
  6
CONTINUOUS
 62
     4
 10
-765.44479698787234
 20
-696.53506360492815
 30
0.0
 11
-629.99999999997976
 21
-520.99999999987153
 31
0.0
  0
LINE
  5
10A
  8
SIZE
  6
CONTINUOUS
 62
    30
 10
-602.0
 20
20.0
 30
0.0
 11
-602.0
 21
190.90562282850439
 31
0.0
  0
LINE
  5
10B
  8
SIZE
  6
CONTINUOUS
 62
    30
 10
601.99999999999875
 20
20.0
 30
0.0
 11
601.99999999999875
 21
190.90562282850439
 31
0.0
  0
LINE
  5
10C
  8
SIZE
  6
CONTINUOUS
 62
    30
 10
-602.0
 20
170.90562282850439
 30
0.0
 11
601.99999999999875
 21
170.90562282850439
 31
0.0
  0
CIRCLE
  5
10D
  8
SIZE
  6
CONTINUOUS
 62
    30
 10
-602.0
 20
170.90562282850439
 30
0.0
 40
7.5
  0
CIRCLE
  5
10E
  8
SIZE
  6
CONTINUOUS
 62
    30
 10
601.99999999999875
 20
170.90562282850439
 30
0.0
 40
7.5
  0
TEXT
  5
10F
  8
SIZE
  6
CONTINUOUS
 62
    30
 10
-216.62142857142899
 20
188.90562282850439
 30
0.0
 40
55.0
  1
1204 本体寸法
 41
0.9
 72
     1
 11
-0.0000000000004547
 21
188.90562282850439
 31
0.0
  0
POINT
  5
110
  8
DEFPOINTS
  6
CONTINUOUS
 62
     7
 10
-602.0
 20
0.0
 30
0.0
  0
POINT
  5
111
  8
DEFPOINTS
  6
CONTINUOUS
 62
     7
 10
601.99999999999875
 20
0.0
 30
0.0
  0
POINT
  5
112
  8
DEFPOINTS
  6
CONTINUOUS
 62
     7
 10
601.99999999999875
 20
170.90562282850439
 30
0.0
  0
LINE
  5
113
  8
SIZE
  6
CONTINUOUS
 62
    30
 10
339.0
 20
-205.0
 30
0.0
 11
811.42968731237568
 21
-205.0000000000002
 31
0.0
  0
LINE
  5
114
  8
SIZE
  6
CONTINUOUS
 62
    30
 10
355.71665212396192
 20
-316.0
 30
0.0
 11
811.42968731237522
 21
-316.0
 31
0.0
  0
LINE
  5
115
  8
SIZE
  6
CONTINUOUS
 62
    30
 10
791.4296873123759
 20
-205.0000000000002
 30
0.0
 11
791.42968731237534
 21
-316.0
 31
0.0
  0
CIRCLE
  5
116
  8
SIZE
  6
CONTINUOUS
 62
    30
 10
791.4296873123759
 20
-205.0000000000002
 30
0.0
 40
7.5
  0
CIRCLE
  5
117
  8
SIZE
  6
CONTINUOUS
 62
    30
 10
791.42968731237454
 20
-316.0
 30
0.0
 40
7.5
  0
TEXT
  5
118
  8
SIZE
  6
CONTINUOUS
 62
    30
 10
773.4296873123759
 20
-309.60714285714278
 30
0.0
 40
55.0
  1
111
 50
90.0
 41
0.9
 72
     1
 11
773.4296873123759
 21
-266.0
 31
0.0
  0
POINT
  5
119
  8
DEFPOINTS
  6
CONTINUOUS
 62
     7
 10
301.0
 20
-205.0
 30
0.0
  0
POINT
  5
11A
  8
DEFPOINTS
  6
CONTINUOUS
 62
     7
 10
317.71665212396192
 20
-316.0
 30
0.0
  0
POINT
  5
11B
  8
DEFPOINTS
  6
CONTINUOUS
 62
     7
 10
791.42968731237454
 20
-316.0
 30
0.0
  0
LINE
  5
11C
  8
SIZE
  6
CONTINUOUS
 62
    30
 10
621.99999999999886
 20
-0.0000000000000057
 30
0.0
 11
954.53132387419805
 21
-0.0000000000000999
 31
0.0
  0
LINE
  5
11D
  8
SIZE
  6
CONTINUOUS
 62
    30
 10
339.0
 20
-205.0
 30
0.0
 11
954.53132387419805
 21
-205.0000000000002
 31
0.0
  0
LINE
  5
11E
  8
SIZE
  6
CONTINUOUS
 62
    30
 10
934.53132387419828
 20
-0.0000000000000942
 30
0.0
 11
934.53132387419828
 21
-205.0000000000002
 31
0.0
  0
CIRCLE
  5
11F
  8
SIZE
  6
CONTINUOUS
 62
    30
 10
934.53132387419828
 20
-0.0000000000000942
 30
0.0
 40
7.5
  0
CIRCLE
  5
120
  8
SIZE
  6
CONTINUOUS
 62
    30
 10
934.53132387419828
 20
-205.0000000000002
 30
0.0
 40
7.5
  0
TEXT
  5
121
  8
SIZE
  6
CONTINUOUS
 62
    30
 10
916.53132387419828
 20
-160.35444403473431
 30
0.0
 40
55.0
  1
205
 50
90.0
 41
0.9
 72
     1
 11
916.53132387419828
 21
-96.711586891877232
 31
0.0
  0
POINT
  5
122
  8
DEFPOINTS
  6
CONTINUOUS
 62
     7
 10
601.99999999999875
 20
0.0
 30
0.0
  0
POINT
  5
123
  8
DEFPOINTS
  6
CONTINUOUS
 62
     7
 10
301.0
 20
-205.0
 30
0.0
  0
POINT
  5
124
  8
DEFPOINTS
  6
CONTINUOUS
 62
     7
 10
934.53132387419828
 20
-205.0000000000002
 30
0.0
  0
LINE
  5
125
  8
SIZE
  6
CONTINUOUS
 62
    30
 10
339.0
 20
-205.0
 30
0.0
 11
954.53132387419805
 21
-205.00000000000011
 31
0.0
  0
LINE
  5
126
  8
SIZE
  6
CONTINUOUS
 62
    30
 10
339.0
 20
-427.0
 30
0.0
 11
954.53132387419805
 21
-427.0
 31
0.0
  0
LINE
  5
127
  8
SIZE
  6
CONTINUOUS
 62
    30
 10
934.53132387419828
 20
-205.0000000000002
 30
0.0
 11
934.53132387419828
 21
-427.0
 31
0.0
  0
CIRCLE
  5
128
  8
SIZE
  6
CONTINUOUS
 62
    30
 10
934.53132387419828
 20
-205.00000000000011
 30
0.0
 40
7.5
  0
CIRCLE
  5
129
  8
SIZE
  6
CONTINUOUS
 62
    30
 10
934.53132387419828
 20
-427.0
 30
0.0
 40
7.5
  0
TEXT
  5
12A
  8
SIZE
  6
CONTINUOUS
 62
    30
 10
916.53132387419828
 20
-377.66195772154089
 30
0.0
 40
55.0
  1
222
 50
90.0
 41
0.9
 72
     1
 11
916.53132387419828
 21
-314.01910057868372
 31
0.0
  0
POINT
  5
12B
  8
DEFPOINTS
  6
CONTINUOUS
 62
     7
 10
301.0
 20
-205.0
 30
0.0
  0
POINT
  5
12C
  8
DEFPOINTS
  6
CONTINUOUS
 62
     7
 10
301.0
 20
-427.0
 30
0.0
  0
POINT
  5
12D
  8
DEFPOINTS
  6
CONTINUOUS
 62
     7
 10
934.53132387419828
 20
-427.0
 30
0.0
  0
LINE
  5
12E
  8
SIZE
  6
CONTINUOUS
 62
    30
 10
-601.99999999999955
 20
-572.00000000000011
 30
0.0
 11
-601.99999999999955
 21
-790.7266503569283
 31
0.0
  0
LINE
  5
12F
  8
SIZE
  6
CONTINUOUS
 62
    30
 10
1.000000000000113
 20
-476.00000000000011
 30
0.0
 11
1.0000000000000899
 21
-790.7266503569283
 31
0.0
  0
LINE
  5
130
  8
SIZE
  6
CONTINUOUS
 62
    30
 10
-601.99999999999955
 20
-770.72665035692842
 30
0.0
 11
1.0000000000000899
 21
-770.72665035692842
 31
0.0
  0
CIRCLE
  5
131
  8
SIZE
  6
CONTINUOUS
 62
    30
 10
-601.99999999999955
 20
-770.72665035692842
 30
0.0
 40
7.5
  0
CIRCLE
  5
132
  8
SIZE
  6
CONTINUOUS
 62
    30
 10
1.0000000000000899
 20
-770.72665035692842
 30
0.0
 40
7.5
  0
TEXT
  5
133
  8
SIZE
  6
CONTINUOUS
 62
    30
 10
-364.787760298563
 20
-752.7266503569283
 30
0.0
 40
55.0
  1
603
 41
0.9
 72
     1
 11
-301.14490315570578
 21
-752.7266503569283
 31
0.0
  0
POINT
  5
134
  8
DEFPOINTS
  6
CONTINUOUS
 62
     7
 10
-601.99999999999955
 20
-552.0
 30
0.0
  0
POINT
  5
135
  8
DEFPOINTS
  6
CONTINUOUS
 62
     7
 10
1.0
 20
-427.0
 30
0.0
  0
POINT
  5
136
  8
DEFPOINTS
  6
CONTINUOUS
 62
     7
 10
1.0000000000000899
 20
-770.72665035692842
 30
0.0
  0
LINE
  5
137
  8
SIZE
  6
CONTINUOUS
 62
    30
 10
1.000000000000113
 20
-476.00000000000011
 30
0.0
 11
1.0000000000000899
 21
-790.7266503569283
 31
0.0
  0
LINE
  5
138
  8
SIZE
  6
CONTINUOUS
 62
    30
 10
301.00000000000011
 20
-476.00000000000011
 30
0.0
 11
301.00000000000011
 21
-790.7266503569283
 31
0.0
  0
LINE
  5
139
  8
SIZE
  6
CONTINUOUS
 62
    30
 10
1.000000000000113
 20
-770.72665035692842
 30
0.0
 11
301.00000000000011
 21
-770.72665035692842
 31
0.0
  0
CIRCLE
  5
13A
  8
SIZE
  6
CONTINUOUS
 62
    30
 10
1.0000000000000899
 20
-770.72665035692842
 30
0.0
 40
7.5
  0
CIRCLE
  5
13B
  8
SIZE
  6
CONTINUOUS
 62
    30
 10
301.00000000000011
 20
-770.72665035692842
 30
0.0
 40
7.5
  0
TEXT
  5
13C
  8
SIZE
  6
CONTINUOUS
 62
    30
 10
77.857142857143003
 20
-752.7266503569283
 30
0.0
 40
55.0
  1
300
 41
0.9
 72
     1
 11
141.50000000000011
 21
-752.7266503569283
 31
0.0
  0
POINT
  5
13D
  8
DEFPOINTS
  6
CONTINUOUS
 62
     7
 10
1.0
 20
-427.0
 30
0.0
  0
POINT
  5
13E
  8
DEFPOINTS
  6
CONTINUOUS
 62
     7
 10
301.0
 20
-427.0
 30
0.0
  0
POINT
  5
13F
  8
DEFPOINTS
  6
CONTINUOUS
 62
     7
 10
301.00000000000011
 20
-770.72665035692842
 30
0.0
  0
LINE
  5
140
  8
SIZE
  6
CONTINUOUS
 62
    30
 10
1.000000000000113
 20
-476.00000000000011
 30
0.0
 11
1.000000000000113
 21
-680.32554077510235
 31
0.0
  0
LINE
  5
141
  8
SIZE
  6
CONTINUOUS
 62
    30
 10
30.99999999999967
 20
-492.71665212396312
 30
0.0
 11
30.999999999999648
 21
-680.32554077510235
 31
0.0
  0
LINE
  5
142
  8
SIZE
  6
CONTINUOUS
 62
    30
 10
30.999999999999648
 20
-660.32554077510235
 30
0.0
 11
1.000000000000113
 21
-660.32554077510235
 31
0.0
  0
LINE
  5
143
  8
SIZE
  6
CONTINUOUS
 62
    30
 10
1.000000000000113
 20
-660.32554077510235
 30
0.0
 11
-120.1953453010391
 21
-660.32554077510235
 31
0.0
  0
CIRCLE
  5
144
  8
SIZE
  6
CONTINUOUS
 62
    30
 10
30.999999999999648
 20
-660.32554077510235
 30
0.0
 40
7.5
  0
CIRCLE
  5
145
  8
SIZE
  6
CONTINUOUS
 62
    30
 10
1.000000000000113
 20
-660.32554077510235
 30
0.0
 40
7.5
  0
TEXT
  5
146
  8
SIZE
  6
CONTINUOUS
 62
    30
 10
-112.5714266601362
 20
-642.32554077510247
 30
0.0
 40
55.0
  1
30
 41
0.9
 72
     1
 11
-72.49999808870767
 21
-642.32554077510247
 31
0.0
  0
POINT
  5
147
  8
DEFPOINTS
  6
CONTINUOUS
 62
     7
 10
1.0
 20
-427.0
 30
0.0
  0
POINT
  5
148
  8
DEFPOINTS
  6
CONTINUOUS
 62
     7
 10
30.999999999999549
 20
-443.71665212396312
 30
0.0
  0
POINT
  5
149
  8
DEFPOINTS
  6
CONTINUOUS
 62
     7
 10
30.999999999999648
 20
-660.32554077510235
 30
0.0
  0
LINE
  5
14A
  8
SIZE
  6
CONTINUOUS
 62
    30
 10
30.99999999999967
 20
-492.71665212396312
 30
0.0
 11
30.999999999999648
 21
-680.32554077510235
 31
0.0
  0
LINE
  5
14B
  8
SIZE
  6
CONTINUOUS
 62
    30
 10
271.0
 20
-492.71665212396312
 30
0.0
 11
271.0
 21
-680.32554077510235
 31
0.0
  0
LINE
  5
14C
  8
SIZE
  6
CONTINUOUS
 62
    30
 10
30.999999999999648
 20
-660.32554077510235
 30
0.0
 11
271.0
 21
-660.32554077510235
 31
0.0
  0
CIRCLE
  5
14D
  8
SIZE
  6
CONTINUOUS
 62
    30
 10
30.999999999999648
 20
-660.32554077510235
 30
0.0
 40
7.5
  0
CIRCLE
  5
14E
  8
SIZE
  6
CONTINUOUS
 62
    30
 10
271.0
 20
-660.32554077510235
 30
0.0
 40
7.5
  0
TEXT
  5
14F
  8
SIZE
  6
CONTINUOUS
 62
    30
 10
89.458503516938265
 20
-642.32554077510247
 30
0.0
 40
55.0
  1
240
 41
0.9
 72
     1
 11
153.1013606597954
 21
-642.32554077510247
 31
0.0
  0
POINT
  5
150
  8
DEFPOINTS
  6
CONTINUOUS
 62
     7
 10
30.999999999999549
 20
-443.71665212396312
 30
0.0
  0
POINT
  5
151
  8
DEFPOINTS
  6
CONTINUOUS
 62
     7
 10
271.0
 20
-443.71665212396312
 30
0.0
  0
POINT
  5
152
  8
DEFPOINTS
  6
CONTINUOUS
 62
     7
 10
271.0
 20
-660.32554077510235
 30
0.0
  0
TEXT
  5
153
  8
NOTE
  6
CONTINUOUS
 62
     4
 10
384.54380598548522
 20
-668.54649057364804
 30
0.0
 40
60.0
  1
6-%%C3
 41
0.8
  0
LINE
  5
154
  8
NOTE
  6
CONTINUOUS
 62
     4
 10
372.34059947429711
 20
-681.64447321297473
 30
0.0
 11
572.87627822304398
 21
-681.64447321297473
 31
0.0
  0
LINE
  5
155
  8
NOTE
  6
CONTINUOUS
 62
     4
 10
271.00000000006088
 20
-427.00000000000432
 30
0.0
 11
276.01171833861179
 21
-461.01811795626168
 31
0.0
  0
LINE
  5
156
  8
NOTE
  6
CONTINUOUS
 62
     4
 10
271.00000000006088
 20
-427.00000000000432
 30
0.0
 11
292.34933476869458
 21
-453.9546948587066
 31
0.0
  0
LINE
  5
157
  8
NOTE
  6
CONTINUOUS
 62
     4
 10
372.34059947429711
 20
-681.64447321297473
 30
0.0
 11
271.0
 21
-427.0
 31
0.0
  0
TEXT
  5
158
  8
NOTE
  6
CONTINUOUS
 62
     4
 10
-1140.378048186042
 20
-874.47603805376411
 30
0.0
 40
60.0
  1
CD R1
 41
0.8
  0
LINE
  5
159
  8
NOTE
  6
CONTINUOUS
 62
     4
 10
-841.90807013857545
 20
-887.57402069309103
 30
0.0
 11
-1164.0850885885891
 21
-887.57402069309103
 31
0.0
  0
TEXT
  5
15A
  8
NOTE
  6
CONTINUOUS
 62
     4
 10
-926.83107343971642
 20
-851.06902866457449
 30
0.0
 40
44.79999999999999
  1
1
 41
0.9
  0
TEXT
  5
15B
  8
NOTE
  6
CONTINUOUS
 62
     4
 10
-913.05041751382396
 20
-865.57102370714847
 30
0.0
 40
44.79999999999999
  1
/
 41
0.9
  0
TEXT
  5
15C
  8
NOTE
  6
CONTINUOUS
 62
     4
 10
-890.50043993697079
 20
-880.59766522430573
 30
0.0
 40
44.79999999999999
  1
4
 41
0.9
  0
TEXT
  5
15D
  8
NOTE
  6
CONTINUOUS
 62
     4
 10
-1152.02456151413
 20
78.700445010714219
 30
0.0
 40
60.0
  1
CDR R1
 41
0.8
  0
LINE
  5
15E
  8
NOTE
  6
CONTINUOUS
 62
     4
 10
-786.13896543768783
 20
65.602462371387446
 30
0.0
 11
-1175.731601916676
 21
65.602462371387446
 31
0.0
  0
TEXT
  5
15F
  8
NOTE
  6
CONTINUOUS
 62
     4
 10
-893.99493844298922
 20
102.1074543999037
 30
0.0
 40
44.79999999999999
  1
1
 41
0.9
  0
TEXT
  5
160
  8
NOTE
  6
CONTINUOUS
 62
     4
 10
-880.21428251709744
 20
87.605459357329906
 30
0.0
 40
44.79999999999999
  1
/
 41
0.9
  0
TEXT
  5
161
  8
NOTE
  6
CONTINUOUS
 62
     4
 10
-857.6643049402436
 20
72.578817840172619
 30
0.0
 40
44.79999999999999
  1
4
 41
0.9
  0
ENDSEC
  0
EOF
