  0
SECTION
  2
HEADER
  9
$ACADVER
  1
AC1009
  9
$INSBASE
 10
0.0
 20
0.0
 30
0.0
  9
$EXTMIN
 10
-1068.9281704078489
 20
-913.28361921196836
 30
-0.0015258207003583
  9
$EXTMAX
 10
1080.6462094516569
 20
939.7133786129051
 30
0.0000000349246037
  9
$LIMMIN
 10
-4267.1522210604817
 20
-2696.083210198412
  9
$LIMMAX
 10
7190.7174225864646
 20
5141.155363923066
  9
$ORTHOMODE
 70
     1
  9
$REGENMODE
 70
     1
  9
$FILLMODE
 70
     1
  9
$QTEXTMODE
 70
     0
  9
$MIRRTEXT
 70
     0
  9
$DRAGMODE
 70
     2
  9
$LTSCALE
 40
20.0
  9
$OSMODE
 70
    47
  9
$ATTMODE
 70
     1
  9
$TEXTSIZE
 40
64.0
  9
$TRACEWID
 40
0.05
  9
$TEXTSTYLE
  7
NOTE
  9
$CLAYER
  8
SYMBOLLINE
  9
$CELTYPE
  6
CONTINUOUS
  9
$CECOLOR
 62
     7
  9
$DIMSCALE
 40
1.0
  9
$DIMASZ
 40
30.0
  9
$DIMEXO
 40
20.0
  9
$DIMDLI
 40
80.0
  9
$DIMRND
 40
0.0
  9
$DIMDLE
 40
0.0
  9
$DIMEXE
 40
20.0
  9
$DIMTP
 40
0.0
  9
$DIMTM
 40
0.0
  9
$DIMTXT
 40
55.0
  9
$DIMCEN
 40
0.09
  9
$DIMTSZ
 40
0.0
  9
$DIMTOL
 70
     0
  9
$DIMLIM
 70
     0
  9
$DIMTIH
 70
     0
  9
$DIMTOH
 70
     0
  9
$DIMSE1
 70
     0
  9
$DIMSE2
 70
     0
  9
$DIMTAD
 70
     1
  9
$DIMZIN
 70
     8
  9
$DIMBLK
  1
SMALL
  9
$DIMASO
 70
     1
  9
$DIMSHO
 70
     0
  9
$DIMPOST
  1

  9
$DIMAPOST
  1

  9
$DIMALT
 70
     0
  9
$DIMALTD
 70
     2
  9
$DIMALTF
 40
25.399999999999999
  9
$DIMLFAC
 40
1.0
  9
$DIMTOFL
 70
     1
  9
$DIMTVP
 40
0.0
  9
$DIMTIX
 70
     0
  9
$DIMSOXD
 70
     0
  9
$DIMSAH
 70
     0
  9
$DIMBLK1
  1

  9
$DIMBLK2
  1

  9
$DIMSTYLE
  2
STANDARD
  9
$DIMCLRD
 70
     0
  9
$DIMCLRE
 70
     0
  9
$DIMCLRT
 70
     0
  9
$DIMTFAC
 40
1.0
  9
$DIMGAP
 40
0.09
  9
$LUNITS
 70
     2
  9
$LUPREC
 70
     4
  9
$SKETCHINC
 40
0.1
  9
$FILLETRAD
 40
30.0
  9
$AUNITS
 70
     1
  9
$AUPREC
 70
     3
  9
$MENU
  1
ACAD
  9
$ELEVATION
 40
0.0
  9
$PELEVATION
 40
0.0
  9
$THICKNESS
 40
0.0
  9
$LIMCHECK
 70
     0
  9
$BLIPMODE
 70
     0
  9
$CHAMFERA
 40
0.0
  9
$CHAMFERB
 40
0.0
  9
$SKPOLY
 70
     0
  9
$TDCREATE
 40
2450330.4399309959
  9
$TDUPDATE
 40
2455049.4693026161
  9
$TDINDWG
 40
3.5541123957999998
  9
$TDUSRTIMER
 40
3.5541093171
  9
$USRTIMER
 70
     1
  9
$ANGBASE
 50
0.0
  9
$ANGDIR
 70
     0
  9
$PDMODE
 70
     3
  9
$PDSIZE
 40
-2.0
  9
$PLINEWID
 40
0.0
  9
$COORDS
 70
     2
  9
$SPLFRAME
 70
     0
  9
$SPLINETYPE
 70
     6
  9
$SPLINESEGS
 70
     8
  9
$ATTDIA
 70
     0
  9
$ATTREQ
 70
     1
  9
$HANDLING
 70
     1
  9
$HANDSEED
  5
36B
  9
$SURFTAB1
 70
     6
  9
$SURFTAB2
 70
     6
  9
$SURFTYPE
 70
     6
  9
$SURFU
 70
     6
  9
$SURFV
 70
     6
  9
$UCSNAME
  2

  9
$UCSORG
 10
0.0
 20
0.0
 30
0.0
  9
$UCSXDIR
 10
1.0
 20
0.0
 30
0.0
  9
$UCSYDIR
 10
0.0
 20
1.0
 30
0.0
  9
$PUCSNAME
  2

  9
$PUCSORG
 10
0.0
 20
0.0
 30
0.0
  9
$PUCSXDIR
 10
1.0
 20
0.0
 30
0.0
  9
$PUCSYDIR
 10
0.0
 20
1.0
 30
0.0
  9
$USERI1
 70
     0
  9
$USERI2
 70
     0
  9
$USERI3
 70
     0
  9
$USERI4
 70
     0
  9
$USERI5
 70
     0
  9
$USERR1
 40
20.0
  9
$USERR2
 40
0.0
  9
$USERR3
 40
0.0
  9
$USERR4
 40
0.0
  9
$USERR5
 40
0.0
  9
$WORLDVIEW
 70
     1
  9
$SHADEDGE
 70
     3
  9
$SHADEDIF
 70
    70
  9
$TILEMODE
 70
     1
  9
$MAXACTVP
 70
    64
  9
$PLIMCHECK
 70
     0
  9
$PEXTMIN
 10
1.0000000000000000E+020
 20
1.0000000000000000E+020
 30
1.0000000000000000E+020
  9
$PEXTMAX
 10
-1.0000000000000000E+020
 20
-1.0000000000000000E+020
 30
-1.0000000000000000E+020
  9
$PLIMMIN
 10
0.0
 20
0.0
  9
$PLIMMAX
 10
12.0
 20
9.0
  9
$UNITMODE
 70
     0
  9
$VISRETAIN
 70
     1
  9
$PLINEGEN
 70
     0
  9
$PSLTSCALE
 70
     1
  0
ENDSEC
  0
SECTION
  2
TABLES
  0
TABLE
  2
VPORT
 70
     1
  0
VPORT
  2
*ACTIVE
 70
     0
 10
0.0
 20
0.0
 11
1.0
 21
1.0
 12
1461.782600762991
 22
1222.536076862327
 13
0.0
 23
0.0
 14
50.0
 24
50.0
 15
100.0
 25
100.0
 16
0.0
 26
0.0
 36
1.0
 17
0.0
 27
0.0
 37
0.0
 40
7896.6115936223987
 41
1.5461441213653599
 42
50.0
 43
0.0
 44
0.0
 50
0.0
 51
0.0
 71
     0
 72
  1000
 73
     1
 74
     0
 75
     0
 76
     0
 77
     0
 78
     0
  0
ENDTAB
  0
TABLE
  2
LTYPE
 70
     3
  0
LTYPE
  2
CONTINUOUS
 70
     0
  3
実線
 72
    65
 73
     0
 40
0.0
  0
LTYPE
  2
DASHDOT
 70
     0
  3
____ _ ____ _ ____ _ ____ _ ____ _ ____ _ ____
 72
    65
 73
     4
 40
5.5
 49
4.0
 49
-0.6
 49
0.3
 49
-0.6
  0
ENDTAB
  0
TABLE
  2
LAYER
 70
    12
  0
LAYER
  2
0
 70
     0
 62
     7
  6
CONTINUOUS
  0
LAYER
  2
SYMBOLLINE
 70
     0
 62
    15
  6
CONTINUOUS
  0
LAYER
  2
OUTLINE
 70
     0
 62
     3
  6
CONTINUOUS
  0
LAYER
  2
DETAIL
 70
     0
 62
     5
  6
CONTINUOUS
  0
LAYER
  2
BASIS
 70
     0
 62
     6
  6
DASHDOT
  0
LAYER
  2
SIZE
 70
     0
 62
    30
  6
CONTINUOUS
  0
LAYER
  2
NOTE
 70
     0
 62
     4
  6
CONTINUOUS
  0
LAYER
  2
ARRANGE
 70
     0
 62
     1
  6
CONTINUOUS
  0
LAYER
  2
FIX
 70
     0
 62
    11
  6
CONTINUOUS
  0
LAYER
  2
SERVICESPACE
 70
     0
 62
     2
  6
DASHDOT
  0
LAYER
  2
ETC
 70
     0
 62
    61
  6
CONTINUOUS
  0
LAYER
  2
DEFPOINTS
 70
     0
 62
     7
  6
CONTINUOUS
  0
ENDTAB
  0
TABLE
  2
STYLE
 70
     4
  0
STYLE
  2
STANDARD
 70
     0
 40
0.0
 41
0.9
 50
0.0
 71
     0
 42
64.0
  3
SIMPLEX
  4
BIGFONT
  0
STYLE
  2
ANNOTATIVE
 70
     0
 40
0.0
 41
1.0
 50
0.0
 71
     0
 42
0.2
  3
txt
  4

  0
STYLE
  2
NOTE
 70
     0
 40
0.0
 41
0.7
 50
0.0
 71
     0
 42
64.0
  3
SIMPLEX.shx
  4
BIGFONT.shx
  0
STYLE
  2
STANDARD1
 70
     0
 40
0.0
 41
1.0
 50
0.0
 71
     0
 42
64.0
  3
MONOTXT
  4
BIGFONT
  0
ENDTAB
  0
TABLE
  2
VIEW
 70
     8
  0
VIEW
  2
ALL
 70
     0
 40
9000.0
 10
241.50664699999999
 20
0.0
 41
12483.01
 11
0.0
 21
0.0
 31
1.0
 12
0.0
 22
0.0
 32
0.0
 42
50.0
 43
0.0
 44
0.0
 50
0.0
 71
     0
  0
ENDTAB
  0
TABLE
  2
UCS
 70
     0
  0
ENDTAB
  0
TABLE
  2
APPID
 70
     3
  0
APPID
  2
ACAD
 70
     0
  0
APPID
  2
ACADANNOTATIVE
 70
     0
  0
APPID
  2
ACAD_MLEADERVER
 70
     0
  0
ENDTAB
  0
TABLE
  2
DIMSTYLE
 70
     3
  0
DIMSTYLE
  2
STANDARD
 70
     0
  3

  4

  5

  6

  7

 40
1.0
 41
0.18
 42
0.0625
 43
0.38
 44
0.18
 45
0.0
 46
0.0
 47
0.0
 48
0.0
140
0.18
141
0.09
142
0.0
143
25.399999999999999
144
1.0
145
0.0
146
1.0
147
0.09
 71
     0
 72
     0
 73
     1
 74
     1
 75
     0
 76
     0
 77
     0
 78
     0
170
     0
171
     2
172
     0
173
     0
174
     0
175
     0
176
     0
177
     0
178
     0
  0
DIMSTYLE
  2
ANNOTATIVE
 70
     0
  3

  4

  5

  6

  7

 40
1.0
 41
0.18
 42
0.0625
 43
0.38
 44
0.18
 45
0.0
 46
0.0
 47
0.0
 48
0.0
140
0.18
141
0.09
142
0.0
143
25.399999999999999
144
1.0
145
0.0
146
1.0
147
0.09
 71
     0
 72
     0
 73
     1
 74
     1
 75
     0
 76
     0
 77
     0
 78
     0
170
     0
171
     2
172
     0
173
     0
174
     0
175
     0
176
     0
177
     0
178
     0
  0
ENDTAB
  0
ENDSEC
  0
SECTION
  2
BLOCKS
  0
BLOCK
  8
0
  2
$MODEL_SPACE
 70
     0
 10
0.0
 20
0.0
 30
0.0
  3
$MODEL_SPACE
  1

  0
ENDBLK
  5
2FB
  8
0
  0
BLOCK
 67
     1
  8
0
  2
$PAPER_SPACE
 70
     0
 10
0.0
 20
0.0
 30
0.0
  3
$PAPER_SPACE
  1

  0
ENDBLK
  5
2F7
 67
     1
  8
0
  0
BLOCK
  8
0
  2
_SMALL
 70
     0
 10
0.0
 20
0.0
 30
0.0
  3
_SMALL
  1

  0
CIRCLE
  5
8D
  8
0
  6
CONTINUOUS
 62
     7
 10
0.0
 20
0.0
 30
0.0
 40
0.25
  0
ENDBLK
  5
8E
  8
0
  0
ENDSEC
  0
SECTION
  2
ENTITIES
  0
LINE
  5
8F
  8
DETAIL
  6
CONTINUOUS
 62
     5
 10
-433.650000000011
 20
249.9999999999977
 30
0.0
 11
-416.35000000001168
 21
249.9999999999977
 31
0.0
  0
LINE
  5
90
  8
DETAIL
  6
CONTINUOUS
 62
     5
 10
-408.64999999999998
 20
239.9999999999977
 30
0.0
 11
-391.35000000001168
 21
239.9999999999977
 31
0.0
  0
LINE
  5
91
  8
DETAIL
  6
CONTINUOUS
 62
     5
 10
-391.35000000001168
 20
209.99999999999761
 30
0.0
 11
-391.35000000001168
 21
239.9999999999977
 31
0.0
  0
LINE
  5
92
  8
DETAIL
  6
CONTINUOUS
 62
     5
 10
-408.64999999999998
 20
209.99999999999761
 30
0.0
 11
-408.64999999999998
 21
239.9999999999977
 31
0.0
  0
LINE
  5
93
  8
DETAIL
  6
CONTINUOUS
 62
     5
 10
-440.00000000000023
 20
209.99999999999761
 30
0.0
 11
437.99999999999108
 21
209.99999999999761
 31
0.0
  0
LINE
  5
94
  8
DETAIL
  6
CONTINUOUS
 62
     5
 10
-440.00000000000023
 20
-210.00000000000219
 30
0.0
 11
-440.00000000000023
 21
209.99999999999761
 31
0.0
  0
LINE
  5
95
  8
DETAIL
  6
CONTINUOUS
 62
     5
 10
437.99999999999108
 20
-210.00000000000219
 30
0.0
 11
437.99999999999108
 21
209.99999999999761
 31
0.0
  0
LINE
  5
96
  8
DETAIL
  6
CONTINUOUS
 62
     5
 10
-440.00000000000023
 20
-210.00000000000219
 30
0.0
 11
437.99999999999108
 21
-210.00000000000219
 31
0.0
  0
LINE
  5
97
  8
DETAIL
  6
CONTINUOUS
 62
     5
 10
-348.99999999999579
 20
353.0
 30
0.0
 11
-115.0
 21
353.0
 31
0.0
  0
LINE
  5
98
  8
DETAIL
  6
CONTINUOUS
 62
     5
 10
-115.0
 20
353.0
 30
0.0
 11
-115.0000000000045
 21
209.99999999999761
 31
0.0
  0
LINE
  5
99
  8
DETAIL
  6
CONTINUOUS
 62
     5
 10
-349.0000000000004
 20
353.0
 30
0.0
 11
-349.0000000000104
 21
209.99999999999761
 31
0.0
  0
LINE
  5
9A
  8
DETAIL
  6
CONTINUOUS
 62
     5
 10
265.9999999999921
 20
-240.0000000000023
 30
0.0
 11
265.9999999999921
 21
-210.00000000000219
 31
0.0
  0
LINE
  5
9B
  8
DETAIL
  6
CONTINUOUS
 62
     5
 10
-23.00000000000772
 20
-240.0000000000023
 30
0.0
 11
-23.00000000000772
 21
-210.00000000000219
 31
0.0
  0
LINE
  5
9C
  8
DETAIL
  6
CONTINUOUS
 62
     5
 10
-458.99999999999659
 20
-120.0000000000031
 30
0.0
 11
-458.99999999999659
 21
119.9999999999968
 31
0.0
  0
LINE
  5
9D
  8
DETAIL
  6
CONTINUOUS
 62
     5
 10
-420.00000000000011
 20
-200.00000000000219
 30
0.0
 11
-420.00000000000011
 21
199.99999999999761
 31
0.0
  0
LINE
  5
9E
  8
DETAIL
  6
CONTINUOUS
 62
     5
 10
458.99999999999488
 20
-100.0000000000031
 30
0.0
 11
458.99999999999488
 21
99.999999999996803
 31
0.0
  0
LINE
  5
9F
  8
DETAIL
  6
CONTINUOUS
 62
     5
 10
420.00000000000011
 20
-200.00000000000219
 30
0.0
 11
420.00000000000011
 21
199.99999999999761
 31
0.0
  0
LINE
  5
A0
  8
DETAIL
  6
CONTINUOUS
 62
     5
 10
-420.00000000000011
 20
199.99999999999761
 30
0.0
 11
420.00000000000011
 21
199.99999999999761
 31
0.0
  0
LINE
  5
A1
  8
DETAIL
  6
CONTINUOUS
 62
     5
 10
420.00000000000011
 20
-200.00000000000219
 30
0.0
 11
-420.00000000000011
 21
-200.00000000000219
 31
0.0
  0
LINE
  5
A2
  8
DETAIL
  6
CONTINUOUS
 62
     5
 10
265.9999999999921
 20
-240.0000000000023
 30
0.0
 11
-23.00000000000772
 21
-240.0000000000023
 31
0.0
  0
LINE
  5
A3
  8
DETAIL
  6
CONTINUOUS
 62
     5
 10
-416.35000000001168
 20
209.99999999999761
 30
0.0
 11
-416.35000000001168
 21
249.9999999999977
 31
0.0
  0
LINE
  5
A4
  8
DETAIL
  6
CONTINUOUS
 62
     5
 10
-433.650000000011
 20
209.99999999999761
 30
0.0
 11
-433.650000000011
 21
249.9999999999977
 31
0.0
  0
LINE
  5
A5
  8
DETAIL
  6
CONTINUOUS
 62
     5
 10
458.99999999999488
 20
-120.0000000000031
 30
0.0
 11
458.99999999999488
 21
119.9999999999968
 31
0.0
  0
LINE
  5
A6
  8
DETAIL
  6
CONTINUOUS
 62
     5
 10
437.99999999999108
 20
-120.0000000000031
 30
0.0
 11
458.99999999999488
 21
-120.0000000000031
 31
0.0
  0
LINE
  5
A7
  8
DETAIL
  6
CONTINUOUS
 62
     5
 10
437.99999999999108
 20
119.9999999999968
 30
0.0
 11
458.99999999999488
 21
119.9999999999968
 31
0.0
  0
LINE
  5
A8
  8
DETAIL
  6
CONTINUOUS
 62
     5
 10
-458.99999999999659
 20
119.9999999999968
 30
0.0
 11
-440.00000000000023
 21
119.9999999999968
 31
0.0
  0
LINE
  5
A9
  8
DETAIL
  6
CONTINUOUS
 62
     5
 10
-458.99999999999659
 20
-120.0000000000031
 30
0.0
 11
-440.00000000000023
 21
-120.0000000000031
 31
0.0
  0
ARC
  5
AA
  8
DETAIL
  6
CONTINUOUS
 62
     5
 10
438.99999999999488
 20
-100.0000000000031
 30
0.0
 40
10.0
 50
264.26082952271241
 51
95.739170477287615
  0
LINE
  5
AB
  8
NOTE
  6
CONTINUOUS
 62
     4
 10
422.64452690558619
 20
99.999999999996803
 30
0.0
 11
455.35547309440278
 21
99.999999999996803
 31
0.0
  0
LINE
  5
AC
  8
NOTE
  6
CONTINUOUS
 62
     4
 10
438.99999999999488
 20
83.644526905588023
 30
0.0
 11
438.99999999999488
 21
116.3554730944047
 31
0.0
  0
LINE
  5
AD
  8
NOTE
  6
CONTINUOUS
 62
     4
 10
422.64452690558687
 20
-100.0000000000031
 30
0.0
 11
455.35547309440358
 21
-100.0000000000031
 31
0.0
  0
LINE
  5
AE
  8
NOTE
  6
CONTINUOUS
 62
     4
 10
438.99999999999562
 20
-116.35547309441191
 30
0.0
 11
438.99999999999562
 21
-83.644526905595285
 31
0.0
  0
CIRCLE
  5
AF
  8
FIX
  6
CONTINUOUS
 62
    11
 10
438.99999999999488
 20
-100.0000000000031
 30
0.0
 40
12.57617939085139
  0
LINE
  5
B0
  8
NOTE
  6
CONTINUOUS
 62
     4
 10
-455.35547309440551
 20
99.999999999996803
 30
0.0
 11
-422.64452690558892
 21
99.999999999996803
 31
0.0
  0
LINE
  5
B1
  8
NOTE
  6
CONTINUOUS
 62
     4
 10
-438.99999999999682
 20
83.644526905588023
 30
0.0
 11
-438.99999999999682
 21
116.3554730944047
 31
0.0
  0
LINE
  5
B2
  8
NOTE
  6
CONTINUOUS
 62
     4
 10
-455.35547309440551
 20
-100.0000000000031
 30
0.0
 11
-422.64452690558892
 21
-100.0000000000031
 31
0.0
  0
LINE
  5
B3
  8
NOTE
  6
CONTINUOUS
 62
     4
 10
-438.99999999999682
 20
-116.35547309441191
 30
0.0
 11
-438.99999999999682
 21
-83.644526905595285
 31
0.0
  0
LINE
  5
B4
  8
NOTE
  6
CONTINUOUS
 62
     4
 10
25.644526905583461
 20
-225.00000000000131
 30
0.0
 11
58.355473094400161
 21
-225.00000000000131
 31
0.0
  0
LINE
  5
B5
  8
NOTE
  6
CONTINUOUS
 62
     4
 10
41.999999999992248
 20
-241.35547309441009
 30
0.0
 11
41.999999999992248
 21
-208.64452690559341
 31
0.0
  0
CIRCLE
  5
B6
  8
DETAIL
  6
CONTINUOUS
 62
     5
 10
41.999999999992248
 20
-225.00000000000219
 30
0.0
 40
1.5
  0
LINE
  5
B7
  8
NOTE
  6
CONTINUOUS
 62
     4
 10
185.6445269055825
 20
-225.00000000000131
 30
0.0
 11
218.3554730943992
 21
-225.00000000000131
 31
0.0
  0
LINE
  5
B8
  8
NOTE
  6
CONTINUOUS
 62
     4
 10
201.9999999999913
 20
-241.35547309441009
 30
0.0
 11
201.9999999999913
 21
-208.64452690559341
 31
0.0
  0
CIRCLE
  5
B9
  8
DETAIL
  6
CONTINUOUS
 62
     5
 10
201.9999999999913
 20
-225.00000000000219
 30
0.0
 40
1.5
  0
LINE
  5
BA
  8
NOTE
  6
CONTINUOUS
 62
     4
 10
-441.35547309441989
 20
249.9999999999977
 30
0.0
 11
-408.6445269056033
 21
249.9999999999977
 31
0.0
  0
LINE
  5
BB
  8
NOTE
  6
CONTINUOUS
 62
     4
 10
-425.00000000001108
 20
233.64452690558889
 30
0.0
 11
-425.00000000001108
 21
266.35547309440562
 31
0.0
  0
LINE
  5
BC
  8
NOTE
  6
CONTINUOUS
 62
     4
 10
-416.35547309441472
 20
239.9999999999977
 30
0.0
 11
-383.64452690559801
 21
239.9999999999977
 31
0.0
  0
LINE
  5
BD
  8
NOTE
  6
CONTINUOUS
 62
     4
 10
-400.00000000000591
 20
223.6445269055888
 30
0.0
 11
-400.00000000000591
 21
256.35547309440562
 31
0.0
  0
LINE
  5
BE
  8
SIZE
  6
CONTINUOUS
 62
    30
 10
-420.00000000000011
 20
-220.00000000000219
 30
0.0
 11
-420.00000000000051
 21
-668.77283196904887
 31
0.0
  0
LINE
  5
BF
  8
SIZE
  6
CONTINUOUS
 62
    30
 10
420.00000000000011
 20
-220.00000000000219
 30
0.0
 11
420.00000000000011
 21
-668.77283196904887
 31
0.0
  0
LINE
  5
C0
  8
SIZE
  6
CONTINUOUS
 62
    30
 10
-420.00000000000011
 20
-648.77283196904875
 30
0.0
 11
420.00000000000011
 21
-648.77283196904875
 31
0.0
  0
CIRCLE
  5
C1
  8
SIZE
  6
CONTINUOUS
 62
    30
 10
-420.00000000000011
 20
-648.77283196904875
 30
0.0
 40
7.5
  0
CIRCLE
  5
C2
  8
SIZE
  6
CONTINUOUS
 62
    30
 10
420.00000000000011
 20
-648.77283196904875
 30
0.0
 40
7.5
  0
TEXT
  5
C3
  8
SIZE
  6
CONTINUOUS
 62
    30
 10
-204.25511098555461
 20
-628.77283196904875
 30
0.0
 40
55.0
  1
840
 41
0.9
 72
     1
 11
-140.6122538426975
 21
-628.77283196904875
 31
0.0
  0
POINT
  5
C4
  8
DEFPOINTS
  6
CONTINUOUS
 62
     7
 10
-420.00000000000011
 20
-200.00000000000219
 30
0.0
  0
POINT
  5
C5
  8
DEFPOINTS
  6
CONTINUOUS
 62
     7
 10
420.00000000000011
 20
-200.00000000000219
 30
0.0
  0
POINT
  5
C6
  8
DEFPOINTS
  6
CONTINUOUS
 62
     7
 10
420.00000000000011
 20
-648.77283196904875
 30
0.0
  0
LINE
  5
C7
  8
BASIS
  6
DASHDOT
 62
     6
 10
-509.98480833533938
 20
-0.0000000000022737
 30
0.0
 11
509.98480833533858
 21
-0.0000000000022737
 31
0.0
  0
LINE
  5
C8
  8
BASIS
  6
DASHDOT
 62
     6
 10
-0.0000000000004547
 20
313.01346396688803
 30
0.0
 11
0.0000000000004547
 21
-313.01346396689269
 31
0.0
  0
CIRCLE
  5
C9
  8
ARRANGE
  6
CONTINUOUS
 62
     1
 10
-0.0000000000004547
 20
-0.0000000000022737
 30
0.0
 40
50.0
  0
LINE
  5
CA
  8
ARRANGE
  6
CONTINUOUS
 62
     1
 10
50.037350031328522
 20
-49.52235315032749
 30
0.0
 11
-50.037350031329417
 21
49.522353150322928
 31
0.0
  0
LINE
  5
CB
  8
ARRANGE
  6
CONTINUOUS
 62
     1
 10
49.963763310500781
 20
49.596594797983471
 30
0.0
 11
-49.96376331050169
 21
-49.59659479798438
 31
0.0
  0
LINE
  5
CC
  8
SERVICESPACE
  6
DASHDOT
 62
     2
 10
-558.99999999999659
 20
753.0
 30
0.0
 11
-558.99999999999659
 21
-410.0000000000021
 31
0.0
  0
LINE
  5
CD
  8
SERVICESPACE
  6
DASHDOT
 62
     2
 10
-558.99999999999659
 20
-410.0000000000021
 30
0.0
 11
558.999999999995
 21
-410.0000000000021
 31
0.0
  0
LINE
  5
CE
  8
SERVICESPACE
  6
DASHDOT
 62
     2
 10
558.999999999995
 20
-410.0000000000021
 30
0.0
 11
558.999999999995
 21
753.0
 31
0.0
  0
LINE
  5
CF
  8
SERVICESPACE
  6
DASHDOT
 62
     2
 10
558.999999999995
 20
753.0
 30
0.0
 11
-558.99999999999659
 21
753.0
 31
0.0
  0
LINE
  5
D0
  8
SERVICESPACE
  6
DASHDOT
 62
     2
 10
-558.99999999999659
 20
353.0
 30
0.0
 11
558.999999999995
 21
353.0
 31
0.0
  0
LINE
  5
D1
  8
SERVICESPACE
  6
DASHDOT
 62
     2
 10
-558.99999999999659
 20
-210.00000000000219
 30
0.0
 11
558.999999999995
 21
-210.00000000000219
 31
0.0
  0
LINE
  5
D2
  8
SERVICESPACE
  6
DASHDOT
 62
     2
 10
-458.99999999999659
 20
353.0
 30
0.0
 11
-458.99999999999659
 21
-210.00000000000321
 31
0.0
  0
LINE
  5
D3
  8
SERVICESPACE
  6
DASHDOT
 62
     2
 10
458.99999999999488
 20
353.0
 30
0.0
 11
458.99999999999488
 21
-210.00000000000219
 31
0.0
  0
LINE
  5
D4
  8
SERVICESPACE
  6
DASHDOT
 62
     2
 10
-558.99999999999659
 20
753.0
 30
0.0
 11
558.999999999995
 21
353.0
 31
0.0
  0
LINE
  5
D5
  8
SERVICESPACE
  6
DASHDOT
 62
     2
 10
-558.99999999999659
 20
353.0
 30
0.0
 11
558.999999999995
 21
753.0
 31
0.0
  0
LINE
  5
D6
  8
SERVICESPACE
  6
DASHDOT
 62
     2
 10
-558.99999999999659
 20
353.0
 30
0.0
 11
-458.99999999999659
 21
-210.00000000000321
 31
0.0
  0
LINE
  5
D7
  8
SERVICESPACE
  6
DASHDOT
 62
     2
 10
-558.99999999999659
 20
-210.00000000000219
 30
0.0
 11
-458.99999999999659
 21
353.0
 31
0.0
  0
LINE
  5
D8
  8
SERVICESPACE
  6
DASHDOT
 62
     2
 10
458.99999999999488
 20
353.0
 30
0.0
 11
558.999999999995
 21
-210.00000000000219
 31
0.0
  0
LINE
  5
D9
  8
SERVICESPACE
  6
DASHDOT
 62
     2
 10
458.99999999999488
 20
-210.00000000000219
 30
0.0
 11
558.999999999995
 21
353.0
 31
0.0
  0
LINE
  5
DA
  8
SERVICESPACE
  6
DASHDOT
 62
     2
 10
-558.99999999999659
 20
-210.00000000000219
 30
0.0
 11
558.999999999995
 21
-410.0000000000021
 31
0.0
  0
LINE
  5
DB
  8
SERVICESPACE
  6
DASHDOT
 62
     2
 10
558.999999999995
 20
-210.00000000000219
 30
0.0
 11
-558.99999999999659
 21
-410.0000000000021
 31
0.0
  0
LINE
  5
DC
  8
SIZE
  6
CONTINUOUS
 62
    30
 10
41.999999999992248
 20
-188.64452690559341
 30
0.0
 11
41.999999999992248
 21
-133.67041405748969
 31
0.0
  0
LINE
  5
DD
  8
SIZE
  6
CONTINUOUS
 62
    30
 10
-23.00000000000772
 20
-180.00000000000219
 30
0.0
 11
-23.00000000000772
 21
-133.67041405748969
 31
0.0
  0
LINE
  5
DE
  8
SIZE
  6
CONTINUOUS
 62
    30
 10
41.999999999992248
 20
-153.67041405748969
 30
0.0
 11
-23.00000000000772
 21
-153.67041405748969
 31
0.0
  0
LINE
  5
DF
  8
SIZE
  6
CONTINUOUS
 62
    30
 10
-23.00000000000772
 20
-153.67041405748969
 30
0.0
 11
-173.14285714286481
 21
-153.67041405748969
 31
0.0
  0
CIRCLE
  5
E0
  8
SIZE
  6
CONTINUOUS
 62
    30
 10
41.999999999992248
 20
-153.67041405748969
 30
0.0
 40
7.5
  0
CIRCLE
  5
E1
  8
SIZE
  6
CONTINUOUS
 62
    30
 10
-23.00000000000772
 20
-153.67041405748969
 30
0.0
 40
7.5
  0
TEXT
  5
E2
  8
SIZE
  6
CONTINUOUS
 62
    30
 10
-153.1428571428647
 20
-133.67041405748969
 30
0.0
 40
55.0
  1
65
 41
0.9
 72
     1
 11
-113.0714285714362
 21
-133.67041405748969
 31
0.0
  0
POINT
  5
E3
  8
DEFPOINTS
  6
CONTINUOUS
 62
     7
 10
41.999999999992248
 20
-208.64452690559341
 30
0.0
  0
POINT
  5
E4
  8
DEFPOINTS
  6
CONTINUOUS
 62
     7
 10
-23.00000000000772
 20
-200.00000000000219
 30
0.0
  0
POINT
  5
E5
  8
DEFPOINTS
  6
CONTINUOUS
 62
     7
 10
-23.00000000000772
 20
-153.67041405748969
 30
0.0
  0
LINE
  5
E6
  8
SIZE
  6
CONTINUOUS
 62
    30
 10
41.999999999992248
 20
-188.64452690559341
 30
0.0
 11
41.999999999992248
 21
-133.67041405748969
 31
0.0
  0
LINE
  5
E7
  8
SIZE
  6
CONTINUOUS
 62
    30
 10
201.9999999999913
 20
-188.64452690559341
 30
0.0
 11
201.9999999999913
 21
-133.67041405748969
 31
0.0
  0
LINE
  5
E8
  8
SIZE
  6
CONTINUOUS
 62
    30
 10
41.999999999992248
 20
-153.67041405748969
 30
0.0
 11
201.9999999999913
 21
-153.67041405748969
 31
0.0
  0
CIRCLE
  5
E9
  8
SIZE
  6
CONTINUOUS
 62
    30
 10
41.999999999992248
 20
-153.67041405748969
 30
0.0
 40
7.5
  0
CIRCLE
  5
EA
  8
SIZE
  6
CONTINUOUS
 62
    30
 10
201.9999999999913
 20
-153.67041405748969
 30
0.0
 40
7.5
  0
TEXT
  5
EB
  8
SIZE
  6
CONTINUOUS
 62
    30
 10
63.071428571420782
 20
-133.67041405748969
 30
0.0
 40
55.0
  1
160
 41
0.9
 72
     1
 11
121.9999999999922
 21
-133.67041405748969
 31
0.0
  0
POINT
  5
EC
  8
DEFPOINTS
  6
CONTINUOUS
 62
     7
 10
41.999999999992248
 20
-208.64452690559341
 30
0.0
  0
POINT
  5
ED
  8
DEFPOINTS
  6
CONTINUOUS
 62
     7
 10
201.9999999999913
 20
-208.64452690559341
 30
0.0
  0
POINT
  5
EE
  8
DEFPOINTS
  6
CONTINUOUS
 62
     7
 10
201.9999999999913
 20
-153.67041405748969
 30
0.0
  0
LINE
  5
EF
  8
NOTE
  6
CONTINUOUS
 62
     4
 10
104.232966687125
 20
364.21124971434762
 30
0.0
 11
75.694397204501456
 21
364.21124971434762
 31
0.0
  0
LINE
  5
F0
  8
NOTE
  6
CONTINUOUS
 62
     4
 10
75.694397204501456
 20
364.21124971434762
 30
0.0
 11
75.694397204500547
 21
330.46905491849378
 31
0.0
  0
LINE
  5
F1
  8
NOTE
  6
CONTINUOUS
 62
     4
 10
104.232966687125
 20
364.21124971434762
 30
0.0
 11
104.2329666871241
 21
330.46905491849378
 31
0.0
  0
LINE
  5
F2
  8
NOTE
  6
CONTINUOUS
 62
     4
 10
75.694397204500547
 20
330.46905491849378
 30
0.0
 11
60.236342544646952
 21
330.46905491849378
 31
0.0
  0
LINE
  5
F3
  8
NOTE
  6
CONTINUOUS
 62
     4
 10
89.963681945812354
 20
299.89102452970968
 30
0.0
 11
60.236342544646952
 21
330.46905491849378
 31
0.0
  0
LINE
  5
F4
  8
NOTE
  6
CONTINUOUS
 62
     4
 10
104.23296668712599
 20
330.46905491849009
 30
0.0
 11
119.69102134697771
 21
330.46905491848838
 31
0.0
  0
LINE
  5
F5
  8
NOTE
  6
CONTINUOUS
 62
     4
 10
89.963681945807821
 20
299.89102452970968
 30
0.0
 11
119.69102134697771
 21
330.46905491848838
 31
0.0
  0
TEXT
  5
F6
  8
NOTE
  6
CONTINUOUS
 62
     4
 10
132.6997338308133
 20
306.04535354962479
 30
0.0
 40
55.0
  1
吸込
 50
0.0000025044165917
 41
0.7
  7
STANDARD1
  0
LINE
  5
F7
  8
NOTE
  6
CONTINUOUS
 62
     4
 10
84.317129348669809
 20
-254.82513152340329
 30
0.0
 11
55.77855986604618
 21
-254.82513152340329
 31
0.0
  0
LINE
  5
F8
  8
NOTE
  6
CONTINUOUS
 62
     4
 10
55.77855986604618
 20
-254.82513152340329
 30
0.0
 11
55.778559866045292
 21
-288.56732631925701
 31
0.0
  0
LINE
  5
F9
  8
NOTE
  6
CONTINUOUS
 62
     4
 10
84.317129348669809
 20
-254.82513152340329
 30
0.0
 11
84.317129348668914
 21
-288.56732631925701
 31
0.0
  0
LINE
  5
FA
  8
NOTE
  6
CONTINUOUS
 62
     4
 10
55.778559866045292
 20
-288.56732631925701
 30
0.0
 11
40.320505206191683
 21
-288.56732631925701
 31
0.0
  0
LINE
  5
FB
  8
NOTE
  6
CONTINUOUS
 62
     4
 10
70.047844607357092
 20
-319.14535670804111
 30
0.0
 11
40.320505206191683
 21
-288.56732631925701
 31
0.0
  0
LINE
  5
FC
  8
NOTE
  6
CONTINUOUS
 62
     4
 10
84.317129348670733
 20
-288.56732631926059
 30
0.0
 11
99.775184008522487
 21
-288.56732631926252
 31
0.0
  0
LINE
  5
FD
  8
NOTE
  6
CONTINUOUS
 62
     4
 10
70.047844607352545
 20
-319.14535670804111
 30
0.0
 11
99.775184008522487
 21
-288.56732631926252
 31
0.0
  0
TEXT
  5
FE
  8
NOTE
  6
CONTINUOUS
 62
     4
 10
112.783896492358
 20
-317.20705710713668
 30
0.0
 40
55.0
  1
吹出
 50
0.0000025044165917
 41
0.7
  7
STANDARD1
  0
LINE
  5
FF
  8
SIZE
  6
CONTINUOUS
 62
    30
 10
-420.00000000000011
 20
-220.00000000000219
 30
0.0
 11
-420.00000000000011
 21
-540.11635305924801
 31
0.0
  0
LINE
  5
100
  8
SIZE
  6
CONTINUOUS
 62
    30
 10
-23.00000000000772
 20
-260.00000000000227
 30
0.0
 11
-23.000000000007741
 21
-540.11635305924801
 31
0.0
  0
LINE
  5
101
  8
SIZE
  6
CONTINUOUS
 62
    30
 10
-420.00000000000011
 20
-520.11635305924801
 30
0.0
 11
-23.000000000007741
 21
-520.11635305924801
 31
0.0
  0
CIRCLE
  5
102
  8
SIZE
  6
CONTINUOUS
 62
    30
 10
-420.00000000000011
 20
-520.11635305924801
 30
0.0
 40
7.5
  0
CIRCLE
  5
103
  8
SIZE
  6
CONTINUOUS
 62
    30
 10
-23.000000000007741
 20
-520.11635305924801
 30
0.0
 40
7.5
  0
TEXT
  5
104
  8
SIZE
  6
CONTINUOUS
 62
    30
 10
-285.1428571428612
 20
-500.1163530592479
 30
0.0
 40
55.0
  1
397
 41
0.9
 72
     1
 11
-221.50000000000409
 21
-500.1163530592479
 31
0.0
  0
POINT
  5
105
  8
DEFPOINTS
  6
CONTINUOUS
 62
     7
 10
-420.00000000000011
 20
-200.00000000000219
 30
0.0
  0
POINT
  5
106
  8
DEFPOINTS
  6
CONTINUOUS
 62
     7
 10
-23.00000000000772
 20
-240.0000000000023
 30
0.0
  0
POINT
  5
107
  8
DEFPOINTS
  6
CONTINUOUS
 62
     7
 10
-23.000000000007741
 20
-520.11635305924801
 30
0.0
  0
LINE
  5
108
  8
SIZE
  6
CONTINUOUS
 62
    30
 10
-23.00000000000772
 20
-260.00000000000227
 30
0.0
 11
-23.000000000007741
 21
-540.11635305924801
 31
0.0
  0
LINE
  5
109
  8
SIZE
  6
CONTINUOUS
 62
    30
 10
265.9999999999921
 20
-260.00000000000227
 30
0.0
 11
265.9999999999921
 21
-540.11635305924801
 31
0.0
  0
LINE
  5
10A
  8
SIZE
  6
CONTINUOUS
 62
    30
 10
-23.000000000007741
 20
-520.11635305924801
 30
0.0
 11
265.9999999999921
 21
-520.11635305924801
 31
0.0
  0
CIRCLE
  5
10B
  8
SIZE
  6
CONTINUOUS
 62
    30
 10
-23.000000000007741
 20
-520.11635305924801
 30
0.0
 40
7.5
  0
CIRCLE
  5
10C
  8
SIZE
  6
CONTINUOUS
 62
    30
 10
265.9999999999921
 20
-520.11635305924801
 30
0.0
 40
7.5
  0
TEXT
  5
10D
  8
SIZE
  6
CONTINUOUS
 62
    30
 10
59.03571428570649
 20
-500.1163530592479
 30
0.0
 40
55.0
  1
289
 41
0.9
 72
     1
 11
121.4999999999922
 21
-500.1163530592479
 31
0.0
  0
POINT
  5
10E
  8
DEFPOINTS
  6
CONTINUOUS
 62
     7
 10
-23.00000000000772
 20
-240.0000000000023
 30
0.0
  0
POINT
  5
10F
  8
DEFPOINTS
  6
CONTINUOUS
 62
     7
 10
265.9999999999921
 20
-240.0000000000023
 30
0.0
  0
POINT
  5
110
  8
DEFPOINTS
  6
CONTINUOUS
 62
     7
 10
265.9999999999921
 20
-520.11635305924801
 30
0.0
  0
LINE
  5
111
  8
SIZE
  6
CONTINUOUS
 62
    30
 10
238.3554730943992
 20
-225.00000000000131
 30
0.0
 11
356.12946457001038
 21
-225.00000000000131
 31
0.0
  0
LINE
  5
112
  8
SIZE
  6
CONTINUOUS
 62
    30
 10
400.0000000000004
 20
-200.00000000000219
 30
0.0
 11
316.12946457001038
 21
-200.00000000000219
 31
0.0
  0
LINE
  5
113
  8
SIZE
  6
CONTINUOUS
 62
    30
 10
336.12946457001038
 20
-225.00000000000131
 30
0.0
 11
336.12946457001038
 21
-255.00000000000139
 31
0.0
  0
LINE
  5
114
  8
SIZE
  6
CONTINUOUS
 62
    30
 10
336.12946457001038
 20
-200.00000000000219
 30
0.0
 11
336.12946457001038
 21
-19.857142857145138
 31
0.0
  0
LINE
  5
115
  8
SIZE
  6
CONTINUOUS
 62
    30
 10
336.12946457001038
 20
-225.00000000000131
 30
0.0
 11
336.12946457001038
 21
-200.00000000000219
 31
0.0
  0
CIRCLE
  5
116
  8
SIZE
  6
CONTINUOUS
 62
    30
 10
336.12946457001038
 20
-225.00000000000131
 30
0.0
 40
7.5
  0
CIRCLE
  5
117
  8
SIZE
  6
CONTINUOUS
 62
    30
 10
336.12946457001038
 20
-200.00000000000219
 30
0.0
 40
7.5
  0
TEXT
  5
118
  8
SIZE
  6
CONTINUOUS
 62
    30
 10
316.12946457001038
 20
-120.0000000000022
 30
0.0
 40
55.0
  1
25
 50
90.0
 41
0.9
 72
     1
 11
316.12946457001038
 21
-79.928571428573633
 31
0.0
  0
POINT
  5
119
  8
DEFPOINTS
  6
CONTINUOUS
 62
     7
 10
218.3554730943992
 20
-225.00000000000131
 30
0.0
  0
POINT
  5
11A
  8
DEFPOINTS
  6
CONTINUOUS
 62
     7
 10
420.00000000000011
 20
-200.00000000000219
 30
0.0
  0
POINT
  5
11B
  8
DEFPOINTS
  6
CONTINUOUS
 62
     7
 10
336.12946457001038
 20
-200.00000000000219
 30
0.0
  0
LINE
  5
11C
  8
SIZE
  6
CONTINUOUS
 62
    30
 10
440.00000000000023
 20
-200.00000000000219
 30
0.0
 11
914.25281376766679
 21
-200.0000000000023
 31
0.0
  0
LINE
  5
11D
  8
SIZE
  6
CONTINUOUS
 62
    30
 10
286.99999999999602
 20
-240.0000000000023
 30
0.0
 11
914.25281376766679
 21
-240.00000000000239
 31
0.0
  0
LINE
  5
11E
  8
SIZE
  6
CONTINUOUS
 62
    30
 10
894.25281376766645
 20
-200.0000000000023
 30
0.0
 11
894.25281376766645
 21
-240.00000000000239
 31
0.0
  0
LINE
  5
11F
  8
SIZE
  6
CONTINUOUS
 62
    30
 10
894.25281376766645
 20
-240.00000000000239
 30
0.0
 11
894.25281376766645
 21
-390.1428571428595
 31
0.0
  0
CIRCLE
  5
120
  8
SIZE
  6
CONTINUOUS
 62
    30
 10
894.25281376766645
 20
-200.0000000000023
 30
0.0
 40
7.5
  0
CIRCLE
  5
121
  8
SIZE
  6
CONTINUOUS
 62
    30
 10
894.25281376766645
 20
-240.00000000000239
 30
0.0
 40
7.5
  0
TEXT
  5
122
  8
SIZE
  6
CONTINUOUS
 62
    30
 10
874.25281376766702
 20
-370.14285714285938
 30
0.0
 40
55.0
  1
40
 50
90.0
 41
0.9
 72
     1
 11
874.25281376766702
 21
-330.07142857143077
 31
0.0
  0
POINT
  5
123
  8
DEFPOINTS
  6
CONTINUOUS
 62
     7
 10
420.00000000000011
 20
-200.00000000000219
 30
0.0
  0
POINT
  5
124
  8
DEFPOINTS
  6
CONTINUOUS
 62
     7
 10
266.99999999999591
 20
-240.0000000000023
 30
0.0
  0
POINT
  5
125
  8
DEFPOINTS
  6
CONTINUOUS
 62
     7
 10
894.25281376766645
 20
-240.00000000000239
 30
0.0
  0
LINE
  5
126
  8
SIZE
  6
CONTINUOUS
 62
    30
 10
440.00000000000023
 20
199.99999999999761
 30
0.0
 11
914.25281376766679
 21
199.99999999999741
 31
0.0
  0
LINE
  5
127
  8
SIZE
  6
CONTINUOUS
 62
    30
 10
440.00000000000023
 20
-200.00000000000219
 30
0.0
 11
914.25281376766679
 21
-200.0000000000023
 31
0.0
  0
LINE
  5
128
  8
SIZE
  6
CONTINUOUS
 62
    30
 10
894.25281376766645
 20
199.99999999999741
 30
0.0
 11
894.25281376766645
 21
-200.0000000000023
 31
0.0
  0
CIRCLE
  5
129
  8
SIZE
  6
CONTINUOUS
 62
    30
 10
894.25281376766645
 20
199.99999999999741
 30
0.0
 40
7.5
  0
CIRCLE
  5
12A
  8
SIZE
  6
CONTINUOUS
 62
    30
 10
894.25281376766645
 20
-200.0000000000023
 30
0.0
 40
7.5
  0
TEXT
  5
12B
  8
SIZE
  6
CONTINUOUS
 62
    30
 10
874.25281376766702
 20
-63.642857142859398
 30
0.0
 40
55.0
  1
400
 50
90.0
 41
0.9
 72
     1
 11
874.25281376766702
 21
-0.0000000000022675
 31
0.0
  0
POINT
  5
12C
  8
DEFPOINTS
  6
CONTINUOUS
 62
     7
 10
420.00000000000011
 20
199.99999999999761
 30
0.0
  0
POINT
  5
12D
  8
DEFPOINTS
  6
CONTINUOUS
 62
     7
 10
420.00000000000011
 20
-200.00000000000219
 30
0.0
  0
POINT
  5
12E
  8
DEFPOINTS
  6
CONTINUOUS
 62
     7
 10
894.25281376766645
 20
-200.0000000000023
 30
0.0
  0
TEXT
  5
12F
  8
SIZE
  6
CONTINUOUS
 62
    30
 10
796.71119725770177
 20
-132.35214613829291
 30
0.0
 40
55.0
  1
<本体寸法>
 50
90.000002504416585
 41
0.8
  7
STANDARD1
  0
LINE
  5
130
  8
SIZE
  6
CONTINUOUS
 62
    30
 10
-440.00000000000023
 20
-200.00000000000219
 30
0.0
 11
-622.56948824341475
 21
-200.00000000000219
 31
0.0
  0
LINE
  5
131
  8
SIZE
  6
CONTINUOUS
 62
    30
 10
-460.0000000000004
 20
-210.00000000000219
 30
0.0
 11
-622.56948824341475
 21
-210.00000000000219
 31
0.0
  0
LINE
  5
132
  8
SIZE
  6
CONTINUOUS
 62
    30
 10
-602.56948824341498
 20
-200.00000000000219
 30
0.0
 11
-602.56948824341498
 21
-170.00000000000219
 31
0.0
  0
LINE
  5
133
  8
SIZE
  6
CONTINUOUS
 62
    30
 10
-602.56948824341498
 20
-210.00000000000219
 30
0.0
 11
-602.56948824341509
 21
-380.714285714288
 31
0.0
  0
LINE
  5
134
  8
SIZE
  6
CONTINUOUS
 62
    30
 10
-602.56948824341498
 20
-200.00000000000219
 30
0.0
 11
-602.56948824341498
 21
-210.00000000000219
 31
0.0
  0
CIRCLE
  5
135
  8
SIZE
  6
CONTINUOUS
 62
    30
 10
-602.56948824341498
 20
-200.00000000000219
 30
0.0
 40
7.5
  0
CIRCLE
  5
136
  8
SIZE
  6
CONTINUOUS
 62
    30
 10
-602.56948824341498
 20
-210.00000000000219
 30
0.0
 40
7.5
  0
TEXT
  5
137
  8
SIZE
  6
CONTINUOUS
 62
    30
 10
-622.56948824341475
 20
-360.71428571428788
 30
0.0
 40
55.0
  1
10
 50
90.0
 41
0.9
 72
     1
 11
-622.56948824341475
 21
-325.35714285714511
 31
0.0
  0
POINT
  5
138
  8
DEFPOINTS
  6
CONTINUOUS
 62
     7
 10
-420.00000000000011
 20
-200.00000000000219
 30
0.0
  0
POINT
  5
139
  8
DEFPOINTS
  6
CONTINUOUS
 62
     7
 10
-440.00000000000023
 20
-210.00000000000219
 30
0.0
  0
POINT
  5
13A
  8
DEFPOINTS
  6
CONTINUOUS
 62
     7
 10
-602.56948824341498
 20
-210.00000000000219
 30
0.0
  0
LINE
  5
13B
  8
SIZE
  6
CONTINUOUS
 62
    30
 10
-475.3554730944054
 20
-100.0000000000031
 30
0.0
 11
-734.11410393351673
 21
-100.0000000000031
 31
0.0
  0
LINE
  5
13C
  8
SIZE
  6
CONTINUOUS
 62
    30
 10
-475.3554730944054
 20
99.999999999996803
 30
0.0
 11
-734.11410393351673
 21
99.999999999996945
 31
0.0
  0
LINE
  5
13D
  8
SIZE
  6
CONTINUOUS
 62
    30
 10
-714.11410393351673
 20
-100.0000000000031
 30
0.0
 11
-714.11410393351673
 21
99.999999999996945
 31
0.0
  0
CIRCLE
  5
13E
  8
SIZE
  6
CONTINUOUS
 62
    30
 10
-714.11410393351673
 20
-100.0000000000031
 30
0.0
 40
7.5
  0
CIRCLE
  5
13F
  8
SIZE
  6
CONTINUOUS
 62
    30
 10
-714.11410393351673
 20
99.999999999996945
 30
0.0
 40
7.5
  0
TEXT
  5
140
  8
SIZE
  6
CONTINUOUS
 62
    30
 10
-734.11410393351673
 20
-63.64285714286035
 30
0.0
 40
55.0
  1
200
 50
90.0
 41
0.9
 72
     1
 11
-734.11410393351673
 21
-0.0000000000032207
 31
0.0
  0
POINT
  5
141
  8
DEFPOINTS
  6
CONTINUOUS
 62
     7
 10
-455.35547309440551
 20
-100.0000000000031
 30
0.0
  0
POINT
  5
142
  8
DEFPOINTS
  6
CONTINUOUS
 62
     7
 10
-455.35547309440551
 20
99.999999999996803
 30
0.0
  0
POINT
  5
143
  8
DEFPOINTS
  6
CONTINUOUS
 62
     7
 10
-714.11410393351673
 20
99.999999999996945
 30
0.0
  0
LINE
  5
144
  8
SIZE
  6
CONTINUOUS
 62
    30
 10
-458.99999999999659
 20
-210.00000000000219
 30
0.0
 11
-944.31170670254915
 21
-210.0000000000021
 31
0.0
  0
LINE
  5
145
  8
SIZE
  6
CONTINUOUS
 62
    30
 10
-460.0000000000004
 20
209.99999999999761
 30
0.0
 11
-944.31170670254915
 21
209.99999999999781
 31
0.0
  0
LINE
  5
146
  8
SIZE
  6
CONTINUOUS
 62
    30
 10
-924.31170670254915
 20
-210.0000000000021
 30
0.0
 11
-924.31170670254915
 21
209.99999999999781
 31
0.0
  0
CIRCLE
  5
147
  8
SIZE
  6
CONTINUOUS
 62
    30
 10
-924.31170670254915
 20
-210.0000000000021
 30
0.0
 40
7.5
  0
CIRCLE
  5
148
  8
SIZE
  6
CONTINUOUS
 62
    30
 10
-924.31170670254915
 20
209.99999999999781
 30
0.0
 40
7.5
  0
TEXT
  5
149
  8
SIZE
  6
CONTINUOUS
 62
    30
 10
-944.31170670254915
 20
-63.642857142859398
 30
0.0
 40
55.0
  1
420
 50
90.0
 41
0.9
 72
     1
 11
-944.31170670254915
 21
-0.0000000000022699
 31
0.0
  0
POINT
  5
14A
  8
DEFPOINTS
  6
CONTINUOUS
 62
     7
 10
-438.99999999999682
 20
-210.00000000000219
 30
0.0
  0
POINT
  5
14B
  8
DEFPOINTS
  6
CONTINUOUS
 62
     7
 10
-440.00000000000023
 20
209.99999999999761
 30
0.0
  0
POINT
  5
14C
  8
DEFPOINTS
  6
CONTINUOUS
 62
     7
 10
-924.31170670254915
 20
209.99999999999781
 30
0.0
  0
LINE
  5
14D
  8
SIZE
  6
CONTINUOUS
 62
    30
 10
-475.3554730944054
 20
-100.0000000000031
 30
0.0
 11
-734.11410393351673
 21
-100.0000000000031
 31
0.0
  0
LINE
  5
14E
  8
SIZE
  6
CONTINUOUS
 62
    30
 10
-440.00000000000023
 20
-200.00000000000219
 30
0.0
 11
-734.11410393351673
 21
-200.0000000000021
 31
0.0
  0
LINE
  5
14F
  8
SIZE
  6
CONTINUOUS
 62
    30
 10
-714.11410393351673
 20
-100.0000000000031
 30
0.0
 11
-714.11410393351673
 21
-200.0000000000021
 31
0.0
  0
LINE
  5
150
  8
SIZE
  6
CONTINUOUS
 62
    30
 10
-714.11410393351673
 20
-200.0000000000021
 30
0.0
 11
-714.11410393351673
 21
-387.85714285714488
 31
0.0
  0
CIRCLE
  5
151
  8
SIZE
  6
CONTINUOUS
 62
    30
 10
-714.11410393351673
 20
-100.0000000000031
 30
0.0
 40
7.5
  0
CIRCLE
  5
152
  8
SIZE
  6
CONTINUOUS
 62
    30
 10
-714.11410393351673
 20
-200.0000000000021
 30
0.0
 40
7.5
  0
TEXT
  5
153
  8
SIZE
  6
CONTINUOUS
 62
    30
 10
-734.11410393351673
 20
-367.85714285714511
 30
0.0
 40
55.0
  1
100
 50
90.0
 41
0.9
 72
     1
 11
-734.11410393351673
 21
-308.92857142857372
 31
0.0
  0
POINT
  5
154
  8
DEFPOINTS
  6
CONTINUOUS
 62
     7
 10
-455.35547309440551
 20
-100.0000000000031
 30
0.0
  0
POINT
  5
155
  8
DEFPOINTS
  6
CONTINUOUS
 62
     7
 10
-420.00000000000011
 20
-200.00000000000219
 30
0.0
  0
POINT
  5
156
  8
DEFPOINTS
  6
CONTINUOUS
 62
     7
 10
-714.11410393351673
 20
-200.0000000000021
 30
0.0
  0
TEXT
  5
157
  8
SIZE
  6
CONTINUOUS
 62
    30
 10
-803.35824882963573
 20
-162.0921259208157
 30
0.0
 40
55.0
  1
<吊下げ寸法>
 50
90.000002504416585
 41
0.8
  7
STANDARD1
  0
TEXT
  5
158
  8
SIZE
  6
CONTINUOUS
 62
    30
 10
-1013.749247624492
 20
-213.55960960578199
 30
0.0
 40
55.0
  1
<ドレンパン寸法>
 50
90.000002504416585
 41
0.8
  7
STANDARD1
  0
LINE
  5
159
  8
SIZE
  6
CONTINUOUS
 62
    30
 10
-460.0000000000004
 20
209.99999999999761
 30
0.0
 11
-944.31170670254915
 21
209.99999999999781
 31
0.0
  0
LINE
  5
15A
  8
SIZE
  6
CONTINUOUS
 62
    30
 10
-460.35547309441631
 20
249.9999999999977
 30
0.0
 11
-944.31170670254915
 21
249.99999999999781
 31
0.0
  0
LINE
  5
15B
  8
SIZE
  6
CONTINUOUS
 62
    30
 10
-924.31170670254915
 20
209.99999999999781
 30
0.0
 11
-924.31170670254915
 21
249.99999999999781
 31
0.0
  0
LINE
  5
15C
  8
SIZE
  6
CONTINUOUS
 62
    30
 10
-924.31170670254915
 20
249.99999999999781
 30
0.0
 11
-924.31170670254903
 21
400.14285714285501
 31
0.0
  0
CIRCLE
  5
15D
  8
SIZE
  6
CONTINUOUS
 62
    30
 10
-924.31170670254915
 20
209.99999999999781
 30
0.0
 40
7.5
  0
CIRCLE
  5
15E
  8
SIZE
  6
CONTINUOUS
 62
    30
 10
-924.31170670254915
 20
249.99999999999781
 30
0.0
 40
7.5
  0
TEXT
  5
15F
  8
SIZE
  6
CONTINUOUS
 62
    30
 10
-944.31170670254915
 20
299.99999999999773
 30
0.0
 40
55.0
  1
40
 50
90.0
 41
0.9
 72
     1
 11
-944.31170670254915
 21
340.07142857142622
 31
0.0
  0
POINT
  5
160
  8
DEFPOINTS
  6
CONTINUOUS
 62
     7
 10
-440.00000000000023
 20
209.99999999999761
 30
0.0
  0
POINT
  5
161
  8
DEFPOINTS
  6
CONTINUOUS
 62
     7
 10
-440.35547309441631
 20
249.9999999999977
 30
0.0
  0
POINT
  5
162
  8
DEFPOINTS
  6
CONTINUOUS
 62
     7
 10
-924.31170670254915
 20
249.99999999999781
 30
0.0
  0
LINE
  5
163
  8
SIZE
  6
CONTINUOUS
 62
    30
 10
-440.00000000000023
 20
199.99999999999761
 30
0.0
 11
-767.19760413504673
 21
199.99999999999781
 31
0.0
  0
LINE
  5
164
  8
SIZE
  6
CONTINUOUS
 62
    30
 10
-435.35547309441102
 20
239.9999999999977
 30
0.0
 11
-767.19760413504673
 21
239.99999999999781
 31
0.0
  0
LINE
  5
165
  8
SIZE
  6
CONTINUOUS
 62
    30
 10
-747.19760413504673
 20
199.99999999999781
 30
0.0
 11
-747.19760413504673
 21
239.99999999999781
 31
0.0
  0
LINE
  5
166
  8
SIZE
  6
CONTINUOUS
 62
    30
 10
-747.19760413504673
 20
239.99999999999781
 30
0.0
 11
-747.1976041350465
 21
390.14285714285489
 31
0.0
  0
CIRCLE
  5
167
  8
SIZE
  6
CONTINUOUS
 62
    30
 10
-747.19760413504673
 20
199.99999999999781
 30
0.0
 40
7.5
  0
CIRCLE
  5
168
  8
SIZE
  6
CONTINUOUS
 62
    30
 10
-747.19760413504673
 20
239.99999999999781
 30
0.0
 40
7.5
  0
TEXT
  5
169
  8
SIZE
  6
CONTINUOUS
 62
    30
 10
-767.19760413504673
 20
289.99999999999773
 30
0.0
 40
55.0
  1
40
 50
90.0
 41
0.9
 72
     1
 11
-767.19760413504673
 21
330.07142857142622
 31
0.0
  0
POINT
  5
16A
  8
DEFPOINTS
  6
CONTINUOUS
 62
     7
 10
-420.00000000000011
 20
199.99999999999761
 30
0.0
  0
POINT
  5
16B
  8
DEFPOINTS
  6
CONTINUOUS
 62
     7
 10
-415.35547309441108
 20
239.9999999999977
 30
0.0
  0
POINT
  5
16C
  8
DEFPOINTS
  6
CONTINUOUS
 62
     7
 10
-747.19760413504673
 20
239.99999999999781
 30
0.0
  0
LINE
  5
16D
  8
SIZE
  6
CONTINUOUS
 62
    30
 10
-420.00000000000011
 20
219.9999999999977
 30
0.0
 11
-420.00000000000011
 21
452.84695423562272
 31
0.0
  0
LINE
  5
16E
  8
SIZE
  6
CONTINUOUS
 62
    30
 10
-425.00000000001108
 20
286.35547309440562
 30
0.0
 11
-425.00000000001108
 21
452.84695423562272
 31
0.0
  0
LINE
  5
16F
  8
SIZE
  6
CONTINUOUS
 62
    30
 10
-420.00000000000011
 20
432.84695423562289
 30
0.0
 11
-390.0000000000004
 21
432.84695423562289
 31
0.0
  0
LINE
  5
170
  8
SIZE
  6
CONTINUOUS
 62
    30
 10
-425.00000000001108
 20
432.84695423562289
 30
0.0
 11
-558.00000000001125
 21
432.84695423562289
 31
0.0
  0
LINE
  5
171
  8
SIZE
  6
CONTINUOUS
 62
    30
 10
-420.00000000000011
 20
432.84695423562289
 30
0.0
 11
-425.00000000001108
 21
432.84695423562289
 31
0.0
  0
CIRCLE
  5
172
  8
SIZE
  6
CONTINUOUS
 62
    30
 10
-420.00000000000011
 20
432.84695423562289
 30
0.0
 40
7.5
  0
CIRCLE
  5
173
  8
SIZE
  6
CONTINUOUS
 62
    30
 10
-425.00000000001108
 20
432.84695423562289
 30
0.0
 40
7.5
  0
TEXT
  5
174
  8
SIZE
  6
CONTINUOUS
 62
    30
 10
-538.00000000001125
 20
452.84695423562272
 30
0.0
 40
55.0
  1
5
 41
0.9
 72
     1
 11
-521.50000000001125
 21
452.84695423562272
 31
0.0
  0
POINT
  5
175
  8
DEFPOINTS
  6
CONTINUOUS
 62
     7
 10
-420.00000000000011
 20
199.99999999999761
 30
0.0
  0
POINT
  5
176
  8
DEFPOINTS
  6
CONTINUOUS
 62
     7
 10
-425.00000000001108
 20
266.35547309440562
 30
0.0
  0
POINT
  5
177
  8
DEFPOINTS
  6
CONTINUOUS
 62
     7
 10
-425.00000000001108
 20
432.84695423562289
 30
0.0
  0
LINE
  5
178
  8
SIZE
  6
CONTINUOUS
 62
    30
 10
-420.00000000000011
 20
219.9999999999977
 30
0.0
 11
-420.00000000000011
 21
452.84695423562272
 31
0.0
  0
LINE
  5
179
  8
SIZE
  6
CONTINUOUS
 62
    30
 10
-400.00000000000591
 20
276.35547309440562
 30
0.0
 11
-400.00000000000591
 21
452.84695423562272
 31
0.0
  0
LINE
  5
17A
  8
SIZE
  6
CONTINUOUS
 62
    30
 10
-420.00000000000011
 20
432.84695423562289
 30
0.0
 11
-450.0000000000004
 21
432.84695423562289
 31
0.0
  0
LINE
  5
17B
  8
SIZE
  6
CONTINUOUS
 62
    30
 10
-400.00000000000591
 20
432.84695423562289
 30
0.0
 11
-219.85714285714869
 21
432.84695423562289
 31
0.0
  0
LINE
  5
17C
  8
SIZE
  6
CONTINUOUS
 62
    30
 10
-420.00000000000011
 20
432.84695423562289
 30
0.0
 11
-400.00000000000591
 21
432.84695423562289
 31
0.0
  0
CIRCLE
  5
17D
  8
SIZE
  6
CONTINUOUS
 62
    30
 10
-420.00000000000011
 20
432.84695423562289
 30
0.0
 40
7.5
  0
CIRCLE
  5
17E
  8
SIZE
  6
CONTINUOUS
 62
    30
 10
-400.00000000000591
 20
432.84695423562289
 30
0.0
 40
7.5
  0
TEXT
  5
17F
  8
SIZE
  6
CONTINUOUS
 62
    30
 10
-320.00000000000591
 20
452.84695423562272
 30
0.0
 40
55.0
  1
20
 41
0.9
 72
     1
 11
-279.9285714285773
 21
452.84695423562272
 31
0.0
  0
POINT
  5
180
  8
DEFPOINTS
  6
CONTINUOUS
 62
     7
 10
-420.00000000000011
 20
199.99999999999761
 30
0.0
  0
POINT
  5
181
  8
DEFPOINTS
  6
CONTINUOUS
 62
     7
 10
-400.00000000000591
 20
256.35547309440562
 30
0.0
  0
POINT
  5
182
  8
DEFPOINTS
  6
CONTINUOUS
 62
     7
 10
-400.00000000000591
 20
432.84695423562289
 30
0.0
  0
LINE
  5
183
  8
SIZE
  6
CONTINUOUS
 62
    30
 10
-349.0000000000004
 20
388.52278582692821
 30
0.0
 11
-349.0000000000004
 21
560.02311016225713
 31
0.0
  0
LINE
  5
184
  8
SIZE
  6
CONTINUOUS
 62
    30
 10
-420.00000000000011
 20
219.9999999999977
 30
0.0
 11
-420.00000000000011
 21
560.02311016225713
 31
0.0
  0
LINE
  5
185
  8
SIZE
  6
CONTINUOUS
 62
    30
 10
-349.0000000000004
 20
540.02311016225713
 30
0.0
 11
-420.00000000000011
 21
540.02311016225713
 31
0.0
  0
LINE
  5
186
  8
SIZE
  6
CONTINUOUS
 62
    30
 10
-420.00000000000011
 20
540.02311016225713
 30
0.0
 11
-548.9285714285719
 21
540.02311016225713
 31
0.0
  0
CIRCLE
  5
187
  8
SIZE
  6
CONTINUOUS
 62
    30
 10
-349.0000000000004
 20
540.02311016225713
 30
0.0
 40
7.5
  0
CIRCLE
  5
188
  8
SIZE
  6
CONTINUOUS
 62
    30
 10
-420.00000000000011
 20
540.02311016225713
 30
0.0
 40
7.5
  0
TEXT
  5
189
  8
SIZE
  6
CONTINUOUS
 62
    30
 10
-528.9285714285719
 20
560.02311016225713
 30
0.0
 40
55.0
  1
71
 41
0.9
 72
     1
 11
-499.46428571428618
 21
560.02311016225713
 31
0.0
  0
POINT
  5
18A
  8
DEFPOINTS
  6
CONTINUOUS
 62
     7
 10
-349.0000000000004
 20
287.99999999999682
 30
0.0
  0
POINT
  5
18B
  8
DEFPOINTS
  6
CONTINUOUS
 62
     7
 10
-420.00000000000011
 20
199.99999999999761
 30
0.0
  0
POINT
  5
18C
  8
DEFPOINTS
  6
CONTINUOUS
 62
     7
 10
-420.00000000000011
 20
540.02311016225713
 30
0.0
  0
LINE
  5
18D
  8
SIZE
  6
CONTINUOUS
 62
    30
 10
-349.0000000000004
 20
388.52278582692821
 30
0.0
 11
-349.0000000000004
 21
560.02311016225713
 31
0.0
  0
LINE
  5
18E
  8
SIZE
  6
CONTINUOUS
 62
    30
 10
-115.0000000000045
 20
387.52894510434629
 30
0.0
 11
-115.0000000000045
 21
560.02311016225713
 31
0.0
  0
LINE
  5
18F
  8
SIZE
  6
CONTINUOUS
 62
    30
 10
-349.0000000000004
 20
540.02311016225713
 30
0.0
 11
-115.0000000000045
 21
540.02311016225713
 31
0.0
  0
CIRCLE
  5
190
  8
SIZE
  6
CONTINUOUS
 62
    30
 10
-349.0000000000004
 20
540.02311016225713
 30
0.0
 40
7.5
  0
CIRCLE
  5
191
  8
SIZE
  6
CONTINUOUS
 62
    30
 10
-115.0000000000045
 20
540.02311016225713
 30
0.0
 40
7.5
  0
TEXT
  5
192
  8
SIZE
  6
CONTINUOUS
 62
    30
 10
-299.32142857142901
 20
560.02311016225713
 30
0.0
 40
55.0
  1
234
 41
0.9
 72
     1
 11
-234.5000000000004
 21
560.02311016225713
 31
0.0
  0
POINT
  5
193
  8
DEFPOINTS
  6
CONTINUOUS
 62
     7
 10
-349.0000000000004
 20
287.99999999999682
 30
0.0
  0
POINT
  5
195
  8
DEFPOINTS
  6
CONTINUOUS
 62
     7
 10
-115.0000000000045
 20
540.02311016225713
 30
0.0
  0
LINE
  5
196
  8
SIZE
  6
CONTINUOUS
 62
    30
 10
-438.99999999999682
 20
-136.35547309441191
 30
0.0
 11
-438.99999999999682
 21
-793.78847220050568
 31
0.0
  0
LINE
  5
197
  8
SIZE
  6
CONTINUOUS
 62
    30
 10
438.99999999999562
 20
-136.35547309441191
 30
0.0
 11
438.99999999999562
 21
-793.78847220050568
 31
0.0
  0
LINE
  5
198
  8
SIZE
  6
CONTINUOUS
 62
    30
 10
-438.99999999999682
 20
-773.78847220050557
 30
0.0
 11
438.99999999999562
 21
-773.78847220050557
 31
0.0
  0
CIRCLE
  5
199
  8
SIZE
  6
CONTINUOUS
 62
    30
 10
-438.99999999999682
 20
-773.78847220050557
 30
0.0
 40
7.5
  0
CIRCLE
  5
19A
  8
SIZE
  6
CONTINUOUS
 62
    30
 10
438.99999999999562
 20
-773.78847220050557
 30
0.0
 40
7.5
  0
TEXT
  5
19B
  8
SIZE
  6
CONTINUOUS
 62
    30
 10
-218.81707553185569
 20
-753.78847220050579
 30
0.0
 40
55.0
  1
878
 41
0.9
 72
     1
 11
-155.17421838899861
 21
-753.78847220050579
 31
0.0
  0
POINT
  5
19C
  8
DEFPOINTS
  6
CONTINUOUS
 62
     7
 10
-438.99999999999682
 20
-116.35547309441191
 30
0.0
  0
POINT
  5
19D
  8
DEFPOINTS
  6
CONTINUOUS
 62
     7
 10
438.99999999999562
 20
-116.35547309441191
 30
0.0
  0
POINT
  5
19E
  8
DEFPOINTS
  6
CONTINUOUS
 62
     7
 10
438.99999999999562
 20
-773.78847220050557
 30
0.0
  0
TEXT
  5
19F
  8
SIZE
  6
CONTINUOUS
 62
    30
 10
-54.834551930005091
 20
-628.73549782181135
 30
0.0
 40
55.0
  1
<本体寸法>
 50
0.0000025044165917
 41
0.8
  7
STANDARD1
  0
TEXT
  5
1A0
  8
SIZE
  6
CONTINUOUS
 62
    30
 10
-70.061094636316284
 20
-754.40481955091082
 30
0.0
 40
55.0
  1
<吊下げ寸法>
 50
0.0000025044165917
 41
0.8
  7
STANDARD1
  0
LINE
  5
1A1
  8
SIZE
  6
CONTINUOUS
 62
    30
 10
-440.00000000000023
 20
229.9999999999977
 30
0.0
 11
-440.00000000000023
 21
820.64085261471689
 31
0.0
  0
LINE
  5
1A2
  8
SIZE
  6
CONTINUOUS
 62
    30
 10
437.99999999999108
 20
229.9999999999977
 30
0.0
 11
437.99999999999119
 21
818.2628420873225
 31
0.0
  0
LINE
  5
1A3
  8
SIZE
  6
CONTINUOUS
 62
    30
 10
-440.00000000000023
 20
786.0203884894255
 30
0.0
 11
437.99999999999108
 21
786.0203884894255
 31
0.0
  0
CIRCLE
  5
1A4
  8
SIZE
  6
CONTINUOUS
 62
    30
 10
-440.00000000000023
 20
786.0203884894255
 30
0.0
 40
7.5
  0
CIRCLE
  5
1A5
  8
SIZE
  6
CONTINUOUS
 62
    30
 10
437.99999999999108
 20
786.0203884894255
 30
0.0
 40
7.5
  0
TEXT
  5
1A6
  8
SIZE
  6
CONTINUOUS
 62
    30
 10
-263.90524485352461
 20
806.02038848942561
 30
0.0
 40
55.0
  1
878
 41
0.9
 72
     1
 11
-200.2623877106675
 21
806.02038848942561
 31
0.0
  0
POINT
  5
1A7
  8
DEFPOINTS
  6
CONTINUOUS
 62
     7
 10
-440.00000000000023
 20
209.99999999999761
 30
0.0
  0
POINT
  5
1A8
  8
DEFPOINTS
  6
CONTINUOUS
 62
     7
 10
437.99999999999108
 20
209.99999999999761
 30
0.0
  0
POINT
  5
1A9
  8
DEFPOINTS
  6
CONTINUOUS
 62
     7
 10
437.99999999999108
 20
786.0203884894255
 30
0.0
  0
TEXT
  5
1AA
  8
SIZE
  6
CONTINUOUS
 62
    30
 10
-118.3610111883049
 20
806.46056779848732
 30
0.0
 40
55.0
  1
<ドレンパン寸法>
 50
0.0000025044165917
 41
0.8
  7
STANDARD1
  0
LINE
  5
1AB
  8
SIZE
  6
CONTINUOUS
 62
    30
 10
-438.99999999999682
 20
-136.35547309441191
 30
0.0
 11
-438.99999999999682
 21
-793.78847220050568
 31
0.0
  0
LINE
  5
1AC
  8
SIZE
  6
CONTINUOUS
 62
    30
 10
-458.99999999999659
 20
-140.0000000000031
 30
0.0
 11
-458.99999999999659
 21
-793.78847220050568
 31
0.0
  0
LINE
  5
1AD
  8
SIZE
  6
CONTINUOUS
 62
    30
 10
-438.99999999999682
 20
-773.78847220050557
 30
0.0
 11
-408.99999999999659
 21
-773.78847220050557
 31
0.0
  0
LINE
  5
1AE
  8
SIZE
  6
CONTINUOUS
 62
    30
 10
-458.99999999999659
 20
-773.78847220050557
 30
0.0
 11
-672.19379058794357
 21
-773.78847220050557
 31
0.0
  0
LINE
  5
1AF
  8
SIZE
  6
CONTINUOUS
 62
    30
 10
-438.99999999999682
 20
-773.78847220050557
 30
0.0
 11
-458.99999999999659
 21
-773.78847220050557
 31
0.0
  0
CIRCLE
  5
1B0
  8
SIZE
  6
CONTINUOUS
 62
    30
 10
-438.99999999999682
 20
-773.78847220050557
 30
0.0
 40
7.5
  0
CIRCLE
  5
1B1
  8
SIZE
  6
CONTINUOUS
 62
    30
 10
-458.99999999999659
 20
-773.78847220050557
 30
0.0
 40
7.5
  0
TEXT
  5
1B2
  8
SIZE
  6
CONTINUOUS
 62
    30
 10
-652.19379058794357
 20
-753.78847220050579
 30
0.0
 40
55.0
  1
20
 41
0.9
 72
     1
 11
-612.12236201651513
 21
-753.78847220050579
 31
0.0
  0
POINT
  5
1B3
  8
DEFPOINTS
  6
CONTINUOUS
 62
     7
 10
-438.99999999999682
 20
-116.35547309441191
 30
0.0
  0
POINT
  5
1B4
  8
DEFPOINTS
  6
CONTINUOUS
 62
     7
 10
-458.99999999999659
 20
-120.0000000000031
 30
0.0
  0
POINT
  5
1B5
  8
DEFPOINTS
  6
CONTINUOUS
 62
     7
 10
-458.99999999999659
 20
-773.78847220050557
 30
0.0
  0
LINE
  5
1B6
  8
SIZE
  6
CONTINUOUS
 62
    30
 10
-420.00000000000011
 20
-220.00000000000219
 30
0.0
 11
-420.00000000000051
 21
-668.77283196904887
 31
0.0
  0
LINE
  5
1B7
  8
SIZE
  6
CONTINUOUS
 62
    30
 10
-438.99999999999682
 20
-136.35547309441191
 30
0.0
 11
-438.99999999999682
 21
-668.77283196904887
 31
0.0
  0
LINE
  5
1B8
  8
SIZE
  6
CONTINUOUS
 62
    30
 10
-420.00000000000011
 20
-648.77283196904875
 30
0.0
 11
-390.0000000000004
 21
-648.77283196904875
 31
0.0
  0
LINE
  5
1B9
  8
SIZE
  6
CONTINUOUS
 62
    30
 10
-438.99999999999682
 20
-648.77283196904875
 30
0.0
 11
-659.09676454778958
 21
-648.77283196904875
 31
0.0
  0
LINE
  5
1BA
  8
SIZE
  6
CONTINUOUS
 62
    30
 10
-420.00000000000011
 20
-648.77283196904875
 30
0.0
 11
-438.99999999999682
 21
-648.77283196904875
 31
0.0
  0
CIRCLE
  5
1BB
  8
SIZE
  6
CONTINUOUS
 62
    30
 10
-420.00000000000011
 20
-648.77283196904875
 30
0.0
 40
7.5
  0
CIRCLE
  5
1BC
  8
SIZE
  6
CONTINUOUS
 62
    30
 10
-438.99999999999682
 20
-648.77283196904875
 30
0.0
 40
7.5
  0
TEXT
  5
1BD
  8
SIZE
  6
CONTINUOUS
 62
    30
 10
-639.09676454778958
 20
-628.77283196904875
 30
0.0
 40
55.0
  1
19
 41
0.9
 72
     1
 11
-604.91819311921824
 21
-628.77283196904875
 31
0.0
  0
POINT
  5
1BE
  8
DEFPOINTS
  6
CONTINUOUS
 62
     7
 10
-420.00000000000011
 20
-200.00000000000219
 30
0.0
  0
POINT
  5
1BF
  8
DEFPOINTS
  6
CONTINUOUS
 62
     7
 10
-438.99999999999682
 20
-116.35547309441191
 30
0.0
  0
POINT
  5
1C0
  8
DEFPOINTS
  6
CONTINUOUS
 62
     7
 10
-438.99999999999682
 20
-648.77283196904875
 30
0.0
  0
LINE
  5
1C1
  8
SIZE
  6
CONTINUOUS
 62
    30
 10
-458.99999999999659
 20
-140.0000000000031
 30
0.0
 11
-458.99999999999659
 21
-913.12134091749135
 31
0.0
  0
LINE
  5
1C2
  8
SIZE
  6
CONTINUOUS
 62
    30
 10
458.99999999999488
 20
-140.0000000000031
 30
0.0
 11
458.99999999999488
 21
-913.12134091749135
 31
0.0
  0
LINE
  5
1C3
  8
SIZE
  6
CONTINUOUS
 62
    30
 10
-458.99999999999659
 20
-893.12134091749135
 30
0.0
 11
458.99999999999488
 21
-893.12134091749135
 31
0.0
  0
CIRCLE
  5
1C4
  8
SIZE
  6
CONTINUOUS
 62
    30
 10
-458.99999999999659
 20
-893.12134091749135
 30
0.0
 40
7.5
  0
CIRCLE
  5
1C5
  8
SIZE
  6
CONTINUOUS
 62
    30
 10
458.99999999999488
 20
-893.12134091749135
 30
0.0
 40
7.5
  0
TEXT
  5
1C6
  8
SIZE
  6
CONTINUOUS
 62
    30
 10
-58.928571428572383
 20
-873.12134091749112
 30
0.0
 40
55.0
  1
918
 41
0.9
 72
     1
 11
-0.0000000000009663
 21
-873.12134091749112
 31
0.0
  0
POINT
  5
1C7
  8
DEFPOINTS
  6
CONTINUOUS
 62
     7
 10
-458.99999999999659
 20
-120.0000000000031
 30
0.0
  0
POINT
  5
1C8
  8
DEFPOINTS
  6
CONTINUOUS
 62
     7
 10
458.99999999999488
 20
-120.0000000000031
 30
0.0
  0
POINT
  5
1C9
  8
DEFPOINTS
  6
CONTINUOUS
 62
     7
 10
458.99999999999488
 20
-893.12134091749135
 30
0.0
  0
LINE
  5
1CA
  8
SIZE
  6
CONTINUOUS
 62
    30
 10
-420.00000000000011
 20
219.9999999999977
 30
0.0
 11
-420.00000000000011
 21
345.04073517809002
 31
0.0
  0
LINE
  5
1CB
  8
SIZE
  6
CONTINUOUS
 62
    30
 10
-440.00000000000023
 20
229.9999999999977
 30
0.0
 11
-440.00000000000023
 21
345.04073517809002
 31
0.0
  0
LINE
  5
1CC
  8
SIZE
  6
CONTINUOUS
 62
    30
 10
-420.00000000000011
 20
325.04073517809002
 30
0.0
 11
-390.0000000000004
 21
325.04073517809002
 31
0.0
  0
LINE
  5
1CD
  8
SIZE
  6
CONTINUOUS
 62
    30
 10
-440.00000000000023
 20
325.04073517809002
 30
0.0
 11
-684.68419263411283
 21
325.04073517809002
 31
0.0
  0
LINE
  5
1CE
  8
SIZE
  6
CONTINUOUS
 62
    30
 10
-420.00000000000011
 20
325.04073517809002
 30
0.0
 11
-440.00000000000023
 21
325.04073517809002
 31
0.0
  0
CIRCLE
  5
1CF
  8
SIZE
  6
CONTINUOUS
 62
    30
 10
-420.00000000000011
 20
325.04073517809002
 30
0.0
 40
7.5
  0
CIRCLE
  5
1D0
  8
SIZE
  6
CONTINUOUS
 62
    30
 10
-440.00000000000023
 20
325.04073517809002
 30
0.0
 40
7.5
  0
TEXT
  5
1D1
  8
SIZE
  6
CONTINUOUS
 62
    30
 10
-664.68419263411249
 20
345.04073517809002
 30
0.0
 40
55.0
  1
20
 41
0.9
 72
     1
 11
-624.61276406268405
 21
345.04073517809002
 31
0.0
  0
POINT
  5
1D2
  8
DEFPOINTS
  6
CONTINUOUS
 62
     7
 10
-420.00000000000011
 20
199.99999999999761
 30
0.0
  0
POINT
  5
1D3
  8
DEFPOINTS
  6
CONTINUOUS
 62
     7
 10
-440.00000000000023
 20
209.99999999999761
 30
0.0
  0
POINT
  5
1D4
  8
DEFPOINTS
  6
CONTINUOUS
 62
     7
 10
-440.00000000000023
 20
325.04073517809002
 30
0.0
  0
LINE
  5
1D5
  8
SIZE
  6
CONTINUOUS
 62
    30
 10
440.00000000000023
 20
199.99999999999761
 30
0.0
 11
914.25281376766634
 21
199.99999999999741
 31
0.0
  0
LINE
  5
1D6
  8
SIZE
  6
CONTINUOUS
 62
    30
 10
-100.0000000000004
 20
353.0
 30
0.0
 11
914.25281376766679
 21
352.99999999999972
 31
0.0
  0
LINE
  5
1D7
  8
SIZE
  6
CONTINUOUS
 62
    30
 10
894.25281376766645
 20
199.99999999999741
 30
0.0
 11
894.25281376766645
 21
352.99999999999977
 31
0.0
  0
LINE
  5
1D8
  8
SIZE
  6
CONTINUOUS
 62
    30
 10
894.25281376766645
 20
352.99999999999977
 30
0.0
 11
894.25281376766645
 21
503.14285714285688
 31
0.0
  0
CIRCLE
  5
1D9
  8
SIZE
  6
CONTINUOUS
 62
    30
 10
894.25281376766645
 20
199.99999999999741
 30
0.0
 40
7.5
  0
CIRCLE
  5
1DA
  8
SIZE
  6
CONTINUOUS
 62
    30
 10
894.25281376766645
 20
352.99999999999977
 30
0.0
 40
7.5
  0
TEXT
  5
1DB
  8
SIZE
  6
CONTINUOUS
 62
    30
 10
874.25281376766634
 20
373.2556753995824
 30
0.0
 40
55.0
  1
153
 50
90.0
 41
0.9
 72
     1
 11
874.25281376766634
 21
432.18424682815379
 31
0.0
  0
POINT
  5
1DC
  8
DEFPOINTS
  6
CONTINUOUS
 62
     7
 10
420.00000000000011
 20
199.99999999999761
 30
0.0
  0
POINT
  5
1DE
  8
DEFPOINTS
  6
CONTINUOUS
 62
     7
 10
894.25281376766645
 20
352.99999999999977
 30
0.0
  0
TEXT
  5
1DF
  8
NOTE
  6
CONTINUOUS
 62
     4
 10
-93.09679696999271
 20
562.60654785035445
 30
0.0
 40
55.0
  1
サービススペース
 50
0.0000025044165917
 41
0.7031250221965211
  7
STANDARD1
  0
TEXT
  5
1E0
  8
NOTE
  6
CONTINUOUS
 62
     4
 10
-205.915824418997
 20
-410.49340486032128
 30
0.0
 40
55.0
  1
サービススペース
 50
0.0000025044165917
 41
0.7031250221965211
  7
STANDARD1
  0
TEXT
  5
1E1
  8
NOTE
  6
CONTINUOUS
 62
     4
 10
537.5281043663058
 20
-182.71898486826231
 30
0.0
 40
55.0
  1
サービススペース
 50
90.000002504416585
 41
0.7031250221965211
  7
STANDARD1
  0
TEXT
  5
1E2
  8
NOTE
  6
CONTINUOUS
 62
     4
 10
-480.35025135039132
 20
-179.9585401660529
 30
0.0
 40
55.0
  1
サービススペース
 50
90.000002504416585
 41
0.7031250221965211
  7
STANDARD1
  0
TEXT
  5
1E3
  8
NOTE
  6
CONTINUOUS
 62
     4
 10
-821.1966990365695
 20
480.02417270119372
 30
0.0
 40
55.0
  1
D R3/4
 50
0.0000025044165917
 41
0.7
  7
STANDARD1
  0
LINE
  5
1E4
  8
NOTE
  6
CONTINUOUS
 62
     4
 10
-607.68009559768348
 20
464.19764192620772
 30
0.0
 11
-824.89370954876858
 21
464.19764192620772
 31
0.0
  0
LINE
  5
1E5
  8
NOTE
  6
CONTINUOUS
 62
     4
 10
-425.00000000001108
 20
249.99999999999719
 30
0.0
 11
-607.68009559768348
 21
464.19764192620772
 31
0.0
  0
TEXT
  5
1E6
  8
NOTE
  6
CONTINUOUS
 62
     4
 10
-83.812358405743467
 20
394.66293539578447
 30
0.0
 40
55.0
  1
CDR R3/4
 50
0.0000025044165917
 41
0.7
  7
STANDARD1
  0
LINE
  5
1E7
  8
NOTE
  6
CONTINUOUS
 62
     4
 10
201.5829613145865
 20
378.83640462079842
 30
0.0
 11
-90.488632964741996
 21
378.83640462079842
 31
0.0
  0
TEXT
  5
1E8
  8
NOTE
  6
CONTINUOUS
 62
     4
 10
-84.142886493111703
 20
470.78390353172762
 30
0.0
 40
55.0
  1
CD R3/4
 50
0.0000025044165917
 41
0.7
  7
STANDARD1
  0
LINE
  5
1E9
  8
NOTE
  6
CONTINUOUS
 62
     4
 10
-90.488632964741996
 20
378.83640462079842
 30
0.0
 11
-400.00000000000313
 21
239.9999999999977
 31
0.0
  0
TEXT
  5
1EA
  8
NOTE
  6
CONTINUOUS
 62
     4
 10
646.85067168725038
 20
-598.46861514011835
 30
0.0
 40
55.0
  1
2-%%C3
 50
0.0000025044165917
 41
0.7
  7
STANDARD1
  0
LINE
  5
1EB
  8
NOTE
  6
CONTINUOUS
 62
     4
 10
960.16418907875357
 20
-614.29514591510451
 30
0.0
 11
582.17967946018643
 21
-614.29514591510485
 31
0.0
  0
TEXT
  5
1EC
  8
NOTE
  6
CONTINUOUS
 62
     4
 10
588.96201337955381
 20
-527.21332295647562
 30
0.0
 40
55.0
  1
吹出ダクト取付穴
 50
0.0000025044165917
 41
0.7
  7
STANDARD1
  0
LINE
  5
1ED
  8
NOTE
  6
CONTINUOUS
 62
     4
 10
582.17967946018643
 20
-614.29514591510485
 30
0.0
 11
201.9999999999913
 21
-225.00000000000219
 31
0.0
  0
LINE
  5
1EE
  8
SIZE
  6
CONTINUOUS
 62
    30
 10
-458.99999999999659
 20
-140.0000000000031
 30
0.0
 11
-458.99999999999659
 21
-913.12134091749135
 31
0.0
  0
LINE
  5
1EF
  8
SIZE
  6
CONTINUOUS
 62
    30
 10
-558.99999999999659
 20
-430.00000000000222
 30
0.0
 11
-558.99999999999659
 21
-913.12134091749135
 31
0.0
  0
LINE
  5
1F0
  8
SIZE
  6
CONTINUOUS
 62
    30
 10
-458.99999999999659
 20
-893.12134091749135
 30
0.0
 11
-558.99999999999659
 21
-893.12134091749135
 31
0.0
  0
LINE
  5
1F1
  8
SIZE
  6
CONTINUOUS
 62
    30
 10
-558.99999999999659
 20
-893.12134091749135
 30
0.0
 11
-746.85714285713948
 21
-893.12134091749135
 31
0.0
  0
CIRCLE
  5
1F2
  8
SIZE
  6
CONTINUOUS
 62
    30
 10
-458.99999999999659
 20
-893.12134091749135
 30
0.0
 40
7.5
  0
CIRCLE
  5
1F3
  8
SIZE
  6
CONTINUOUS
 62
    30
 10
-558.99999999999659
 20
-893.12134091749135
 30
0.0
 40
7.5
  0
TEXT
  5
1F4
  8
SIZE
  6
CONTINUOUS
 62
    30
 10
-726.85714285713971
 20
-873.12134091749112
 30
0.0
 40
55.0
  1
100
 41
0.9
 72
     1
 11
-667.92857142856826
 21
-873.12134091749112
 31
0.0
  0
POINT
  5
1F5
  8
DEFPOINTS
  6
CONTINUOUS
 62
     7
 10
-458.99999999999659
 20
-120.0000000000031
 30
0.0
  0
POINT
  5
1F6
  8
DEFPOINTS
  6
CONTINUOUS
 62
     7
 10
-558.99999999999659
 20
-410.0000000000021
 30
0.0
  0
POINT
  5
1F7
  8
DEFPOINTS
  6
CONTINUOUS
 62
     7
 10
-558.99999999999659
 20
-893.12134091749135
 30
0.0
  0
LINE
  5
1F8
  8
SIZE
  6
CONTINUOUS
 62
    30
 10
458.99999999999488
 20
-140.0000000000031
 30
0.0
 11
458.99999999999488
 21
-913.12134091749135
 31
0.0
  0
LINE
  5
1F9
  8
SIZE
  6
CONTINUOUS
 62
    30
 10
558.999999999995
 20
-430.00000000000222
 30
0.0
 11
558.999999999995
 21
-913.12134091749135
 31
0.0
  0
LINE
  5
1FA
  8
SIZE
  6
CONTINUOUS
 62
    30
 10
458.99999999999488
 20
-893.12134091749135
 30
0.0
 11
558.999999999995
 21
-893.12134091749135
 31
0.0
  0
LINE
  5
1FB
  8
SIZE
  6
CONTINUOUS
 62
    30
 10
558.999999999995
 20
-893.12134091749135
 30
0.0
 11
746.85714285713789
 21
-893.12134091749135
 31
0.0
  0
CIRCLE
  5
1FC
  8
SIZE
  6
CONTINUOUS
 62
    30
 10
458.99999999999488
 20
-893.12134091749135
 30
0.0
 40
7.5
  0
CIRCLE
  5
1FD
  8
SIZE
  6
CONTINUOUS
 62
    30
 10
558.999999999995
 20
-893.12134091749135
 30
0.0
 40
7.5
  0
TEXT
  5
1FE
  8
SIZE
  6
CONTINUOUS
 62
    30
 10
608.99999999999488
 20
-873.12134091749112
 30
0.0
 40
55.0
  1
100
 41
0.9
 72
     1
 11
667.92857142856633
 21
-873.12134091749112
 31
0.0
  0
POINT
  5
1FF
  8
DEFPOINTS
  6
CONTINUOUS
 62
     7
 10
458.99999999999488
 20
-120.0000000000031
 30
0.0
  0
POINT
  5
200
  8
DEFPOINTS
  6
CONTINUOUS
 62
     7
 10
558.999999999995
 20
-410.0000000000021
 30
0.0
  0
POINT
  5
201
  8
DEFPOINTS
  6
CONTINUOUS
 62
     7
 10
558.999999999995
 20
-893.12134091749135
 30
0.0
  0
LINE
  5
203
  8
SIZE
  6
CONTINUOUS
 62
    30
 10
578.999999999995
 20
753.0
 30
0.0
 11
698.64735082091227
 21
753.0
 31
0.0
  0
LINE
  5
204
  8
SIZE
  6
CONTINUOUS
 62
    30
 10
678.64735082091204
 20
352.99999999999977
 30
0.0
 11
678.64735082091204
 21
753.0
 31
0.0
  0
CIRCLE
  5
205
  8
SIZE
  6
CONTINUOUS
 62
    30
 10
678.64735082091204
 20
352.99999999999977
 30
0.0
 40
7.5
  0
CIRCLE
  5
206
  8
SIZE
  6
CONTINUOUS
 62
    30
 10
678.64735082091204
 20
753.0
 30
0.0
 40
7.5
  0
TEXT
  5
207
  8
SIZE
  6
CONTINUOUS
 62
    30
 10
658.64735082091204
 20
480.64107070120889
 30
0.0
 40
55.0
  1
400
 50
90.0
 41
0.9
 72
     1
 11
658.64735082091204
 21
544.28392784406606
 31
0.0
  0
POINT
  5
209
  8
DEFPOINTS
  6
CONTINUOUS
 62
     7
 10
558.999999999995
 20
753.0
 30
0.0
  0
POINT
  5
20A
  8
DEFPOINTS
  6
CONTINUOUS
 62
     7
 10
678.64735082091204
 20
753.0
 30
0.0
  0
LINE
  5
20B
  8
SIZE
  6
CONTINUOUS
 62
    30
 10
457.9999999999913
 20
-210.0000000000023
 30
0.0
 11
698.64735082091318
 21
-210.0000000000023
 31
0.0
  0
LINE
  5
20C
  8
SIZE
  6
CONTINUOUS
 62
    30
 10
578.999999999995
 20
-410.0000000000021
 30
0.0
 11
698.64735082091295
 21
-410.0000000000021
 31
0.0
  0
LINE
  5
20D
  8
SIZE
  6
CONTINUOUS
 62
    30
 10
678.64735082091329
 20
-210.0000000000023
 30
0.0
 11
678.64735082091295
 21
-410.0000000000021
 31
0.0
  0
CIRCLE
  5
20E
  8
SIZE
  6
CONTINUOUS
 62
    30
 10
678.64735082091329
 20
-210.0000000000023
 30
0.0
 40
7.5
  0
CIRCLE
  5
20F
  8
SIZE
  6
CONTINUOUS
 62
    30
 10
678.64735082091295
 20
-410.0000000000021
 30
0.0
 40
7.5
  0
TEXT
  5
210
  8
SIZE
  6
CONTINUOUS
 62
    30
 10
658.64735082091329
 20
-380.92356748823732
 30
0.0
 40
55.0
  1
200
 50
90.0
 41
0.9
 72
     1
 11
658.64735082091329
 21
-317.28071034538021
 31
0.0
  0
POINT
  5
211
  8
DEFPOINTS
  6
CONTINUOUS
 62
     7
 10
437.99999999999108
 20
-210.00000000000219
 30
0.0
  0
POINT
  5
212
  8
DEFPOINTS
  6
CONTINUOUS
 62
     7
 10
558.999999999995
 20
-410.0000000000021
 30
0.0
  0
POINT
  5
213
  8
DEFPOINTS
  6
CONTINUOUS
 62
     7
 10
678.64735082091295
 20
-410.0000000000021
 30
0.0
  0
TEXT
  5
214
  8
NOTE
  6
CONTINUOUS
 62
     4
 10
-914.47623670251812
 20
-505.22379673025762
 30
0.0
 40
55.0
  1
AH 4-%%C20
 50
0.0000025044165917
 41
0.7
  7
STANDARD1
  0
LINE
  5
215
  8
NOTE
  6
CONTINUOUS
 62
     4
 10
-623.16263618825667
 20
-521.05032750524356
 30
0.0
 11
-919.71576405500241
 21
-521.05032750524356
 31
0.0
  0
LINE
  5
216
  8
NOTE
  6
CONTINUOUS
 62
     4
 10
-438.99999999999682
 20
-100.0000000000031
 30
0.0
 11
-623.16263618825667
 21
-521.05032750524356
 31
0.0
  0
ARC
  5
217
  8
DETAIL
  6
CONTINUOUS
 62
     5
 10
438.99999999999397
 20
99.999999999996803
 30
0.0
 40
10.0
 50
264.26082952271747
 51
95.739170477282414
  0
CIRCLE
  5
218
  8
FIX
  6
CONTINUOUS
 62
    11
 10
438.99999999999397
 20
99.999999999996803
 30
0.0
 40
12.57617939085139
  0
ARC
  5
219
  8
DETAIL
  6
CONTINUOUS
 62
     5
 10
-438.99999999999682
 20
99.999999999995865
 30
0.0
 40
10.0
 50
95.739170477287615
 51
264.26082952271241
  0
CIRCLE
  5
21A
  8
FIX
  6
CONTINUOUS
 62
    11
 10
-438.99999999999682
 20
99.999999999995865
 30
0.0
 40
12.57617939085139
  0
ARC
  5
21B
  8
DETAIL
  6
CONTINUOUS
 62
     5
 10
-438.99999999999682
 20
-100.00000000000399
 30
0.0
 40
10.0
 50
95.739170477287615
 51
264.26082952271241
  0
CIRCLE
  5
21C
  8
FIX
  6
CONTINUOUS
 62
    11
 10
-438.99999999999682
 20
-100.00000000000399
 30
0.0
 40
12.57617939085139
  0
LINE
  5
21D
  8
OUTLINE
  6
CONTINUOUS
 62
     3
 10
-420.00000000000011
 20
199.99999999999761
 30
0.0
 11
-420.00000000000011
 21
-200.00000000000219
 31
0.0
  0
LINE
  5
21E
  8
OUTLINE
  6
CONTINUOUS
 62
     3
 10
-420.00000000000011
 20
-200.00000000000219
 30
0.0
 11
420.00000000000011
 21
-200.00000000000219
 31
0.0
  0
LINE
  5
21F
  8
OUTLINE
  6
CONTINUOUS
 62
     3
 10
420.00000000000011
 20
-200.00000000000219
 30
0.0
 11
420.00000000000011
 21
199.99999999999761
 31
0.0
  0
LINE
  5
220
  8
OUTLINE
  6
CONTINUOUS
 62
     3
 10
420.00000000000011
 20
199.99999999999761
 30
0.0
 11
-420.00000000000011
 21
199.99999999999761
 31
0.0
  0
LINE
  5
221
  8
NOTE
  6
CONTINUOUS
 62
     4
 10
-425.00000000001108
 20
249.99999999999719
 30
0.0
 11
-439.24146349869312
 21
281.29745017419719
 31
0.0
  0
LINE
  5
222
  8
NOTE
  6
CONTINUOUS
 62
     4
 10
-425.00000000001108
 20
249.99999999999719
 30
0.0
 11
-452.98219455517432
 21
269.98365476748398
 31
0.0
  0
LINE
  5
223
  8
NOTE
  6
CONTINUOUS
 62
     4
 10
-400.00000000000591
 20
239.99999999999719
 30
0.0
 11
-366.16375344240288
 21
246.1203013719832
 31
0.0
  0
LINE
  5
224
  8
NOTE
  6
CONTINUOUS
 62
     4
 10
-400.00000000000591
 20
239.99999999999719
 30
0.0
 11
-373.75710192213808
 21
262.2184601280905
 31
0.0
  0
LINE
  5
225
  8
NOTE
  6
CONTINUOUS
 62
     4
 10
-438.99999999999841
 20
-100.0000000000045
 30
0.0
 11
-460.5445395260416
 21
-126.7989269673607
 31
0.0
  0
LINE
  5
226
  8
NOTE
  6
CONTINUOUS
 62
     4
 10
-438.99999999999841
 20
-100.0000000000045
 30
0.0
 11
-444.25865456361521
 21
-133.9808213875103
 31
0.0
  0
LINE
  5
227
  8
NOTE
  6
CONTINUOUS
 62
     4
 10
201.99999999999221
 20
-225.00000000000449
 30
0.0
 11
219.0738691506026
 21
-254.8468199682811
 31
0.0
  0
LINE
  5
228
  8
NOTE
  6
CONTINUOUS
 62
     4
 10
201.99999999999221
 20
-225.00000000000449
 30
0.0
 11
231.7098146616467
 21
-242.31116930652931
 31
0.0
  0
TEXT
  5
229
  8
ETC
  6
CONTINUOUS
 62
    61
 10
346.7188891498954
 20
869.63007576683958
 30
0.0
 40
70.0
  1
MB-P36_50MT_6
 50
0.0000029998804485
 41
0.8
  0
ENDSEC
  0
EOF
