  0
SECTION
  2
HEADER
  9
$ACADVER
  1
AC1009
  9
$INSBASE
 10
0.0
 20
0.0
 30
0.0
  9
$EXTMIN
 10
-914.16938457020365
 20
-826.28465709797786
 30
0.0
  9
$EXTMAX
 10
824.87319696691952
 20
530.10827294676506
 30
0.0
  9
$LIMMIN
 10
-4267.1522210604826
 20
-2696.083210198412
  9
$LIMMAX
 10
7190.7174225864646
 20
5141.155363923066
  9
$ORTHOMODE
 70
     0
  9
$REGENMODE
 70
     1
  9
$FILLMODE
 70
     1
  9
$QTEXTMODE
 70
     0
  9
$MIRRTEXT
 70
     0
  9
$DRAGMODE
 70
     2
  9
$LTSCALE
 40
20.0
  9
$OSMODE
 70
    47
  9
$ATTMODE
 70
     1
  9
$TEXTSIZE
 40
64.0
  9
$TRACEWID
 40
0.05
  9
$TEXTSTYLE
  7
NOTE
  9
$CLAYER
  8
SYMBOLLINE
  9
$CELTYPE
  6
CONTINUOUS
  9
$CECOLOR
 62
     7
  9
$DIMSCALE
 40
1.0
  9
$DIMASZ
 40
30.0
  9
$DIMEXO
 40
20.0
  9
$DIMDLI
 40
80.0
  9
$DIMRND
 40
0.0
  9
$DIMDLE
 40
0.0
  9
$DIMEXE
 40
20.0
  9
$DIMTP
 40
0.0
  9
$DIMTM
 40
0.0
  9
$DIMTXT
 40
55.0
  9
$DIMCEN
 40
0.09
  9
$DIMTSZ
 40
0.0
  9
$DIMTOL
 70
     0
  9
$DIMLIM
 70
     0
  9
$DIMTIH
 70
     0
  9
$DIMTOH
 70
     0
  9
$DIMSE1
 70
     0
  9
$DIMSE2
 70
     0
  9
$DIMTAD
 70
     1
  9
$DIMZIN
 70
     8
  9
$DIMBLK
  1
SMALL
  9
$DIMASO
 70
     1
  9
$DIMSHO
 70
     0
  9
$DIMPOST
  1

  9
$DIMAPOST
  1

  9
$DIMALT
 70
     0
  9
$DIMALTD
 70
     2
  9
$DIMALTF
 40
25.399999999999999
  9
$DIMLFAC
 40
1.0
  9
$DIMTOFL
 70
     1
  9
$DIMTVP
 40
0.0
  9
$DIMTIX
 70
     0
  9
$DIMSOXD
 70
     0
  9
$DIMSAH
 70
     0
  9
$DIMBLK1
  1

  9
$DIMBLK2
  1

  9
$DIMSTYLE
  2
STANDARD
  9
$DIMCLRD
 70
     0
  9
$DIMCLRE
 70
     0
  9
$DIMCLRT
 70
     0
  9
$DIMTFAC
 40
1.0
  9
$DIMGAP
 40
0.09
  9
$LUNITS
 70
     2
  9
$LUPREC
 70
     4
  9
$SKETCHINC
 40
0.1
  9
$FILLETRAD
 40
30.0
  9
$AUNITS
 70
     1
  9
$AUPREC
 70
     3
  9
$MENU
  1
ACAD
  9
$ELEVATION
 40
0.0
  9
$PELEVATION
 40
0.0
  9
$THICKNESS
 40
0.0
  9
$LIMCHECK
 70
     0
  9
$BLIPMODE
 70
     0
  9
$CHAMFERA
 40
0.0
  9
$CHAMFERB
 40
0.0
  9
$SKPOLY
 70
     0
  9
$TDCREATE
 40
2450330.4399309959
  9
$TDUPDATE
 40
2455049.4313156251
  9
$TDINDWG
 40
3.5569121991000001
  9
$TDUSRTIMER
 40
3.5569102083000002
  9
$USRTIMER
 70
     1
  9
$ANGBASE
 50
0.0
  9
$ANGDIR
 70
     0
  9
$PDMODE
 70
     3
  9
$PDSIZE
 40
-2.0
  9
$PLINEWID
 40
0.0
  9
$COORDS
 70
     2
  9
$SPLFRAME
 70
     0
  9
$SPLINETYPE
 70
     6
  9
$SPLINESEGS
 70
     8
  9
$ATTDIA
 70
     0
  9
$ATTREQ
 70
     1
  9
$HANDLING
 70
     1
  9
$HANDSEED
  5
206
  9
$SURFTAB1
 70
     6
  9
$SURFTAB2
 70
     6
  9
$SURFTYPE
 70
     6
  9
$SURFU
 70
     6
  9
$SURFV
 70
     6
  9
$UCSNAME
  2

  9
$UCSORG
 10
0.0
 20
0.0
 30
0.0
  9
$UCSXDIR
 10
1.0
 20
0.0
 30
0.0
  9
$UCSYDIR
 10
0.0
 20
1.0
 30
0.0
  9
$PUCSNAME
  2

  9
$PUCSORG
 10
0.0
 20
0.0
 30
0.0
  9
$PUCSXDIR
 10
1.0
 20
0.0
 30
0.0
  9
$PUCSYDIR
 10
0.0
 20
1.0
 30
0.0
  9
$USERI1
 70
     0
  9
$USERI2
 70
     0
  9
$USERI3
 70
     0
  9
$USERI4
 70
     0
  9
$USERI5
 70
     0
  9
$USERR1
 40
20.0
  9
$USERR2
 40
0.0
  9
$USERR3
 40
0.0
  9
$USERR4
 40
0.0
  9
$USERR5
 40
0.0
  9
$WORLDVIEW
 70
     1
  9
$SHADEDGE
 70
     3
  9
$SHADEDIF
 70
    70
  9
$TILEMODE
 70
     1
  9
$MAXACTVP
 70
    64
  9
$PLIMCHECK
 70
     0
  9
$PEXTMIN
 10
1.0000000000000000E+020
 20
1.0000000000000000E+020
 30
1.0000000000000000E+020
  9
$PEXTMAX
 10
-1.0000000000000000E+020
 20
-1.0000000000000000E+020
 30
-1.0000000000000000E+020
  9
$PLIMMIN
 10
0.0
 20
0.0
  9
$PLIMMAX
 10
12.0
 20
9.0
  9
$UNITMODE
 70
     0
  9
$VISRETAIN
 70
     1
  9
$PLINEGEN
 70
     0
  9
$PSLTSCALE
 70
     1
  0
ENDSEC
  0
SECTION
  2
TABLES
  0
TABLE
  2
VPORT
 70
     1
  0
VPORT
  2
*ACTIVE
 70
     0
 10
0.0
 20
0.0
 11
1.0
 21
1.0
 12
1461.782600762991
 22
1222.536076862327
 13
0.0
 23
0.0
 14
50.0
 24
50.0
 15
100.0
 25
100.0
 16
0.0
 26
0.0
 36
1.0
 17
0.0
 27
0.0
 37
0.0
 40
7896.6115936223987
 41
1.5461441213653599
 42
50.0
 43
0.0
 44
0.0
 50
0.0
 51
0.0
 71
     0
 72
  1000
 73
     1
 74
     0
 75
     0
 76
     0
 77
     0
 78
     0
  0
ENDTAB
  0
TABLE
  2
LTYPE
 70
     3
  0
LTYPE
  2
CONTINUOUS
 70
     0
  3
実線
 72
    65
 73
     0
 40
0.0
  0
LTYPE
  2
DASHDOT
 70
     0
  3
____ _ ____ _ ____ _ ____ _ ____ _ ____ _ ____
 72
    65
 73
     4
 40
5.5
 49
4.0
 49
-0.6
 49
0.3
 49
-0.6
  0
ENDTAB
  0
TABLE
  2
LAYER
 70
    12
  0
LAYER
  2
0
 70
     0
 62
     7
  6
CONTINUOUS
  0
LAYER
  2
OUTLINE
 70
     0
 62
     3
  6
CONTINUOUS
  0
LAYER
  2
DETAIL
 70
     0
 62
     5
  6
CONTINUOUS
  0
LAYER
  2
BASIS
 70
     0
 62
     6
  6
DASHDOT
  0
LAYER
  2
SIZE
 70
     0
 62
    30
  6
CONTINUOUS
  0
LAYER
  2
NOTE
 70
     0
 62
     4
  6
CONTINUOUS
  0
LAYER
  2
ARRANGE
 70
     0
 62
     1
  6
CONTINUOUS
  0
LAYER
  2
FIX
 70
     0
 62
    11
  6
CONTINUOUS
  0
LAYER
  2
SERVICESPACE
 70
     0
 62
     2
  6
DASHDOT
  0
LAYER
  2
ETC
 70
     0
 62
    61
  6
CONTINUOUS
  0
LAYER
  2
SYMBOLLINE
 70
     0
 62
    15
  6
CONTINUOUS
  0
LAYER
  2
DEFPOINTS
 70
     0
 62
     7
  6
CONTINUOUS
  0
ENDTAB
  0
TABLE
  2
STYLE
 70
     4
  0
STYLE
  2
STANDARD
 70
     0
 40
0.0
 41
0.9
 50
0.0
 71
     0
 42
64.0
  3
SIMPLEX
  4
BIGFONT
  0
STYLE
  2
ANNOTATIVE
 70
     0
 40
0.0
 41
1.0
 50
0.0
 71
     0
 42
0.2
  3
txt
  4

  0
STYLE
  2
NOTE
 70
     0
 40
0.0
 41
0.7
 50
0.0
 71
     0
 42
64.0
  3
SIMPLEX.shx
  4
BIGFONT.shx
  0
STYLE
  2
STANDARD1
 70
     0
 40
0.0
 41
1.0
 50
0.0
 71
     0
 42
64.0
  3
MONOTXT
  4
BIGFONT
  0
ENDTAB
  0
TABLE
  2
VIEW
 70
     5
  0
VIEW
  2
ALL
 70
     0
 40
9000.0
 10
241.50664699999999
 20
0.0
 41
12483.01
 11
0.0
 21
0.0
 31
1.0
 12
0.0
 22
0.0
 32
0.0
 42
50.0
 43
0.0
 44
0.0
 50
0.0
 71
     0
  0
ENDTAB
  0
TABLE
  2
UCS
 70
     0
  0
ENDTAB
  0
TABLE
  2
APPID
 70
     3
  0
APPID
  2
ACAD
 70
     0
  0
APPID
  2
ACADANNOTATIVE
 70
     0
  0
APPID
  2
ACAD_MLEADERVER
 70
     0
  0
ENDTAB
  0
TABLE
  2
DIMSTYLE
 70
     3
  0
DIMSTYLE
  2
STANDARD
 70
     0
  3

  4

  5

  6

  7

 40
1.0
 41
0.18
 42
0.0625
 43
0.38
 44
0.18
 45
0.0
 46
0.0
 47
0.0
 48
0.0
140
0.18
141
0.09
142
0.0
143
25.399999999999999
144
1.0
145
0.0
146
1.0
147
0.09
 71
     0
 72
     0
 73
     1
 74
     1
 75
     0
 76
     0
 77
     0
 78
     0
170
     0
171
     2
172
     0
173
     0
174
     0
175
     0
176
     0
177
     0
178
     0
  0
DIMSTYLE
  2
ANNOTATIVE
 70
     0
  3

  4

  5

  6

  7

 40
1.0
 41
0.18
 42
0.0625
 43
0.38
 44
0.18
 45
0.0
 46
0.0
 47
0.0
 48
0.0
140
0.18
141
0.09
142
0.0
143
25.399999999999999
144
1.0
145
0.0
146
1.0
147
0.09
 71
     0
 72
     0
 73
     1
 74
     1
 75
     0
 76
     0
 77
     0
 78
     0
170
     0
171
     2
172
     0
173
     0
174
     0
175
     0
176
     0
177
     0
178
     0
  0
ENDTAB
  0
ENDSEC
  0
SECTION
  2
BLOCKS
  0
BLOCK
  8
0
  2
$MODEL_SPACE
 70
     0
 10
0.0
 20
0.0
 30
0.0
  3
$MODEL_SPACE
  1

  0
ENDBLK
  5
76
  8
0
  0
BLOCK
 67
     1
  8
0
  2
$PAPER_SPACE
 70
     0
 10
0.0
 20
0.0
 30
0.0
  3
$PAPER_SPACE
  1

  0
ENDBLK
  5
72
 67
     1
  8
0
  0
BLOCK
  8
0
  2
_SMALL
 70
     0
 10
0.0
 20
0.0
 30
0.0
  3
_SMALL
  1

  0
CIRCLE
  5
8D
  8
0
  6
CONTINUOUS
 62
     7
 10
0.0
 20
0.0
 30
0.0
 40
0.25
  0
ENDBLK
  5
8E
  8
0
  0
ENDSEC
  0
SECTION
  2
ENTITIES
  0
LINE
  5
8F
  8
DETAIL
  6
CONTINUOUS
 62
     5
 10
145.0
 20
-416.99999999999773
 30
0.0
 11
145.0
 21
-417.64999999999748
 31
0.0
  0
LINE
  5
90
  8
DETAIL
  6
CONTINUOUS
 62
     5
 10
210.00000000000131
 20
-400.34999999999809
 30
0.0
 11
250.0
 21
-400.34999999999809
 31
0.0
  0
LINE
  5
91
  8
DETAIL
  6
CONTINUOUS
 62
     5
 10
145.0
 20
-417.64999999999748
 30
0.0
 11
250.0
 21
-417.64999999999748
 31
0.0
  0
LINE
  5
92
  8
DETAIL
  6
CONTINUOUS
 62
     5
 10
250.0
 20
-400.34999999999809
 30
0.0
 11
250.0
 21
-417.64999999999748
 31
0.0
  0
LINE
  5
93
  8
DETAIL
  6
CONTINUOUS
 62
     5
 10
200.0
 20
-39.999999999997847
 30
0.0
 11
288.00000000000131
 21
-39.999999999997847
 31
0.0
  0
LINE
  5
94
  8
DETAIL
  6
CONTINUOUS
 62
     5
 10
288.00000000000131
 20
-39.999999999997847
 30
0.0
 11
288.00000000000131
 21
-351.99999999999778
 31
0.0
  0
LINE
  5
95
  8
DETAIL
  6
CONTINUOUS
 62
     5
 10
-239.99999999999881
 20
-181.99999999999781
 30
0.0
 11
-239.99999999999881
 21
-333.99999999999773
 31
0.0
  0
LINE
  5
96
  8
DETAIL
  6
CONTINUOUS
 62
     5
 10
-239.99999999999881
 20
-333.99999999999773
 30
0.0
 11
-199.99999999999969
 21
-333.99999999999773
 31
0.0
  0
LINE
  5
97
  8
DETAIL
  6
CONTINUOUS
 62
     5
 10
-239.99999999999881
 20
-181.99999999999781
 30
0.0
 11
-199.99999999999969
 21
-181.99999999999781
 31
0.0
  0
LINE
  5
98
  8
DETAIL
  6
CONTINUOUS
 62
     5
 10
-199.99999999999969
 20
0.0000000000021529
 30
0.0
 11
-199.99999999999969
 21
-361.99999999999778
 31
0.0
  0
LINE
  5
99
  8
DETAIL
  6
CONTINUOUS
 62
     5
 10
200.0
 20
0.0000000000021529
 30
0.0
 11
200.0
 21
-361.99999999999778
 31
0.0
  0
LINE
  5
9A
  8
DETAIL
  6
CONTINUOUS
 62
     5
 10
-209.99999999999881
 20
-361.99999999999778
 30
0.0
 11
-209.99999999999881
 21
-416.99999999999773
 31
0.0
  0
LINE
  5
9B
  8
DETAIL
  6
CONTINUOUS
 62
     5
 10
210.00000000000131
 20
-361.99999999999778
 30
0.0
 11
210.00000000000131
 21
-416.99999999999773
 31
0.0
  0
LINE
  5
9C
  8
DETAIL
  6
CONTINUOUS
 62
     5
 10
-209.99999999999881
 20
-416.99999999999773
 30
0.0
 11
210.00000000000131
 21
-416.99999999999773
 31
0.0
  0
LINE
  5
9D
  8
DETAIL
  6
CONTINUOUS
 62
     5
 10
-199.99999999999969
 20
0.0000000000021529
 30
0.0
 11
200.0
 21
0.0000000000021529
 31
0.0
  0
LINE
  5
9E
  8
NOTE
  6
CONTINUOUS
 62
     4
 10
116.3554730944083
 20
0.0000000000021529
 30
0.0
 11
83.644526905591192
 21
0.0000000000021529
 31
0.0
  0
LINE
  5
9F
  8
NOTE
  6
CONTINUOUS
 62
     4
 10
100.0
 20
-16.355473094406641
 30
0.0
 11
100.0
 21
16.35547309441095
 31
0.0
  0
LINE
  5
A0
  8
NOTE
  6
CONTINUOUS
 62
     4
 10
-83.644526905591874
 20
0.0000000000021529
 30
0.0
 11
-116.35547309440901
 21
0.0000000000021529
 31
0.0
  0
LINE
  5
A1
  8
NOTE
  6
CONTINUOUS
 62
     4
 10
-99.999999999999787
 20
-16.355473094406641
 30
0.0
 11
-99.999999999999787
 21
16.35547309441095
 31
0.0
  0
LINE
  5
A2
  8
NOTE
  6
CONTINUOUS
 62
     4
 10
-208.6445269055877
 20
-257.99999999999773
 30
0.0
 11
-241.3554730944058
 21
-257.99999999999773
 31
0.0
  0
LINE
  5
A3
  8
NOTE
  6
CONTINUOUS
 62
     4
 10
-224.99999999999881
 20
-274.35547309440648
 30
0.0
 11
-224.99999999999881
 21
-241.64452690558991
 31
0.0
  0
LINE
  5
A4
  8
NOTE
  6
CONTINUOUS
 62
     4
 10
256.3554730944083
 20
-212.99999999999781
 30
0.0
 11
223.64452690559119
 21
-212.99999999999781
 31
0.0
  0
LINE
  5
A5
  8
NOTE
  6
CONTINUOUS
 62
     4
 10
239.99999999999909
 20
-229.35547309440659
 30
0.0
 11
239.99999999999909
 21
-196.6445269055888
 31
0.0
  0
LINE
  5
A6
  8
NOTE
  6
CONTINUOUS
 62
     4
 10
256.3554730944083
 20
-300.99999999999773
 30
0.0
 11
223.64452690559119
 21
-300.99999999999773
 31
0.0
  0
LINE
  5
A7
  8
NOTE
  6
CONTINUOUS
 62
     4
 10
239.99999999999909
 20
-317.35547309440648
 30
0.0
 11
239.99999999999909
 21
-284.64452690558892
 31
0.0
  0
LINE
  5
A8
  8
NOTE
  6
CONTINUOUS
 62
     4
 10
266.3554730944083
 20
-408.99999999999773
 30
0.0
 11
233.64452690559119
 21
-408.99999999999773
 31
0.0
  0
LINE
  5
A9
  8
NOTE
  6
CONTINUOUS
 62
     4
 10
250.0
 20
-425.3554730944075
 30
0.0
 11
250.0
 21
-392.64452690558983
 31
0.0
  0
LINE
  5
AA
  8
DETAIL
  6
CONTINUOUS
 62
     5
 10
210.00000000000131
 20
-396.99999999999778
 30
0.0
 11
-209.99999999999881
 21
-396.99999999999778
 31
0.0
  0
LINE
  5
AB
  8
DETAIL
  6
CONTINUOUS
 62
     5
 10
210.00000000000131
 20
-361.99999999999778
 30
0.0
 11
-209.99999999999881
 21
-361.99999999999778
 31
0.0
  0
LINE
  5
AC
  8
SIZE
  6
CONTINUOUS
 62
    30
 10
-219.99999999999969
 20
-376.99999999999778
 30
0.0
 11
-592.73986721003905
 21
-376.99999999999773
 31
0.0
  0
LINE
  5
AD
  8
SIZE
  6
CONTINUOUS
 62
    30
 10
-219.99999999999969
 20
0.0000000000021586
 30
0.0
 11
-592.73986721003894
 21
0.0000000000022642
 31
0.0
  0
LINE
  5
AE
  8
SIZE
  6
CONTINUOUS
 62
    30
 10
-572.73986721003905
 20
-376.99999999999773
 30
0.0
 11
-572.73986721003894
 21
0.0000000000022585
 31
0.0
  0
CIRCLE
  5
AF
  8
SIZE
  6
CONTINUOUS
 62
    30
 10
-572.73986721003905
 20
-376.99999999999773
 30
0.0
 40
7.5
  0
CIRCLE
  5
B0
  8
SIZE
  6
CONTINUOUS
 62
    30
 10
-572.73986721003894
 20
0.0000000000022585
 30
0.0
 40
7.5
  0
TEXT
  5
B1
  8
SIZE
  6
CONTINUOUS
 62
    30
 10
-592.73986721003894
 20
-252.14285714285501
 30
0.0
 40
55.0
  1
377
 50
90.0
 41
0.9
 72
     1
 11
-592.73986721003894
 21
-188.49999999999781
 31
0.0
  0
POINT
  5
B2
  8
DEFPOINTS
  6
CONTINUOUS
 62
     7
 10
-199.99999999999969
 20
-376.99999999999778
 30
0.0
  0
POINT
  5
B3
  8
DEFPOINTS
  6
CONTINUOUS
 62
     7
 10
-199.99999999999969
 20
0.0000000000021529
 30
0.0
  0
POINT
  5
B4
  8
DEFPOINTS
  6
CONTINUOUS
 62
     7
 10
-572.73986721003894
 20
0.0000000000022585
 30
0.0
  0
LINE
  5
B5
  8
SIZE
  6
CONTINUOUS
 62
    30
 10
-219.99999999999969
 20
0.0000000000021586
 30
0.0
 11
-790.69336999912446
 21
0.0000000000023203
 31
0.0
  0
LINE
  5
B6
  8
SIZE
  6
CONTINUOUS
 62
    30
 10
-229.99999999999881
 20
-416.99999999999773
 30
0.0
 11
-790.6933699991248
 21
-416.9999999999975
 31
0.0
  0
LINE
  5
B7
  8
SIZE
  6
CONTINUOUS
 62
    30
 10
-770.6933699991248
 20
0.0000000000023146
 30
0.0
 11
-770.6933699991248
 21
-416.9999999999975
 31
0.0
  0
CIRCLE
  5
B8
  8
SIZE
  6
CONTINUOUS
 62
    30
 10
-770.6933699991248
 20
0.0000000000023146
 30
0.0
 40
7.5
  0
CIRCLE
  5
B9
  8
SIZE
  6
CONTINUOUS
 62
    30
 10
-770.6933699991248
 20
-416.9999999999975
 30
0.0
 40
7.5
  0
TEXT
  5
BA
  8
SIZE
  6
CONTINUOUS
 62
    30
 10
-790.69336999912446
 20
-267.42857142856911
 30
0.0
 40
55.0
  1
417
 50
90.0
 41
0.9
 72
     1
 11
-790.69336999912446
 21
-208.4999999999977
 31
0.0
  0
POINT
  5
BB
  8
DEFPOINTS
  6
CONTINUOUS
 62
     7
 10
-199.99999999999969
 20
0.0000000000021529
 30
0.0
  0
POINT
  5
BC
  8
DEFPOINTS
  6
CONTINUOUS
 62
     7
 10
-209.99999999999881
 20
-416.99999999999773
 30
0.0
  0
POINT
  5
BD
  8
DEFPOINTS
  6
CONTINUOUS
 62
     7
 10
-770.6933699991248
 20
-416.9999999999975
 30
0.0
  0
LINE
  5
BE
  8
SIZE
  6
CONTINUOUS
 62
    30
 10
-188.6445269055877
 20
-257.99999999999773
 30
0.0
 11
-61.084075038679941
 21
-257.9999999999979
 31
0.0
  0
LINE
  5
BF
  8
SIZE
  6
CONTINUOUS
 62
    30
 10
-179.99999999999969
 20
-181.99999999999781
 30
0.0
 11
-61.084075038679899
 21
-181.99999999999781
 31
0.0
  0
LINE
  5
C0
  8
SIZE
  6
CONTINUOUS
 62
    30
 10
-81.084075038679899
 20
-257.9999999999979
 30
0.0
 11
-81.084075038679899
 21
-181.99999999999781
 31
0.0
  0
CIRCLE
  5
C1
  8
SIZE
  6
CONTINUOUS
 62
    30
 10
-81.084075038679899
 20
-257.9999999999979
 30
0.0
 40
7.5
  0
CIRCLE
  5
C2
  8
SIZE
  6
CONTINUOUS
 62
    30
 10
-81.084075038679899
 20
-181.99999999999781
 30
0.0
 40
7.5
  0
TEXT
  5
C3
  8
SIZE
  6
CONTINUOUS
 62
    30
 10
-101.0840750386797
 20
-258.89285714285489
 30
0.0
 40
55.0
  1
76
 50
90.0
 41
0.9
 72
     1
 11
-101.0840750386797
 21
-219.99999999999781
 31
0.0
  0
POINT
  5
C4
  8
DEFPOINTS
  6
CONTINUOUS
 62
     7
 10
-208.6445269055877
 20
-257.99999999999773
 30
0.0
  0
POINT
  5
C5
  8
DEFPOINTS
  6
CONTINUOUS
 62
     7
 10
-199.99999999999969
 20
-181.99999999999781
 30
0.0
  0
POINT
  5
C6
  8
DEFPOINTS
  6
CONTINUOUS
 62
     7
 10
-81.084075038679899
 20
-181.99999999999781
 30
0.0
  0
LINE
  5
C7
  8
SIZE
  6
CONTINUOUS
 62
    30
 10
-219.99999999999969
 20
0.0000000000021586
 30
0.0
 11
-404.33624546086571
 21
0.0000000000022108
 31
0.0
  0
LINE
  5
C8
  8
SIZE
  6
CONTINUOUS
 62
    30
 10
-259.99999999999892
 20
-181.99999999999781
 30
0.0
 11
-404.33624546086571
 21
-181.99999999999781
 31
0.0
  0
LINE
  5
C9
  8
SIZE
  6
CONTINUOUS
 62
    30
 10
-384.33624546086583
 20
0.0000000000022052
 30
0.0
 11
-384.33624546086583
 21
-181.99999999999781
 31
0.0
  0
CIRCLE
  5
CA
  8
SIZE
  6
CONTINUOUS
 62
    30
 10
-384.33624546086583
 20
0.0000000000022052
 30
0.0
 40
7.5
  0
CIRCLE
  5
CB
  8
SIZE
  6
CONTINUOUS
 62
    30
 10
-384.33624546086583
 20
-181.99999999999781
 30
0.0
 40
7.5
  0
TEXT
  5
CC
  8
SIZE
  6
CONTINUOUS
 62
    30
 10
-404.33624546086571
 20
-149.9285714285692
 30
0.0
 40
55.0
  1
182
 50
90.0
 41
0.9
 72
     1
 11
-404.33624546086571
 21
-90.99999999999784
 31
0.0
  0
POINT
  5
CD
  8
DEFPOINTS
  6
CONTINUOUS
 62
     7
 10
-199.99999999999969
 20
0.0000000000021529
 30
0.0
  0
POINT
  5
CE
  8
DEFPOINTS
  6
CONTINUOUS
 62
     7
 10
-239.99999999999881
 20
-181.99999999999781
 30
0.0
  0
POINT
  5
CF
  8
DEFPOINTS
  6
CONTINUOUS
 62
     7
 10
-384.33624546086583
 20
-181.99999999999781
 30
0.0
  0
LINE
  5
D0
  8
SIZE
  6
CONTINUOUS
 62
    30
 10
-259.99999999999892
 20
-181.99999999999781
 30
0.0
 11
-404.336245460866
 21
-181.99999999999781
 31
0.0
  0
LINE
  5
D1
  8
SIZE
  6
CONTINUOUS
 62
    30
 10
-259.99999999999881
 20
-333.99999999999773
 30
0.0
 11
-404.336245460866
 21
-333.99999999999773
 31
0.0
  0
LINE
  5
D2
  8
SIZE
  6
CONTINUOUS
 62
    30
 10
-384.33624546086583
 20
-181.99999999999781
 30
0.0
 11
-384.33624546086583
 21
-333.99999999999773
 31
0.0
  0
CIRCLE
  5
D3
  8
SIZE
  6
CONTINUOUS
 62
    30
 10
-384.33624546086583
 20
-181.99999999999781
 30
0.0
 40
7.5
  0
CIRCLE
  5
D4
  8
SIZE
  6
CONTINUOUS
 62
    30
 10
-384.33624546086583
 20
-333.99999999999773
 30
0.0
 40
7.5
  0
TEXT
  5
D5
  8
SIZE
  6
CONTINUOUS
 62
    30
 10
-404.33624546086571
 20
-316.9285714285694
 30
0.0
 40
55.0
  1
152
 50
90.0
 41
0.9
 72
     1
 11
-404.33624546086571
 21
-257.9999999999979
 31
0.0
  0
POINT
  5
D6
  8
DEFPOINTS
  6
CONTINUOUS
 62
     7
 10
-239.99999999999881
 20
-181.99999999999781
 30
0.0
  0
POINT
  5
D7
  8
DEFPOINTS
  6
CONTINUOUS
 62
     7
 10
-239.99999999999881
 20
-333.99999999999773
 30
0.0
  0
POINT
  5
D8
  8
DEFPOINTS
  6
CONTINUOUS
 62
     7
 10
-384.33624546086583
 20
-333.99999999999773
 30
0.0
  0
LINE
  5
D9
  8
SIZE
  6
CONTINUOUS
 62
    30
 10
-224.99999999999881
 20
-221.64452690558991
 30
0.0
 11
-224.99999999999881
 21
-110.14330488320731
 31
0.0
  0
LINE
  5
DA
  8
SIZE
  6
CONTINUOUS
 62
    30
 10
-199.99999999999969
 20
-161.99999999999781
 30
0.0
 11
-199.99999999999969
 21
-110.14330488320731
 31
0.0
  0
LINE
  5
DB
  8
SIZE
  6
CONTINUOUS
 62
    30
 10
-224.99999999999881
 20
-130.14330488320729
 30
0.0
 11
-254.99999999999881
 21
-130.14330488320729
 31
0.0
  0
LINE
  5
DC
  8
SIZE
  6
CONTINUOUS
 62
    30
 10
-199.99999999999969
 20
-130.14330488320729
 30
0.0
 11
-19.857142857142652
 21
-130.14330488320729
 31
0.0
  0
LINE
  5
DD
  8
SIZE
  6
CONTINUOUS
 62
    30
 10
-224.99999999999881
 20
-130.14330488320729
 30
0.0
 11
-199.99999999999969
 21
-130.14330488320729
 31
0.0
  0
CIRCLE
  5
DE
  8
SIZE
  6
CONTINUOUS
 62
    30
 10
-224.99999999999881
 20
-130.14330488320729
 30
0.0
 40
7.5
  0
CIRCLE
  5
DF
  8
SIZE
  6
CONTINUOUS
 62
    30
 10
-199.99999999999969
 20
-130.14330488320729
 30
0.0
 40
7.5
  0
TEXT
  5
E0
  8
SIZE
  6
CONTINUOUS
 62
    30
 10
-119.9999999999997
 20
-110.14330488320731
 30
0.0
 40
55.0
  1
25
 41
0.9
 72
     1
 11
-79.928571428571217
 21
-110.14330488320731
 31
0.0
  0
POINT
  5
E1
  8
DEFPOINTS
  6
CONTINUOUS
 62
     7
 10
-224.99999999999881
 20
-241.64452690558991
 30
0.0
  0
POINT
  5
E2
  8
DEFPOINTS
  6
CONTINUOUS
 62
     7
 10
-199.99999999999969
 20
-181.99999999999781
 30
0.0
  0
POINT
  5
E3
  8
DEFPOINTS
  6
CONTINUOUS
 62
     7
 10
-199.99999999999969
 20
-130.14330488320729
 30
0.0
  0
LINE
  5
E4
  8
SIZE
  6
CONTINUOUS
 62
    30
 10
-199.99999999999969
 20
20.000000000002149
 30
0.0
 11
-199.99999999999969
 21
299.80883932763783
 31
0.0
  0
LINE
  5
E5
  8
SIZE
  6
CONTINUOUS
 62
    30
 10
-239.99999999999881
 20
-161.99999999999781
 30
0.0
 11
-239.99999999999881
 21
299.80883932763783
 31
0.0
  0
LINE
  5
E6
  8
SIZE
  6
CONTINUOUS
 62
    30
 10
-199.99999999999969
 20
279.80883932763783
 30
0.0
 11
-169.99999999999969
 21
279.80883932763783
 31
0.0
  0
LINE
  5
E7
  8
SIZE
  6
CONTINUOUS
 62
    30
 10
-239.99999999999881
 20
279.80883932763783
 30
0.0
 11
-420.14285714285592
 21
279.80883932763783
 31
0.0
  0
LINE
  5
E8
  8
SIZE
  6
CONTINUOUS
 62
    30
 10
-199.99999999999969
 20
279.80883932763783
 30
0.0
 11
-239.99999999999881
 21
279.80883932763783
 31
0.0
  0
CIRCLE
  5
E9
  8
SIZE
  6
CONTINUOUS
 62
    30
 10
-199.99999999999969
 20
279.80883932763783
 30
0.0
 40
7.5
  0
CIRCLE
  5
EA
  8
SIZE
  6
CONTINUOUS
 62
    30
 10
-239.99999999999881
 20
279.80883932763783
 30
0.0
 40
7.5
  0
TEXT
  5
EB
  8
SIZE
  6
CONTINUOUS
 62
    30
 10
-400.14285714285597
 20
299.80883932763783
 30
0.0
 40
55.0
  1
40
 41
0.9
 72
     1
 11
-360.07142857142748
 21
299.80883932763783
 31
0.0
  0
POINT
  5
EC
  8
DEFPOINTS
  6
CONTINUOUS
 62
     7
 10
-199.99999999999969
 20
0.0000000000021529
 30
0.0
  0
POINT
  5
ED
  8
DEFPOINTS
  6
CONTINUOUS
 62
     7
 10
-239.99999999999881
 20
-181.99999999999781
 30
0.0
  0
POINT
  5
EE
  8
DEFPOINTS
  6
CONTINUOUS
 62
     7
 10
-239.99999999999881
 20
279.80883932763783
 30
0.0
  0
LINE
  5
EF
  8
SIZE
  6
CONTINUOUS
 62
    30
 10
-99.999999999999787
 20
36.355473094410961
 30
0.0
 11
-99.999999999999787
 21
102.0758950957682
 31
0.0
  0
LINE
  5
F0
  8
SIZE
  6
CONTINUOUS
 62
    30
 10
-199.99999999999969
 20
20.000000000002149
 30
0.0
 11
-199.99999999999969
 21
102.0758950957682
 31
0.0
  0
LINE
  5
F1
  8
SIZE
  6
CONTINUOUS
 62
    30
 10
-99.999999999999787
 20
82.075895095768232
 30
0.0
 11
-199.99999999999969
 21
82.075895095768232
 31
0.0
  0
LINE
  5
F2
  8
SIZE
  6
CONTINUOUS
 62
    30
 10
-199.99999999999969
 20
82.075895095768232
 30
0.0
 11
-387.85714285714249
 21
82.075895095768232
 31
0.0
  0
CIRCLE
  5
F3
  8
SIZE
  6
CONTINUOUS
 62
    30
 10
-99.999999999999787
 20
82.075895095768232
 30
0.0
 40
7.5
  0
CIRCLE
  5
F4
  8
SIZE
  6
CONTINUOUS
 62
    30
 10
-199.99999999999969
 20
82.075895095768232
 30
0.0
 40
7.5
  0
TEXT
  5
F5
  8
SIZE
  6
CONTINUOUS
 62
    30
 10
-367.85714285714272
 20
102.0758950957682
 30
0.0
 40
55.0
  1
100
 41
0.9
 72
     1
 11
-308.92857142857122
 21
102.0758950957682
 31
0.0
  0
POINT
  5
F6
  8
DEFPOINTS
  6
CONTINUOUS
 62
     7
 10
-99.999999999999787
 20
16.35547309441095
 30
0.0
  0
POINT
  5
F7
  8
DEFPOINTS
  6
CONTINUOUS
 62
     7
 10
-199.99999999999969
 20
0.0000000000021529
 30
0.0
  0
POINT
  5
F8
  8
DEFPOINTS
  6
CONTINUOUS
 62
     7
 10
-199.99999999999969
 20
82.075895095768232
 30
0.0
  0
LINE
  5
F9
  8
SIZE
  6
CONTINUOUS
 62
    30
 10
-99.999999999999787
 20
36.355473094410961
 30
0.0
 11
-99.999999999999787
 21
102.0758950957682
 31
0.0
  0
LINE
  5
FA
  8
SIZE
  6
CONTINUOUS
 62
    30
 10
100.0
 20
36.355473094410961
 30
0.0
 11
100.0
 21
102.0758950957682
 31
0.0
  0
LINE
  5
FB
  8
SIZE
  6
CONTINUOUS
 62
    30
 10
-99.999999999999787
 20
82.075895095768232
 30
0.0
 11
100.0
 21
82.075895095768232
 31
0.0
  0
CIRCLE
  5
FC
  8
SIZE
  6
CONTINUOUS
 62
    30
 10
-99.999999999999787
 20
82.075895095768232
 30
0.0
 40
7.5
  0
CIRCLE
  5
FD
  8
SIZE
  6
CONTINUOUS
 62
    30
 10
100.0
 20
82.075895095768232
 30
0.0
 40
7.5
  0
TEXT
  5
FE
  8
SIZE
  6
CONTINUOUS
 62
    30
 10
-63.642857142857018
 20
102.0758950957682
 30
0.0
 40
55.0
  1
200
 41
0.9
 72
     1
 11
0.0000000000001137
 21
102.0758950957682
 31
0.0
  0
POINT
  5
FF
  8
DEFPOINTS
  6
CONTINUOUS
 62
     7
 10
-99.999999999999787
 20
16.35547309441095
 30
0.0
  0
POINT
  5
100
  8
DEFPOINTS
  6
CONTINUOUS
 62
     7
 10
100.0
 20
16.35547309441095
 30
0.0
  0
POINT
  5
101
  8
DEFPOINTS
  6
CONTINUOUS
 62
     7
 10
100.0
 20
82.075895095768232
 30
0.0
  0
TEXT
  5
102
  8
SIZE
  6
CONTINUOUS
 62
    30
 10
-162.45294059620571
 20
173.48977650457999
 30
0.0
 40
55.0
  1
<吊下げ寸法>
 50
359.99999749558327
 41
0.8
  7
STANDARD1
  0
LINE
  5
103
  8
SIZE
  6
CONTINUOUS
 62
    30
 10
-199.99999999999969
 20
20.000000000002149
 30
0.0
 11
-199.99999999999969
 21
299.80883932763783
 31
0.0
  0
LINE
  5
104
  8
SIZE
  6
CONTINUOUS
 62
    30
 10
200.0
 20
20.000000000002149
 30
0.0
 11
200.0
 21
299.80883932763783
 31
0.0
  0
LINE
  5
105
  8
SIZE
  6
CONTINUOUS
 62
    30
 10
-199.99999999999969
 20
279.80883932763783
 30
0.0
 11
200.0
 21
279.80883932763783
 31
0.0
  0
CIRCLE
  5
106
  8
SIZE
  6
CONTINUOUS
 62
    30
 10
-199.99999999999969
 20
279.80883932763783
 30
0.0
 40
7.5
  0
CIRCLE
  5
107
  8
SIZE
  6
CONTINUOUS
 62
    30
 10
200.0
 20
279.80883932763783
 30
0.0
 40
7.5
  0
TEXT
  5
108
  8
SIZE
  6
CONTINUOUS
 62
    30
 10
-63.64285714285699
 20
299.80883932763783
 30
0.0
 40
55.0
  1
400
 41
0.9
 72
     1
 11
0.0000000000001421
 21
299.80883932763783
 31
0.0
  0
POINT
  5
109
  8
DEFPOINTS
  6
CONTINUOUS
 62
     7
 10
-199.99999999999969
 20
0.0000000000021529
 30
0.0
  0
POINT
  5
10A
  8
DEFPOINTS
  6
CONTINUOUS
 62
     7
 10
200.0
 20
0.0000000000021529
 30
0.0
  0
POINT
  5
10B
  8
DEFPOINTS
  6
CONTINUOUS
 62
     7
 10
200.0
 20
279.80883932763783
 30
0.0
  0
TEXT
  5
10C
  8
SIZE
  6
CONTINUOUS
 62
    30
 10
-132.5748333841718
 20
363.65792775488922
 30
0.0
 40
55.0
  1
<本体寸法>
 50
359.99999749558327
 41
0.8
  7
STANDARD1
  0
LINE
  5
10D
  8
SIZE
  6
CONTINUOUS
 62
    30
 10
-199.99999999999969
 20
-396.99999999999778
 30
0.0
 11
-199.99999999999969
 21
-553.86341433498035
 31
0.0
  0
LINE
  5
10E
  8
SIZE
  6
CONTINUOUS
 62
    30
 10
-209.99999999999881
 20
-436.99999999999773
 30
0.0
 11
-209.99999999999881
 21
-553.86341433498035
 31
0.0
  0
LINE
  5
10F
  8
SIZE
  6
CONTINUOUS
 62
    30
 10
-199.99999999999969
 20
-533.86341433498035
 30
0.0
 11
-169.99999999999969
 21
-533.86341433498035
 31
0.0
  0
LINE
  5
110
  8
SIZE
  6
CONTINUOUS
 62
    30
 10
-209.99999999999881
 20
-533.86341433498035
 30
0.0
 11
-380.71428571428459
 21
-533.86341433498035
 31
0.0
  0
LINE
  5
111
  8
SIZE
  6
CONTINUOUS
 62
    30
 10
-199.99999999999969
 20
-533.86341433498035
 30
0.0
 11
-209.99999999999881
 21
-533.86341433498035
 31
0.0
  0
CIRCLE
  5
112
  8
SIZE
  6
CONTINUOUS
 62
    30
 10
-199.99999999999969
 20
-533.86341433498035
 30
0.0
 40
7.5
  0
CIRCLE
  5
113
  8
SIZE
  6
CONTINUOUS
 62
    30
 10
-209.99999999999881
 20
-533.86341433498035
 30
0.0
 40
7.5
  0
TEXT
  5
114
  8
SIZE
  6
CONTINUOUS
 62
    30
 10
-360.71428571428447
 20
-513.86341433498046
 30
0.0
 40
55.0
  1
10
 41
0.9
 72
     1
 11
-325.3571428571417
 21
-513.86341433498046
 31
0.0
  0
POINT
  5
115
  8
DEFPOINTS
  6
CONTINUOUS
 62
     7
 10
-199.99999999999969
 20
-376.99999999999778
 30
0.0
  0
POINT
  5
116
  8
DEFPOINTS
  6
CONTINUOUS
 62
     7
 10
-209.99999999999881
 20
-416.99999999999773
 30
0.0
  0
POINT
  5
117
  8
DEFPOINTS
  6
CONTINUOUS
 62
     7
 10
-209.99999999999881
 20
-533.86341433498035
 30
0.0
  0
LINE
  5
118
  8
SIZE
  6
CONTINUOUS
 62
    30
 10
-209.99999999999881
 20
-436.99999999999773
 30
0.0
 11
-209.99999999999881
 21
-771.80001689849155
 31
0.0
  0
LINE
  5
119
  8
SIZE
  6
CONTINUOUS
 62
    30
 10
210.00000000000131
 20
-436.99999999999773
 30
0.0
 11
210.00000000000131
 21
-771.80001689849155
 31
0.0
  0
LINE
  5
11A
  8
SIZE
  6
CONTINUOUS
 62
    30
 10
-209.99999999999881
 20
-751.80001689849155
 30
0.0
 11
210.00000000000131
 21
-751.80001689849155
 31
0.0
  0
CIRCLE
  5
11B
  8
SIZE
  6
CONTINUOUS
 62
    30
 10
-209.99999999999881
 20
-751.80001689849155
 30
0.0
 40
7.5
  0
CIRCLE
  5
11C
  8
SIZE
  6
CONTINUOUS
 62
    30
 10
210.00000000000131
 20
-751.80001689849155
 30
0.0
 40
7.5
  0
TEXT
  5
11D
  8
SIZE
  6
CONTINUOUS
 62
    30
 10
-63.64285714285591
 20
-731.80001689849155
 30
0.0
 40
55.0
  1
420
 41
0.9
 72
     1
 11
0.0000000000012221
 21
-731.80001689849155
 31
0.0
  0
POINT
  5
11E
  8
DEFPOINTS
  6
CONTINUOUS
 62
     7
 10
-209.99999999999881
 20
-416.99999999999773
 30
0.0
  0
POINT
  5
11F
  8
DEFPOINTS
  6
CONTINUOUS
 62
     7
 10
210.00000000000131
 20
-416.99999999999773
 30
0.0
  0
POINT
  5
120
  8
DEFPOINTS
  6
CONTINUOUS
 62
     7
 10
210.00000000000131
 20
-751.80001689849155
 30
0.0
  0
LINE
  5
121
  8
SIZE
  6
CONTINUOUS
 62
    30
 10
210.00000000000131
 20
-436.99999999999773
 30
0.0
 11
210.00000000000131
 21
-771.80001689849155
 31
0.0
  0
LINE
  5
122
  8
SIZE
  6
CONTINUOUS
 62
    30
 10
250.0
 20
-445.3554730944075
 30
0.0
 11
249.99999999999989
 21
-771.80001689849155
 31
0.0
  0
LINE
  5
123
  8
SIZE
  6
CONTINUOUS
 62
    30
 10
210.00000000000131
 20
-751.80001689849155
 30
0.0
 11
180.00000000000131
 21
-751.80001689849155
 31
0.0
  0
LINE
  5
124
  8
SIZE
  6
CONTINUOUS
 62
    30
 10
249.99999999999989
 20
-751.80001689849155
 30
0.0
 11
430.14285714285711
 21
-751.80001689849155
 31
0.0
  0
LINE
  5
125
  8
SIZE
  6
CONTINUOUS
 62
    30
 10
210.00000000000131
 20
-751.80001689849155
 30
0.0
 11
249.99999999999989
 21
-751.80001689849155
 31
0.0
  0
CIRCLE
  5
126
  8
SIZE
  6
CONTINUOUS
 62
    30
 10
210.00000000000131
 20
-751.80001689849155
 30
0.0
 40
7.5
  0
CIRCLE
  5
127
  8
SIZE
  6
CONTINUOUS
 62
    30
 10
249.99999999999989
 20
-751.80001689849155
 30
0.0
 40
7.5
  0
TEXT
  5
128
  8
SIZE
  6
CONTINUOUS
 62
    30
 10
330.0
 20
-731.80001689849155
 30
0.0
 40
55.0
  1
40
 41
0.9
 72
     1
 11
370.07142857142861
 21
-731.80001689849155
 31
0.0
  0
POINT
  5
129
  8
DEFPOINTS
  6
CONTINUOUS
 62
     7
 10
210.00000000000131
 20
-416.99999999999773
 30
0.0
  0
POINT
  5
12A
  8
DEFPOINTS
  6
CONTINUOUS
 62
     7
 10
250.0
 20
-425.3554730944075
 30
0.0
  0
POINT
  5
12B
  8
DEFPOINTS
  6
CONTINUOUS
 62
     7
 10
249.99999999999989
 20
-751.80001689849155
 30
0.0
  0
LINE
  5
12C
  8
SIZE
  6
CONTINUOUS
 62
    30
 10
200.0
 20
20.000000000002149
 30
0.0
 11
200.0
 21
299.80883932763783
 31
0.0
  0
LINE
  5
12D
  8
SIZE
  6
CONTINUOUS
 62
    30
 10
288.00000000000131
 20
-19.99999999999784
 30
0.0
 11
288.00000000000131
 21
299.80883932763783
 31
0.0
  0
LINE
  5
12E
  8
SIZE
  6
CONTINUOUS
 62
    30
 10
200.0
 20
279.80883932763783
 30
0.0
 11
288.00000000000131
 21
279.80883932763783
 31
0.0
  0
LINE
  5
12F
  8
SIZE
  6
CONTINUOUS
 62
    30
 10
288.00000000000131
 20
279.80883932763783
 30
0.0
 11
438.14285714285842
 21
279.80883932763783
 31
0.0
  0
CIRCLE
  5
130
  8
SIZE
  6
CONTINUOUS
 62
    30
 10
200.0
 20
279.80883932763783
 30
0.0
 40
7.5
  0
CIRCLE
  5
131
  8
SIZE
  6
CONTINUOUS
 62
    30
 10
288.00000000000131
 20
279.80883932763783
 30
0.0
 40
7.5
  0
TEXT
  5
132
  8
SIZE
  6
CONTINUOUS
 62
    30
 10
338.00000000000142
 20
299.80883932763783
 30
0.0
 40
55.0
  1
88
 41
0.9
 72
     1
 11
378.07142857142992
 21
299.80883932763783
 31
0.0
  0
POINT
  5
133
  8
DEFPOINTS
  6
CONTINUOUS
 62
     7
 10
200.0
 20
0.0000000000021529
 30
0.0
  0
POINT
  5
134
  8
DEFPOINTS
  6
CONTINUOUS
 62
     7
 10
288.00000000000131
 20
-39.999999999997847
 30
0.0
  0
POINT
  5
135
  8
DEFPOINTS
  6
CONTINUOUS
 62
     7
 10
288.00000000000131
 20
279.80883932763783
 30
0.0
  0
LINE
  5
136
  8
SIZE
  6
CONTINUOUS
 62
    30
 10
200.0
 20
-19.99999999999784
 30
0.0
 11
200.0
 21
-188.9568735927383
 31
0.0
  0
LINE
  5
137
  8
SIZE
  6
CONTINUOUS
 62
    30
 10
239.99999999999909
 20
-264.64452690558892
 30
0.0
 11
239.99999999999909
 21
-148.9568735927383
 31
0.0
  0
LINE
  5
138
  8
SIZE
  6
CONTINUOUS
 62
    30
 10
239.99999999999909
 20
-168.9568735927383
 30
0.0
 11
269.99999999999898
 21
-168.9568735927383
 31
0.0
  0
LINE
  5
139
  8
SIZE
  6
CONTINUOUS
 62
    30
 10
200.0
 20
-168.9568735927383
 30
0.0
 11
19.857142857142868
 21
-168.9568735927383
 31
0.0
  0
LINE
  5
13A
  8
SIZE
  6
CONTINUOUS
 62
    30
 10
239.99999999999909
 20
-168.9568735927383
 30
0.0
 11
200.0
 21
-168.9568735927383
 31
0.0
  0
CIRCLE
  5
13B
  8
SIZE
  6
CONTINUOUS
 62
    30
 10
239.99999999999909
 20
-168.9568735927383
 30
0.0
 40
7.5
  0
CIRCLE
  5
13C
  8
SIZE
  6
CONTINUOUS
 62
    30
 10
200.0
 20
-168.9568735927383
 30
0.0
 40
7.5
  0
TEXT
  5
13D
  8
SIZE
  6
CONTINUOUS
 62
    30
 10
39.857142857142868
 20
-148.9568735927383
 30
0.0
 40
55.0
  1
40
 41
0.9
 72
     1
 11
79.928571428571431
 21
-148.9568735927383
 31
0.0
  0
POINT
  5
13E
  8
DEFPOINTS
  6
CONTINUOUS
 62
     7
 10
200.0
 20
0.0000000000021529
 30
0.0
  0
POINT
  5
13F
  8
DEFPOINTS
  6
CONTINUOUS
 62
     7
 10
239.99999999999909
 20
-284.64452690558892
 30
0.0
  0
POINT
  5
140
  8
DEFPOINTS
  6
CONTINUOUS
 62
     7
 10
239.99999999999909
 20
-168.9568735927383
 30
0.0
  0
LINE
  5
141
  8
BASIS
  6
DASHDOT
 62
     6
 10
0.0
 20
39.120116369699062
 30
0.0
 11
0.0
 21
-455.13060043645021
 31
0.0
  0
CIRCLE
  5
142
  8
ARRANGE
  6
CONTINUOUS
 62
     1
 10
0.0
 20
0.0000000000003339
 30
0.0
 40
50.0
  0
LINE
  5
143
  8
ARRANGE
  6
CONTINUOUS
 62
     1
 10
-50.037350031328742
 20
-49.522353150324882
 30
0.0
 11
50.037350031329417
 21
49.522353150325529
 31
0.0
  0
LINE
  5
144
  8
ARRANGE
  6
CONTINUOUS
 62
     1
 10
-49.96376331050169
 20
49.596594797986093
 30
0.0
 11
49.963763310501221
 21
-49.59659479798178
 31
0.0
  0
LINE
  5
145
  8
SIZE
  6
CONTINUOUS
 62
    30
 10
220.0
 20
0.0000000000021473
 30
0.0
 11
515.01265375323919
 21
0.0000000000020637
 31
0.0
  0
LINE
  5
146
  8
SIZE
  6
CONTINUOUS
 62
    30
 10
276.3554730944083
 20
-212.99999999999781
 30
0.0
 11
515.01265375323919
 21
-212.9999999999979
 31
0.0
  0
LINE
  5
147
  8
SIZE
  6
CONTINUOUS
 62
    30
 10
495.01265375323908
 20
0.0000000000020694
 30
0.0
 11
495.01265375323908
 21
-212.9999999999979
 31
0.0
  0
CIRCLE
  5
148
  8
SIZE
  6
CONTINUOUS
 62
    30
 10
495.01265375323908
 20
0.0000000000020694
 30
0.0
 40
7.5
  0
CIRCLE
  5
149
  8
SIZE
  6
CONTINUOUS
 62
    30
 10
495.01265375323908
 20
-212.9999999999979
 30
0.0
 40
7.5
  0
TEXT
  5
14A
  8
SIZE
  6
CONTINUOUS
 62
    30
 10
475.01265375323908
 20
-165.4285714285692
 30
0.0
 40
55.0
  1
213
 50
90.0
 41
0.9
 72
     1
 11
475.01265375323908
 21
-106.4999999999977
 31
0.0
  0
POINT
  5
14B
  8
DEFPOINTS
  6
CONTINUOUS
 62
     7
 10
200.0
 20
0.0000000000021529
 30
0.0
  0
POINT
  5
14C
  8
DEFPOINTS
  6
CONTINUOUS
 62
     7
 10
256.3554730944083
 20
-212.99999999999781
 30
0.0
  0
POINT
  5
14D
  8
DEFPOINTS
  6
CONTINUOUS
 62
     7
 10
495.01265375323908
 20
-212.9999999999979
 30
0.0
  0
LINE
  5
14E
  8
SIZE
  6
CONTINUOUS
 62
    30
 10
276.3554730944083
 20
-212.99999999999781
 30
0.0
 11
515.01265375323919
 21
-212.9999999999979
 31
0.0
  0
LINE
  5
14F
  8
SIZE
  6
CONTINUOUS
 62
    30
 10
276.3554730944083
 20
-300.99999999999773
 30
0.0
 11
515.01265375323919
 21
-300.99999999999773
 31
0.0
  0
LINE
  5
150
  8
SIZE
  6
CONTINUOUS
 62
    30
 10
495.01265375323908
 20
-212.9999999999979
 30
0.0
 11
495.01265375323908
 21
-300.99999999999773
 31
0.0
  0
CIRCLE
  5
151
  8
SIZE
  6
CONTINUOUS
 62
    30
 10
495.01265375323908
 20
-212.9999999999979
 30
0.0
 40
7.5
  0
CIRCLE
  5
152
  8
SIZE
  6
CONTINUOUS
 62
    30
 10
495.01265375323908
 20
-300.99999999999773
 30
0.0
 40
7.5
  0
TEXT
  5
153
  8
SIZE
  6
CONTINUOUS
 62
    30
 10
475.01265375323908
 20
-297.07142857142628
 30
0.0
 40
55.0
  1
88
 50
90.0
 41
0.9
 72
     1
 11
475.01265375323908
 21
-256.99999999999773
 31
0.0
  0
POINT
  5
154
  8
DEFPOINTS
  6
CONTINUOUS
 62
     7
 10
256.3554730944083
 20
-212.99999999999781
 30
0.0
  0
POINT
  5
155
  8
DEFPOINTS
  6
CONTINUOUS
 62
     7
 10
256.3554730944083
 20
-300.99999999999773
 30
0.0
  0
POINT
  5
156
  8
DEFPOINTS
  6
CONTINUOUS
 62
     7
 10
495.01265375323908
 20
-300.99999999999773
 30
0.0
  0
LINE
  5
157
  8
SIZE
  6
CONTINUOUS
 62
    30
 10
220.0
 20
0.0000000000021473
 30
0.0
 11
638.8625592898494
 21
0.0000000000020286
 31
0.0
  0
LINE
  5
158
  8
SIZE
  6
CONTINUOUS
 62
    30
 10
286.3554730944083
 20
-408.99999999999773
 30
0.0
 11
638.86255928984929
 21
-408.99999999999778
 31
0.0
  0
LINE
  5
159
  8
SIZE
  6
CONTINUOUS
 62
    30
 10
618.86255928984929
 20
0.0000000000020343
 30
0.0
 11
618.86255928984929
 21
-408.99999999999778
 31
0.0
  0
CIRCLE
  5
15A
  8
SIZE
  6
CONTINUOUS
 62
    30
 10
618.86255928984929
 20
0.0000000000020343
 30
0.0
 40
7.5
  0
CIRCLE
  5
15B
  8
SIZE
  6
CONTINUOUS
 62
    30
 10
618.86255928984929
 20
-408.99999999999778
 30
0.0
 40
7.5
  0
TEXT
  5
15C
  8
SIZE
  6
CONTINUOUS
 62
    30
 10
598.86255928984929
 20
-266.96428571428351
 30
0.0
 40
55.0
  1
409
 50
90.0
 41
0.9
 72
     1
 11
598.86255928984929
 21
-204.49999999999781
 31
0.0
  0
POINT
  5
15D
  8
DEFPOINTS
  6
CONTINUOUS
 62
     7
 10
200.0
 20
0.0000000000021529
 30
0.0
  0
POINT
  5
15E
  8
DEFPOINTS
  6
CONTINUOUS
 62
     7
 10
266.3554730944083
 20
-408.99999999999773
 30
0.0
  0
POINT
  5
15F
  8
DEFPOINTS
  6
CONTINUOUS
 62
     7
 10
618.86255928984929
 20
-408.99999999999778
 30
0.0
  0
LINE
  5
160
  8
OUTLINE
  6
CONTINUOUS
 62
     3
 10
200.0
 20
0.0000000000021529
 30
0.0
 11
200.0
 21
-376.99999999999778
 31
0.0
  0
LINE
  5
161
  8
OUTLINE
  6
CONTINUOUS
 62
     3
 10
200.0
 20
-376.99999999999778
 30
0.0
 11
-199.99999999999969
 21
-376.99999999999778
 31
0.0
  0
LINE
  5
162
  8
OUTLINE
  6
CONTINUOUS
 62
     3
 10
-199.99999999999969
 20
-376.99999999999778
 30
0.0
 11
-199.99999999999969
 21
0.0000000000021529
 31
0.0
  0
LINE
  5
163
  8
OUTLINE
  6
CONTINUOUS
 62
     3
 10
-199.99999999999969
 20
0.0000000000021529
 30
0.0
 11
200.0
 21
0.0000000000021529
 31
0.0
  0
TEXT
  5
164
  8
NOTE
  6
CONTINUOUS
 62
     4
 10
317.94284558427529
 20
149.63595226545499
 30
0.0
 40
55.0
  1
AH 4-%%C20
 50
359.99999749558327
 41
0.7
  7
STANDARD1
  0
LINE
  5
165
  8
NOTE
  6
CONTINUOUS
 62
     4
 10
311.1718867698832
 20
133.80940815008049
 30
0.0
 11
608.00861415410316
 21
133.80940815008049
 31
0.0
  0
LINE
  5
166
  8
NOTE
  6
CONTINUOUS
 62
     4
 10
311.1718867698832
 20
133.80940815008049
 30
0.0
 11
100.0
 21
0.0000000000021529
 31
0.0
  0
TEXT
  5
167
  8
NOTE
  6
CONTINUOUS
 62
     4
 10
339.04054651227437
 20
39.519134714232102
 30
0.0
 40
55.0
  1
CDR R3/4
 50
359.99999749558327
 41
0.7
  7
STANDARD1
  0
LINE
  5
168
  8
NOTE
  6
CONTINUOUS
 62
     4
 10
328.13480027760119
 20
23.692590598857681
 30
0.0
 11
625.487885279529
 21
23.69259059885859
 31
0.0
  0
LINE
  5
169
  8
NOTE
  6
CONTINUOUS
 62
     4
 10
239.99999999999909
 20
-212.99999999999781
 30
0.0
 11
328.13480027760119
 21
23.692590598857681
 31
0.0
  0
TEXT
  5
16A
  8
NOTE
  6
CONTINUOUS
 62
     4
 10
353.74637496610688
 20
-500.08775987301811
 30
0.0
 40
55.0
  1
CD R3/4
 50
359.99999749558327
 41
0.7
  7
STANDARD1
  0
LINE
  5
16B
  8
NOTE
  6
CONTINUOUS
 62
     4
 10
346.03966850442299
 20
-515.91430215255934
 30
0.0
 11
599.76262933611724
 21
-515.91430215255934
 31
0.0
  0
LINE
  5
16C
  8
NOTE
  6
CONTINUOUS
 62
     4
 10
239.99999999999909
 20
-300.99999999999773
 30
0.0
 11
346.03966850442299
 21
-515.91430215255934
 31
0.0
  0
LINE
  5
16D
  8
NOTE
  6
CONTINUOUS
 62
     4
 10
250.0
 20
-408.99999999999858
 30
0.0
 11
348.08553637171002
 21
-636.78670608017785
 31
0.0
  0
CIRCLE
  5
16E
  8
DETAIL
  6
CONTINUOUS
 62
     5
 10
-224.99999999999881
 20
-257.99999999999773
 30
0.0
 40
1.5
  0
LINE
  5
16F
  8
NOTE
  6
CONTINUOUS
 62
     4
 10
-224.99999999999679
 20
-257.99999999999773
 30
0.0
 11
-297.2855473329609
 21
-779.88964213499025
 31
0.0
  0
TEXT
  5
170
  8
NOTE
  6
CONTINUOUS
 62
     4
 10
-611.33824013945775
 20
-764.06310830028224
 30
0.0
 40
55.0
  1
%%C3
 50
359.99999749558327
 41
0.7
  7
STANDARD1
  0
LINE
  5
171
  8
NOTE
  6
CONTINUOUS
 62
     4
 10
-680.36913461429685
 20
-779.88964213499025
 30
0.0
 11
-297.2855473329609
 21
-779.88964213499025
 31
0.0
  0
TEXT
  5
172
  8
NOTE
  6
CONTINUOUS
 62
     4
 10
-670.36075048922964
 20
-692.8078020419174
 30
0.0
 40
55.0
  1
吹出ダクト取付穴
 50
359.99999749558327
 41
0.7
  7
STANDARD1
  0
LINE
  5
173
  8
NOTE
  6
CONTINUOUS
 62
     4
 10
376.45682012358321
 20
-163.51408067029439
 30
0.0
 11
376.45682012358321
 21
-192.05265015291801
 31
0.0
  0
LINE
  5
174
  8
NOTE
  6
CONTINUOUS
 62
     4
 10
376.45682012358321
 20
-192.05265015291801
 30
0.0
 11
342.71462532772921
 21
-192.05265015291801
 31
0.0
  0
LINE
  5
175
  8
NOTE
  6
CONTINUOUS
 62
     4
 10
376.45682012358321
 20
-163.51408067029439
 30
0.0
 11
342.71462532772921
 21
-163.51408067029439
 31
0.0
  0
LINE
  5
176
  8
NOTE
  6
CONTINUOUS
 62
     4
 10
342.71462532772921
 20
-192.05265015291801
 30
0.0
 11
342.71462532772921
 21
-207.51070481277159
 31
0.0
  0
LINE
  5
177
  8
NOTE
  6
CONTINUOUS
 62
     4
 10
312.136594938945
 20
-177.78336541160621
 30
0.0
 11
342.71462532772921
 21
-207.51070481277159
 31
0.0
  0
LINE
  5
178
  8
NOTE
  6
CONTINUOUS
 62
     4
 10
342.71462532772512
 20
-163.51408067029249
 30
0.0
 11
342.71462532772318
 21
-148.0560260104408
 31
0.0
  0
LINE
  5
179
  8
NOTE
  6
CONTINUOUS
 62
     4
 10
312.136594938945
 20
-177.7833654116107
 30
0.0
 11
342.71462532772318
 21
-148.0560260104408
 31
0.0
  0
TEXT
  5
17A
  8
NOTE
  6
CONTINUOUS
 62
     4
 10
303.13100565585449
 20
-143.96222136763711
 30
0.0
 40
55.0
  1
吸込
 50
359.99999749558327
 41
0.7
  7
STANDARD1
  0
LINE
  5
17B
  8
NOTE
  6
CONTINUOUS
 62
     4
 10
-272.03595071291488
 20
-274.5997019106012
 30
0.0
 11
-272.03595071291488
 21
-303.1382713932249
 31
0.0
  0
LINE
  5
17C
  8
NOTE
  6
CONTINUOUS
 62
     4
 10
-272.03595071291488
 20
-303.1382713932249
 30
0.0
 11
-305.7781455087686
 21
-303.1382713932249
 31
0.0
  0
LINE
  5
17D
  8
NOTE
  6
CONTINUOUS
 62
     4
 10
-272.03595071291488
 20
-274.5997019106012
 30
0.0
 11
-305.7781455087686
 21
-274.5997019106012
 31
0.0
  0
LINE
  5
17E
  8
NOTE
  6
CONTINUOUS
 62
     4
 10
-305.7781455087686
 20
-303.1382713932249
 30
0.0
 11
-305.7781455087686
 21
-318.59632605307849
 31
0.0
  0
LINE
  5
17F
  8
NOTE
  6
CONTINUOUS
 62
     4
 10
-336.35617589755287
 20
-288.86898665191308
 30
0.0
 11
-305.7781455087686
 21
-318.59632605307849
 31
0.0
  0
LINE
  5
180
  8
NOTE
  6
CONTINUOUS
 62
     4
 10
-305.77814550877167
 20
-274.59970191059938
 30
0.0
 11
-305.77814550877378
 21
-259.14164725074772
 31
0.0
  0
LINE
  5
181
  8
NOTE
  6
CONTINUOUS
 62
     4
 10
-336.35617589755287
 20
-288.86898665191762
 30
0.0
 11
-305.77814550877378
 21
-259.14164725074772
 31
0.0
  0
TEXT
  5
182
  8
NOTE
  6
CONTINUOUS
 62
     4
 10
-343.89462566364472
 20
-255.0478427303328
 30
0.0
 40
55.0
  1
吹出
 50
359.99999749558327
 41
0.7
  7
STANDARD1
  0
CIRCLE
  5
183
  8
FIX
  6
CONTINUOUS
 62
    11
 10
-99.999999999998863
 20
0.0000000000021529
 30
0.0
 40
12.57617939085139
  0
CIRCLE
  5
184
  8
FIX
  6
CONTINUOUS
 62
    11
 10
100.0
 20
0.0000000000021529
 30
0.0
 40
12.57617939085139
  0
LINE
  5
185
  8
DETAIL
  6
CONTINUOUS
 62
     5
 10
200.00000000000219
 20
-351.99999999999778
 30
0.0
 11
288.00000000000131
 21
-351.99999999999778
 31
0.0
  0
TEXT
  5
186
  8
NOTE
  6
CONTINUOUS
 62
     4
 10
358.62871003764991
 20
-620.96016563646958
 30
0.0
 40
55.0
  1
D R3/4
 50
359.99999749558327
 41
0.7
  7
STANDARD1
  0
LINE
  5
187
  8
NOTE
  6
CONTINUOUS
 62
     4
 10
348.08553637171002
 20
-636.78670608017785
 30
0.0
 11
566.62341074147116
 21
-636.78670608017785
 31
0.0
  0
TEXT
  5
188
  8
SIZE
  6
CONTINUOUS
 62
    30
 10
-217.51416758452879
 20
-826.28463901939051
 30
0.0
 40
55.0
  1
<ドレンパン寸法>
 50
359.99999749558327
 41
0.8
  7
STANDARD1
  0
LINE
  5
189
  8
NOTE
  6
CONTINUOUS
 62
     4
 10
100.0
 20
0.0000000000030624
 30
0.0
 11
122.6222883176992
 21
25.895593085732219
 31
0.0
  0
LINE
  5
18A
  8
NOTE
  6
CONTINUOUS
 62
     4
 10
100.0
 20
0.0000000000030624
 30
0.0
 11
132.5392730796479
 21
11.11509682536084
 31
0.0
  0
LINE
  5
18B
  8
NOTE
  6
CONTINUOUS
 62
     4
 10
240.00000000000131
 20
-212.99999999999781
 30
0.0
 11
243.6925930184693
 21
-178.81353445015199
 31
0.0
  0
LINE
  5
18C
  8
NOTE
  6
CONTINUOUS
 62
     4
 10
240.00000000000131
 20
-212.99999999999781
 30
0.0
 11
260.29111253919831
 21
-185.23994917312169
 31
0.0
  0
LINE
  5
18D
  8
NOTE
  6
CONTINUOUS
 62
     4
 10
239.99999999999909
 20
-300.99999999999852
 30
0.0
 11
263.13744629134408
 21
-326.43635683634562
 31
0.0
  0
LINE
  5
18E
  8
NOTE
  6
CONTINUOUS
 62
     4
 10
239.99999999999909
 20
-300.99999999999852
 30
0.0
 11
247.319437359321
 21
-334.59725445228969
 31
0.0
  0
LINE
  5
18F
  8
NOTE
  6
CONTINUOUS
 62
     4
 10
250.0
 20
-409.00000000000142
 30
0.0
 11
271.95910699192001
 21
-435.46029648564547
 31
0.0
  0
LINE
  5
190
  8
NOTE
  6
CONTINUOUS
 62
     4
 10
250.0
 20
-409.00000000000142
 30
0.0
 11
255.7869957627594
 21
-442.89484252848649
 31
0.0
  0
LINE
  5
191
  8
NOTE
  6
CONTINUOUS
 62
     4
 10
-225.00000000003891
 20
-257.99999999996322
 30
0.0
 11
-221.19212026070471
 21
-292.1738163200867
 31
0.0
  0
LINE
  5
192
  8
NOTE
  6
CONTINUOUS
 62
     4
 10
-225.00000000003891
 20
-257.99999999996322
 30
0.0
 11
-238.7891880302079
 21
-289.49933274619121
 31
0.0
  0
TEXT
  5
193
  8
SIZE
  6
CONTINUOUS
 62
    30
 10
-663.49562477172094
 20
-330.19993404931893
 30
0.0
 40
55.0
  1
<本体寸法>
 50
90.000002504416585
 41
0.8
  7
STANDARD1
  0
TEXT
  5
194
  8
SIZE
  6
CONTINUOUS
 62
    30
 10
-859.16936187580779
 20
-488.6040037319558
 30
0.0
 40
55.0
  1
<ドレンパン取付寸法>
 50
90.000002504416585
 41
0.8
  7
STANDARD1
  0
LINE
  5
195
  8
SIZE
  6
CONTINUOUS
 62
    30
 10
-229.99999999999881
 20
-396.99999999999778
 30
0.0
 11
-486.60650808599968
 21
-396.99999999999773
 31
0.0
  0
LINE
  5
196
  8
SIZE
  6
CONTINUOUS
 62
    30
 10
-229.99999999999881
 20
-416.99999999999773
 30
0.0
 11
-486.60650808599968
 21
-416.99999999999773
 31
0.0
  0
LINE
  5
197
  8
SIZE
  6
CONTINUOUS
 62
    30
 10
-466.60650808599968
 20
-396.99999999999773
 30
0.0
 11
-466.60650808599968
 21
-366.99999999999773
 31
0.0
  0
LINE
  5
198
  8
SIZE
  6
CONTINUOUS
 62
    30
 10
-466.60650808599968
 20
-416.99999999999773
 30
0.0
 11
-466.60650808599968
 21
-597.14285714285484
 31
0.0
  0
LINE
  5
199
  8
SIZE
  6
CONTINUOUS
 62
    30
 10
-466.60650808599968
 20
-396.99999999999773
 30
0.0
 11
-466.60650808599968
 21
-416.99999999999773
 31
0.0
  0
CIRCLE
  5
19A
  8
SIZE
  6
CONTINUOUS
 62
    30
 10
-466.60650808599968
 20
-396.99999999999773
 30
0.0
 40
7.5
  0
CIRCLE
  5
19B
  8
SIZE
  6
CONTINUOUS
 62
    30
 10
-466.60650808599968
 20
-416.99999999999773
 30
0.0
 40
7.5
  0
TEXT
  5
19C
  8
SIZE
  6
CONTINUOUS
 62
    30
 10
-486.60650808599962
 20
-577.14285714285495
 30
0.0
 40
55.0
  1
20
 50
90.0
 41
0.9
 72
     1
 11
-486.60650808599962
 21
-537.0714285714264
 31
0.0
  0
POINT
  5
19D
  8
DEFPOINTS
  6
CONTINUOUS
 62
     7
 10
-209.99999999999881
 20
-396.99999999999778
 30
0.0
  0
POINT
  5
19E
  8
DEFPOINTS
  6
CONTINUOUS
 62
     7
 10
-209.99999999999881
 20
-416.99999999999773
 30
0.0
  0
POINT
  5
19F
  8
DEFPOINTS
  6
CONTINUOUS
 62
     7
 10
-466.60650808599968
 20
-416.99999999999773
 30
0.0
  0
TEXT
  5
1A0
  8
ETC
  6
CONTINUOUS
 62
    61
 10
86.206531521935176
 20
460.10823496991401
 30
0.0
 40
70.0
  1
MB-P36_50WT_4
 50
0.0000029998804485
 41
0.8
  0
ENDSEC
  0
EOF
