  0
SECTION
  2
HEADER
  9
$ACADVER
  1
AC1015
  9
$ACADMAINTVER
 70
    20
  9
$DWGCODEPAGE
  3
ANSI_932
  9
$INSBASE
 10
0.0
 20
0.0
 30
0.0
  9
$EXTMIN
 10
-1146.728951617544
 20
-898.3352729151883
 30
-0.0015258207003583
  9
$EXTMAX
 10
1476.643444148198
 20
650.9113281591526
 30
0.0000000349246037
  9
$LIMMIN
 10
-4267.152221060482
 20
-2696.083210198413
  9
$LIMMAX
 10
7190.717422586465
 20
5141.155363923066
  9
$ORTHOMODE
 70
     0
  9
$REGENMODE
 70
     1
  9
$FILLMODE
 70
     1
  9
$QTEXTMODE
 70
     0
  9
$MIRRTEXT
 70
     0
  9
$LTSCALE
 40
20.0
  9
$ATTMODE
 70
     1
  9
$TEXTSIZE
 40
60.0
  9
$TRACEWID
 40
0.05
  9
$TEXTSTYLE
  7
STANDARD1
  9
$CLAYER
  8
NOTE
  9
$CELTYPE
  6
BYLAYER
  9
$CECOLOR
 62
   256
  9
$CELTSCALE
 40
1.0
  9
$DISPSILH
 70
     0
  9
$DIMSCALE
 40
1.0
  9
$DIMASZ
 40
30.0
  9
$DIMEXO
 40
20.0
  9
$DIMDLI
 40
80.0
  9
$DIMRND
 40
0.0
  9
$DIMDLE
 40
0.0
  9
$DIMEXE
 40
20.0
  9
$DIMTP
 40
0.0
  9
$DIMTM
 40
0.0
  9
$DIMTXT
 40
40.0
  9
$DIMCEN
 40
0.09
  9
$DIMTSZ
 40
0.0
  9
$DIMTOL
 70
     0
  9
$DIMLIM
 70
     0
  9
$DIMTIH
 70
     0
  9
$DIMTOH
 70
     0
  9
$DIMSE1
 70
     0
  9
$DIMSE2
 70
     0
  9
$DIMTAD
 70
     1
  9
$DIMZIN
 70
     8
  9
$DIMBLK
  1
Small
  9
$DIMASO
 70
     1
  9
$DIMSHO
 70
     0
  9
$DIMPOST
  1

  9
$DIMAPOST
  1

  9
$DIMALT
 70
     0
  9
$DIMALTD
 70
     2
  9
$DIMALTF
 40
25.4
  9
$DIMLFAC
 40
1.0
  9
$DIMTOFL
 70
     1
  9
$DIMTVP
 40
0.0
  9
$DIMTIX
 70
     0
  9
$DIMSOXD
 70
     0
  9
$DIMSAH
 70
     0
  9
$DIMBLK1
  1

  9
$DIMBLK2
  1

  9
$DIMSTYLE
  2
kaigai_CADSYMBOL
  9
$DIMCLRD
 70
     0
  9
$DIMCLRE
 70
     0
  9
$DIMCLRT
 70
     0
  9
$DIMTFAC
 40
1.0
  9
$DIMGAP
 40
20.0
  9
$DIMJUST
 70
     0
  9
$DIMSD1
 70
     0
  9
$DIMSD2
 70
     0
  9
$DIMTOLJ
 70
     1
  9
$DIMTZIN
 70
     0
  9
$DIMALTZ
 70
     0
  9
$DIMALTTZ
 70
     0
  9
$DIMUPT
 70
     0
  9
$DIMDEC
 70
     1
  9
$DIMTDEC
 70
     1
  9
$DIMALTU
 70
     2
  9
$DIMALTTD
 70
     2
  9
$DIMTXSTY
  7
STANDARD
  9
$DIMAUNIT
 70
     0
  9
$DIMADEC
 70
     0
  9
$DIMALTRND
 40
0.0
  9
$DIMAZIN
 70
     2
  9
$DIMDSEP
 70
    46
  9
$DIMATFIT
 70
     3
  9
$DIMFRAC
 70
     0
  9
$DIMLDRBLK
  1
Open30
  9
$DIMLUNIT
 70
     2
  9
$DIMLWD
 70
    -2
  9
$DIMLWE
 70
    -2
  9
$DIMTMOVE
 70
     0
  9
$LUNITS
 70
     2
  9
$LUPREC
 70
     4
  9
$SKETCHINC
 40
0.1
  9
$FILLETRAD
 40
0.0
  9
$AUNITS
 70
     1
  9
$AUPREC
 70
     3
  9
$MENU
  1
ACAD
  9
$ELEVATION
 40
0.0
  9
$PELEVATION
 40
0.0
  9
$THICKNESS
 40
0.0
  9
$LIMCHECK
 70
     0
  9
$CHAMFERA
 40
0.0
  9
$CHAMFERB
 40
0.0
  9
$CHAMFERC
 40
0.0
  9
$CHAMFERD
 40
0.0
  9
$SKPOLY
 70
     0
  9
$TDCREATE
 40
2455902.607164352
  9
$TDUCREATE
 40
2455902.232169063
  9
$TDUPDATE
 40
2457751.361967593
  9
$TDUUPDATE
 40
2457750.986967766
  9
$TDINDWG
 40
1.6968386806
  9
$TDUSRTIMER
 40
1.6968350694
  9
$USRTIMER
 70
     1
  9
$ANGBASE
 50
0.0
  9
$ANGDIR
 70
     0
  9
$PDMODE
 70
     3
  9
$PDSIZE
 40
-2.0
  9
$PLINEWID
 40
0.0
  9
$SPLFRAME
 70
     0
  9
$SPLINETYPE
 70
     6
  9
$SPLINESEGS
 70
     8
  9
$HANDSEED
  5
9B56D
  9
$SURFTAB1
 70
     6
  9
$SURFTAB2
 70
     6
  9
$SURFTYPE
 70
     6
  9
$SURFU
 70
     6
  9
$SURFV
 70
     6
  9
$UCSBASE
  2

  9
$UCSNAME
  2

  9
$UCSORG
 10
0.0
 20
0.0
 30
0.0
  9
$UCSXDIR
 10
1.0
 20
0.0
 30
0.0
  9
$UCSYDIR
 10
0.0
 20
1.0
 30
0.0
  9
$UCSORTHOREF
  2

  9
$UCSORTHOVIEW
 70
     0
  9
$UCSORGTOP
 10
0.0
 20
0.0
 30
0.0
  9
$UCSORGBOTTOM
 10
0.0
 20
0.0
 30
0.0
  9
$UCSORGLEFT
 10
0.0
 20
0.0
 30
0.0
  9
$UCSORGRIGHT
 10
0.0
 20
0.0
 30
0.0
  9
$UCSORGFRONT
 10
0.0
 20
0.0
 30
0.0
  9
$UCSORGBACK
 10
0.0
 20
0.0
 30
0.0
  9
$PUCSBASE
  2

  9
$PUCSNAME
  2

  9
$PUCSORG
 10
0.0
 20
0.0
 30
0.0
  9
$PUCSXDIR
 10
1.0
 20
0.0
 30
0.0
  9
$PUCSYDIR
 10
0.0
 20
1.0
 30
0.0
  9
$PUCSORTHOREF
  2

  9
$PUCSORTHOVIEW
 70
     0
  9
$PUCSORGTOP
 10
0.0
 20
0.0
 30
0.0
  9
$PUCSORGBOTTOM
 10
0.0
 20
0.0
 30
0.0
  9
$PUCSORGLEFT
 10
0.0
 20
0.0
 30
0.0
  9
$PUCSORGRIGHT
 10
0.0
 20
0.0
 30
0.0
  9
$PUCSORGFRONT
 10
0.0
 20
0.0
 30
0.0
  9
$PUCSORGBACK
 10
0.0
 20
0.0
 30
0.0
  9
$USERI1
 70
     0
  9
$USERI2
 70
     0
  9
$USERI3
 70
     0
  9
$USERI4
 70
     0
  9
$USERI5
 70
     0
  9
$USERR1
 40
20.0
  9
$USERR2
 40
0.0
  9
$USERR3
 40
0.0
  9
$USERR4
 40
0.0
  9
$USERR5
 40
0.0
  9
$WORLDVIEW
 70
     1
  9
$SHADEDGE
 70
     3
  9
$SHADEDIF
 70
    70
  9
$TILEMODE
 70
     1
  9
$MAXACTVP
 70
    48
  9
$PINSBASE
 10
0.0
 20
0.0
 30
0.0
  9
$PLIMCHECK
 70
     0
  9
$PEXTMIN
 10
1.000000000000000E+20
 20
1.000000000000000E+20
 30
1.000000000000000E+20
  9
$PEXTMAX
 10
-1.000000000000000E+20
 20
-1.000000000000000E+20
 30
-1.000000000000000E+20
  9
$PLIMMIN
 10
0.0
 20
0.0
  9
$PLIMMAX
 10
12.0
 20
9.0
  9
$UNITMODE
 70
     0
  9
$VISRETAIN
 70
     1
  9
$PLINEGEN
 70
     0
  9
$PSLTSCALE
 70
     1
  9
$TREEDEPTH
 70
  3020
  9
$CMLSTYLE
  2
STANDARD
  9
$CMLJUST
 70
     0
  9
$CMLSCALE
 40
1.0
  9
$PROXYGRAPHICS
 70
     1
  9
$MEASUREMENT
 70
     0
  9
$CELWEIGHT
370
    -1
  9
$ENDCAPS
280
     0
  9
$JOINSTYLE
280
     0
  9
$LWDISPLAY
290
     0
  9
$INSUNITS
 70
     0
  9
$HYPERLINKBASE
  1

  9
$STYLESHEET
  1
monochrome.ctb
  9
$XEDIT
290
     1
  9
$CEPSNTYPE
380
     0
  9
$PSTYLEMODE
290
     1
  9
$FINGERPRINTGUID
  2
{E0B14F79-3871-45BD-B89A-A0F693FE2771}
  9
$VERSIONGUID
  2
{F3B8F382-100D-4804-839B-42B69A240302}
  9
$EXTNAMES
290
     1
  9
$PSVPSCALE
 40
0.0
  9
$OLESTARTUP
290
     0
  0
ENDSEC
  0
SECTION
  2
CLASSES
  0
CLASS
  1
ACDBDICTIONARYWDFLT
  2
AcDbDictionaryWithDefault
  3
ObjectDBX Classes
 90
        0
280
     0
281
     0
  0
CLASS
  1
ACDBPLACEHOLDER
  2
AcDbPlaceHolder
  3
ObjectDBX Classes
 90
        0
280
     0
281
     0
  0
CLASS
  1
LAYOUT
  2
AcDbLayout
  3
ObjectDBX Classes
 90
        0
280
     0
281
     0
  0
CLASS
  1
DICTIONARYVAR
  2
AcDbDictionaryVar
  3
ObjectDBX Classes
 90
        0
280
     0
281
     0
  0
CLASS
  1
SORTENTSTABLE
  2
AcDbSortentsTable
  3
ObjectDBX Classes
 90
        0
280
     0
281
     0
  0
CLASS
  1
MATERIAL
  2
AcDbMaterial
  3
ObjectDBX Classes
 90
     1153
280
     0
281
     0
  0
CLASS
  1
VISUALSTYLE
  2
AcDbVisualStyle
  3
ObjectDBX Classes
 90
     4095
280
     0
281
     0
  0
CLASS
  1
TABLESTYLE
  2
AcDbTableStyle
  3
ObjectDBX Classes
 90
     4095
280
     0
281
     0
  0
CLASS
  1
SCALE
  2
AcDbScale
  3
ObjectDBX Classes
 90
     1153
280
     0
281
     0
  0
CLASS
  1
MLEADERSTYLE
  2
AcDbMLeaderStyle
  3
ACDB_MLEADERSTYLE_CLASS
 90
     4095
280
     0
281
     0
  0
CLASS
  1
CELLSTYLEMAP
  2
AcDbCellStyleMap
  3
ObjectDBX Classes
 90
     1152
280
     0
281
     0
  0
CLASS
  1
ACARRAYJIGENTITY
  2
AcArrayJigEntity
  3
ACAD_ARRAY
 90
    32897
280
     0
281
     1
  0
CLASS
  1
ACDBASSOCNETWORK
  2
AcDbAssocNetwork
  3
ObjectDBX Classes
 90
    33793
280
     0
281
     0
  0
CLASS
  1
ACDBASSOCACTION
  2
AcDbAssocAction
  3
ObjectDBX Classes
 90
    33793
280
     0
281
     0
  0
CLASS
  1
ACDBASSOCARRAYACTIONBODY
  2
AcDbAssocArrayActionBody
  3
ObjectDBX Classes
 90
    33793
280
     0
281
     0
  0
CLASS
  1
ACDBASSOCVERTEXACTIONPARAM
  2
AcDbAssocVertexActionParam
  3
ObjectDBX Classes
 90
    33793
280
     0
281
     0
  0
CLASS
  1
ACDBASSOCDEPENDENCY
  2
AcDbAssocDependency
  3
ObjectDBX Classes
 90
    33793
280
     0
281
     0
  0
CLASS
  1
ACDBASSOCARRAYRECTANGULARPARAMETERS
  2
AcDbAssocArrayRectangularParameters
  3
ObjectDBX Classes
 90
    33793
280
     0
281
     0
  0
CLASS
  1
ACAD_EVALUATION_GRAPH
  2
AcDbEvalGraph
  3
ObjectDBX Classes
 90
    33921
280
     0
281
     0
  0
CLASS
  1
ACAECUSTOBJ
  2
AcAeEditorObj
  3
AcAeEditorObj
 90
    33792
280
     0
281
     0
  0
CLASS
  1
ACDB_DYNAMICBLOCKPURGEPREVENTER_VERSION
  2
AcDbDynamicBlockPurgePreventer
  3
ObjectDBX Classes
 90
    33921
280
     0
281
     0
  0
CLASS
  1
ACDBSECTIONVIEWSTYLE
  2
AcDbSectionViewStyle
  3
ObjectDBX Classes
 90
     1025
280
     0
281
     0
  0
CLASS
  1
ACDBDETAILVIEWSTYLE
  2
AcDbDetailViewStyle
  3
ObjectDBX Classes
 90
     1025
280
     0
281
     0
  0
ENDSEC
  0
SECTION
  2
TABLES
  0
TABLE
  2
VPORT
  5
8
102
{ACAD_XDICTIONARY
360
70D15
102
}
330
0
100
AcDbSymbolTable
 70
     1
  0
VPORT
  5
513CD
330
8
100
AcDbSymbolTableRecord
100
AcDbViewportTableRecord
  2
*Active
 70
     0
 10
0.0
 20
0.0
 11
1.0
 21
1.0
 12
164.9572462653269
 22
-123.7119723780179
 13
0.0
 23
0.0
 14
50.0
 24
50.0
 15
100.0
 25
100.0
 16
0.0
 26
0.0
 36
1.0
 17
0.0
 27
0.0
 37
0.0
 40
1560.865950582399
 41
1.871088861076345
 42
50.0
 43
0.0
 44
0.0
 50
0.0
 51
0.0
 71
     0
 72
  1000
 73
     1
 74
     0
 75
     0
 76
     0
 77
     0
 78
     0
281
     0
 65
     1
110
0.0
120
0.0
130
0.0
111
1.0
121
0.0
131
0.0
112
0.0
122
1.0
132
0.0
 79
     0
146
0.0
1001
ACAD_NAV_VCDISPLAY
1070
     3
  0
ENDTAB
  0
TABLE
  2
LTYPE
  5
5
330
0
100
AcDbSymbolTable
 70
     2
  0
LTYPE
  5
12
330
5
100
AcDbSymbolTableRecord
100
AcDbLinetypeTableRecord
  2
BYBLOCK
 70
     0
  3

 72
    65
 73
     0
 40
0.0
  0
LTYPE
  5
13
330
5
100
AcDbSymbolTableRecord
100
AcDbLinetypeTableRecord
  2
BYLAYER
 70
     0
  3

 72
    65
 73
     0
 40
0.0
  0
LTYPE
  5
14
330
5
100
AcDbSymbolTableRecord
100
AcDbLinetypeTableRecord
  2
CONTINUOUS
 70
     0
  3
実線
 72
    65
 73
     0
 40
0.0
  0
LTYPE
  5
1F
330
5
100
AcDbSymbolTableRecord
100
AcDbLinetypeTableRecord
  2
DASHDOT
 70
     0
  3
____ _ ____ _ ____ _ ____ _ ____ _ ____ _ ____
 72
    65
 73
     4
 40
5.5
 49
4.0
 74
     0
 49
-0.6
 74
     0
 49
0.3
 74
     0
 49
-0.6
 74
     0
  0
ENDTAB
  0
TABLE
  2
LAYER
  5
2
102
{ACAD_XDICTIONARY
360
5148D
102
}
330
0
100
AcDbSymbolTable
 70
    12
  0
LAYER
  5
E
102
{ACAD_XDICTIONARY
360
5144C
102
}
330
2
100
AcDbSymbolTableRecord
100
AcDbLayerTableRecord
  2
0
 70
     0
 62
     7
  6
CONTINUOUS
370
    -3
390
21F0
  0
LAYER
  5
25
102
{ACAD_XDICTIONARY
360
5144E
102
}
330
2
100
AcDbSymbolTableRecord
100
AcDbLayerTableRecord
  2
OUTLINE
 70
     0
 62
     3
  6
CONTINUOUS
370
    -3
390
21F0
  0
LAYER
  5
26
102
{ACAD_XDICTIONARY
360
51450
102
}
330
2
100
AcDbSymbolTableRecord
100
AcDbLayerTableRecord
  2
DETAIL
 70
     0
 62
     5
  6
CONTINUOUS
370
    -3
390
21F0
  0
LAYER
  5
27
102
{ACAD_XDICTIONARY
360
51452
102
}
330
2
100
AcDbSymbolTableRecord
100
AcDbLayerTableRecord
  2
BASIS
 70
     0
 62
     6
  6
DASHDOT
370
    -3
390
21F0
  0
LAYER
  5
28
102
{ACAD_XDICTIONARY
360
51454
102
}
330
2
100
AcDbSymbolTableRecord
100
AcDbLayerTableRecord
  2
SIZE
 70
     0
 62
    30
  6
CONTINUOUS
370
    -3
390
21F0
  0
LAYER
  5
29
102
{ACAD_XDICTIONARY
360
51456
102
}
330
2
100
AcDbSymbolTableRecord
100
AcDbLayerTableRecord
  2
NOTE
 70
     0
 62
     4
  6
CONTINUOUS
370
    -3
390
21F0
  0
LAYER
  5
2A
330
2
100
AcDbSymbolTableRecord
100
AcDbLayerTableRecord
  2
DEFPOINTS
 70
     0
 62
     7
  6
CONTINUOUS
290
     0
370
    -3
390
21F0
  0
LAYER
  5
2B
102
{ACAD_XDICTIONARY
360
51458
102
}
330
2
100
AcDbSymbolTableRecord
100
AcDbLayerTableRecord
  2
FIX
 70
     0
 62
    11
  6
CONTINUOUS
370
    -3
390
21F0
  0
LAYER
  5
2C
102
{ACAD_XDICTIONARY
360
5145A
102
}
330
2
100
AcDbSymbolTableRecord
100
AcDbLayerTableRecord
  2
ARRANGE
 70
     0
 62
     1
  6
CONTINUOUS
370
    -3
390
21F0
  0
LAYER
  5
2D
102
{ACAD_XDICTIONARY
360
5145C
102
}
330
2
100
AcDbSymbolTableRecord
100
AcDbLayerTableRecord
  2
ETC
 70
     0
 62
    61
  6
CONTINUOUS
370
    -3
390
21F0
  0
LAYER
  5
85433
102
{ACAD_XDICTIONARY
360
85434
102
}
330
2
100
AcDbSymbolTableRecord
100
AcDbLayerTableRecord
  2
SERVICESPACE
 70
     0
 62
     2
  6
DASHDOT
370
    -3
390
21F0
  0
LAYER
  5
85435
102
{ACAD_XDICTIONARY
360
85436
102
}
330
2
100
AcDbSymbolTableRecord
100
AcDbLayerTableRecord
  2
SYMBOLLINE
 70
     0
 62
    15
  6
CONTINUOUS
370
    -3
390
21F0
  0
ENDTAB
  0
TABLE
  2
STYLE
  5
3
330
0
100
AcDbSymbolTable
 70
     5
  0
STYLE
  5
F
330
3
100
AcDbSymbolTableRecord
100
AcDbTextStyleTableRecord
  2
STANDARD
 70
     0
 40
0.0
 41
0.9
 50
0.0
 71
     0
 42
64.0
  3
SIMPLEX
  4
BIGFONT
  0
STYLE
  5
30
330
3
100
AcDbSymbolTableRecord
100
AcDbTextStyleTableRecord
  2
STANDARD1
 70
     0
 40
60.0
 41
0.7
 50
0.0
 71
     0
 42
60.0
  3
MONOTXT.shx
  4
BIGFONT.shx
  0
STYLE
  5
51425
330
3
100
AcDbSymbolTableRecord
100
AcDbTextStyleTableRecord
  2
STANDARD_MODELNAME
 70
     0
 40
80.0
 41
0.8
 50
0.0
 71
     0
 42
64.0
  3
MONOTXT.shx
  4
BIGFONT.shx
  0
STYLE
  5
6FACE
330
3
100
AcDbSymbolTableRecord
100
AcDbTextStyleTableRecord
  2
kaigai_standard_1
 70
     0
 40
53.0
 41
0.51
 50
0.0
 71
     0
 42
53.0
  3
MONOTXT.shx
  4
BIGFONT.shx
  0
STYLE
  5
9B34A
330
3
100
AcDbSymbolTableRecord
100
AcDbTextStyleTableRecord
  2
スタイル1
 70
     0
 40
0.0
 41
1.0
 50
0.0
 71
     0
 42
3.0
  3
exthalf2.shx
  4
extfont2.shx
  0
ENDTAB
  0
TABLE
  2
VIEW
  5
6
330
0
100
AcDbSymbolTable
 70
     1
  0
VIEW
  5
31
330
6
100
AcDbSymbolTableRecord
100
AcDbViewTableRecord
  2
ALL
 70
     0
 40
9000.0
 10
241.506647
 20
0.0
 41
12483.01
 11
0.0
 21
0.0
 31
1.0
 12
0.0
 22
0.0
 32
0.0
 42
50.0
 43
0.0
 44
0.0
 50
0.0
 71
     0
281
     0
 72
     0
  0
ENDTAB
  0
TABLE
  2
UCS
  5
7
330
0
100
AcDbSymbolTable
 70
     0
  0
ENDTAB
  0
TABLE
  2
APPID
  5
9
330
0
100
AcDbSymbolTable
 70
    17
  0
APPID
  5
10
330
9
100
AcDbSymbolTableRecord
100
AcDbRegAppTableRecord
  2
ACAD
 70
     0
  0
APPID
  5
51420
330
9
100
AcDbSymbolTableRecord
100
AcDbRegAppTableRecord
  2
ACAD_MLEADERVER
 70
     0
  0
APPID
  5
51424
330
9
100
AcDbSymbolTableRecord
100
AcDbRegAppTableRecord
  2
AcadAnnoPO
 70
     0
  0
APPID
  5
6B6C8
330
9
100
AcDbSymbolTableRecord
100
AcDbRegAppTableRecord
  2
ACAD_PSEXT
 70
     0
  0
APPID
  5
6CFAF
330
9
100
AcDbSymbolTableRecord
100
AcDbRegAppTableRecord
  2
ACAD_EXEMPT_FROM_CAD_STANDARDS
 70
     0
  0
APPID
  5
6E4A4
330
9
100
AcDbSymbolTableRecord
100
AcDbRegAppTableRecord
  2
ACAD_DSTYLE_DIMJAG
 70
     0
  0
APPID
  5
6E4A5
330
9
100
AcDbSymbolTableRecord
100
AcDbRegAppTableRecord
  2
ACAD_DSTYLE_DIMTALN
 70
     0
  0
APPID
  5
6EF6C
330
9
100
AcDbSymbolTableRecord
100
AcDbRegAppTableRecord
  2
ACAD_DSTYLE_DIMBREAK
 70
     0
  0
APPID
  5
70D0F
330
9
100
AcDbSymbolTableRecord
100
AcDbRegAppTableRecord
  2
ACAD_NAV_VCDISPLAY
 70
     0
  0
APPID
  5
990C9
330
9
100
AcDbSymbolTableRecord
100
AcDbRegAppTableRecord
  2
ACAUTHENVIRON
 70
     0
  0
APPID
  5
990CD
330
9
100
AcDbSymbolTableRecord
100
AcDbRegAppTableRecord
  2
AcDbDynamicBlockTrueName
 70
     0
  0
APPID
  5
990CE
330
9
100
AcDbSymbolTableRecord
100
AcDbRegAppTableRecord
  2
AcDbDynamicBlockGUID
 70
     0
  0
APPID
  5
9B34D
330
9
100
AcDbSymbolTableRecord
100
AcDbRegAppTableRecord
  2
AcLayerTools
 70
     0
  0
APPID
  5
9B34E
330
9
100
AcDbSymbolTableRecord
100
AcDbRegAppTableRecord
  2
REVIT
 70
     0
  0
APPID
  5
9B34F
330
9
100
AcDbSymbolTableRecord
100
AcDbRegAppTableRecord
  2
ACAD_DSTYLE_DIM_LINETYPE
 70
     0
  0
APPID
  5
9B350
330
9
100
AcDbSymbolTableRecord
100
AcDbRegAppTableRecord
  2
ACAD_DSTYLE_DIM_EXT1_LINETYPE
 70
     0
  0
APPID
  5
9B351
330
9
100
AcDbSymbolTableRecord
100
AcDbRegAppTableRecord
  2
ACAD_DSTYLE_DIM_EXT2_LINETYPE
 70
     0
  0
ENDTAB
  0
TABLE
  2
DIMSTYLE
  5
A
330
0
100
AcDbSymbolTable
 70
     4
100
AcDbDimStyleTable
 71
     2
340
6EF6D
340
138
  0
DIMSTYLE
105
138
330
A
100
AcDbSymbolTableRecord
100
AcDbDimStyleTableRecord
  2
STANDARD
 70
     0
 73
     0
 74
     0
 77
     1
140
40.0
147
15.0
340
F
1001
ACAD_DSTYLE_DIMJAG
1070
   388
1040
1.5
1001
ACAD_DSTYLE_DIMTALN
1070
   392
1070
     0
  0
DIMSTYLE
105
6EF6D
330
A
100
AcDbSymbolTableRecord
100
AcDbDimStyleTableRecord
  2
kaigai_CADSYMBOL
 70
     0
 41
30.0
 42
20.0
 43
80.0
 44
20.0
 73
     0
 74
     0
 77
     1
 78
     8
 79
     2
140
40.0
147
20.0
172
     1
271
     1
272
     1
340
F
341
4C0C3
342
4C0BF
1001
ACAD_DSTYLE_DIMBREAK
1070
   391
1040
0.125
1001
ACAD_DSTYLE_DIMJAG
1070
   388
1040
1.5
1001
ACAD_DSTYLE_DIMTALN
1070
   392
1070
     0
  0
DIMSTYLE
105
9B34B
330
A
100
AcDbSymbolTableRecord
100
AcDbDimStyleTableRecord
  2
CADSYMBOL
 70
     0
 41
30.0
 42
20.0
 43
80.0
 44
20.0
 73
     0
 74
     0
 77
     1
 78
     8
 79
     2
140
60.0
147
20.0
172
     1
271
     1
272
     1
340
F
341
4C0C3
342
4C0BF
1001
ACAD_DSTYLE_DIMJAG
1070
   388
1040
1.5
1001
ACAD_DSTYLE_DIMTALN
1070
   392
1070
     0
  0
DIMSTYLE
105
9B34C
330
A
100
AcDbSymbolTableRecord
100
AcDbDimStyleTableRecord
  2
AM_スタイル1
 70
     0
 41
2.0
 42
0.7
 43
6.0
 44
0.7
 73
     0
 74
     0
 77
     3
 78
     8
140
3.2
141
-3.0
147
1.0
172
     1
174
     1
176
   256
177
   256
178
   256
271
     1
272
     1
284
     8
289
     0
340
9B34A
341
4C0C3
342
4C0C3
371
    13
372
    13
1001
ACAD_DSTYLE_DIMBREAK
1070
   391
1040
3.75
1001
ACAD_DSTYLE_DIMJAG
1070
   388
1040
1.5
1001
ACAD_DSTYLE_DIMTALN
1070
   392
1070
     0
1001
ACAD_DSTYLE_DIM_LINETYPE
1070
   380
1005
13
1001
ACAD_DSTYLE_DIM_EXT1_LINETYPE
1070
   381
1005
13
1001
ACAD_DSTYLE_DIM_EXT2_LINETYPE
1070
   382
1005
13
  0
ENDTAB
  0
TABLE
  2
BLOCK_RECORD
  5
1
330
0
100
AcDbSymbolTable
 70
     4
  0
BLOCK_RECORD
  5
18
102
{ACAD_XDICTIONARY
360
28B3
102
}
330
1
100
AcDbSymbolTableRecord
100
AcDbBlockTableRecord
  2
*MODEL_SPACE
340
21F3
  0
BLOCK_RECORD
  5
15
102
{ACAD_XDICTIONARY
360
29B6
102
}
330
1
100
AcDbSymbolTableRecord
100
AcDbBlockTableRecord
  2
*PAPER_SPACE
340
21F4
  0
BLOCK_RECORD
  5
4C0BF
330
1
100
AcDbSymbolTableRecord
100
AcDbBlockTableRecord
  2
_Small
340
0
  0
BLOCK_RECORD
  5
4C0C3
102
{ACAD_XDICTIONARY
360
990CA
102
}
330
1
100
AcDbSymbolTableRecord
100
AcDbBlockTableRecord
  2
_Open30
340
0
1001
AcDbDynamicBlockGUID
1000
{CF3FF556-EE00-416E-9104-4A9DDFC40C99}
  0
BLOCK_RECORD
  5
992F8
330
1
100
AcDbSymbolTableRecord
100
AcDbBlockTableRecord
  2
_DOTBLANK
340
0
  0
BLOCK_RECORD
  5
9B352
102
{ACAD_XDICTIONARY
360
9B439
102
}
330
1
100
AcDbSymbolTableRecord
100
AcDbBlockTableRecord
  2
block
340
0
  0
ENDTAB
  0
ENDSEC
  0
SECTION
  2
BLOCKS
  0
BLOCK
  5
19
330
18
100
AcDbEntity
  8
0
100
AcDbBlockBegin
  2
*MODEL_SPACE
 70
     0
 10
0.0
 20
0.0
 30
0.0
  3
*MODEL_SPACE
  1

  0
ENDBLK
  5
1A
330
18
100
AcDbEntity
  8
0
100
AcDbBlockEnd
  0
BLOCK
  5
16
330
15
100
AcDbEntity
 67
     1
  8
0
100
AcDbBlockBegin
  2
*PAPER_SPACE
 70
     0
 10
0.0
 20
0.0
 30
0.0
  3
*PAPER_SPACE
  1

  0
ENDBLK
  5
17
330
15
100
AcDbEntity
 67
     1
  8
0
100
AcDbBlockEnd
  0
BLOCK
  5
4C0C1
330
4C0BF
100
AcDbEntity
  8
0
100
AcDbBlockBegin
  2
_Small
 70
     0
 10
0.0
 20
0.0
 30
0.0
  3
_Small
  1

  0
CIRCLE
  5
4C0C0
330
4C0BF
100
AcDbEntity
  8
0
  6
ByBlock
 62
     0
370
    -2
100
AcDbCircle
 10
0.0
 20
0.0
 30
0.0
 40
0.25
  0
ENDBLK
  5
4C0C2
330
4C0BF
100
AcDbEntity
  8
0
100
AcDbBlockEnd
  0
BLOCK
  5
4C0C7
330
4C0C3
100
AcDbEntity
  8
0
100
AcDbBlockBegin
  2
_Open30
 70
     0
 10
0.0
 20
0.0
 30
0.0
  3
_Open30
  1

  0
LINE
  5
990C6
330
4C0C3
100
AcDbEntity
  8
NOTE
100
AcDbLine
 10
-1.0
 20
0.26794919
 30
0.0
 11
0.0
 21
0.0
 31
0.0
  0
LINE
  5
990C7
330
4C0C3
100
AcDbEntity
  8
NOTE
100
AcDbLine
 10
0.0
 20
0.0
 30
0.0
 11
-1.0
 21
-0.26794919
 31
0.0
  0
LINE
  5
990C8
330
4C0C3
100
AcDbEntity
  8
NOTE
100
AcDbLine
 10
0.0
 20
0.0
 30
0.0
 11
-1.0
 21
0.0
 31
0.0
  0
ENDBLK
  5
4C0C8
330
4C0C3
100
AcDbEntity
  8
0
100
AcDbBlockEnd
  0
BLOCK
  5
992F9
330
992F8
100
AcDbEntity
  8
0
100
AcDbBlockBegin
  2
_DOTBLANK
 70
     0
 10
0.0
 20
0.0
 30
0.0
  3
_DOTBLANK
  1

  0
CIRCLE
  5
992FA
330
992F8
100
AcDbEntity
  8
0
  6
ByBlock
 62
     0
100
AcDbCircle
 10
0.0
 20
0.0
 30
0.0
 40
0.5
  0
LINE
  5
992FB
330
992F8
100
AcDbEntity
  8
0
  6
ByBlock
 62
     0
100
AcDbLine
 10
-0.5
 20
0.0
 30
0.0
 11
-1.0
 21
0.0
 31
0.0
  0
ENDBLK
  5
992FC
330
992F8
100
AcDbEntity
  8
0
100
AcDbBlockEnd
  0
BLOCK
  5
9B43B
330
9B352
100
AcDbEntity
  8
0
100
AcDbBlockBegin
  2
block
 70
     0
 10
0.0
 20
0.0
 30
0.0
  3
block
  1

  0
LINE
  5
9B353
330
9B352
100
AcDbEntity
  8
DETAIL
100
AcDbLine
 10
-515.0
 20
0.0
 30
0.0
 11
515.0
 21
0.0
 31
0.0
1001
REVIT
1002
{
1070
     1
1000
3165
1002
}
1002
{
1070
     2
1000
-2001140
1002
}
  0
LINE
  5
9B354
330
9B352
100
AcDbEntity
  8
DETAIL
100
AcDbLine
 10
515.0
 20
-395.0
 30
0.0
 11
-515.0
 21
-395.0
 31
0.0
1001
REVIT
1002
{
1070
     1
1000
3165
1002
}
1002
{
1070
     2
1000
-2001140
1002
}
  0
LINE
  5
9B355
330
9B352
100
AcDbEntity
  8
DETAIL
100
AcDbLine
 10
-515.0
 20
-395.0
 30
0.0
 11
-515.0
 21
-388.0
 31
0.0
1001
REVIT
1002
{
1070
     1
1000
3165
1002
}
1002
{
1070
     2
1000
-2001140
1002
}
  0
LINE
  5
9B356
330
9B352
100
AcDbEntity
  8
DETAIL
100
AcDbLine
 10
-515.0
 20
-348.0
 30
0.0
 11
-515.0
 21
0.0
 31
0.0
1001
REVIT
1002
{
1070
     1
1000
3165
1002
}
1002
{
1070
     2
1000
-2001140
1002
}
  0
LINE
  5
9B357
330
9B352
100
AcDbEntity
  8
DETAIL
100
AcDbLine
 10
515.0000000000002
 20
-395.0
 30
0.0
 11
515.0000000000002
 21
-388.0
 31
0.0
1001
REVIT
1002
{
1070
     1
1000
3165
1002
}
1002
{
1070
     2
1000
-2001140
1002
}
  0
LINE
  5
9B358
330
9B352
100
AcDbEntity
  8
DETAIL
100
AcDbLine
 10
515.0000000000002
 20
-348.0
 30
0.0
 11
515.0000000000002
 21
0.0
 31
0.0
1001
REVIT
1002
{
1070
     1
1000
3165
1002
}
1002
{
1070
     2
1000
-2001140
1002
}
  0
LINE
  5
9B359
330
9B352
100
AcDbEntity
  8
DETAIL
100
AcDbLine
 10
515.0
 20
-80.0
 30
0.0
 11
564.0
 21
-80.0
 31
0.0
1001
REVIT
1002
{
1070
     1
1000
3250
1002
}
1002
{
1070
     2
1000
-2001140
1002
}
  0
LINE
  5
9B35A
330
9B352
100
AcDbEntity
  8
DETAIL
100
AcDbLine
 10
564.0
 20
-340.0
 30
0.0
 11
515.0
 21
-340.0
 31
0.0
1001
REVIT
1002
{
1070
     1
1000
3250
1002
}
1002
{
1070
     2
1000
-2001140
1002
}
  0
LINE
  5
9B35B
330
9B352
100
AcDbEntity
  8
DETAIL
100
AcDbLine
 10
564.0
 20
-340.0
 30
0.0
 11
564.0
 21
-80.0
 31
0.0
1001
REVIT
1002
{
1070
     1
1000
3250
1002
}
1002
{
1070
     2
1000
-2001140
1002
}
  0
LINE
  5
9B35C
330
9B352
100
AcDbEntity
  8
DETAIL
100
AcDbLine
 10
-564.0
 20
-315.0
 30
0.0
 11
-564.0
 21
-55.0
 31
0.0
1001
REVIT
1002
{
1070
     1
1000
9132
1002
}
1002
{
1070
     2
1000
-2001140
1002
}
  0
LINE
  5
9B35D
330
9B352
100
AcDbEntity
  8
DETAIL
100
AcDbLine
 10
-515.0
 20
-315.0
 30
0.0
 11
-564.0
 21
-315.0
 31
0.0
1001
REVIT
1002
{
1070
     1
1000
9132
1002
}
1002
{
1070
     2
1000
-2001140
1002
}
  0
LINE
  5
9B35E
330
9B352
100
AcDbEntity
  8
DETAIL
100
AcDbLine
 10
-515.0
 20
-55.0
 30
0.0
 11
-564.0
 21
-55.0
 31
0.0
1001
REVIT
1002
{
1070
     1
1000
9132
1002
}
1002
{
1070
     2
1000
-2001140
1002
}
  0
LINE
  5
9B35F
330
9B352
100
AcDbEntity
  8
DETAIL
100
AcDbLine
 10
-25.99999999999989
 20
-47.99999999999954
 30
0.0
 11
-418.0
 21
-47.99999999999954
 31
0.0
1001
REVIT
1002
{
1070
     1
1000
10447
1002
}
1002
{
1070
     2
1000
-2001140
1002
}
  0
LINE
  5
9B360
330
9B352
100
AcDbEntity
  8
DETAIL
100
AcDbLine
 10
-418.0
 20
-47.99999999999954
 30
0.0
 11
-418.0
 21
-341.0
 31
0.0
1001
REVIT
1002
{
1070
     1
1000
10447
1002
}
1002
{
1070
     2
1000
-2001140
1002
}
  0
LINE
  5
9B361
330
9B352
100
AcDbEntity
  8
DETAIL
100
AcDbLine
 10
-418.0
 20
-341.0
 30
0.0
 11
-25.99999999999989
 21
-341.0
 31
0.0
1001
REVIT
1002
{
1070
     1
1000
10447
1002
}
1002
{
1070
     2
1000
-2001140
1002
}
  0
LINE
  5
9B362
330
9B352
100
AcDbEntity
  8
DETAIL
100
AcDbLine
 10
-25.99999999999989
 20
-341.0
 30
0.0
 11
-25.99999999999989
 21
-47.99999999999954
 31
0.0
1001
REVIT
1002
{
1070
     1
1000
10447
1002
}
1002
{
1070
     2
1000
-2001140
1002
}
  0
LINE
  5
9B363
330
9B352
100
AcDbEntity
  8
DETAIL
100
AcDbLine
 10
-434.6313058327407
 20
-388.0
 30
0.0
 11
-529.0
 21
-388.0
 31
0.0
  0
LINE
  5
9B364
330
9B352
100
AcDbEntity
  8
DETAIL
100
AcDbLine
 10
-529.0
 20
-348.0
 30
0.0
 11
-434.6313058327407
 21
-348.0
 31
0.0
  0
LINE
  5
9B365
330
9B352
100
AcDbEntity
  8
DETAIL
100
AcDbLine
 10
-498.0000000000002
 20
-348.0
 30
0.0
 11
-498.0000000000002
 21
-360.0
 31
0.0
  0
LINE
  5
9B366
330
9B352
100
AcDbEntity
  8
DETAIL
100
AcDbLine
 10
-498.0000000000002
 20
-360.0
 30
0.0
 11
-436.8033896966916
 21
-360.0
 31
0.0
  0
LINE
  5
9B367
330
9B352
100
AcDbEntity
  8
DETAIL
100
AcDbLine
 10
-436.8033896966916
 20
-360.0
 30
0.0
 11
-436.8033896966916
 21
-388.0
 31
0.0
  0
LINE
  5
9B368
330
9B352
100
AcDbEntity
  8
DETAIL
100
AcDbLine
 10
-434.6313058327407
 20
-388.0
 30
0.0
 11
-434.6313058327407
 21
-348.0
 31
0.0
  0
LINE
  5
9B369
330
9B352
100
AcDbEntity
  8
DETAIL
100
AcDbLine
 10
-529.0
 20
-360.0
 30
0.0
 11
-510.0000000000002
 21
-360.0
 31
0.0
  0
LINE
  5
9B36A
330
9B352
100
AcDbEntity
  8
DETAIL
100
AcDbLine
 10
-510.0000000000002
 20
-360.0
 30
0.0
 11
-510.0000000000002
 21
-348.0
 31
0.0
  0
LINE
  5
9B36B
330
9B352
100
AcDbEntity
  8
DETAIL
100
AcDbLine
 10
-529.0
 20
-388.0
 30
0.0
 11
-529.0
 21
-348.0
 31
0.0
  0
LINE
  5
9B36C
330
9B352
100
AcDbEntity
  8
DETAIL
100
AcDbLine
 10
-498.0000000000001
 20
-350.3000000000002
 30
0.0
 11
-510.0000000000001
 21
-350.3000000000002
 31
0.0
  0
LINE
  5
9B36D
330
9B352
100
AcDbEntity
  8
DETAIL
100
AcDbLine
 10
529.9999999999998
 20
-388.0
 30
0.0
 11
435.6313058327404
 21
-388.0
 31
0.0
  0
LINE
  5
9B36E
330
9B352
100
AcDbEntity
  8
DETAIL
100
AcDbLine
 10
435.6313058327404
 20
-348.0
 30
0.0
 11
530.0
 21
-348.0
 31
0.0
  0
LINE
  5
9B36F
330
9B352
100
AcDbEntity
  8
DETAIL
100
AcDbLine
 10
435.6313058327404
 20
-348.0
 30
0.0
 11
435.6313058327404
 21
-388.0
 31
0.0
  0
LINE
  5
9B370
330
9B352
100
AcDbEntity
  8
DETAIL
100
AcDbLine
 10
437.8033896966912
 20
-388.0
 30
0.0
 11
437.8033896966912
 21
-360.0
 31
0.0
  0
LINE
  5
9B371
330
9B352
100
AcDbEntity
  8
DETAIL
100
AcDbLine
 10
437.8033896966912
 20
-360.0
 30
0.0
 11
498.9999999999999
 21
-360.0
 31
0.0
  0
LINE
  5
9B372
330
9B352
100
AcDbEntity
  8
DETAIL
100
AcDbLine
 10
498.9999999999999
 20
-360.0
 30
0.0
 11
498.9999999999999
 21
-348.0
 31
0.0
  0
LINE
  5
9B373
330
9B352
100
AcDbEntity
  8
DETAIL
100
AcDbLine
 10
510.9999999999999
 20
-348.0
 30
0.0
 11
510.9999999999999
 21
-360.0
 31
0.0
  0
LINE
  5
9B374
330
9B352
100
AcDbEntity
  8
DETAIL
100
AcDbLine
 10
510.9999999999999
 20
-360.0
 30
0.0
 11
530.0
 21
-360.0
 31
0.0
  0
LINE
  5
9B375
330
9B352
100
AcDbEntity
  8
DETAIL
100
AcDbLine
 10
530.0
 20
-348.0
 30
0.0
 11
529.9999999999998
 21
-388.0
 31
0.0
  0
LINE
  5
9B376
330
9B352
100
AcDbEntity
  8
DETAIL
100
AcDbLine
 10
510.9999999999999
 20
-350.3000000000002
 30
0.0
 11
498.9999999999998
 21
-350.3000000000002
 31
0.0
  0
CIRCLE
  5
9B377
330
9B352
100
AcDbEntity
  8
DETAIL
100
AcDbCircle
 10
25.00000000000023
 20
-246.0
 30
0.0
 40
13.22000000000002
1001
REVIT
1002
{
1070
     1
1000
30307
1002
}
1002
{
1070
     2
1000
-2001140
1002
}
  0
CIRCLE
  5
9B378
330
9B352
100
AcDbEntity
  8
DETAIL
100
AcDbCircle
 10
25.00000000000023
 20
-146.0
 30
0.0
 40
13.22000000000002
1001
REVIT
1002
{
1070
     1
1000
30331
1002
}
1002
{
1070
     2
1000
-2001140
1002
}
  0
CIRCLE
  5
9B379
330
9B352
100
AcDbEntity
  8
DETAIL
100
AcDbCircle
 10
113.0000000000002
 20
-40.00000000000272
 30
0.0
 40
16.00000000000001
  0
CIRCLE
  5
9B37A
330
9B352
100
AcDbEntity
  8
DETAIL
100
AcDbCircle
 10
-389.4554730245641
 20
-319.2429334748667
 30
0.0
 40
19.99999999999994
  0
CIRCLE
  5
9B37B
330
9B352
100
AcDbEntity
  8
DETAIL
100
AcDbCircle
 10
-54.5445269754357
 20
-319.2429334748667
 30
0.0
 40
20.00000000000001
  0
LINE
  5
9B37C
330
9B352
100
AcDbEntity
  8
BASIS
100
AcDbLine
 10
0.0
 20
59.1121376086021
 30
0.0
 11
0.0
 21
-514.0106819832676
 31
0.0
  0
CIRCLE
  5
9B37D
330
9B352
100
AcDbEntity
  8
ARRANGE
100
AcDbCircle
 10
0.0
 20
0.0
 30
0.0
 40
42.5
  0
LINE
  5
9B37E
330
9B352
100
AcDbEntity
  8
ARRANGE
100
AcDbLine
 10
-42.53174752662926
 20
-42.09400017777625
 30
0.0
 11
42.53174752662926
 21
42.09400017777625
 31
0.0
  0
LINE
  5
9B37F
330
9B352
100
AcDbEntity
  8
ARRANGE
100
AcDbLine
 10
-42.46919881392568
 20
42.15710557828788
 30
0.0
 11
42.46919881392568
 21
-42.15710557828606
 31
0.0
  0
TEXT
  5
9B380
330
9B352
100
AcDbEntity
  8
ETC
100
AcDbText
 10
-820.9825052858741
 20
580.5302855610547
 30
0.0
 40
70.0
  1
MBHV-P25_50MT_5
 50
359.999997
 41
0.9
100
AcDbText
  0
LINE
  5
9B381
330
9B352
100
AcDbEntity
  8
SIZE
100
AcDbLine
 10
-515.0
 20
20.0
 30
0.0
 11
-515.0
 21
304.1036082438564
 31
0.0
  0
LINE
  5
9B382
330
9B352
100
AcDbEntity
  8
SIZE
100
AcDbLine
 10
515.0000000000002
 20
20.0
 30
0.0
 11
515.0000000000002
 21
304.1036082438564
 31
0.0
  0
LINE
  5
9B383
330
9B352
100
AcDbEntity
  8
SIZE
100
AcDbLine
 10
-515.0
 20
284.1036082438563
 30
0.0
 11
515.0000000000002
 21
284.1036082438563
 31
0.0
  0
CIRCLE
  5
9B384
330
9B352
100
AcDbEntity
  8
SIZE
100
AcDbCircle
 10
-515.0
 20
284.1036082438563
 30
0.0
 40
7.5
  0
CIRCLE
  5
9B385
330
9B352
100
AcDbEntity
  8
SIZE
100
AcDbCircle
 10
515.0000000000002
 20
284.1036082438563
 30
0.0
 40
7.5
  0
TEXT
  5
9B386
330
9B352
100
AcDbEntity
  8
SIZE
100
AcDbText
 10
-137.142857142857
 20
304.1036082438564
 30
0.0
 40
40.0
  1
1030（本体）
 41
0.9
100
AcDbText
  0
LINE
  5
9B387
330
9B352
100
AcDbEntity
  8
SIZE
100
AcDbLine
 10
-564.0
 20
-35.0
 30
0.0
 11
-564.0
 21
436.5320651743145
 31
0.0
  0
LINE
  5
9B388
330
9B352
100
AcDbEntity
  8
SIZE
100
AcDbLine
 10
564.0
 20
-60.0
 30
0.0
 11
564.0
 21
436.5320651743145
 31
0.0
  0
LINE
  5
9B389
330
9B352
100
AcDbEntity
  8
SIZE
100
AcDbLine
 10
-564.0
 20
416.5320651743145
 30
0.0
 11
564.0
 21
416.5320651743145
 31
0.0
  0
CIRCLE
  5
9B38A
330
9B352
100
AcDbEntity
  8
SIZE
100
AcDbCircle
 10
-564.0
 20
416.5320651743145
 30
0.0
 40
7.5
  0
CIRCLE
  5
9B38B
330
9B352
100
AcDbEntity
  8
SIZE
100
AcDbCircle
 10
564.0
 20
416.5320651743145
 30
0.0
 40
7.5
  0
TEXT
  5
9B38C
330
9B352
100
AcDbEntity
  8
SIZE
100
AcDbText
 10
-56.57142857142855
 20
436.5320651743145
 30
0.0
 40
40.0
  1
1128
 41
0.9
100
AcDbText
  0
LINE
  5
9B38D
330
9B352
100
AcDbEntity
  8
NOTE
100
AcDbLine
 10
-504.0
 20
-336.52157729172
 30
0.0
 11
-504.0
 21
-359.4784227082801
 31
0.0
  0
CIRCLE
  5
9B38E
330
9B352
100
AcDbEntity
  8
FIX
100
AcDbCircle
 10
-504.0
 20
-348.0
 30
0.0
 40
8.0
  0
LINE
  5
9B38F
330
9B352
100
AcDbEntity
  8
NOTE
100
AcDbLine
 10
504.9999999999998
 20
-336.52157729172
 30
0.0
 11
504.9999999999998
 21
-359.4784227082801
 31
0.0
  0
CIRCLE
  5
9B390
330
9B352
100
AcDbEntity
  8
FIX
100
AcDbCircle
 10
504.9999999999998
 20
-348.0
 30
0.0
 40
8.0
  0
LINE
  5
9B391
330
9B352
100
AcDbEntity
  8
SIZE
100
AcDbLine
 10
-504.0
 20
-379.47842270828
 30
0.0
 11
-504.0
 21
-897.771560948257
 31
0.0
  0
LINE
  5
9B392
330
9B352
100
AcDbEntity
  8
SIZE
100
AcDbLine
 10
504.9999999999998
 20
-379.47842270828
 30
0.0
 11
504.9999999999998
 21
-897.771560948257
 31
0.0
  0
LINE
  5
9B393
330
9B352
100
AcDbEntity
  8
SIZE
100
AcDbLine
 10
-504.0
 20
-877.7715609482569
 30
0.0
 11
504.9999999999998
 21
-877.7715609482569
 31
0.0
  0
CIRCLE
  5
9B394
330
9B352
100
AcDbEntity
  8
SIZE
100
AcDbCircle
 10
-504.0
 20
-877.7715609482569
 30
0.0
 40
7.5
  0
CIRCLE
  5
9B395
330
9B352
100
AcDbEntity
  8
SIZE
100
AcDbCircle
 10
504.9999999999998
 20
-877.7715609482569
 30
0.0
 40
7.5
  0
TEXT
  5
9B396
330
9B352
100
AcDbEntity
  8
SIZE
100
AcDbText
 10
-266.2428571428573
 20
-857.771560948257
 30
0.0
 40
40.0
  1
1009（吊りボルトピッチ）
 41
0.9
100
AcDbText
  0
LINE
  5
9B397
330
9B352
100
AcDbEntity
  8
SIZE
100
AcDbLine
 10
564.0
 20
-360.0
 30
0.0
 11
564.0
 21
-897.771560948257
 31
0.0
  0
LINE
  5
9B398
330
9B352
100
AcDbEntity
  8
SIZE
100
AcDbLine
 10
504.9999999999998
 20
-379.47842270828
 30
0.0
 11
504.9999999999998
 21
-897.771560948257
 31
0.0
  0
LINE
  5
9B399
330
9B352
100
AcDbEntity
  8
SIZE
100
AcDbLine
 10
564.0
 20
-877.7715609482569
 30
0.0
 11
504.9999999999998
 21
-877.7715609482569
 31
0.0
  0
CIRCLE
  5
9B39A
330
9B352
100
AcDbEntity
  8
SIZE
100
AcDbCircle
 10
564.0
 20
-877.7715609482569
 30
0.0
 40
7.5
  0
CIRCLE
  5
9B39B
330
9B352
100
AcDbEntity
  8
SIZE
100
AcDbCircle
 10
504.9999999999998
 20
-877.7715609482569
 30
0.0
 40
7.5
  0
TEXT
  5
9B39C
330
9B352
100
AcDbEntity
  8
SIZE
100
AcDbText
 10
506.2142857142856
 20
-857.771560948257
 30
0.0
 40
40.0
  1
59
 41
0.9
100
AcDbText
  0
LINE
  5
9B39D
330
9B352
100
AcDbEntity
  8
NOTE
  6
Continuous
 62
     4
100
AcDbLine
 10
51.42857142857156
 20
-146.0
 30
0.0
 11
-1.428571428571558
 21
-146.0
 31
0.0
  0
LINE
  5
9B39E
330
9B352
100
AcDbEntity
  8
NOTE
  6
Continuous
 62
     4
100
AcDbLine
 10
25.0
 20
-172.4285714285706
 30
0.0
 11
25.0
 21
-119.5714285714293
 31
0.0
  0
LINE
  5
9B39F
330
9B352
100
AcDbEntity
  8
NOTE
  6
Continuous
 62
     4
100
AcDbLine
 10
51.42857142857156
 20
-246.0
 30
0.0
 11
-1.428571428571558
 21
-246.0
 31
0.0
  0
LINE
  5
9B3A0
330
9B352
100
AcDbEntity
  8
NOTE
  6
Continuous
 62
     4
100
AcDbLine
 10
25.0
 20
-272.4285714285707
 30
0.0
 11
25.0
 21
-219.5714285714294
 31
0.0
  0
LINE
  5
9B3A1
330
9B352
100
AcDbEntity
  8
NOTE
  6
Continuous
 62
     4
100
AcDbLine
 10
139.4285714285715
 20
-40.00000000000272
 30
0.0
 11
86.57142857142844
 21
-40.00000000000272
 31
0.0
  0
LINE
  5
9B3A2
330
9B352
100
AcDbEntity
  8
NOTE
  6
Continuous
 62
     4
100
AcDbLine
 10
113.0
 20
-66.42857142857337
 30
0.0
 11
113.0
 21
-13.57142857143208
 31
0.0
  0
LINE
  5
9B3A3
330
9B352
100
AcDbEntity
  8
SIZE
100
AcDbLine
 10
535.0
 20
-394.9999999999991
 30
0.0
 11
726.6075663354471
 21
-394.9999999999991
 31
0.0
  0
LINE
  5
9B3A4
330
9B352
100
AcDbEntity
  8
SIZE
100
AcDbLine
 10
550.0
 20
-347.9999999999991
 30
0.0
 11
726.6075663354471
 21
-347.9999999999991
 31
0.0
  0
LINE
  5
9B3A5
330
9B352
100
AcDbEntity
  8
SIZE
100
AcDbLine
 10
706.6075663354471
 20
-347.9999999999991
 30
0.0
 11
706.6075663354471
 21
-394.9999999999991
 31
0.0
  0
LINE
  5
9B3A6
330
9B352
100
AcDbEntity
  8
SIZE
100
AcDbLine
 10
706.6075663354471
 20
-394.9999999999991
 30
0.0
 11
706.6075663354472
 21
-523.2857142857133
 31
0.0
  0
CIRCLE
  5
9B3A7
330
9B352
100
AcDbEntity
  8
SIZE
100
AcDbCircle
 10
706.6075663354471
 20
-347.9999999999991
 30
0.0
 40
7.500000000000001
  0
CIRCLE
  5
9B3A8
330
9B352
100
AcDbEntity
  8
SIZE
100
AcDbCircle
 10
706.6075663354471
 20
-394.9999999999991
 30
0.0
 40
7.5
  0
TEXT
  5
9B3A9
330
9B352
100
AcDbEntity
  8
SIZE
100
AcDbText
 10
686.6075663354477
 20
-503.2857142857142
 30
0.0
 40
40.0
  1
47
 50
90.0
 41
0.9
100
AcDbText
  0
LINE
  5
9B3AA
330
9B352
100
AcDbEntity
  8
SIZE
100
AcDbLine
 10
535.0
 20
-394.9999999999991
 30
0.0
 11
1476.607566335446
 21
-394.9999999999986
 31
0.0
  0
LINE
  5
9B3AB
330
9B352
100
AcDbEntity
  8
SIZE
100
AcDbLine
 10
535.0
 20
0.0000000000009095
 30
0.0
 11
1476.607566335446
 21
0.0000000000013642
 31
0.0
  0
LINE
  5
9B3AC
330
9B352
100
AcDbEntity
  8
SIZE
100
AcDbLine
 10
1456.607566335446
 20
-394.9999999999986
 30
0.0
 11
1456.607566335446
 21
0.0000000000013642
 31
0.0
  0
CIRCLE
  5
9B3AD
330
9B352
100
AcDbEntity
  8
SIZE
100
AcDbCircle
 10
1456.607566335446
 20
-394.9999999999986
 30
0.0
 40
7.5
  0
CIRCLE
  5
9B3AE
330
9B352
100
AcDbEntity
  8
SIZE
100
AcDbCircle
 10
1456.607566335446
 20
0.0000000000013642
 30
0.0
 40
7.500000000000001
  0
TEXT
  5
9B3AF
330
9B352
100
AcDbEntity
  8
SIZE
100
AcDbText
 10
1436.607566335446
 20
-243.7857142857138
 30
0.0
 40
40.0
  1
395
 50
90.0
 41
0.9
100
AcDbText
  0
LINE
  5
9B3B0
330
9B352
100
AcDbEntity
  8
SIZE
100
AcDbLine
 10
535.0
 20
-394.9999999999991
 30
0.0
 11
1326.607566335446
 21
-394.9999999999991
 31
0.0
  0
LINE
  5
9B3B1
330
9B352
100
AcDbEntity
  8
SIZE
100
AcDbLine
 10
159.4285714285714
 20
-40.00000000000182
 30
0.0
 11
1326.607566335446
 21
-40.00000000000182
 31
0.0
  0
LINE
  5
9B3B2
330
9B352
100
AcDbEntity
  8
SIZE
100
AcDbLine
 10
1306.607566335446
 20
-394.9999999999991
 30
0.0
 11
1306.607566335446
 21
-40.00000000000182
 31
0.0
  0
CIRCLE
  5
9B3B3
330
9B352
100
AcDbEntity
  8
SIZE
100
AcDbCircle
 10
1306.607566335446
 20
-394.9999999999991
 30
0.0
 40
7.5
  0
CIRCLE
  5
9B3B4
330
9B352
100
AcDbEntity
  8
SIZE
100
AcDbCircle
 10
1306.607566335446
 20
-40.00000000000182
 30
0.0
 40
7.500000000000001
  0
TEXT
  5
9B3B5
330
9B352
100
AcDbEntity
  8
SIZE
100
AcDbText
 10
1286.607566335446
 20
-264.0357142857151
 30
0.0
 40
40.0
  1
355
 50
90.0
 41
0.9
100
AcDbText
  0
LINE
  5
9B3B6
330
9B352
100
AcDbEntity
  8
SIZE
100
AcDbLine
 10
535.0
 20
-394.9999999999991
 30
0.0
 11
1026.607566335447
 21
-394.9999999999991
 31
0.0
  0
LINE
  5
9B3B7
330
9B352
100
AcDbEntity
  8
SIZE
100
AcDbLine
 10
71.42857142857145
 20
-245.9999999999991
 30
0.0
 11
1026.607566335446
 21
-245.9999999999991
 31
0.0
  0
LINE
  5
9B3B8
330
9B352
100
AcDbEntity
  8
SIZE
100
AcDbLine
 10
1006.607566335446
 20
-394.9999999999991
 30
0.0
 11
1006.607566335446
 21
-245.9999999999991
 31
0.0
  0
CIRCLE
  5
9B3B9
330
9B352
100
AcDbEntity
  8
SIZE
100
AcDbCircle
 10
1006.607566335446
 20
-394.9999999999991
 30
0.0
 40
7.5
  0
CIRCLE
  5
9B3BA
330
9B352
100
AcDbEntity
  8
SIZE
100
AcDbCircle
 10
1006.607566335446
 20
-245.9999999999991
 30
0.0
 40
7.500000000000001
  0
TEXT
  5
9B3BB
330
9B352
100
AcDbEntity
  8
SIZE
100
AcDbText
 10
986.6075663354472
 20
-362.4999999999996
 30
0.0
 40
40.0
  1
149
 50
90.0
 41
0.9
100
AcDbText
  0
LINE
  5
9B3BC
330
9B352
100
AcDbEntity
  8
SIZE
100
AcDbLine
 10
71.42857142857145
 20
-245.9999999999991
 30
0.0
 11
1026.607566335446
 21
-245.9999999999991
 31
0.0
  0
LINE
  5
9B3BD
330
9B352
100
AcDbEntity
  8
SIZE
100
AcDbLine
 10
71.42857142857145
 20
-145.9999999999991
 30
0.0
 11
1026.607566335446
 21
-145.9999999999991
 31
0.0
  0
LINE
  5
9B3BE
330
9B352
100
AcDbEntity
  8
SIZE
100
AcDbLine
 10
1006.607566335446
 20
-245.9999999999991
 30
0.0
 11
1006.607566335446
 21
-145.9999999999991
 31
0.0
  0
CIRCLE
  5
9B3BF
330
9B352
100
AcDbEntity
  8
SIZE
100
AcDbCircle
 10
1006.607566335446
 20
-245.9999999999991
 30
0.0
 40
7.5
  0
CIRCLE
  5
9B3C0
330
9B352
100
AcDbEntity
  8
SIZE
100
AcDbCircle
 10
1006.607566335446
 20
-145.9999999999991
 30
0.0
 40
7.500000000000001
  0
TEXT
  5
9B3C1
330
9B352
100
AcDbEntity
  8
SIZE
100
AcDbText
 10
986.6075663354472
 20
-238.8571428571422
 30
0.0
 40
40.0
  1
100
 50
90.0
 41
0.9
100
AcDbText
  0
CIRCLE
  5
9B3C2
330
9B352
100
AcDbEntity
  8
DETAIL
100
AcDbCircle
 10
539.0
 20
-210.0
 30
0.0
 40
3.399999999999963
1001
REVIT
1002
{
1070
     1
1000
16025
1002
}
1002
{
1070
     2
1000
-2001140
1002
}
  0
LINE
  5
9B3C3
330
9B352
100
AcDbEntity
  8
NOTE
100
AcDbLine
 10
539.0
 20
-198.5215772917199
 30
0.0
 11
539.0
 21
-221.47842270828
 31
0.0
  0
LINE
  5
9B3C4
330
9B352
100
AcDbEntity
  8
NOTE
100
AcDbLine
 10
550.4784227082855
 20
-210.0
 30
0.0
 11
527.5215772917144
 21
-210.0
 31
0.0
  0
LINE
  5
9B3C5
330
9B352
100
AcDbEntity
  8
SIZE
100
AcDbLine
 10
535.0
 20
-394.9999999999991
 30
0.0
 11
876.6075663354465
 21
-394.9999999999991
 31
0.0
  0
LINE
  5
9B3C6
330
9B352
100
AcDbEntity
  8
SIZE
100
AcDbLine
 10
570.4784227082854
 20
-209.9999999999991
 30
0.0
 11
876.6075663354465
 21
-209.9999999999991
 31
0.0
  0
LINE
  5
9B3C7
330
9B352
100
AcDbEntity
  8
SIZE
100
AcDbLine
 10
856.6075663354466
 20
-394.9999999999991
 30
0.0
 11
856.6075663354466
 21
-209.9999999999991
 31
0.0
  0
CIRCLE
  5
9B3C8
330
9B352
100
AcDbEntity
  8
SIZE
100
AcDbCircle
 10
856.6075663354466
 20
-394.9999999999991
 30
0.0
 40
7.5
  0
CIRCLE
  5
9B3C9
330
9B352
100
AcDbEntity
  8
SIZE
100
AcDbCircle
 10
856.6075663354466
 20
-209.9999999999991
 30
0.0
 40
7.500000000000001
  0
TEXT
  5
9B3CA
330
9B352
100
AcDbEntity
  8
SIZE
100
AcDbText
 10
836.6075663354472
 20
-345.3571428571422
 30
0.0
 40
40.0
  1
185
 50
90.0
 41
0.9
100
AcDbText
  0
LINE
  5
9B3CB
330
9B352
100
AcDbEntity
  8
NOTE
100
AcDbLine
 10
15.75754154621569
 20
-116.3487933920146
 30
0.0
 11
25.00000000000114
 21
-146.0000000000018
 31
0.0
  0
LINE
  5
9B3CC
330
9B352
100
AcDbEntity
  8
NOTE
100
AcDbLine
 10
25.00000000000114
 20
-146.0000000000018
 30
0.0
 11
2.170192977135116
 21
-124.9425309479484
 31
0.0
  0
LINE
  5
9B3CD
330
9B352
100
AcDbEntity
  8
NOTE
100
AcDbLine
 10
25.00000000000114
 20
-146.0000000000018
 30
0.0
 11
8.963867261675375
 21
-120.6456621699817
 31
0.0
  0
LINE
  5
9B3CE
330
9B352
100
AcDbEntity
  8
NOTE
100
AcDbLine
 10
8.963867261675375
 20
-120.6456621699817
 30
0.0
 11
-114.1434914719075
 21
73.99637613349023
 31
0.0
1001
ACAD
1000
DSTYLE
1002
{
1070
   147
1040
10.0
1070
    77
1070
     0
1002
}
  0
LINE
  5
9B3CF
330
9B352
100
AcDbEntity
  8
NOTE
100
AcDbLine
 10
-114.1434914719075
 20
73.99637613349023
 30
0.0
 11
-514.1434914719074
 21
73.99637613349023
 31
0.0
1001
ACAD
1000
DSTYLE
1002
{
1070
   147
1040
10.0
1070
    77
1070
     0
1002
}
  0
TEXT
  5
9B3D0
330
9B352
100
AcDbEntity
  8
NOTE
100
AcDbText
 10
-498.0366750888459
 20
96.79107413131987
 30
0.0
 40
50.0
  1
Rc3/4(メス)
 41
0.9
100
AcDbText
  0
TEXT
  5
9B3D1
330
9B352
100
AcDbEntity
  8
NOTE
100
AcDbText
 10
-383.6081036602745
 20
166.478475031322
 30
0.0
 40
50.0
  1
熱源水出口
 41
0.9
100
AcDbText
  0
LINE
  5
9B3D2
330
9B352
100
AcDbEntity
  8
NOTE
100
AcDbLine
 10
8.269418091235877
 20
-272.1668630250879
 30
0.0
 11
25.00000000000023
 21
-246.0000000000018
 31
0.0
  0
LINE
  5
9B3D3
330
9B352
100
AcDbEntity
  8
NOTE
100
AcDbLine
 10
25.00000000000023
 20
-246.0000000000018
 30
0.0
 11
23.59432241870434
 21
-277.0264590650795
 31
0.0
  0
LINE
  5
9B3D4
330
9B352
100
AcDbEntity
  8
NOTE
100
AcDbLine
 10
25.00000000000023
 20
-246.0000000000018
 30
0.0
 11
15.93187025497013
 21
-274.5966610450837
 31
0.0
  0
LINE
  5
9B3D5
330
9B352
100
AcDbEntity
  8
NOTE
100
AcDbLine
 10
15.93187025497013
 20
-274.5966610450837
 30
0.0
 11
-85.73213642410065
 21
-595.1976252162976
 31
0.0
1001
ACAD
1000
DSTYLE
1002
{
1070
   147
1040
10.0
1070
    77
1070
     0
1002
}
  0
LINE
  5
9B3D6
330
9B352
100
AcDbEntity
  8
NOTE
100
AcDbLine
 10
-85.73213642410065
 20
-595.1976252162976
 30
0.0
 11
-485.7321364241006
 21
-595.1976252162976
 31
0.0
1001
ACAD
1000
DSTYLE
1002
{
1070
   147
1040
10.0
1070
    77
1070
     0
1002
}
  0
TEXT
  5
9B3D7
330
9B352
100
AcDbEntity
  8
NOTE
100
AcDbText
 10
-469.625320041039
 20
-572.4029272184679
 30
0.0
 40
50.0
  1
Rc3/4(メス)
 41
0.9
100
AcDbText
  0
TEXT
  5
9B3D8
330
9B352
100
AcDbEntity
  8
NOTE
100
AcDbText
 10
-355.1967486124677
 20
-502.7155263184659
 30
0.0
 40
50.0
  1
熱源水入口
 41
0.9
100
AcDbText
  0
LINE
  5
9B3D9
330
9B352
100
AcDbEntity
  8
NOTE
100
AcDbLine
 10
126.7737545777329
 20
-12.16296035114874
 30
0.0
 11
113.0000000000002
 21
-40.00000000000272
 31
0.0
  0
LINE
  5
9B3DA
330
9B352
100
AcDbEntity
  8
NOTE
100
AcDbLine
 10
113.0000000000002
 20
-40.00000000000272
 30
0.0
 11
111.0099016859894
 21
-9.005539200045859
 31
0.0
  0
LINE
  5
9B3DB
330
9B352
100
AcDbEntity
  8
NOTE
100
AcDbLine
 10
113.0000000000002
 20
-40.00000000000272
 30
0.0
 11
118.8918281318612
 21
-10.58424977559707
 31
0.0
  0
LINE
  5
9B3DC
330
9B352
100
AcDbEntity
  8
NOTE
100
AcDbLine
 10
118.8918281318612
 20
-10.58424977559707
 30
0.0
 11
152.837021271991
 21
158.8917261663341
 31
0.0
1001
ACAD
1000
DSTYLE
1002
{
1070
   147
1040
20.0
1070
    77
1070
     0
1002
}
  0
LINE
  5
9B3DD
330
9B352
100
AcDbEntity
  8
NOTE
100
AcDbLine
 10
152.837021271991
 20
158.8917261663341
 30
0.0
 11
516.8052287573682
 21
158.8917261663341
 31
0.0
1001
ACAD
1000
DSTYLE
1002
{
1070
   147
1040
20.0
1070
    77
1070
     0
1002
}
  0
TEXT
  5
9B3DE
330
9B352
100
AcDbEntity
  8
NOTE
100
AcDbText
 10
176.4218535005075
 20
185.76670380116
 30
0.0
 40
50.0
  1
D(VP-25) 
 41
0.9
100
AcDbText
  0
CIRCLE
  5
9B3DF
330
9B352
100
AcDbEntity
  8
DETAIL
100
AcDbCircle
 10
-539.0
 20
-184.9999999999995
 30
0.0
 40
3.399999999999963
1001
REVIT
1002
{
1070
     1
1000
16025
1002
}
1002
{
1070
     2
1000
-2001140
1002
}
  0
LINE
  5
9B3E0
330
9B352
100
AcDbEntity
  8
NOTE
100
AcDbLine
 10
-539.0
 20
-173.5215772917195
 30
0.0
 11
-539.0
 21
-196.4784227082796
 31
0.0
  0
LINE
  5
9B3E1
330
9B352
100
AcDbEntity
  8
NOTE
100
AcDbLine
 10
-527.5215772917144
 20
-184.9999999999995
 30
0.0
 11
-550.4784227082855
 21
-184.9999999999995
 31
0.0
  0
LINE
  5
9B3E2
330
9B352
100
AcDbEntity
  8
SIZE
100
AcDbLine
 10
-535.0000000000004
 20
-394.9999999999991
 30
0.0
 11
-700.4537524293801
 21
-394.9999999999996
 31
0.0
  0
LINE
  5
9B3E3
330
9B352
100
AcDbEntity
  8
SIZE
100
AcDbLine
 10
-570.478422708286
 20
-184.9999999999986
 30
0.0
 11
-700.4537524293801
 21
-184.9999999999991
 31
0.0
  0
LINE
  5
9B3E4
330
9B352
100
AcDbEntity
  8
SIZE
100
AcDbLine
 10
-680.4537524293801
 20
-184.9999999999991
 30
0.0
 11
-680.4537524293801
 21
-394.9999999999996
 31
0.0
  0
LINE
  5
9B3E5
330
9B352
100
AcDbEntity
  8
SIZE
100
AcDbLine
 10
-680.4537524293801
 20
-394.9999999999996
 30
0.0
 11
-680.4537524293801
 21
-550.7142857142853
 31
0.0
  0
CIRCLE
  5
9B3E6
330
9B352
100
AcDbEntity
  8
SIZE
100
AcDbCircle
 10
-680.4537524293801
 20
-184.9999999999991
 30
0.0
 40
7.500000000000001
  0
CIRCLE
  5
9B3E7
330
9B352
100
AcDbEntity
  8
SIZE
100
AcDbCircle
 10
-680.4537524293801
 20
-394.9999999999996
 30
0.0
 40
7.5
  0
TEXT
  5
9B3E8
330
9B352
100
AcDbEntity
  8
SIZE
100
AcDbText
 10
-700.4537524293791
 20
-530.7142857142848
 30
0.0
 40
40.0
  1
210
 50
90.0
 41
0.9
100
AcDbText
  0
LINE
  5
9B3E9
330
9B352
100
AcDbEntity
  8
SIZE
100
AcDbLine
 10
-564.0
 20
-35.0
 30
0.0
 11
-564.0
 21
374.8151868655855
 31
0.0
  0
LINE
  5
9B3EA
330
9B352
100
AcDbEntity
  8
SIZE
100
AcDbLine
 10
-539.0
 20
-153.5215772917195
 30
0.0
 11
-539.0
 21
374.8151868655855
 31
0.0
  0
LINE
  5
9B3EB
330
9B352
100
AcDbEntity
  8
SIZE
100
AcDbLine
 10
-539.0
 20
354.8151868655855
 30
0.0
 11
-509.0
 21
354.8151868655855
 31
0.0
  0
LINE
  5
9B3EC
330
9B352
100
AcDbEntity
  8
SIZE
100
AcDbLine
 10
-564.0
 20
354.8151868655855
 30
0.0
 11
-747.2857142857142
 21
354.8151868655855
 31
0.0
  0
LINE
  5
9B3ED
330
9B352
100
AcDbEntity
  8
SIZE
100
AcDbLine
 10
-539.0
 20
354.8151868655855
 30
0.0
 11
-564.0
 21
354.8151868655855
 31
0.0
  0
CIRCLE
  5
9B3EE
330
9B352
100
AcDbEntity
  8
SIZE
100
AcDbCircle
 10
-539.0
 20
354.8151868655855
 30
0.0
 40
7.5
  0
CIRCLE
  5
9B3EF
330
9B352
100
AcDbEntity
  8
SIZE
100
AcDbCircle
 10
-564.0
 20
354.8151868655855
 30
0.0
 40
7.5
  0
TEXT
  5
9B3F0
330
9B352
100
AcDbEntity
  8
SIZE
100
AcDbText
 10
-727.2857142857142
 20
374.8151868655855
 30
0.0
 40
40.0
  1
25
 41
0.9
100
AcDbText
  0
LINE
  5
9B3F1
330
9B352
100
AcDbEntity
  8
SIZE
100
AcDbLine
 10
515.0
 20
-415.0
 30
0.0
 11
515.0
 21
-597.771560948257
 31
0.0
  0
LINE
  5
9B3F2
330
9B352
100
AcDbEntity
  8
SIZE
100
AcDbLine
 10
113.0
 20
-86.42857142857337
 30
0.0
 11
112.9999999999999
 21
-597.771560948257
 31
0.0
  0
LINE
  5
9B3F3
330
9B352
100
AcDbEntity
  8
SIZE
100
AcDbLine
 10
515.0
 20
-577.771560948257
 30
0.0
 11
112.9999999999999
 21
-577.771560948257
 31
0.0
  0
CIRCLE
  5
9B3F4
330
9B352
100
AcDbEntity
  8
SIZE
100
AcDbCircle
 10
515.0
 20
-577.771560948257
 30
0.0
 40
7.5
  0
CIRCLE
  5
9B3F5
330
9B352
100
AcDbEntity
  8
SIZE
100
AcDbCircle
 10
112.9999999999999
 20
-577.771560948257
 30
0.0
 40
7.5
  0
TEXT
  5
9B3F6
330
9B352
100
AcDbEntity
  8
SIZE
100
AcDbText
 10
267.7142857142857
 20
-557.771560948257
 30
0.0
 40
40.0
  1
402
 41
0.9
100
AcDbText
  0
LINE
  5
9B3F7
330
9B352
100
AcDbEntity
  8
SIZE
100
AcDbLine
 10
515.0
 20
-415.0
 30
0.0
 11
515.0
 21
-747.771560948257
 31
0.0
  0
LINE
  5
9B3F8
330
9B352
100
AcDbEntity
  8
SIZE
100
AcDbLine
 10
25.0
 20
-292.4285714285706
 30
0.0
 11
24.99999999999995
 21
-747.771560948257
 31
0.0
  0
LINE
  5
9B3F9
330
9B352
100
AcDbEntity
  8
SIZE
100
AcDbLine
 10
515.0
 20
-727.771560948257
 30
0.0
 11
25.0
 21
-727.771560948257
 31
0.0
  0
CIRCLE
  5
9B3FA
330
9B352
100
AcDbEntity
  8
SIZE
100
AcDbCircle
 10
515.0
 20
-727.771560948257
 30
0.0
 40
7.5
  0
CIRCLE
  5
9B3FB
330
9B352
100
AcDbEntity
  8
SIZE
100
AcDbCircle
 10
25.0
 20
-727.771560948257
 30
0.0
 40
7.5
  0
TEXT
  5
9B3FC
330
9B352
100
AcDbEntity
  8
SIZE
100
AcDbText
 10
223.7142857142857
 20
-707.771560948257
 30
0.0
 40
40.0
  1
490
 41
0.9
100
AcDbText
  0
LINE
  5
9B3FD
330
9B352
100
AcDbEntity
  8
NOTE
100
AcDbLine
 10
552.2842399554871
 20
-181.926060832428
 30
0.0
 11
539.0
 21
-210.0
 31
0.0
  0
LINE
  5
9B3FE
330
9B352
100
AcDbEntity
  8
NOTE
100
AcDbLine
 10
539.0
 20
-210.0
 30
0.0
 11
536.467519828062
 21
-179.0451355073514
 31
0.0
  0
LINE
  5
9B3FF
330
9B352
100
AcDbEntity
  8
NOTE
100
AcDbLine
 10
539.0
 20
-210.0
 30
0.0
 11
544.3758798917745
 21
-180.4855981698897
 31
0.0
  0
LINE
  5
9B400
330
9B352
100
AcDbEntity
  8
NOTE
100
AcDbLine
 10
544.3758798917745
 20
-180.4855981698897
 30
0.0
 11
580.8569066187738
 21
19.80081143593088
 31
0.0
1001
ACAD
1000
DSTYLE
1002
{
1070
   147
1040
20.0
1070
    77
1070
     0
1070
   345
1005
13
1070
   346
1005
13
1070
   347
1005
13
1002
}
  0
LINE
  5
9B401
330
9B352
100
AcDbEntity
  8
NOTE
100
AcDbLine
 10
580.8569066187738
 20
19.80081143593088
 30
0.0
 11
1005.751026007687
 21
19.80081143593088
 31
0.0
1001
ACAD
1000
DSTYLE
1002
{
1070
   147
1040
20.0
1070
    77
1070
     0
1070
   345
1005
13
1070
   346
1005
13
1070
   347
1005
13
1002
}
  0
TEXT
  5
9B402
330
9B352
100
AcDbEntity
  8
NOTE
100
AcDbText
 10
600.0116217180293
 20
40.97042661278919
 30
0.0
 40
50.0
  1
2-%%c3.4取付穴
 41
0.9
100
AcDbText
  0
LINE
  5
9B403
330
9B352
100
AcDbEntity
  8
NOTE
100
AcDbLine
 10
509.8515145846386
 20
-378.6770255698712
 30
0.0
 11
504.9999999999998
 21
-348.0
 31
0.0
  0
LINE
  5
9B404
330
9B352
100
AcDbEntity
  8
NOTE
100
AcDbLine
 10
504.9999999999998
 20
-348.0
 30
0.0
 11
524.5400475525452
 21
-372.1413262523779
 31
0.0
  0
LINE
  5
9B405
330
9B352
100
AcDbEntity
  8
NOTE
100
AcDbLine
 10
504.9999999999998
 20
-348.0
 30
0.0
 11
517.1957810685919
 21
-375.4091759111247
 31
0.0
  0
LINE
  5
9B406
330
9B352
100
AcDbEntity
  8
NOTE
100
AcDbLine
 10
517.1957810685919
 20
-375.4091759111247
 30
0.0
 11
645.0736654366756
 21
-662.8058918798783
 31
0.0
1001
ACAD
1000
DSTYLE
1002
{
1070
   147
1040
10.0
1070
    77
1070
     0
1002
}
  0
LINE
  5
9B407
330
9B352
100
AcDbEntity
  8
NOTE
100
AcDbLine
 10
645.0736654366756
 20
-662.8058918798783
 30
0.0
 11
1206.292143742741
 21
-662.8058918798783
 31
0.0
1001
ACAD
1000
DSTYLE
1002
{
1070
   147
1040
10.0
1070
    77
1070
     0
1002
}
  0
TEXT
  5
9B408
330
9B352
100
AcDbEntity
  8
NOTE
100
AcDbText
 10
663.3989601258027
 20
-640.0111938820487
 30
0.0
 40
50.0
  1
AH(4-M10ボルト)
 41
0.9
100
AcDbText
  0
LINE
  5
9B409
330
9B352
100
AcDbEntity
  8
NOTE
100
AcDbLine
 10
-545.8652909618991
 20
-154.7099872633243
 30
0.0
 11
-539.0
 21
-184.9999999999995
 31
0.0
  0
LINE
  5
9B40A
330
9B352
100
AcDbEntity
  8
NOTE
100
AcDbLine
 10
-539.0
 20
-184.9999999999995
 30
0.0
 11
-560.0905226422843
 21
-162.2007248743562
 31
0.0
  0
LINE
  5
9B40B
330
9B352
100
AcDbEntity
  8
NOTE
100
AcDbLine
 10
-539.0
 20
-184.9999999999995
 30
0.0
 11
-552.9779068020917
 21
-158.45535606884
 31
0.0
  0
LINE
  5
9B40C
330
9B352
100
AcDbEntity
  8
NOTE
100
AcDbLine
 10
-552.9779068020917
 20
-158.45535606884
 30
0.0
 11
-704.7631368133352
 21
129.7912992926512
 31
0.0
1001
ACAD
1000
DSTYLE
1002
{
1070
   147
1040
20.0
1070
    77
1070
     0
1070
   345
1005
13
1070
   346
1005
13
1070
   347
1005
13
1002
}
  0
LINE
  5
9B40D
330
9B352
100
AcDbEntity
  8
NOTE
100
AcDbLine
 10
-704.7631368133352
 20
129.7912992926512
 30
0.0
 11
-1146.23938242121
 21
129.7912992926512
 31
0.0
1001
ACAD
1000
DSTYLE
1002
{
1070
   147
1040
20.0
1070
    77
1070
     0
1070
   345
1005
13
1070
   346
1005
13
1070
   347
1005
13
1002
}
  0
TEXT
  5
9B40E
330
9B352
100
AcDbEntity
  8
NOTE
100
AcDbText
 10
-1127.084667321955
 20
150.9609144695096
 30
0.0
 40
50.0
  1
2-%%c3.4取付穴
 41
0.9
100
AcDbText
  0
LINE
  5
9B40F
330
9B352
100
AcDbEntity
  8
SIZE
100
AcDbLine
 10
564.0
 20
-60.0
 30
0.0
 11
564.0
 21
367.3151868655855
 31
0.0
  0
LINE
  5
9B410
330
9B352
100
AcDbEntity
  8
SIZE
100
AcDbLine
 10
539.0
 20
-178.5215772917199
 30
0.0
 11
539.0
 21
367.3151868655855
 31
0.0
  0
LINE
  5
9B411
330
9B352
100
AcDbEntity
  8
SIZE
100
AcDbLine
 10
539.0
 20
347.3151868655855
 30
0.0
 11
509.0
 21
347.3151868655855
 31
0.0
  0
LINE
  5
9B412
330
9B352
100
AcDbEntity
  8
SIZE
100
AcDbLine
 10
564.0
 20
347.3151868655855
 30
0.0
 11
722.2857142857143
 21
347.3151868655855
 31
0.0
  0
LINE
  5
9B413
330
9B352
100
AcDbEntity
  8
SIZE
100
AcDbLine
 10
539.0
 20
347.3151868655855
 30
0.0
 11
564.0
 21
347.3151868655855
 31
0.0
  0
CIRCLE
  5
9B414
330
9B352
100
AcDbEntity
  8
SIZE
100
AcDbCircle
 10
539.0
 20
347.3151868655855
 30
0.0
 40
7.5
  0
CIRCLE
  5
9B415
330
9B352
100
AcDbEntity
  8
SIZE
100
AcDbCircle
 10
564.0
 20
347.3151868655855
 30
0.0
 40
7.5
  0
TEXT
  5
9B416
330
9B352
100
AcDbEntity
  8
SIZE
100
AcDbText
 10
644.0
 20
367.3151868655855
 30
0.0
 40
40.0
  1
25
 41
0.9
100
AcDbText
  0
LINE
  5
9B417
330
9B352
100
AcDbEntity
  8
SIZE
100
AcDbLine
 10
584.0
 20
-339.9999999999991
 30
0.0
 11
1176.611952801385
 21
-339.9999999999991
 31
0.0
  0
LINE
  5
9B418
330
9B352
100
AcDbEntity
  8
SIZE
100
AcDbLine
 10
584.0
 20
-79.99999999999909
 30
0.0
 11
1176.611952801385
 21
-79.99999999999909
 31
0.0
  0
LINE
  5
9B419
330
9B352
100
AcDbEntity
  8
SIZE
100
AcDbLine
 10
1156.611952801385
 20
-339.9999999999991
 30
0.0
 11
1156.611952801385
 21
-79.99999999999909
 31
0.0
  0
LINE
  5
9B41A
330
9B352
100
AcDbEntity
  8
SIZE
100
AcDbLine
 10
1156.611952801385
 20
-79.99999999999909
 30
0.0
 11
1156.611952801385
 21
376.400000000001
 31
0.0
  0
CIRCLE
  5
9B41B
330
9B352
100
AcDbEntity
  8
SIZE
100
AcDbCircle
 10
1156.611952801385
 20
-339.9999999999991
 30
0.0
 40
7.5
  0
CIRCLE
  5
9B41C
330
9B352
100
AcDbEntity
  8
SIZE
100
AcDbCircle
 10
1156.611952801385
 20
-79.99999999999909
 30
0.0
 40
7.500000000000001
  0
TEXT
  5
9B41D
330
9B352
100
AcDbEntity
  8
SIZE
100
AcDbText
 10
1143.278619468053
 20
116.9142857142865
 30
0.0
 40
40.0
  1
260
 50
90.0
 41
0.9
100
AcDbText
  0
TEXT
  5
9B41E
330
9B352
100
AcDbEntity
  8
SIZE
100
AcDbText
 10
1209.945286134719
 20
-46.79999999999973
 30
0.0
 40
40.0
  1
（ダクト寸法：外寸）
 50
90.0
 41
0.9
100
AcDbText
  0
LINE
  5
9B41F
330
9B352
100
AcDbEntity
  8
SIZE
100
AcDbLine
 10
-584.0000000000004
 20
-54.99999999999909
 30
0.0
 11
-859.4210040338923
 21
-54.99999999999954
 31
0.0
  0
LINE
  5
9B420
330
9B352
100
AcDbEntity
  8
SIZE
100
AcDbLine
 10
-584.0000000000004
 20
-314.9999999999991
 30
0.0
 11
-859.4210040338921
 21
-314.9999999999995
 31
0.0
  0
LINE
  5
9B421
330
9B352
100
AcDbEntity
  8
SIZE
100
AcDbLine
 10
-839.4210040338924
 20
-54.99999999999954
 30
0.0
 11
-839.421004033892
 21
-314.9999999999995
 31
0.0
  0
LINE
  5
9B422
330
9B352
100
AcDbEntity
  8
SIZE
100
AcDbLine
 10
-839.421004033892
 20
-314.9999999999995
 30
0.0
 11
-839.421004033892
 21
-771.3999999999994
 31
0.0
  0
CIRCLE
  5
9B423
330
9B352
100
AcDbEntity
  8
SIZE
100
AcDbCircle
 10
-839.4210040338924
 20
-54.99999999999954
 30
0.0
 40
7.500000000000001
  0
CIRCLE
  5
9B424
330
9B352
100
AcDbEntity
  8
SIZE
100
AcDbCircle
 10
-839.421004033892
 20
-314.9999999999995
 30
0.0
 40
7.5
  0
TEXT
  5
9B425
330
9B352
100
AcDbEntity
  8
SIZE
100
AcDbText
 10
-852.7543373672244
 20
-604.485714285714
 30
0.0
 40
40.0
  1
260
 50
90.0
 41
0.9
100
AcDbText
  0
TEXT
  5
9B426
330
9B352
100
AcDbEntity
  8
SIZE
100
AcDbText
 10
-786.0876707005577
 20
-768.1999999999998
 30
0.0
 40
40.0
  1
（ダクト寸法：外寸）
 50
90.0
 41
0.9
100
AcDbText
  0
LINE
  5
9B427
330
9B352
100
AcDbEntity
  8
OUTLINE
100
AcDbLine
 10
530.0
 20
-348.0
 30
0.0
 11
529.9999999999998
 21
-388.0
 31
0.0
  0
LINE
  5
9B428
330
9B352
100
AcDbEntity
  8
OUTLINE
100
AcDbLine
 10
515.0000000000002
 20
-348.0
 30
0.0
 11
530.0
 21
-348.0
 31
0.0
  0
LINE
  5
9B429
330
9B352
100
AcDbEntity
  8
OUTLINE
100
AcDbLine
 10
529.9999999999998
 20
-388.0
 30
0.0
 11
515.0000000000002
 21
-387.9999999999995
 31
0.0
  0
LINE
  5
9B42A
330
9B352
100
AcDbEntity
  8
OUTLINE
100
AcDbLine
 10
-529.0
 20
-388.0
 30
0.0
 11
-529.0
 21
-348.0
 31
0.0
  0
LINE
  5
9B42B
330
9B352
100
AcDbEntity
  8
OUTLINE
100
AcDbLine
 10
-529.0
 20
-348.0
 30
0.0
 11
-515.0000000000001
 21
-348.0
 31
0.0
  0
LINE
  5
9B42C
330
9B352
100
AcDbEntity
  8
OUTLINE
100
AcDbLine
 10
-515.0
 20
-388.0
 30
0.0
 11
-529.0
 21
-388.0
 31
0.0
  0
LINE
  5
9B42D
330
9B352
100
AcDbEntity
  8
OUTLINE
100
AcDbLine
 10
-515.0
 20
-55.0
 30
0.0
 11
-564.0
 21
-55.0
 31
0.0
1001
REVIT
1002
{
1070
     1
1000
9132
1002
}
1002
{
1070
     2
1000
-2001140
1002
}
  0
LINE
  5
9B42E
330
9B352
100
AcDbEntity
  8
OUTLINE
100
AcDbLine
 10
-515.0
 20
-315.0
 30
0.0
 11
-564.0
 21
-315.0
 31
0.0
1001
REVIT
1002
{
1070
     1
1000
9132
1002
}
1002
{
1070
     2
1000
-2001140
1002
}
  0
LINE
  5
9B42F
330
9B352
100
AcDbEntity
  8
OUTLINE
100
AcDbLine
 10
-564.0
 20
-315.0
 30
0.0
 11
-564.0
 21
-55.0
 31
0.0
1001
REVIT
1002
{
1070
     1
1000
9132
1002
}
1002
{
1070
     2
1000
-2001140
1002
}
  0
LINE
  5
9B430
330
9B352
100
AcDbEntity
  8
OUTLINE
100
AcDbLine
 10
564.0
 20
-340.0
 30
0.0
 11
564.0
 21
-80.0
 31
0.0
1001
REVIT
1002
{
1070
     1
1000
3250
1002
}
1002
{
1070
     2
1000
-2001140
1002
}
  0
LINE
  5
9B431
330
9B352
100
AcDbEntity
  8
OUTLINE
100
AcDbLine
 10
564.0
 20
-340.0
 30
0.0
 11
515.0
 21
-340.0
 31
0.0
1001
REVIT
1002
{
1070
     1
1000
3250
1002
}
1002
{
1070
     2
1000
-2001140
1002
}
  0
LINE
  5
9B432
330
9B352
100
AcDbEntity
  8
OUTLINE
100
AcDbLine
 10
515.0
 20
-80.0
 30
0.0
 11
564.0
 21
-80.0
 31
0.0
1001
REVIT
1002
{
1070
     1
1000
3250
1002
}
1002
{
1070
     2
1000
-2001140
1002
}
  0
LINE
  5
9B433
330
9B352
100
AcDbEntity
  8
OUTLINE
100
AcDbLine
 10
515.0000000000002
 20
-348.0
 30
0.0
 11
515.0000000000002
 21
0.0
 31
0.0
1001
REVIT
1002
{
1070
     1
1000
3165
1002
}
1002
{
1070
     2
1000
-2001140
1002
}
  0
LINE
  5
9B434
330
9B352
100
AcDbEntity
  8
OUTLINE
100
AcDbLine
 10
515.0000000000002
 20
-395.0
 30
0.0
 11
515.0000000000002
 21
-387.9999999999995
 31
0.0
1001
REVIT
1002
{
1070
     1
1000
3165
1002
}
1002
{
1070
     2
1000
-2001140
1002
}
  0
LINE
  5
9B435
330
9B352
100
AcDbEntity
  8
OUTLINE
100
AcDbLine
 10
-515.0000000000001
 20
-348.0
 30
0.0
 11
-515.0
 21
0.0
 31
0.0
1001
REVIT
1002
{
1070
     1
1000
3165
1002
}
1002
{
1070
     2
1000
-2001140
1002
}
  0
LINE
  5
9B436
330
9B352
100
AcDbEntity
  8
OUTLINE
100
AcDbLine
 10
-515.0
 20
-395.0
 30
0.0
 11
-515.0
 21
-388.0
 31
0.0
1001
REVIT
1002
{
1070
     1
1000
3165
1002
}
1002
{
1070
     2
1000
-2001140
1002
}
  0
LINE
  5
9B437
330
9B352
100
AcDbEntity
  8
OUTLINE
100
AcDbLine
 10
515.0
 20
-395.0
 30
0.0
 11
-515.0
 21
-395.0
 31
0.0
1001
REVIT
1002
{
1070
     1
1000
3165
1002
}
1002
{
1070
     2
1000
-2001140
1002
}
  0
LINE
  5
9B438
330
9B352
100
AcDbEntity
  8
OUTLINE
100
AcDbLine
 10
-515.0
 20
0.0
 30
0.0
 11
515.0
 21
0.0
 31
0.0
1001
REVIT
1002
{
1070
     1
1000
3165
1002
}
1002
{
1070
     2
1000
-2001140
1002
}
  0
ENDBLK
  5
9B43C
330
9B352
100
AcDbEntity
  8
0
100
AcDbBlockEnd
  0
ENDSEC
  0
SECTION
  2
ENTITIES
  0
LINE
  5
9B441
330
18
100
AcDbEntity
  8
DETAIL
100
AcDbLine
 10
-515.0
 20
0.0
 30
0.0
 11
515.0
 21
0.0
 31
0.0
1001
REVIT
1002
{
1070
     1
1000
3165
1002
}
1002
{
1070
     2
1000
-2001140
1002
}
  0
LINE
  5
9B442
330
18
100
AcDbEntity
  8
DETAIL
100
AcDbLine
 10
515.0
 20
-395.0
 30
0.0
 11
-515.0
 21
-395.0
 31
0.0
1001
REVIT
1002
{
1070
     1
1000
3165
1002
}
1002
{
1070
     2
1000
-2001140
1002
}
  0
LINE
  5
9B443
330
18
100
AcDbEntity
  8
DETAIL
100
AcDbLine
 10
-515.0
 20
-395.0
 30
0.0
 11
-515.0
 21
-388.0
 31
0.0
1001
REVIT
1002
{
1070
     1
1000
3165
1002
}
1002
{
1070
     2
1000
-2001140
1002
}
  0
LINE
  5
9B444
330
18
100
AcDbEntity
  8
DETAIL
100
AcDbLine
 10
-515.0
 20
-348.0
 30
0.0
 11
-515.0
 21
0.0
 31
0.0
1001
REVIT
1002
{
1070
     1
1000
3165
1002
}
1002
{
1070
     2
1000
-2001140
1002
}
  0
LINE
  5
9B445
330
18
100
AcDbEntity
  8
DETAIL
100
AcDbLine
 10
515.0000000000002
 20
-395.0
 30
0.0
 11
515.0000000000002
 21
-388.0
 31
0.0
1001
REVIT
1002
{
1070
     1
1000
3165
1002
}
1002
{
1070
     2
1000
-2001140
1002
}
  0
LINE
  5
9B446
330
18
100
AcDbEntity
  8
DETAIL
100
AcDbLine
 10
515.0000000000002
 20
-348.0
 30
0.0
 11
515.0000000000002
 21
0.0
 31
0.0
1001
REVIT
1002
{
1070
     1
1000
3165
1002
}
1002
{
1070
     2
1000
-2001140
1002
}
  0
LINE
  5
9B447
330
18
100
AcDbEntity
  8
DETAIL
100
AcDbLine
 10
515.0
 20
-80.0
 30
0.0
 11
564.0
 21
-80.0
 31
0.0
1001
REVIT
1002
{
1070
     1
1000
3250
1002
}
1002
{
1070
     2
1000
-2001140
1002
}
  0
LINE
  5
9B448
330
18
100
AcDbEntity
  8
DETAIL
100
AcDbLine
 10
564.0
 20
-340.0
 30
0.0
 11
515.0
 21
-340.0
 31
0.0
1001
REVIT
1002
{
1070
     1
1000
3250
1002
}
1002
{
1070
     2
1000
-2001140
1002
}
  0
LINE
  5
9B449
330
18
100
AcDbEntity
  8
DETAIL
100
AcDbLine
 10
564.0
 20
-340.0
 30
0.0
 11
564.0
 21
-80.0
 31
0.0
1001
REVIT
1002
{
1070
     1
1000
3250
1002
}
1002
{
1070
     2
1000
-2001140
1002
}
  0
LINE
  5
9B44A
330
18
100
AcDbEntity
  8
DETAIL
100
AcDbLine
 10
-564.0
 20
-315.0
 30
0.0
 11
-564.0
 21
-55.0
 31
0.0
1001
REVIT
1002
{
1070
     1
1000
9132
1002
}
1002
{
1070
     2
1000
-2001140
1002
}
  0
LINE
  5
9B44B
330
18
100
AcDbEntity
  8
DETAIL
100
AcDbLine
 10
-515.0
 20
-315.0
 30
0.0
 11
-564.0
 21
-315.0
 31
0.0
1001
REVIT
1002
{
1070
     1
1000
9132
1002
}
1002
{
1070
     2
1000
-2001140
1002
}
  0
LINE
  5
9B44C
330
18
100
AcDbEntity
  8
DETAIL
100
AcDbLine
 10
-515.0
 20
-55.0
 30
0.0
 11
-564.0
 21
-55.0
 31
0.0
1001
REVIT
1002
{
1070
     1
1000
9132
1002
}
1002
{
1070
     2
1000
-2001140
1002
}
  0
LINE
  5
9B44D
330
18
100
AcDbEntity
  8
DETAIL
100
AcDbLine
 10
-25.99999999999989
 20
-47.99999999999954
 30
0.0
 11
-418.0
 21
-47.99999999999954
 31
0.0
1001
REVIT
1002
{
1070
     1
1000
10447
1002
}
1002
{
1070
     2
1000
-2001140
1002
}
  0
LINE
  5
9B44E
330
18
100
AcDbEntity
  8
DETAIL
100
AcDbLine
 10
-418.0
 20
-47.99999999999954
 30
0.0
 11
-418.0
 21
-341.0
 31
0.0
1001
REVIT
1002
{
1070
     1
1000
10447
1002
}
1002
{
1070
     2
1000
-2001140
1002
}
  0
LINE
  5
9B44F
330
18
100
AcDbEntity
  8
DETAIL
100
AcDbLine
 10
-418.0
 20
-341.0
 30
0.0
 11
-25.99999999999989
 21
-341.0
 31
0.0
1001
REVIT
1002
{
1070
     1
1000
10447
1002
}
1002
{
1070
     2
1000
-2001140
1002
}
  0
LINE
  5
9B450
330
18
100
AcDbEntity
  8
DETAIL
100
AcDbLine
 10
-25.99999999999989
 20
-341.0
 30
0.0
 11
-25.99999999999989
 21
-47.99999999999954
 31
0.0
1001
REVIT
1002
{
1070
     1
1000
10447
1002
}
1002
{
1070
     2
1000
-2001140
1002
}
  0
LINE
  5
9B451
330
18
100
AcDbEntity
  8
DETAIL
100
AcDbLine
 10
-434.6313058327407
 20
-388.0
 30
0.0
 11
-529.0
 21
-388.0
 31
0.0
  0
LINE
  5
9B452
330
18
100
AcDbEntity
  8
DETAIL
100
AcDbLine
 10
-529.0
 20
-348.0
 30
0.0
 11
-434.6313058327407
 21
-348.0
 31
0.0
  0
LINE
  5
9B453
330
18
100
AcDbEntity
  8
DETAIL
100
AcDbLine
 10
-498.0000000000002
 20
-348.0
 30
0.0
 11
-498.0000000000002
 21
-360.0
 31
0.0
  0
LINE
  5
9B454
330
18
100
AcDbEntity
  8
DETAIL
100
AcDbLine
 10
-498.0000000000002
 20
-360.0
 30
0.0
 11
-436.8033896966916
 21
-360.0
 31
0.0
  0
LINE
  5
9B455
330
18
100
AcDbEntity
  8
DETAIL
100
AcDbLine
 10
-436.8033896966916
 20
-360.0
 30
0.0
 11
-436.8033896966916
 21
-388.0
 31
0.0
  0
LINE
  5
9B456
330
18
100
AcDbEntity
  8
DETAIL
100
AcDbLine
 10
-434.6313058327407
 20
-388.0
 30
0.0
 11
-434.6313058327407
 21
-348.0
 31
0.0
  0
LINE
  5
9B457
330
18
100
AcDbEntity
  8
DETAIL
100
AcDbLine
 10
-529.0
 20
-360.0
 30
0.0
 11
-510.0000000000002
 21
-360.0
 31
0.0
  0
LINE
  5
9B458
330
18
100
AcDbEntity
  8
DETAIL
100
AcDbLine
 10
-510.0000000000002
 20
-360.0
 30
0.0
 11
-510.0000000000002
 21
-348.0
 31
0.0
  0
LINE
  5
9B459
330
18
100
AcDbEntity
  8
DETAIL
100
AcDbLine
 10
-529.0
 20
-388.0
 30
0.0
 11
-529.0
 21
-348.0
 31
0.0
  0
LINE
  5
9B45A
330
18
100
AcDbEntity
  8
DETAIL
100
AcDbLine
 10
-498.0000000000001
 20
-350.3000000000002
 30
0.0
 11
-510.0000000000001
 21
-350.3000000000002
 31
0.0
  0
LINE
  5
9B45B
330
18
100
AcDbEntity
  8
DETAIL
100
AcDbLine
 10
529.9999999999998
 20
-388.0
 30
0.0
 11
435.6313058327404
 21
-388.0
 31
0.0
  0
LINE
  5
9B45C
330
18
100
AcDbEntity
  8
DETAIL
100
AcDbLine
 10
435.6313058327404
 20
-348.0
 30
0.0
 11
530.0
 21
-348.0
 31
0.0
  0
LINE
  5
9B45D
330
18
100
AcDbEntity
  8
DETAIL
100
AcDbLine
 10
435.6313058327404
 20
-348.0
 30
0.0
 11
435.6313058327404
 21
-388.0
 31
0.0
  0
LINE
  5
9B45E
330
18
100
AcDbEntity
  8
DETAIL
100
AcDbLine
 10
437.8033896966912
 20
-388.0
 30
0.0
 11
437.8033896966912
 21
-360.0
 31
0.0
  0
LINE
  5
9B45F
330
18
100
AcDbEntity
  8
DETAIL
100
AcDbLine
 10
437.8033896966912
 20
-360.0
 30
0.0
 11
498.9999999999999
 21
-360.0
 31
0.0
  0
LINE
  5
9B460
330
18
100
AcDbEntity
  8
DETAIL
100
AcDbLine
 10
498.9999999999999
 20
-360.0
 30
0.0
 11
498.9999999999999
 21
-348.0
 31
0.0
  0
LINE
  5
9B461
330
18
100
AcDbEntity
  8
DETAIL
100
AcDbLine
 10
510.9999999999999
 20
-348.0
 30
0.0
 11
510.9999999999999
 21
-360.0
 31
0.0
  0
LINE
  5
9B462
330
18
100
AcDbEntity
  8
DETAIL
100
AcDbLine
 10
510.9999999999999
 20
-360.0
 30
0.0
 11
530.0
 21
-360.0
 31
0.0
  0
LINE
  5
9B463
330
18
100
AcDbEntity
  8
DETAIL
100
AcDbLine
 10
530.0
 20
-348.0
 30
0.0
 11
529.9999999999998
 21
-388.0
 31
0.0
  0
LINE
  5
9B464
330
18
100
AcDbEntity
  8
DETAIL
100
AcDbLine
 10
510.9999999999999
 20
-350.3000000000002
 30
0.0
 11
498.9999999999998
 21
-350.3000000000002
 31
0.0
  0
CIRCLE
  5
9B465
330
18
100
AcDbEntity
  8
DETAIL
100
AcDbCircle
 10
25.00000000000023
 20
-246.0
 30
0.0
 40
13.22000000000002
1001
REVIT
1002
{
1070
     1
1000
30307
1002
}
1002
{
1070
     2
1000
-2001140
1002
}
  0
CIRCLE
  5
9B466
330
18
100
AcDbEntity
  8
DETAIL
100
AcDbCircle
 10
25.00000000000023
 20
-146.0
 30
0.0
 40
13.22000000000002
1001
REVIT
1002
{
1070
     1
1000
30331
1002
}
1002
{
1070
     2
1000
-2001140
1002
}
  0
CIRCLE
  5
9B467
330
18
100
AcDbEntity
  8
DETAIL
100
AcDbCircle
 10
113.0000000000002
 20
-40.00000000000272
 30
0.0
 40
16.00000000000001
  0
CIRCLE
  5
9B468
330
18
100
AcDbEntity
  8
DETAIL
100
AcDbCircle
 10
-389.4554730245641
 20
-319.2429334748667
 30
0.0
 40
19.99999999999994
  0
CIRCLE
  5
9B469
330
18
100
AcDbEntity
  8
DETAIL
100
AcDbCircle
 10
-54.5445269754357
 20
-319.2429334748667
 30
0.0
 40
20.00000000000001
  0
LINE
  5
9B46A
330
18
100
AcDbEntity
  8
BASIS
100
AcDbLine
 10
0.0
 20
59.1121376086021
 30
0.0
 11
0.0
 21
-514.0106819832676
 31
0.0
  0
CIRCLE
  5
9B46B
330
18
100
AcDbEntity
  8
ARRANGE
100
AcDbCircle
 10
0.0
 20
0.0
 30
0.0
 40
42.5
  0
LINE
  5
9B46C
330
18
100
AcDbEntity
  8
ARRANGE
100
AcDbLine
 10
-42.53174752662926
 20
-42.09400017777625
 30
0.0
 11
42.53174752662926
 21
42.09400017777625
 31
0.0
  0
LINE
  5
9B46D
330
18
100
AcDbEntity
  8
ARRANGE
100
AcDbLine
 10
-42.46919881392568
 20
42.15710557828788
 30
0.0
 11
42.46919881392568
 21
-42.15710557828606
 31
0.0
  0
TEXT
  5
9B46E
330
18
100
AcDbEntity
  8
ETC
100
AcDbText
 10
-820.9825052858741
 20
580.5302855610547
 30
0.0
 40
70.0
  1
MBHV-P25_50MT_5
 50
359.999997
 41
0.9
100
AcDbText
  0
LINE
  5
9B46F
330
18
100
AcDbEntity
  8
SIZE
100
AcDbLine
 10
-515.0
 20
20.0
 30
0.0
 11
-515.0
 21
304.1036082438564
 31
0.0
  0
LINE
  5
9B470
330
18
100
AcDbEntity
  8
SIZE
100
AcDbLine
 10
515.0000000000002
 20
20.0
 30
0.0
 11
515.0000000000002
 21
304.1036082438564
 31
0.0
  0
LINE
  5
9B471
330
18
100
AcDbEntity
  8
SIZE
100
AcDbLine
 10
-515.0
 20
284.1036082438563
 30
0.0
 11
515.0000000000002
 21
284.1036082438563
 31
0.0
  0
CIRCLE
  5
9B472
330
18
100
AcDbEntity
  8
SIZE
100
AcDbCircle
 10
-515.0
 20
284.1036082438563
 30
0.0
 40
7.5
  0
CIRCLE
  5
9B473
330
18
100
AcDbEntity
  8
SIZE
100
AcDbCircle
 10
515.0000000000002
 20
284.1036082438563
 30
0.0
 40
7.5
  0
TEXT
  5
9B474
330
18
100
AcDbEntity
  8
SIZE
100
AcDbText
 10
-137.142857142857
 20
304.1036082438564
 30
0.0
 40
40.0
  1
1030（本体）
 41
0.9
100
AcDbText
  0
LINE
  5
9B475
330
18
100
AcDbEntity
  8
SIZE
100
AcDbLine
 10
-564.0
 20
-35.0
 30
0.0
 11
-564.0
 21
436.5320651743145
 31
0.0
  0
LINE
  5
9B476
330
18
100
AcDbEntity
  8
SIZE
100
AcDbLine
 10
564.0
 20
-60.0
 30
0.0
 11
564.0
 21
436.5320651743145
 31
0.0
  0
LINE
  5
9B477
330
18
100
AcDbEntity
  8
SIZE
100
AcDbLine
 10
-564.0
 20
416.5320651743145
 30
0.0
 11
564.0
 21
416.5320651743145
 31
0.0
  0
CIRCLE
  5
9B478
330
18
100
AcDbEntity
  8
SIZE
100
AcDbCircle
 10
-564.0
 20
416.5320651743145
 30
0.0
 40
7.5
  0
CIRCLE
  5
9B479
330
18
100
AcDbEntity
  8
SIZE
100
AcDbCircle
 10
564.0
 20
416.5320651743145
 30
0.0
 40
7.5
  0
TEXT
  5
9B47A
330
18
100
AcDbEntity
  8
SIZE
100
AcDbText
 10
-56.57142857142855
 20
436.5320651743145
 30
0.0
 40
40.0
  1
1128
 41
0.9
100
AcDbText
  0
LINE
  5
9B47B
330
18
100
AcDbEntity
  8
NOTE
100
AcDbLine
 10
-504.0
 20
-336.52157729172
 30
0.0
 11
-504.0
 21
-359.4784227082801
 31
0.0
  0
CIRCLE
  5
9B47C
330
18
100
AcDbEntity
  8
FIX
100
AcDbCircle
 10
-504.0
 20
-348.0
 30
0.0
 40
8.0
  0
LINE
  5
9B47D
330
18
100
AcDbEntity
  8
NOTE
100
AcDbLine
 10
504.9999999999998
 20
-336.52157729172
 30
0.0
 11
504.9999999999998
 21
-359.4784227082801
 31
0.0
  0
CIRCLE
  5
9B47E
330
18
100
AcDbEntity
  8
FIX
100
AcDbCircle
 10
504.9999999999998
 20
-348.0
 30
0.0
 40
8.0
  0
LINE
  5
9B47F
330
18
100
AcDbEntity
  8
SIZE
100
AcDbLine
 10
-504.0
 20
-379.47842270828
 30
0.0
 11
-504.0
 21
-897.771560948257
 31
0.0
  0
LINE
  5
9B480
330
18
100
AcDbEntity
  8
SIZE
100
AcDbLine
 10
504.9999999999998
 20
-379.47842270828
 30
0.0
 11
504.9999999999998
 21
-897.771560948257
 31
0.0
  0
LINE
  5
9B481
330
18
100
AcDbEntity
  8
SIZE
100
AcDbLine
 10
-504.0
 20
-877.7715609482569
 30
0.0
 11
504.9999999999998
 21
-877.7715609482569
 31
0.0
  0
CIRCLE
  5
9B482
330
18
100
AcDbEntity
  8
SIZE
100
AcDbCircle
 10
-504.0
 20
-877.7715609482569
 30
0.0
 40
7.5
  0
CIRCLE
  5
9B483
330
18
100
AcDbEntity
  8
SIZE
100
AcDbCircle
 10
504.9999999999998
 20
-877.7715609482569
 30
0.0
 40
7.5
  0
TEXT
  5
9B484
330
18
100
AcDbEntity
  8
SIZE
100
AcDbText
 10
-266.2428571428573
 20
-857.771560948257
 30
0.0
 40
40.0
  1
1009（吊りボルトピッチ）
 41
0.9
100
AcDbText
  0
LINE
  5
9B485
330
18
100
AcDbEntity
  8
SIZE
100
AcDbLine
 10
564.0
 20
-360.0
 30
0.0
 11
564.0
 21
-897.771560948257
 31
0.0
  0
LINE
  5
9B486
330
18
100
AcDbEntity
  8
SIZE
100
AcDbLine
 10
504.9999999999998
 20
-379.47842270828
 30
0.0
 11
504.9999999999998
 21
-897.771560948257
 31
0.0
  0
LINE
  5
9B487
330
18
100
AcDbEntity
  8
SIZE
100
AcDbLine
 10
564.0
 20
-877.7715609482569
 30
0.0
 11
504.9999999999998
 21
-877.7715609482569
 31
0.0
  0
CIRCLE
  5
9B488
330
18
100
AcDbEntity
  8
SIZE
100
AcDbCircle
 10
564.0
 20
-877.7715609482569
 30
0.0
 40
7.5
  0
CIRCLE
  5
9B489
330
18
100
AcDbEntity
  8
SIZE
100
AcDbCircle
 10
504.9999999999998
 20
-877.7715609482569
 30
0.0
 40
7.5
  0
TEXT
  5
9B48A
330
18
100
AcDbEntity
  8
SIZE
100
AcDbText
 10
506.2142857142856
 20
-857.771560948257
 30
0.0
 40
40.0
  1
59
 41
0.9
100
AcDbText
  0
LINE
  5
9B48B
330
18
100
AcDbEntity
  8
NOTE
  6
Continuous
 62
     4
100
AcDbLine
 10
51.42857142857156
 20
-146.0
 30
0.0
 11
-1.428571428571558
 21
-146.0
 31
0.0
  0
LINE
  5
9B48C
330
18
100
AcDbEntity
  8
NOTE
  6
Continuous
 62
     4
100
AcDbLine
 10
25.0
 20
-172.4285714285706
 30
0.0
 11
25.0
 21
-119.5714285714293
 31
0.0
  0
LINE
  5
9B48D
330
18
100
AcDbEntity
  8
NOTE
  6
Continuous
 62
     4
100
AcDbLine
 10
51.42857142857156
 20
-246.0
 30
0.0
 11
-1.428571428571558
 21
-246.0
 31
0.0
  0
LINE
  5
9B48E
330
18
100
AcDbEntity
  8
NOTE
  6
Continuous
 62
     4
100
AcDbLine
 10
25.0
 20
-272.4285714285707
 30
0.0
 11
25.0
 21
-219.5714285714294
 31
0.0
  0
LINE
  5
9B48F
330
18
100
AcDbEntity
  8
NOTE
  6
Continuous
 62
     4
100
AcDbLine
 10
139.4285714285715
 20
-40.00000000000272
 30
0.0
 11
86.57142857142844
 21
-40.00000000000272
 31
0.0
  0
LINE
  5
9B490
330
18
100
AcDbEntity
  8
NOTE
  6
Continuous
 62
     4
100
AcDbLine
 10
113.0
 20
-66.42857142857337
 30
0.0
 11
113.0
 21
-13.57142857143208
 31
0.0
  0
LINE
  5
9B491
330
18
100
AcDbEntity
  8
SIZE
100
AcDbLine
 10
535.0
 20
-394.9999999999991
 30
0.0
 11
726.6075663354471
 21
-394.9999999999991
 31
0.0
  0
LINE
  5
9B492
330
18
100
AcDbEntity
  8
SIZE
100
AcDbLine
 10
550.0
 20
-347.9999999999991
 30
0.0
 11
726.6075663354471
 21
-347.9999999999991
 31
0.0
  0
LINE
  5
9B493
330
18
100
AcDbEntity
  8
SIZE
100
AcDbLine
 10
706.6075663354471
 20
-347.9999999999991
 30
0.0
 11
706.6075663354471
 21
-394.9999999999991
 31
0.0
  0
LINE
  5
9B494
330
18
100
AcDbEntity
  8
SIZE
100
AcDbLine
 10
706.6075663354471
 20
-394.9999999999991
 30
0.0
 11
706.6075663354472
 21
-523.2857142857133
 31
0.0
  0
CIRCLE
  5
9B495
330
18
100
AcDbEntity
  8
SIZE
100
AcDbCircle
 10
706.6075663354471
 20
-347.9999999999991
 30
0.0
 40
7.500000000000001
  0
CIRCLE
  5
9B496
330
18
100
AcDbEntity
  8
SIZE
100
AcDbCircle
 10
706.6075663354471
 20
-394.9999999999991
 30
0.0
 40
7.5
  0
TEXT
  5
9B497
330
18
100
AcDbEntity
  8
SIZE
100
AcDbText
 10
686.6075663354477
 20
-503.2857142857142
 30
0.0
 40
40.0
  1
47
 50
90.0
 41
0.9
100
AcDbText
  0
LINE
  5
9B498
330
18
100
AcDbEntity
  8
SIZE
100
AcDbLine
 10
535.0
 20
-394.9999999999991
 30
0.0
 11
1476.607566335446
 21
-394.9999999999986
 31
0.0
  0
LINE
  5
9B499
330
18
100
AcDbEntity
  8
SIZE
100
AcDbLine
 10
535.0
 20
0.0000000000009095
 30
0.0
 11
1476.607566335446
 21
0.0000000000013642
 31
0.0
  0
LINE
  5
9B49A
330
18
100
AcDbEntity
  8
SIZE
100
AcDbLine
 10
1456.607566335446
 20
-394.9999999999986
 30
0.0
 11
1456.607566335446
 21
0.0000000000013642
 31
0.0
  0
CIRCLE
  5
9B49B
330
18
100
AcDbEntity
  8
SIZE
100
AcDbCircle
 10
1456.607566335446
 20
-394.9999999999986
 30
0.0
 40
7.5
  0
CIRCLE
  5
9B49C
330
18
100
AcDbEntity
  8
SIZE
100
AcDbCircle
 10
1456.607566335446
 20
0.0000000000013642
 30
0.0
 40
7.500000000000001
  0
TEXT
  5
9B49D
330
18
100
AcDbEntity
  8
SIZE
100
AcDbText
 10
1436.607566335446
 20
-243.7857142857138
 30
0.0
 40
40.0
  1
395
 50
90.0
 41
0.9
100
AcDbText
  0
LINE
  5
9B49E
330
18
100
AcDbEntity
  8
SIZE
100
AcDbLine
 10
535.0
 20
-394.9999999999991
 30
0.0
 11
1326.607566335446
 21
-394.9999999999991
 31
0.0
  0
LINE
  5
9B49F
330
18
100
AcDbEntity
  8
SIZE
100
AcDbLine
 10
159.4285714285714
 20
-40.00000000000182
 30
0.0
 11
1326.607566335446
 21
-40.00000000000182
 31
0.0
  0
LINE
  5
9B4A0
330
18
100
AcDbEntity
  8
SIZE
100
AcDbLine
 10
1306.607566335446
 20
-394.9999999999991
 30
0.0
 11
1306.607566335446
 21
-40.00000000000182
 31
0.0
  0
CIRCLE
  5
9B4A1
330
18
100
AcDbEntity
  8
SIZE
100
AcDbCircle
 10
1306.607566335446
 20
-394.9999999999991
 30
0.0
 40
7.5
  0
CIRCLE
  5
9B4A2
330
18
100
AcDbEntity
  8
SIZE
100
AcDbCircle
 10
1306.607566335446
 20
-40.00000000000182
 30
0.0
 40
7.500000000000001
  0
TEXT
  5
9B4A3
330
18
100
AcDbEntity
  8
SIZE
100
AcDbText
 10
1286.607566335446
 20
-264.0357142857151
 30
0.0
 40
40.0
  1
355
 50
90.0
 41
0.9
100
AcDbText
  0
LINE
  5
9B4A4
330
18
100
AcDbEntity
  8
SIZE
100
AcDbLine
 10
535.0
 20
-394.9999999999991
 30
0.0
 11
1026.607566335447
 21
-394.9999999999991
 31
0.0
  0
LINE
  5
9B4A5
330
18
100
AcDbEntity
  8
SIZE
100
AcDbLine
 10
71.42857142857145
 20
-245.9999999999991
 30
0.0
 11
1026.607566335446
 21
-245.9999999999991
 31
0.0
  0
LINE
  5
9B4A6
330
18
100
AcDbEntity
  8
SIZE
100
AcDbLine
 10
1006.607566335446
 20
-394.9999999999991
 30
0.0
 11
1006.607566335446
 21
-245.9999999999991
 31
0.0
  0
CIRCLE
  5
9B4A7
330
18
100
AcDbEntity
  8
SIZE
100
AcDbCircle
 10
1006.607566335446
 20
-394.9999999999991
 30
0.0
 40
7.5
  0
CIRCLE
  5
9B4A8
330
18
100
AcDbEntity
  8
SIZE
100
AcDbCircle
 10
1006.607566335446
 20
-245.9999999999991
 30
0.0
 40
7.500000000000001
  0
TEXT
  5
9B4A9
330
18
100
AcDbEntity
  8
SIZE
100
AcDbText
 10
986.6075663354472
 20
-362.4999999999996
 30
0.0
 40
40.0
  1
149
 50
90.0
 41
0.9
100
AcDbText
  0
LINE
  5
9B4AA
330
18
100
AcDbEntity
  8
SIZE
100
AcDbLine
 10
71.42857142857145
 20
-245.9999999999991
 30
0.0
 11
1026.607566335446
 21
-245.9999999999991
 31
0.0
  0
LINE
  5
9B4AB
330
18
100
AcDbEntity
  8
SIZE
100
AcDbLine
 10
71.42857142857145
 20
-145.9999999999991
 30
0.0
 11
1026.607566335446
 21
-145.9999999999991
 31
0.0
  0
LINE
  5
9B4AC
330
18
100
AcDbEntity
  8
SIZE
100
AcDbLine
 10
1006.607566335446
 20
-245.9999999999991
 30
0.0
 11
1006.607566335446
 21
-145.9999999999991
 31
0.0
  0
CIRCLE
  5
9B4AD
330
18
100
AcDbEntity
  8
SIZE
100
AcDbCircle
 10
1006.607566335446
 20
-245.9999999999991
 30
0.0
 40
7.5
  0
CIRCLE
  5
9B4AE
330
18
100
AcDbEntity
  8
SIZE
100
AcDbCircle
 10
1006.607566335446
 20
-145.9999999999991
 30
0.0
 40
7.500000000000001
  0
TEXT
  5
9B4AF
330
18
100
AcDbEntity
  8
SIZE
100
AcDbText
 10
986.6075663354472
 20
-238.8571428571422
 30
0.0
 40
40.0
  1
100
 50
90.0
 41
0.9
100
AcDbText
  0
CIRCLE
  5
9B4B0
330
18
100
AcDbEntity
  8
DETAIL
100
AcDbCircle
 10
539.0
 20
-210.0
 30
0.0
 40
3.399999999999963
1001
REVIT
1002
{
1070
     1
1000
16025
1002
}
1002
{
1070
     2
1000
-2001140
1002
}
  0
LINE
  5
9B4B1
330
18
100
AcDbEntity
  8
NOTE
100
AcDbLine
 10
539.0
 20
-198.5215772917199
 30
0.0
 11
539.0
 21
-221.47842270828
 31
0.0
  0
LINE
  5
9B4B2
330
18
100
AcDbEntity
  8
NOTE
100
AcDbLine
 10
550.4784227082855
 20
-210.0
 30
0.0
 11
527.5215772917144
 21
-210.0
 31
0.0
  0
LINE
  5
9B4B3
330
18
100
AcDbEntity
  8
SIZE
100
AcDbLine
 10
535.0
 20
-394.9999999999991
 30
0.0
 11
876.6075663354465
 21
-394.9999999999991
 31
0.0
  0
LINE
  5
9B4B4
330
18
100
AcDbEntity
  8
SIZE
100
AcDbLine
 10
570.4784227082854
 20
-209.9999999999991
 30
0.0
 11
876.6075663354465
 21
-209.9999999999991
 31
0.0
  0
LINE
  5
9B4B5
330
18
100
AcDbEntity
  8
SIZE
100
AcDbLine
 10
856.6075663354466
 20
-394.9999999999991
 30
0.0
 11
856.6075663354466
 21
-209.9999999999991
 31
0.0
  0
CIRCLE
  5
9B4B6
330
18
100
AcDbEntity
  8
SIZE
100
AcDbCircle
 10
856.6075663354466
 20
-394.9999999999991
 30
0.0
 40
7.5
  0
CIRCLE
  5
9B4B7
330
18
100
AcDbEntity
  8
SIZE
100
AcDbCircle
 10
856.6075663354466
 20
-209.9999999999991
 30
0.0
 40
7.500000000000001
  0
TEXT
  5
9B4B8
330
18
100
AcDbEntity
  8
SIZE
100
AcDbText
 10
836.6075663354472
 20
-345.3571428571422
 30
0.0
 40
40.0
  1
185
 50
90.0
 41
0.9
100
AcDbText
  0
LINE
  5
9B4B9
330
18
100
AcDbEntity
  8
NOTE
100
AcDbLine
 10
15.75754154621569
 20
-116.3487933920146
 30
0.0
 11
25.00000000000114
 21
-146.0000000000018
 31
0.0
  0
LINE
  5
9B4BA
330
18
100
AcDbEntity
  8
NOTE
100
AcDbLine
 10
25.00000000000114
 20
-146.0000000000018
 30
0.0
 11
2.170192977135116
 21
-124.9425309479484
 31
0.0
  0
LINE
  5
9B4BB
330
18
100
AcDbEntity
  8
NOTE
100
AcDbLine
 10
25.00000000000114
 20
-146.0000000000018
 30
0.0
 11
8.963867261675375
 21
-120.6456621699817
 31
0.0
  0
LINE
  5
9B4BC
330
18
100
AcDbEntity
  8
NOTE
100
AcDbLine
 10
8.963867261675375
 20
-120.6456621699817
 30
0.0
 11
-114.1434914719075
 21
73.99637613349023
 31
0.0
1001
ACAD
1000
DSTYLE
1002
{
1070
   147
1040
10.0
1070
    77
1070
     0
1002
}
  0
LINE
  5
9B4BD
330
18
100
AcDbEntity
  8
NOTE
100
AcDbLine
 10
-114.1434914719075
 20
73.99637613349023
 30
0.0
 11
-514.1434914719074
 21
73.99637613349023
 31
0.0
1001
ACAD
1000
DSTYLE
1002
{
1070
   147
1040
10.0
1070
    77
1070
     0
1002
}
  0
TEXT
  5
9B4BE
330
18
100
AcDbEntity
  8
NOTE
100
AcDbText
 10
-498.0366750888459
 20
96.79107413131987
 30
0.0
 40
50.0
  1
Rc3/4(メス)
 41
0.9
100
AcDbText
  0
TEXT
  5
9B4BF
330
18
100
AcDbEntity
  8
NOTE
100
AcDbText
 10
-383.6081036602745
 20
166.478475031322
 30
0.0
 40
50.0
  1
熱源水出口
 41
0.9
100
AcDbText
  0
LINE
  5
9B4C0
330
18
100
AcDbEntity
  8
NOTE
100
AcDbLine
 10
8.269418091235877
 20
-272.1668630250879
 30
0.0
 11
25.00000000000023
 21
-246.0000000000018
 31
0.0
  0
LINE
  5
9B4C1
330
18
100
AcDbEntity
  8
NOTE
100
AcDbLine
 10
25.00000000000023
 20
-246.0000000000018
 30
0.0
 11
23.59432241870434
 21
-277.0264590650795
 31
0.0
  0
LINE
  5
9B4C2
330
18
100
AcDbEntity
  8
NOTE
100
AcDbLine
 10
25.00000000000023
 20
-246.0000000000018
 30
0.0
 11
15.93187025497013
 21
-274.5966610450837
 31
0.0
  0
LINE
  5
9B4C3
330
18
100
AcDbEntity
  8
NOTE
100
AcDbLine
 10
15.93187025497013
 20
-274.5966610450837
 30
0.0
 11
-85.73213642410065
 21
-595.1976252162976
 31
0.0
1001
ACAD
1000
DSTYLE
1002
{
1070
   147
1040
10.0
1070
    77
1070
     0
1002
}
  0
LINE
  5
9B4C4
330
18
100
AcDbEntity
  8
NOTE
100
AcDbLine
 10
-85.73213642410065
 20
-595.1976252162976
 30
0.0
 11
-485.7321364241006
 21
-595.1976252162976
 31
0.0
1001
ACAD
1000
DSTYLE
1002
{
1070
   147
1040
10.0
1070
    77
1070
     0
1002
}
  0
TEXT
  5
9B4C5
330
18
100
AcDbEntity
  8
NOTE
100
AcDbText
 10
-469.625320041039
 20
-572.4029272184679
 30
0.0
 40
50.0
  1
Rc3/4(メス)
 41
0.9
100
AcDbText
  0
TEXT
  5
9B4C6
330
18
100
AcDbEntity
  8
NOTE
100
AcDbText
 10
-355.1967486124677
 20
-502.7155263184659
 30
0.0
 40
50.0
  1
熱源水入口
 41
0.9
100
AcDbText
  0
LINE
  5
9B4C7
330
18
100
AcDbEntity
  8
NOTE
100
AcDbLine
 10
126.7737545777329
 20
-12.16296035114874
 30
0.0
 11
113.0000000000002
 21
-40.00000000000272
 31
0.0
  0
LINE
  5
9B4C8
330
18
100
AcDbEntity
  8
NOTE
100
AcDbLine
 10
113.0000000000002
 20
-40.00000000000272
 30
0.0
 11
111.0099016859894
 21
-9.005539200045859
 31
0.0
  0
LINE
  5
9B4C9
330
18
100
AcDbEntity
  8
NOTE
100
AcDbLine
 10
113.0000000000002
 20
-40.00000000000272
 30
0.0
 11
118.8918281318612
 21
-10.58424977559707
 31
0.0
  0
LINE
  5
9B4CA
330
18
100
AcDbEntity
  8
NOTE
100
AcDbLine
 10
118.8918281318612
 20
-10.58424977559707
 30
0.0
 11
152.837021271991
 21
158.8917261663341
 31
0.0
1001
ACAD
1000
DSTYLE
1002
{
1070
   147
1040
20.0
1070
    77
1070
     0
1002
}
  0
LINE
  5
9B4CB
330
18
100
AcDbEntity
  8
NOTE
100
AcDbLine
 10
152.837021271991
 20
158.8917261663341
 30
0.0
 11
516.8052287573682
 21
158.8917261663341
 31
0.0
1001
ACAD
1000
DSTYLE
1002
{
1070
   147
1040
20.0
1070
    77
1070
     0
1002
}
  0
TEXT
  5
9B4CC
330
18
100
AcDbEntity
  8
NOTE
100
AcDbText
 10
176.4218535005075
 20
185.76670380116
 30
0.0
 40
50.0
  1
D(VP-25) 
 41
0.9
100
AcDbText
  0
CIRCLE
  5
9B4CD
330
18
100
AcDbEntity
  8
DETAIL
100
AcDbCircle
 10
-539.0
 20
-184.9999999999995
 30
0.0
 40
3.399999999999963
1001
REVIT
1002
{
1070
     1
1000
16025
1002
}
1002
{
1070
     2
1000
-2001140
1002
}
  0
LINE
  5
9B4CE
330
18
100
AcDbEntity
  8
NOTE
100
AcDbLine
 10
-539.0
 20
-173.5215772917195
 30
0.0
 11
-539.0
 21
-196.4784227082796
 31
0.0
  0
LINE
  5
9B4CF
330
18
100
AcDbEntity
  8
NOTE
100
AcDbLine
 10
-527.5215772917144
 20
-184.9999999999995
 30
0.0
 11
-550.4784227082855
 21
-184.9999999999995
 31
0.0
  0
LINE
  5
9B4D0
330
18
100
AcDbEntity
  8
SIZE
100
AcDbLine
 10
-535.0000000000004
 20
-394.9999999999991
 30
0.0
 11
-700.4537524293801
 21
-394.9999999999996
 31
0.0
  0
LINE
  5
9B4D1
330
18
100
AcDbEntity
  8
SIZE
100
AcDbLine
 10
-570.478422708286
 20
-184.9999999999986
 30
0.0
 11
-700.4537524293801
 21
-184.9999999999991
 31
0.0
  0
LINE
  5
9B4D2
330
18
100
AcDbEntity
  8
SIZE
100
AcDbLine
 10
-680.4537524293801
 20
-184.9999999999991
 30
0.0
 11
-680.4537524293801
 21
-394.9999999999996
 31
0.0
  0
LINE
  5
9B4D3
330
18
100
AcDbEntity
  8
SIZE
100
AcDbLine
 10
-680.4537524293801
 20
-394.9999999999996
 30
0.0
 11
-680.4537524293801
 21
-550.7142857142853
 31
0.0
  0
CIRCLE
  5
9B4D4
330
18
100
AcDbEntity
  8
SIZE
100
AcDbCircle
 10
-680.4537524293801
 20
-184.9999999999991
 30
0.0
 40
7.500000000000001
  0
CIRCLE
  5
9B4D5
330
18
100
AcDbEntity
  8
SIZE
100
AcDbCircle
 10
-680.4537524293801
 20
-394.9999999999996
 30
0.0
 40
7.5
  0
TEXT
  5
9B4D6
330
18
100
AcDbEntity
  8
SIZE
100
AcDbText
 10
-700.4537524293791
 20
-530.7142857142848
 30
0.0
 40
40.0
  1
210
 50
90.0
 41
0.9
100
AcDbText
  0
LINE
  5
9B4D7
330
18
100
AcDbEntity
  8
SIZE
100
AcDbLine
 10
-564.0
 20
-35.0
 30
0.0
 11
-564.0
 21
374.8151868655855
 31
0.0
  0
LINE
  5
9B4D8
330
18
100
AcDbEntity
  8
SIZE
100
AcDbLine
 10
-539.0
 20
-153.5215772917195
 30
0.0
 11
-539.0
 21
374.8151868655855
 31
0.0
  0
LINE
  5
9B4D9
330
18
100
AcDbEntity
  8
SIZE
100
AcDbLine
 10
-539.0
 20
354.8151868655855
 30
0.0
 11
-509.0
 21
354.8151868655855
 31
0.0
  0
LINE
  5
9B4DA
330
18
100
AcDbEntity
  8
SIZE
100
AcDbLine
 10
-564.0
 20
354.8151868655855
 30
0.0
 11
-747.2857142857142
 21
354.8151868655855
 31
0.0
  0
LINE
  5
9B4DB
330
18
100
AcDbEntity
  8
SIZE
100
AcDbLine
 10
-539.0
 20
354.8151868655855
 30
0.0
 11
-564.0
 21
354.8151868655855
 31
0.0
  0
CIRCLE
  5
9B4DC
330
18
100
AcDbEntity
  8
SIZE
100
AcDbCircle
 10
-539.0
 20
354.8151868655855
 30
0.0
 40
7.5
  0
CIRCLE
  5
9B4DD
330
18
100
AcDbEntity
  8
SIZE
100
AcDbCircle
 10
-564.0
 20
354.8151868655855
 30
0.0
 40
7.5
  0
TEXT
  5
9B4DE
330
18
100
AcDbEntity
  8
SIZE
100
AcDbText
 10
-727.2857142857142
 20
374.8151868655855
 30
0.0
 40
40.0
  1
25
 41
0.9
100
AcDbText
  0
LINE
  5
9B4DF
330
18
100
AcDbEntity
  8
SIZE
100
AcDbLine
 10
515.0
 20
-415.0
 30
0.0
 11
515.0
 21
-597.771560948257
 31
0.0
  0
LINE
  5
9B4E0
330
18
100
AcDbEntity
  8
SIZE
100
AcDbLine
 10
113.0
 20
-86.42857142857337
 30
0.0
 11
112.9999999999999
 21
-597.771560948257
 31
0.0
  0
LINE
  5
9B4E1
330
18
100
AcDbEntity
  8
SIZE
100
AcDbLine
 10
515.0
 20
-577.771560948257
 30
0.0
 11
112.9999999999999
 21
-577.771560948257
 31
0.0
  0
CIRCLE
  5
9B4E2
330
18
100
AcDbEntity
  8
SIZE
100
AcDbCircle
 10
515.0
 20
-577.771560948257
 30
0.0
 40
7.5
  0
CIRCLE
  5
9B4E3
330
18
100
AcDbEntity
  8
SIZE
100
AcDbCircle
 10
112.9999999999999
 20
-577.771560948257
 30
0.0
 40
7.5
  0
TEXT
  5
9B4E4
330
18
100
AcDbEntity
  8
SIZE
100
AcDbText
 10
267.7142857142857
 20
-557.771560948257
 30
0.0
 40
40.0
  1
402
 41
0.9
100
AcDbText
  0
LINE
  5
9B4E5
330
18
100
AcDbEntity
  8
SIZE
100
AcDbLine
 10
515.0
 20
-415.0
 30
0.0
 11
515.0
 21
-747.771560948257
 31
0.0
  0
LINE
  5
9B4E6
330
18
100
AcDbEntity
  8
SIZE
100
AcDbLine
 10
25.0
 20
-292.4285714285706
 30
0.0
 11
24.99999999999995
 21
-747.771560948257
 31
0.0
  0
LINE
  5
9B4E7
330
18
100
AcDbEntity
  8
SIZE
100
AcDbLine
 10
515.0
 20
-727.771560948257
 30
0.0
 11
25.0
 21
-727.771560948257
 31
0.0
  0
CIRCLE
  5
9B4E8
330
18
100
AcDbEntity
  8
SIZE
100
AcDbCircle
 10
515.0
 20
-727.771560948257
 30
0.0
 40
7.5
  0
CIRCLE
  5
9B4E9
330
18
100
AcDbEntity
  8
SIZE
100
AcDbCircle
 10
25.0
 20
-727.771560948257
 30
0.0
 40
7.5
  0
TEXT
  5
9B4EA
330
18
100
AcDbEntity
  8
SIZE
100
AcDbText
 10
223.7142857142857
 20
-707.771560948257
 30
0.0
 40
40.0
  1
490
 41
0.9
100
AcDbText
  0
LINE
  5
9B4EB
330
18
100
AcDbEntity
  8
NOTE
100
AcDbLine
 10
552.2842399554871
 20
-181.926060832428
 30
0.0
 11
539.0
 21
-210.0
 31
0.0
  0
LINE
  5
9B4EC
330
18
100
AcDbEntity
  8
NOTE
100
AcDbLine
 10
539.0
 20
-210.0
 30
0.0
 11
536.467519828062
 21
-179.0451355073514
 31
0.0
  0
LINE
  5
9B4ED
330
18
100
AcDbEntity
  8
NOTE
100
AcDbLine
 10
539.0
 20
-210.0
 30
0.0
 11
544.3758798917745
 21
-180.4855981698897
 31
0.0
  0
LINE
  5
9B4EE
330
18
100
AcDbEntity
  8
NOTE
100
AcDbLine
 10
544.3758798917745
 20
-180.4855981698897
 30
0.0
 11
580.8569066187738
 21
19.80081143593088
 31
0.0
1001
ACAD
1000
DSTYLE
1002
{
1070
   147
1040
20.0
1070
    77
1070
     0
1070
   345
1005
13
1070
   346
1005
13
1070
   347
1005
13
1002
}
  0
LINE
  5
9B4EF
330
18
100
AcDbEntity
  8
NOTE
100
AcDbLine
 10
580.8569066187738
 20
19.80081143593088
 30
0.0
 11
1005.751026007687
 21
19.80081143593088
 31
0.0
1001
ACAD
1000
DSTYLE
1002
{
1070
   147
1040
20.0
1070
    77
1070
     0
1070
   345
1005
13
1070
   346
1005
13
1070
   347
1005
13
1002
}
  0
TEXT
  5
9B4F0
330
18
100
AcDbEntity
  8
NOTE
100
AcDbText
 10
600.0116217180293
 20
40.97042661278919
 30
0.0
 40
50.0
  1
2-%%c3.4取付穴
 41
0.9
100
AcDbText
  0
LINE
  5
9B4F1
330
18
100
AcDbEntity
  8
NOTE
100
AcDbLine
 10
509.8515145846386
 20
-378.6770255698712
 30
0.0
 11
504.9999999999998
 21
-348.0
 31
0.0
  0
LINE
  5
9B4F2
330
18
100
AcDbEntity
  8
NOTE
100
AcDbLine
 10
504.9999999999998
 20
-348.0
 30
0.0
 11
524.5400475525452
 21
-372.1413262523779
 31
0.0
  0
LINE
  5
9B4F3
330
18
100
AcDbEntity
  8
NOTE
100
AcDbLine
 10
504.9999999999998
 20
-348.0
 30
0.0
 11
517.1957810685919
 21
-375.4091759111247
 31
0.0
  0
LINE
  5
9B4F4
330
18
100
AcDbEntity
  8
NOTE
100
AcDbLine
 10
517.1957810685919
 20
-375.4091759111247
 30
0.0
 11
645.0736654366756
 21
-662.8058918798783
 31
0.0
1001
ACAD
1000
DSTYLE
1002
{
1070
   147
1040
10.0
1070
    77
1070
     0
1002
}
  0
LINE
  5
9B4F5
330
18
100
AcDbEntity
  8
NOTE
100
AcDbLine
 10
645.0736654366756
 20
-662.8058918798783
 30
0.0
 11
1206.292143742741
 21
-662.8058918798783
 31
0.0
1001
ACAD
1000
DSTYLE
1002
{
1070
   147
1040
10.0
1070
    77
1070
     0
1002
}
  0
TEXT
  5
9B4F6
330
18
100
AcDbEntity
  8
NOTE
100
AcDbText
 10
663.3989601258027
 20
-640.0111938820487
 30
0.0
 40
50.0
  1
AH(4-M10ボルト)
 41
0.9
100
AcDbText
  0
LINE
  5
9B4F7
330
18
100
AcDbEntity
  8
NOTE
100
AcDbLine
 10
-545.8652909618991
 20
-154.7099872633243
 30
0.0
 11
-539.0
 21
-184.9999999999995
 31
0.0
  0
LINE
  5
9B4F8
330
18
100
AcDbEntity
  8
NOTE
100
AcDbLine
 10
-539.0
 20
-184.9999999999995
 30
0.0
 11
-560.0905226422843
 21
-162.2007248743562
 31
0.0
  0
LINE
  5
9B4F9
330
18
100
AcDbEntity
  8
NOTE
100
AcDbLine
 10
-539.0
 20
-184.9999999999995
 30
0.0
 11
-552.9779068020917
 21
-158.45535606884
 31
0.0
  0
LINE
  5
9B4FA
330
18
100
AcDbEntity
  8
NOTE
100
AcDbLine
 10
-552.9779068020917
 20
-158.45535606884
 30
0.0
 11
-704.7631368133352
 21
129.7912992926512
 31
0.0
1001
ACAD
1000
DSTYLE
1002
{
1070
   147
1040
20.0
1070
    77
1070
     0
1070
   345
1005
13
1070
   346
1005
13
1070
   347
1005
13
1002
}
  0
LINE
  5
9B4FB
330
18
100
AcDbEntity
  8
NOTE
100
AcDbLine
 10
-704.7631368133352
 20
129.7912992926512
 30
0.0
 11
-1146.23938242121
 21
129.7912992926512
 31
0.0
1001
ACAD
1000
DSTYLE
1002
{
1070
   147
1040
20.0
1070
    77
1070
     0
1070
   345
1005
13
1070
   346
1005
13
1070
   347
1005
13
1002
}
  0
TEXT
  5
9B4FC
330
18
100
AcDbEntity
  8
NOTE
100
AcDbText
 10
-1127.084667321955
 20
150.9609144695096
 30
0.0
 40
50.0
  1
2-%%c3.4取付穴
 41
0.9
100
AcDbText
  0
LINE
  5
9B4FD
330
18
100
AcDbEntity
  8
SIZE
100
AcDbLine
 10
564.0
 20
-60.0
 30
0.0
 11
564.0
 21
367.3151868655855
 31
0.0
  0
LINE
  5
9B4FE
330
18
100
AcDbEntity
  8
SIZE
100
AcDbLine
 10
539.0
 20
-178.5215772917199
 30
0.0
 11
539.0
 21
367.3151868655855
 31
0.0
  0
LINE
  5
9B4FF
330
18
100
AcDbEntity
  8
SIZE
100
AcDbLine
 10
539.0
 20
347.3151868655855
 30
0.0
 11
509.0
 21
347.3151868655855
 31
0.0
  0
LINE
  5
9B500
330
18
100
AcDbEntity
  8
SIZE
100
AcDbLine
 10
564.0
 20
347.3151868655855
 30
0.0
 11
722.2857142857143
 21
347.3151868655855
 31
0.0
  0
LINE
  5
9B501
330
18
100
AcDbEntity
  8
SIZE
100
AcDbLine
 10
539.0
 20
347.3151868655855
 30
0.0
 11
564.0
 21
347.3151868655855
 31
0.0
  0
CIRCLE
  5
9B502
330
18
100
AcDbEntity
  8
SIZE
100
AcDbCircle
 10
539.0
 20
347.3151868655855
 30
0.0
 40
7.5
  0
CIRCLE
  5
9B503
330
18
100
AcDbEntity
  8
SIZE
100
AcDbCircle
 10
564.0
 20
347.3151868655855
 30
0.0
 40
7.5
  0
TEXT
  5
9B504
330
18
100
AcDbEntity
  8
SIZE
100
AcDbText
 10
644.0
 20
367.3151868655855
 30
0.0
 40
40.0
  1
25
 41
0.9
100
AcDbText
  0
LINE
  5
9B505
330
18
100
AcDbEntity
  8
SIZE
100
AcDbLine
 10
584.0
 20
-339.9999999999991
 30
0.0
 11
1176.611952801385
 21
-339.9999999999991
 31
0.0
  0
LINE
  5
9B506
330
18
100
AcDbEntity
  8
SIZE
100
AcDbLine
 10
584.0
 20
-79.99999999999909
 30
0.0
 11
1176.611952801385
 21
-79.99999999999909
 31
0.0
  0
LINE
  5
9B507
330
18
100
AcDbEntity
  8
SIZE
100
AcDbLine
 10
1156.611952801385
 20
-339.9999999999991
 30
0.0
 11
1156.611952801385
 21
-79.99999999999909
 31
0.0
  0
LINE
  5
9B508
330
18
100
AcDbEntity
  8
SIZE
100
AcDbLine
 10
1156.611952801385
 20
-79.99999999999909
 30
0.0
 11
1156.611952801385
 21
376.400000000001
 31
0.0
  0
CIRCLE
  5
9B509
330
18
100
AcDbEntity
  8
SIZE
100
AcDbCircle
 10
1156.611952801385
 20
-339.9999999999991
 30
0.0
 40
7.5
  0
CIRCLE
  5
9B50A
330
18
100
AcDbEntity
  8
SIZE
100
AcDbCircle
 10
1156.611952801385
 20
-79.99999999999909
 30
0.0
 40
7.500000000000001
  0
TEXT
  5
9B50B
330
18
100
AcDbEntity
  8
SIZE
100
AcDbText
 10
1143.278619468053
 20
116.9142857142865
 30
0.0
 40
40.0
  1
260
 50
90.0
 41
0.9
100
AcDbText
  0
TEXT
  5
9B50C
330
18
100
AcDbEntity
  8
SIZE
100
AcDbText
 10
1209.945286134719
 20
-46.79999999999973
 30
0.0
 40
40.0
  1
（ダクト寸法：外寸）
 50
90.0
 41
0.9
100
AcDbText
  0
LINE
  5
9B50D
330
18
100
AcDbEntity
  8
SIZE
100
AcDbLine
 10
-584.0000000000004
 20
-54.99999999999909
 30
0.0
 11
-859.4210040338923
 21
-54.99999999999954
 31
0.0
  0
LINE
  5
9B50E
330
18
100
AcDbEntity
  8
SIZE
100
AcDbLine
 10
-584.0000000000004
 20
-314.9999999999991
 30
0.0
 11
-859.4210040338921
 21
-314.9999999999995
 31
0.0
  0
LINE
  5
9B50F
330
18
100
AcDbEntity
  8
SIZE
100
AcDbLine
 10
-839.4210040338924
 20
-54.99999999999954
 30
0.0
 11
-839.421004033892
 21
-314.9999999999995
 31
0.0
  0
LINE
  5
9B510
330
18
100
AcDbEntity
  8
SIZE
100
AcDbLine
 10
-839.421004033892
 20
-314.9999999999995
 30
0.0
 11
-839.421004033892
 21
-771.3999999999994
 31
0.0
  0
CIRCLE
  5
9B511
330
18
100
AcDbEntity
  8
SIZE
100
AcDbCircle
 10
-839.4210040338924
 20
-54.99999999999954
 30
0.0
 40
7.500000000000001
  0
CIRCLE
  5
9B512
330
18
100
AcDbEntity
  8
SIZE
100
AcDbCircle
 10
-839.421004033892
 20
-314.9999999999995
 30
0.0
 40
7.5
  0
TEXT
  5
9B513
330
18
100
AcDbEntity
  8
SIZE
100
AcDbText
 10
-852.7543373672244
 20
-604.485714285714
 30
0.0
 40
40.0
  1
260
 50
90.0
 41
0.9
100
AcDbText
  0
TEXT
  5
9B514
330
18
100
AcDbEntity
  8
SIZE
100
AcDbText
 10
-786.0876707005577
 20
-768.1999999999998
 30
0.0
 40
40.0
  1
（ダクト寸法：外寸）
 50
90.0
 41
0.9
100
AcDbText
  0
LINE
  5
9B515
330
18
100
AcDbEntity
  8
OUTLINE
100
AcDbLine
 10
530.0
 20
-348.0
 30
0.0
 11
529.9999999999998
 21
-388.0
 31
0.0
  0
LINE
  5
9B516
330
18
100
AcDbEntity
  8
OUTLINE
100
AcDbLine
 10
515.0000000000002
 20
-348.0
 30
0.0
 11
530.0
 21
-348.0
 31
0.0
  0
LINE
  5
9B517
330
18
100
AcDbEntity
  8
OUTLINE
100
AcDbLine
 10
529.9999999999998
 20
-388.0
 30
0.0
 11
515.0000000000002
 21
-387.9999999999995
 31
0.0
  0
LINE
  5
9B518
330
18
100
AcDbEntity
  8
OUTLINE
100
AcDbLine
 10
-529.0
 20
-388.0
 30
0.0
 11
-529.0
 21
-348.0
 31
0.0
  0
LINE
  5
9B519
330
18
100
AcDbEntity
  8
OUTLINE
100
AcDbLine
 10
-529.0
 20
-348.0
 30
0.0
 11
-515.0000000000001
 21
-348.0
 31
0.0
  0
LINE
  5
9B51A
330
18
100
AcDbEntity
  8
OUTLINE
100
AcDbLine
 10
-515.0
 20
-388.0
 30
0.0
 11
-529.0
 21
-388.0
 31
0.0
  0
LINE
  5
9B51B
330
18
100
AcDbEntity
  8
OUTLINE
100
AcDbLine
 10
-515.0
 20
-55.0
 30
0.0
 11
-564.0
 21
-55.0
 31
0.0
1001
REVIT
1002
{
1070
     1
1000
9132
1002
}
1002
{
1070
     2
1000
-2001140
1002
}
  0
LINE
  5
9B51C
330
18
100
AcDbEntity
  8
OUTLINE
100
AcDbLine
 10
-515.0
 20
-315.0
 30
0.0
 11
-564.0
 21
-315.0
 31
0.0
1001
REVIT
1002
{
1070
     1
1000
9132
1002
}
1002
{
1070
     2
1000
-2001140
1002
}
  0
LINE
  5
9B51D
330
18
100
AcDbEntity
  8
OUTLINE
100
AcDbLine
 10
-564.0
 20
-315.0
 30
0.0
 11
-564.0
 21
-55.0
 31
0.0
1001
REVIT
1002
{
1070
     1
1000
9132
1002
}
1002
{
1070
     2
1000
-2001140
1002
}
  0
LINE
  5
9B51E
330
18
100
AcDbEntity
  8
OUTLINE
100
AcDbLine
 10
564.0
 20
-340.0
 30
0.0
 11
564.0
 21
-80.0
 31
0.0
1001
REVIT
1002
{
1070
     1
1000
3250
1002
}
1002
{
1070
     2
1000
-2001140
1002
}
  0
LINE
  5
9B51F
330
18
100
AcDbEntity
  8
OUTLINE
100
AcDbLine
 10
564.0
 20
-340.0
 30
0.0
 11
515.0
 21
-340.0
 31
0.0
1001
REVIT
1002
{
1070
     1
1000
3250
1002
}
1002
{
1070
     2
1000
-2001140
1002
}
  0
LINE
  5
9B520
330
18
100
AcDbEntity
  8
OUTLINE
100
AcDbLine
 10
515.0
 20
-80.0
 30
0.0
 11
564.0
 21
-80.0
 31
0.0
1001
REVIT
1002
{
1070
     1
1000
3250
1002
}
1002
{
1070
     2
1000
-2001140
1002
}
  0
LINE
  5
9B521
330
18
100
AcDbEntity
  8
OUTLINE
100
AcDbLine
 10
515.0000000000002
 20
-348.0
 30
0.0
 11
515.0000000000002
 21
0.0
 31
0.0
1001
REVIT
1002
{
1070
     1
1000
3165
1002
}
1002
{
1070
     2
1000
-2001140
1002
}
  0
LINE
  5
9B522
330
18
100
AcDbEntity
  8
OUTLINE
100
AcDbLine
 10
515.0000000000002
 20
-395.0
 30
0.0
 11
515.0000000000002
 21
-387.9999999999995
 31
0.0
1001
REVIT
1002
{
1070
     1
1000
3165
1002
}
1002
{
1070
     2
1000
-2001140
1002
}
  0
LINE
  5
9B523
330
18
100
AcDbEntity
  8
OUTLINE
100
AcDbLine
 10
-515.0000000000001
 20
-348.0
 30
0.0
 11
-515.0
 21
0.0
 31
0.0
1001
REVIT
1002
{
1070
     1
1000
3165
1002
}
1002
{
1070
     2
1000
-2001140
1002
}
  0
LINE
  5
9B524
330
18
100
AcDbEntity
  8
OUTLINE
100
AcDbLine
 10
-515.0
 20
-395.0
 30
0.0
 11
-515.0
 21
-388.0
 31
0.0
1001
REVIT
1002
{
1070
     1
1000
3165
1002
}
1002
{
1070
     2
1000
-2001140
1002
}
  0
LINE
  5
9B525
330
18
100
AcDbEntity
  8
OUTLINE
100
AcDbLine
 10
515.0
 20
-395.0
 30
0.0
 11
-515.0
 21
-395.0
 31
0.0
1001
REVIT
1002
{
1070
     1
1000
3165
1002
}
1002
{
1070
     2
1000
-2001140
1002
}
  0
LINE
  5
9B526
330
18
100
AcDbEntity
  8
OUTLINE
100
AcDbLine
 10
-515.0
 20
0.0
 30
0.0
 11
515.0
 21
0.0
 31
0.0
1001
REVIT
1002
{
1070
     1
1000
3165
1002
}
1002
{
1070
     2
1000
-2001140
1002
}
  0
ENDSEC
  0
SECTION
  2
OBJECTS
  0
DICTIONARY
  5
C
330
0
100
AcDbDictionary
281
     1
  3
ACAD_CIP_PREVIOUS_PRODUCT_INFO
350
70D0E
  3
ACAD_COLOR
350
513F9
  3
ACAD_DETAILVIEWSTYLE
350
9B345
  3
ACAD_GROUP
350
D
  3
ACAD_LAYOUT
350
21F1
  3
ACAD_MATERIAL
350
513CF
  3
ACAD_MLEADERSTYLE
350
5141E
  3
ACAD_MLINESTYLE
350
1B
  3
ACAD_PLOTSETTINGS
350
21F2
  3
ACAD_PLOTSTYLENAME
350
21EF
  3
ACAD_SCALELIST
350
513FC
  3
ACAD_SECTIONVIEWSTYLE
350
9B343
  3
ACAD_TABLESTYLE
350
513FA
  3
ACAD_VISUALSTYLE
350
513E8
  3
AcadDim
350
956CE
  3
ACDB_RECOMPOSE_DATA
350
9B52B
  3
AcDbVariableDictionary
350
28B1
  3
DWGPROPS
350
9B52C
  0
DICTIONARY
  5
70D15
330
8
100
AcDbDictionary
280
     1
281
     1
  0
DICTIONARY
  5
5148D
330
2
100
AcDbDictionary
280
     1
281
     1
  3
ACAD_LAYERFILTERS
360
6ADDC
  3
ACAD_LAYERSTATES
360
6B6C9
  3
ACLYDICTIONARY
360
6ADDB
  0
DICTIONARY
  5
5144C
330
E
100
AcDbDictionary
280
     1
281
     1
  3
ADSK_XREC_LAYER_RECONCILED
360
5144D
  0
DICTIONARY
  5
5144E
330
25
100
AcDbDictionary
280
     1
281
     1
  3
ADSK_XREC_LAYER_RECONCILED
360
5144F
  0
DICTIONARY
  5
51450
330
26
100
AcDbDictionary
280
     1
281
     1
  3
ADSK_XREC_LAYER_RECONCILED
360
51451
  0
DICTIONARY
  5
51452
330
27
100
AcDbDictionary
280
     1
281
     1
  3
ADSK_XREC_LAYER_RECONCILED
360
51453
  0
DICTIONARY
  5
51454
330
28
100
AcDbDictionary
280
     1
281
     1
  3
ADSK_XREC_LAYER_RECONCILED
360
51455
  0
DICTIONARY
  5
51456
330
29
100
AcDbDictionary
280
     1
281
     1
  3
ADSK_XREC_LAYER_RECONCILED
360
51457
  0
DICTIONARY
  5
51458
330
2B
100
AcDbDictionary
280
     1
281
     1
  3
ADSK_XREC_LAYER_RECONCILED
360
51459
  0
DICTIONARY
  5
5145A
330
2C
100
AcDbDictionary
280
     1
281
     1
  3
ADSK_XREC_LAYER_RECONCILED
360
5145B
  0
DICTIONARY
  5
5145C
330
2D
100
AcDbDictionary
280
     1
281
     1
  3
ADSK_XREC_LAYER_RECONCILED
360
5145D
  0
DICTIONARY
  5
85434
330
85433
100
AcDbDictionary
280
     1
281
     1
  0
DICTIONARY
  5
85436
330
85435
100
AcDbDictionary
280
     1
281
     1
  0
DICTIONARY
  5
28B3
330
18
100
AcDbDictionary
280
     1
281
     1
  3
ACAD_LAYOUTSELFREF
360
2DF14
  3
ACAD_SORTENTS
360
28B4
  0
DICTIONARY
  5
29B6
330
15
100
AcDbDictionary
280
     1
281
     1
  3
ACAD_LAYOUTSELFREF
360
2DF13
  0
DICTIONARY
  5
990CA
330
4C0C3
100
AcDbDictionary
280
     1
281
     1
  0
DICTIONARY
  5
9B439
330
9B352
100
AcDbDictionary
280
     1
281
     1
  3
ACAD_SORTENTS
360
9B43A
  0
XRECORD
  5
70D0E
102
{ACAD_REACTORS
330
C
102
}
330
C
100
AcDbXrecord
280
     1
300
ACDLT
300
2018
300
86831ACDLT_2018_0F
  0
DICTIONARY
  5
513F9
102
{ACAD_REACTORS
330
C
102
}
330
C
100
AcDbDictionary
281
     1
  0
DICTIONARY
  5
9B345
102
{ACAD_REACTORS
330
C
102
}
330
C
100
AcDbDictionary
281
     1
  3
Imperial24
350
9B346
  0
DICTIONARY
  5
D
102
{ACAD_REACTORS
330
C
102
}
330
C
100
AcDbDictionary
281
     1
  0
DICTIONARY
  5
21F1
102
{ACAD_REACTORS
330
C
102
}
330
C
100
AcDbDictionary
281
     1
  3
Model
350
21F3
  3
ﾚｲｱｳﾄ1
350
21F4
  0
DICTIONARY
  5
513CF
102
{ACAD_REACTORS
330
C
102
}
330
C
100
AcDbDictionary
281
     1
  3
ByBlock
350
513D8
  3
ByLayer
350
513D0
  3
Global
350
513E0
  0
DICTIONARY
  5
5141E
102
{ACAD_REACTORS
330
C
102
}
330
C
100
AcDbDictionary
281
     1
  3
Standard
350
5141F
  0
DICTIONARY
  5
1B
102
{ACAD_REACTORS
330
C
102
}
330
C
100
AcDbDictionary
281
     1
  3
STANDARD
350
1C
  0
DICTIONARY
  5
21F2
102
{ACAD_REACTORS
330
C
102
}
330
C
100
AcDbDictionary
281
     1
  0
ACDBDICTIONARYWDFLT
  5
21EF
102
{ACAD_REACTORS
330
C
102
}
330
C
100
AcDbDictionary
281
     1
  3
Normal
350
21F0
100
AcDbDictionaryWithDefault
340
21F0
  0
DICTIONARY
  5
513FC
102
{ACAD_REACTORS
330
C
102
}
330
C
100
AcDbDictionary
281
     1
  3
A0
350
513FD
  3
A1
350
513FE
  3
A2
350
513FF
  3
A3
350
51400
  3
A4
350
51401
  3
A5
350
51402
  3
A6
350
51403
  3
A7
350
51404
  3
A8
350
51405
  3
A9
350
51406
  3
B0
350
51407
  3
B1
350
51408
  3
B2
350
51409
  3
B3
350
5140A
  3
B4
350
5140B
  3
B5
350
5140C
  3
B6
350
5140D
  3
B7
350
5140E
  3
B8
350
5140F
  3
B9
350
51410
  3
C0
350
51411
  3
C1
350
51412
  3
C2
350
51413
  3
C3
350
51414
  3
C4
350
51415
  3
C5
350
51416
  3
C6
350
51417
  3
C7
350
51418
  3
C8
350
51419
  3
C9
350
5141A
  3
D0
350
5141B
  3
D1
350
5141C
  3
D2
350
5141D
  0
DICTIONARY
  5
9B343
102
{ACAD_REACTORS
330
C
102
}
330
C
100
AcDbDictionary
281
     1
  3
Imperial24
350
9B344
  0
DICTIONARY
  5
513FA
102
{ACAD_REACTORS
330
C
102
}
330
C
100
AcDbDictionary
281
     1
  3
Standard
350
513FB
  0
DICTIONARY
  5
513E8
102
{ACAD_REACTORS
330
C
102
}
330
C
100
AcDbDictionary
281
     1
  3
2dWireframe
350
513EE
  3
3D Hidden
350
513F0
  3
3dWireframe
350
513EF
  3
Basic
350
513ED
  3
Brighten
350
513F4
  3
ColorChange
350
513F8
  3
Conceptual
350
513F1
  3
Dim
350
513F3
  3
EdgeColorOff
350
70D09
  3
Facepattern
350
513F7
  3
Flat
350
513E9
  3
FlatWithEdges
350
513EA
  3
Gouraud
350
513EB
  3
GouraudWithEdges
350
513EC
  3
Hidden
350
70D01
  3
JitterOff
350
70D07
  3
Linepattern
350
513F6
  3
OverhangOff
350
70D08
  3
Realistic
350
513F2
  3
Shaded
350
70D06
  3
Shaded with edges
350
70D05
  3
Shades of Gray
350
70D02
  3
Sketchy
350
70D03
  3
Thicken
350
513F5
  3
Wireframe
350
70D00
  3
X-Ray
350
70D04
  0
XRECORD
  5
956CE
102
{ACAD_REACTORS
330
C
102
}
330
C
100
AcDbXrecord
280
     1
 90
   990106
  3

 60
     0
 61
     0
 62
     1
 63
     3
 64
     0
 65
     0
 66
     0
 67
     3
 68
     1
 69
     0
 70
     0
 71
     0
 72
     0
 40
0.0
170
     0
  0
XRECORD
  5
9B52B
102
{ACAD_REACTORS
330
C
102
}
330
C
100
AcDbXrecord
280
     1
 90
        1
330
513FB
  0
DICTIONARY
  5
28B1
102
{ACAD_REACTORS
330
C
102
}
330
C
100
AcDbDictionary
281
     1
  3
CANNOSCALE
350
51480
  3
CMLEADERSTYLE
350
5147E
  3
CTABLESTYLE
350
5147D
  3
CVIEWDETAILSTYLE
350
9B527
  3
CVIEWSECTIONSTYLE
350
9B528
  3
DIMASSOC
350
5135B
  3
INDEXCTL
350
70D55
  3
LIGHTINGUNITS
350
51481
  3
MSLTSCALE
350
5147F
  3
SOLIDHIST
350
70D57
  3
SORTENTS
350
28B2
  3
XCLIPFRAME
350
9B529
  0
XRECORD
  5
9B52C
102
{ACAD_REACTORS
330
C
102
}
330
C
100
AcDbXrecord
280
     1
  1
DWGPROPS COOKIE
  2

  3

  4

  6

  7

  8
prohiokamot
  9

300
=
301
=
302
=
303
=
304
=
305
=
306
=
307
=
308
=
309
=
 40
1.696838680555555
 41
2455902.607164352
 42
2457751.361967593
  1

 90
        0
  0
DICTIONARY
  5
6ADDC
102
{ACAD_REACTORS
330
5148D
102
}
330
5148D
100
AcDbDictionary
281
     1
  0
DICTIONARY
  5
6B6C9
102
{ACAD_REACTORS
330
5148D
102
}
330
5148D
100
AcDbDictionary
281
     1
  0
DICTIONARY
  5
6ADDB
102
{ACAD_REACTORS
330
5148D
102
}
330
5148D
100
AcDbDictionary
281
     1
1001
ACAD
1000
<All
  0
XRECORD
  5
5144D
102
{ACAD_REACTORS
330
5144C
102
}
330
5144C
100
AcDbXrecord
280
     1
290
     1
  0
XRECORD
  5
5144F
102
{ACAD_REACTORS
330
5144E
102
}
330
5144E
100
AcDbXrecord
280
     1
290
     1
  0
XRECORD
  5
51451
102
{ACAD_REACTORS
330
51450
102
}
330
51450
100
AcDbXrecord
280
     1
290
     1
  0
XRECORD
  5
51453
102
{ACAD_REACTORS
330
51452
102
}
330
51452
100
AcDbXrecord
280
     1
290
     1
  0
XRECORD
  5
51455
102
{ACAD_REACTORS
330
51454
102
}
330
51454
100
AcDbXrecord
280
     1
290
     1
  0
XRECORD
  5
51457
102
{ACAD_REACTORS
330
51456
102
}
330
51456
100
AcDbXrecord
280
     1
290
     1
  0
XRECORD
  5
51459
102
{ACAD_REACTORS
330
51458
102
}
330
51458
100
AcDbXrecord
280
     1
290
     1
  0
XRECORD
  5
5145B
102
{ACAD_REACTORS
330
5145A
102
}
330
5145A
100
AcDbXrecord
280
     1
290
     1
  0
XRECORD
  5
5145D
102
{ACAD_REACTORS
330
5145C
102
}
330
5145C
100
AcDbXrecord
280
     1
290
     1
  0
XRECORD
  5
2DF14
102
{ACAD_REACTORS
330
28B3
102
}
330
28B3
100
AcDbXrecord
280
     1
340
18
  0
SORTENTSTABLE
  5
28B4
102
{ACAD_REACTORS
330
28B3
102
}
330
28B3
100
AcDbSortentsTable
330
18
331
9B4E8
  5
9B4E8
331
9B51B
  5
9B51B
331
9B50A
  5
9B50A
331
9B4F9
  5
9B4F9
331
9B460
  5
9B460
331
9B4DF
  5
9B4DF
331
9B4CE
  5
9B4CE
331
9B4BD
  5
9B4BD
331
9B4AC
  5
9B4AC
331
9B48A
  5
9B48A
331
9B47D
  5
9B47D
331
9B453
  5
9B453
331
9B49F
  5
9B49F
331
9B44E
  5
9B44E
331
9B4F8
  5
9B4F8
331
9B51A
  5
9B51A
331
9B4EB
  5
9B4EB
331
9B50D
  5
9B50D
331
9B4DE
  5
9B4DE
331
9B4BC
  5
9B4BC
331
9B4AF
  5
9B4AF
331
9B49E
  5
9B49E
331
9B48D
  5
9B48D
331
9B47C
  5
9B47C
331
9B463
  5
9B463
331
9B452
  5
9B452
331
9B441
  5
9B441
331
9B4EA
  5
9B4EA
331
9B491
  5
9B491
331
9B51D
  5
9B51D
331
9B50C
  5
9B50C
331
9B4FB
  5
9B4FB
331
9B462
  5
9B462
331
9B4D1
  5
9B4D1
331
9B4BF
  5
9B4BF
331
9B4AE
  5
9B4AE
331
9B48C
  5
9B48C
331
9B47F
  5
9B47F
331
9B455
  5
9B455
331
9B4FA
  5
9B4FA
331
9B4A1
  5
9B4A1
331
9B490
  5
9B490
331
9B51C
  5
9B51C
331
9B4ED
  5
9B4ED
331
9B50F
  5
9B50F
331
9B4E1
  5
9B4E1
331
9B4D0
  5
9B4D0
331
9B4BE
  5
9B4BE
331
9B48F
  5
9B48F
331
9B47E
  5
9B47E
331
9B465
  5
9B465
331
9B454
  5
9B454
331
9B443
  5
9B443
331
9B4A0
  5
9B4A0
331
9B471
  5
9B471
331
9B4EC
  5
9B4EC
331
9B493
  5
9B493
331
9B51F
  5
9B51F
331
9B50E
  5
9B50E
331
9B4FD
  5
9B4FD
331
9B464
  5
9B464
331
9B4E0
  5
9B4E0
331
9B4D3
  5
9B4D3
331
9B4B1
  5
9B4B1
331
9B48E
  5
9B48E
331
9B457
  5
9B457
331
9B442
  5
9B442
331
9B4FC
  5
9B4FC
331
9B4A3
  5
9B4A3
331
9B492
  5
9B492
331
9B481
  5
9B481
331
9B470
  5
9B470
331
9B51E
  5
9B51E
331
9B4EF
  5
9B4EF
331
9B4E3
  5
9B4E3
331
9B4D2
  5
9B4D2
331
9B4C1
  5
9B4C1
331
9B4B0
  5
9B4B0
331
9B467
  5
9B467
331
9B456
  5
9B456
331
9B445
  5
9B445
331
9B4A2
  5
9B4A2
331
9B480
  5
9B480
331
9B473
  5
9B473
331
9B4EE
  5
9B4EE
331
9B495
  5
9B495
331
9B4FF
  5
9B4FF
331
9B511
  5
9B511
331
9B4E2
  5
9B4E2
331
9B4C0
  5
9B4C0
331
9B4D5
  5
9B4D5
331
9B4B3
  5
9B4B3
331
9B466
  5
9B466
331
9B444
  5
9B444
331
9B4FE
  5
9B4FE
331
9B4A5
  5
9B4A5
331
9B494
  5
9B494
331
9B483
  5
9B483
331
9B472
  5
9B472
331
9B510
  5
9B510
331
9B4E5
  5
9B4E5
331
9B4D4
  5
9B4D4
331
9B4C3
  5
9B4C3
331
9B4B2
  5
9B4B2
331
9B459
  5
9B459
331
9B447
  5
9B447
331
9B521
  5
9B521
331
9B4A4
  5
9B4A4
331
9B482
  5
9B482
331
9B475
  5
9B475
331
9B497
  5
9B497
331
9B4F1
  5
9B4F1
331
9B513
  5
9B513
331
9B4E4
  5
9B4E4
331
9B4C2
  5
9B4C2
331
9B4D7
  5
9B4D7
331
9B4B5
  5
9B4B5
331
9B469
  5
9B469
331
9B458
  5
9B458
331
9B446
  5
9B446
331
9B520
  5
9B520
331
9B4F0
  5
9B4F0
331
9B4A7
  5
9B4A7
331
9B496
  5
9B496
331
9B485
  5
9B485
331
9B474
  5
9B474
331
9B512
  5
9B512
331
9B501
  5
9B501
331
9B468
  5
9B468
331
9B4E7
  5
9B4E7
331
9B4D6
  5
9B4D6
331
9B4C5
  5
9B4C5
331
9B4B4
  5
9B4B4
331
9B45B
  5
9B45B
331
9B523
  5
9B523
331
9B4C9
  5
9B4C9
331
9B4A6
  5
9B4A6
331
9B484
  5
9B484
331
9B500
  5
9B500
331
9B477
  5
9B477
331
9B4F3
  5
9B4F3
331
9B515
  5
9B515
331
9B4E6
  5
9B4E6
331
9B4C4
  5
9B4C4
331
9B4B7
  5
9B4B7
331
9B46B
  5
9B46B
331
9B45A
  5
9B45A
331
9B449
  5
9B449
331
9B522
  5
9B522
331
9B4D9
  5
9B4D9
331
9B4C8
  5
9B4C8
331
9B487
  5
9B487
331
9B476
  5
9B476
331
9B4F2
  5
9B4F2
331
9B499
  5
9B499
331
9B514
  5
9B514
331
9B503
  5
9B503
331
9B46A
  5
9B46A
331
9B4C7
  5
9B4C7
331
9B4B6
  5
9B4B6
331
9B45D
  5
9B45D
331
9B448
  5
9B448
331
9B4D8
  5
9B4D8
331
9B525
  5
9B525
331
9B4CB
  5
9B4CB
331
9B4A9
  5
9B4A9
331
9B502
  5
9B502
331
9B498
  5
9B498
331
9B486
  5
9B486
331
9B4F5
  5
9B4F5
331
9B517
  5
9B517
331
9B4C6
  5
9B4C6
331
9B46D
  5
9B46D
331
9B45C
  5
9B45C
331
9B44B
  5
9B44B
331
9B524
  5
9B524
331
9B4DB
  5
9B4DB
331
9B4CA
  5
9B4CA
331
9B4B9
  5
9B4B9
331
9B4A8
  5
9B4A8
331
9B479
  5
9B479
331
9B4F4
  5
9B4F4
331
9B49B
  5
9B49B
331
9B516
  5
9B516
331
9B505
  5
9B505
331
9B46C
  5
9B46C
331
9B45F
  5
9B45F
331
9B44A
  5
9B44A
331
9B509
  5
9B509
331
9B4DA
  5
9B4DA
331
9B4B8
  5
9B4B8
331
9B4CD
  5
9B4CD
331
9B4AB
  5
9B4AB
331
9B504
  5
9B504
331
9B49A
  5
9B49A
331
9B489
  5
9B489
331
9B478
  5
9B478
331
9B4F7
  5
9B4F7
331
9B46F
  5
9B46F
331
9B45E
  5
9B45E
331
9B44D
  5
9B44D
331
9B519
  5
9B519
331
9B508
  5
9B508
331
9B526
  5
9B526
331
9B4DD
  5
9B4DD
331
9B4CC
  5
9B4CC
331
9B4BB
  5
9B4BB
331
9B4AA
  5
9B4AA
331
9B488
  5
9B488
331
9B47B
  5
9B47B
331
9B451
  5
9B451
331
9B4F6
  5
9B4F6
331
9B49D
  5
9B49D
331
9B507
  5
9B507
331
9B46E
  5
9B46E
331
9B44C
  5
9B44C
331
9B518
  5
9B518
331
9B4E9
  5
9B4E9
331
9B50B
  5
9B50B
331
9B4DC
  5
9B4DC
331
9B4BA
  5
9B4BA
331
9B4CF
  5
9B4CF
331
9B4AD
  5
9B4AD
331
9B506
  5
9B506
331
9B49C
  5
9B49C
331
9B48B
  5
9B48B
331
9B47A
  5
9B47A
331
9B461
  5
9B461
331
9B450
  5
9B450
331
9B44F
  5
9B44F
  0
XRECORD
  5
2DF13
102
{ACAD_REACTORS
330
29B6
102
}
330
29B6
100
AcDbXrecord
280
     1
340
15
  0
SORTENTSTABLE
  5
9B43A
102
{ACAD_REACTORS
330
9B439
102
}
330
9B439
100
AcDbSortentsTable
330
9B352
  0
ACDBDETAILVIEWSTYLE
  5
9B346
102
{ACAD_XDICTIONARY
360
9B56B
102
}
102
{ACAD_REACTORS
330
9B345
102
}
330
9B345
100
AcDbModelDocViewStyle
 70
     0
  3
Imperial24
290
     0
100
AcDbDetailViewStyle
 70
     0
 71
     0
 90
        3
 71
     1
340
F
 40
0.24
340
0
 40
0.24
300

 40
0.36
280
     3
 71
     2
340
14
 90
       25
 71
     3
340
F
 40
0.24
 90
        1
 40
0.75
 90
        1
300
%<\AcVar ViewType \f "%tc1">% %<\AcVar ViewDetailId>%\PSCALE %<\AcVar ViewScale \f "%sn">%
 71
     4
340
14
 90
       25
340
14
 90
       25
280
     0
  0
LAYOUT
  5
21F3
102
{ACAD_XDICTIONARY
360
9B52D
102
}
102
{ACAD_REACTORS
330
21F1
102
}
330
21F1
100
AcDbPlotSettings
  1

  2
OKI MICROLINE Pro 930PS-X(PS)
  4
A3
  6
ALL
 40
5.365749835968017
 41
5.70440673828125
 42
5.4080810546875
 43
5.74676513671875
 44
297.0530090332031
 45
420.1583251953125
 46
3.360748538846422
 47
0.0
 48
0.0
 49
0.0
140
0.0
141
0.0
142
1.0
143
28.03442403824817
 70
 28340
 72
     1
 73
     1
 74
     2
  7
monochrome.ctb
 75
     0
147
0.0356704314180192
148
4267.152221060482
149
2696.083210198413
100
AcDbLayout
  1
Model
 70
     1
 71
     0
 10
0.0
 20
0.0
 11
12.0
 21
9.0
 12
0.0
 22
0.0
 32
0.0
 14
0.0
 24
0.0
 34
0.0
 15
0.0
 25
0.0
 35
0.0
146
0.0
 13
0.0
 23
0.0
 33
0.0
 16
1.0
 26
0.0
 36
0.0
 17
0.0
 27
1.0
 37
0.0
 76
     0
330
18
331
513CD
1001
ACAD_PSEXT
1000
OKI MICROLINE Pro 930PS-X(PS)
1000
OKI MICROLINE Pro 930PS-X(PS)
1000
IP_10.130.24.50コピー1
1000

1070
     0
  0
LAYOUT
  5
21F4
102
{ACAD_XDICTIONARY
360
9B52F
102
}
102
{ACAD_REACTORS
330
21F1
102
}
330
21F1
100
AcDbPlotSettings
  1

  2
DocuCentre 505
  4

  6

 40
0.0
 41
0.0
 42
0.0
 43
0.0
 44
0.0
 45
0.0
 46
0.0
 47
0.0
 48
0.0
 49
0.0
140
0.0
141
0.0
142
1.0
143
1.0
 70
   688
 72
     0
 73
     0
 74
     5
  7
monochrome.ctb
 75
    16
147
1.0
148
0.0
149
0.0
100
AcDbLayout
  1
ﾚｲｱｳﾄ1
 70
     1
 71
     1
 10
0.0
 20
0.0
 11
12.0
 21
9.0
 12
0.0
 22
0.0
 32
0.0
 14
1.000000000000000E+20
 24
1.000000000000000E+20
 34
1.000000000000000E+20
 15
-1.000000000000000E+20
 25
-1.000000000000000E+20
 35
-1.000000000000000E+20
146
0.0
 13
0.0
 23
0.0
 33
0.0
 16
1.0
 26
0.0
 36
0.0
 17
0.0
 27
1.0
 37
0.0
 76
     0
330
15
  0
MATERIAL
  5
513D8
102
{ACAD_XDICTIONARY
360
513D9
102
}
102
{ACAD_REACTORS
330
513CF
102
}
330
513CF
100
AcDbMaterial
  1
ByBlock
 72
     0
 43
0.0208333333333333
 43
0.0
 43
0.0
 43
0.0
 43
0.0
 43
0.0208333333333333
 43
0.0
 43
0.0
 43
0.0
 43
0.0
 43
1.0
 43
0.0
 43
0.0
 43
0.0
 43
0.0
 43
1.0
 77
     0
 47
0.0208333333333333
 47
0.0
 47
0.0
 47
0.0
 47
0.0
 47
0.0208333333333333
 47
0.0
 47
0.0
 47
0.0
 47
0.0
 47
1.0
 47
0.0
 47
0.0
 47
0.0
 47
0.0
 47
1.0
171
     0
 49
0.0208333333333333
 49
0.0
 49
0.0
 49
0.0
 49
0.0
 49
0.0208333333333333
 49
0.0
 49
0.0
 49
0.0
 49
0.0
 49
1.0
 49
0.0
 49
0.0
 49
0.0
 49
0.0
 49
1.0
175
     0
142
0.0208333333333333
142
0.0
142
0.0
142
0.0
142
0.0
142
0.0208333333333333
142
0.0
142
0.0
142
0.0
142
0.0
142
1.0
142
0.0
142
0.0
142
0.0
142
0.0
142
1.0
179
     0
144
0.0208333333333333
144
0.0
144
0.0
144
0.0
144
0.0
144
0.0208333333333333
144
0.0
144
0.0
144
0.0
144
0.0
144
1.0
144
0.0
144
0.0
144
0.0
144
0.0
144
1.0
147
0.0208333333333333
147
0.0
147
0.0
147
0.0
147
0.0
147
0.0208333333333333
147
0.0
147
0.0
147
0.0
147
0.0
147
1.0
147
0.0
147
0.0
147
0.0
147
0.0
147
1.0
  0
MATERIAL
  5
513D0
102
{ACAD_XDICTIONARY
360
513D1
102
}
102
{ACAD_REACTORS
330
513CF
102
}
330
513CF
100
AcDbMaterial
  1
ByLayer
 72
     0
 43
0.0208333333333333
 43
0.0
 43
0.0
 43
0.0
 43
0.0
 43
0.0208333333333333
 43
0.0
 43
0.0
 43
0.0
 43
0.0
 43
1.0
 43
0.0
 43
0.0
 43
0.0
 43
0.0
 43
1.0
 77
     0
 47
0.0208333333333333
 47
0.0
 47
0.0
 47
0.0
 47
0.0
 47
0.0208333333333333
 47
0.0
 47
0.0
 47
0.0
 47
0.0
 47
1.0
 47
0.0
 47
0.0
 47
0.0
 47
0.0
 47
1.0
171
     0
 49
0.0208333333333333
 49
0.0
 49
0.0
 49
0.0
 49
0.0
 49
0.0208333333333333
 49
0.0
 49
0.0
 49
0.0
 49
0.0
 49
1.0
 49
0.0
 49
0.0
 49
0.0
 49
0.0
 49
1.0
175
     0
142
0.0208333333333333
142
0.0
142
0.0
142
0.0
142
0.0
142
0.0208333333333333
142
0.0
142
0.0
142
0.0
142
0.0
142
1.0
142
0.0
142
0.0
142
0.0
142
0.0
142
1.0
179
     0
144
0.0208333333333333
144
0.0
144
0.0
144
0.0
144
0.0
144
0.0208333333333333
144
0.0
144
0.0
144
0.0
144
0.0
144
1.0
144
0.0
144
0.0
144
0.0
144
0.0
144
1.0
147
0.0208333333333333
147
0.0
147
0.0
147
0.0
147
0.0
147
0.0208333333333333
147
0.0
147
0.0
147
0.0
147
0.0
147
1.0
147
0.0
147
0.0
147
0.0
147
0.0
147
1.0
  0
MATERIAL
  5
513E0
102
{ACAD_XDICTIONARY
360
513E1
102
}
102
{ACAD_REACTORS
330
513CF
102
}
330
513CF
100
AcDbMaterial
  1
Global
 72
     0
 43
0.0208333333333333
 43
0.0
 43
0.0
 43
0.0
 43
0.0
 43
0.0208333333333333
 43
0.0
 43
0.0
 43
0.0
 43
0.0
 43
1.0
 43
0.0
 43
0.0
 43
0.0
 43
0.0
 43
1.0
 77
     0
 47
0.0208333333333333
 47
0.0
 47
0.0
 47
0.0
 47
0.0
 47
0.0208333333333333
 47
0.0
 47
0.0
 47
0.0
 47
0.0
 47
1.0
 47
0.0
 47
0.0
 47
0.0
 47
0.0
 47
1.0
171
     0
 49
0.0208333333333333
 49
0.0
 49
0.0
 49
0.0
 49
0.0
 49
0.0208333333333333
 49
0.0
 49
0.0
 49
0.0
 49
0.0
 49
1.0
 49
0.0
 49
0.0
 49
0.0
 49
0.0
 49
1.0
175
     0
142
0.0208333333333333
142
0.0
142
0.0
142
0.0
142
0.0
142
0.0208333333333333
142
0.0
142
0.0
142
0.0
142
0.0
142
1.0
142
0.0
142
0.0
142
0.0
142
0.0
142
1.0
179
     0
144
0.0208333333333333
144
0.0
144
0.0
144
0.0
144
0.0
144
0.0208333333333333
144
0.0
144
0.0
144
0.0
144
0.0
144
1.0
144
0.0
144
0.0
144
0.0
144
0.0
144
1.0
147
0.0208333333333333
147
0.0
147
0.0
147
0.0
147
0.0
147
0.0208333333333333
147
0.0
147
0.0
147
0.0
147
0.0
147
1.0
147
0.0
147
0.0
147
0.0
147
0.0
147
1.0
  0
MLEADERSTYLE
  5
5141F
102
{ACAD_REACTORS
330
5141E
102
}
330
5141E
100
AcDbMLeaderStyle
170
     2
171
     1
172
     0
 90
        2
 40
0.0
 41
0.0
173
     1
 91
-1056964608
340
12
 92
       -2
290
     1
 42
0.09
291
     1
 43
0.36
  3
Standard
 44
0.18
300

342
F
174
     1
178
     6
175
     1
176
     0
 93
-1056964608
 45
0.18
292
     0
297
     0
 46
0.18
 94
-1056964608
 47
1.0
 49
1.0
140
1.0
293
     1
141
0.0
294
     1
177
     0
142
1.0
295
     0
296
     0
143
0.125
1001
ACAD_MLEADERVER
1070
     2
  0
MLINESTYLE
  5
1C
102
{ACAD_REACTORS
330
1B
102
}
330
1B
100
AcDbMlineStyle
  2
STANDARD
 70
     0
  3

 62
   256
 51
90.0
 52
90.0
 71
     2
 49
0.5
 62
   256
  6
BYLAYER
 49
-0.5
 62
   256
  6
BYLAYER
  0
ACDBPLACEHOLDER
  5
21F0
102
{ACAD_REACTORS
330
21EF
102
}
330
21EF
  0
SCALE
  5
513FD
102
{ACAD_REACTORS
330
513FC
102
}
330
513FC
100
AcDbScale
 70
     0
300
1:1
140
1.0
141
1.0
290
     1
  0
SCALE
  5
513FE
102
{ACAD_REACTORS
330
513FC
102
}
330
513FC
100
AcDbScale
 70
     0
300
1:2
140
1.0
141
2.0
290
     0
  0
SCALE
  5
513FF
102
{ACAD_REACTORS
330
513FC
102
}
330
513FC
100
AcDbScale
 70
     0
300
1:4
140
1.0
141
4.0
290
     0
  0
SCALE
  5
51400
102
{ACAD_REACTORS
330
513FC
102
}
330
513FC
100
AcDbScale
 70
     0
300
1:5
140
1.0
141
5.0
290
     0
  0
SCALE
  5
51401
102
{ACAD_REACTORS
330
513FC
102
}
330
513FC
100
AcDbScale
 70
     0
300
1:8
140
1.0
141
8.0
290
     0
  0
SCALE
  5
51402
102
{ACAD_REACTORS
330
513FC
102
}
330
513FC
100
AcDbScale
 70
     0
300
1:10
140
1.0
141
10.0
290
     0
  0
SCALE
  5
51403
102
{ACAD_REACTORS
330
513FC
102
}
330
513FC
100
AcDbScale
 70
     0
300
1:16
140
1.0
141
16.0
290
     0
  0
SCALE
  5
51404
102
{ACAD_REACTORS
330
513FC
102
}
330
513FC
100
AcDbScale
 70
     0
300
1:20
140
1.0
141
20.0
290
     0
  0
SCALE
  5
51405
102
{ACAD_REACTORS
330
513FC
102
}
330
513FC
100
AcDbScale
 70
     0
300
1:30
140
1.0
141
30.0
290
     0
  0
SCALE
  5
51406
102
{ACAD_REACTORS
330
513FC
102
}
330
513FC
100
AcDbScale
 70
     0
300
1:40
140
1.0
141
40.0
290
     0
  0
SCALE
  5
51407
102
{ACAD_REACTORS
330
513FC
102
}
330
513FC
100
AcDbScale
 70
     0
300
1:50
140
1.0
141
50.0
290
     0
  0
SCALE
  5
51408
102
{ACAD_REACTORS
330
513FC
102
}
330
513FC
100
AcDbScale
 70
     0
300
1:100
140
1.0
141
100.0
290
     0
  0
SCALE
  5
51409
102
{ACAD_REACTORS
330
513FC
102
}
330
513FC
100
AcDbScale
 70
     0
300
2:1
140
2.0
141
1.0
290
     0
  0
SCALE
  5
5140A
102
{ACAD_REACTORS
330
513FC
102
}
330
513FC
100
AcDbScale
 70
     0
300
4:1
140
4.0
141
1.0
290
     0
  0
SCALE
  5
5140B
102
{ACAD_REACTORS
330
513FC
102
}
330
513FC
100
AcDbScale
 70
     0
300
8:1
140
8.0
141
1.0
290
     0
  0
SCALE
  5
5140C
102
{ACAD_REACTORS
330
513FC
102
}
330
513FC
100
AcDbScale
 70
     0
300
10:1
140
10.0
141
1.0
290
     0
  0
SCALE
  5
5140D
102
{ACAD_REACTORS
330
513FC
102
}
330
513FC
100
AcDbScale
 70
     0
300
100:1
140
100.0
141
1.0
290
     0
  0
SCALE
  5
5140E
102
{ACAD_REACTORS
330
513FC
102
}
330
513FC
100
AcDbScale
 70
     0
300
1/128" = 1'-0"
140
0.0078125
141
12.0
290
     0
  0
SCALE
  5
5140F
102
{ACAD_REACTORS
330
513FC
102
}
330
513FC
100
AcDbScale
 70
     0
300
1/64" = 1'-0"
140
0.015625
141
12.0
290
     0
  0
SCALE
  5
51410
102
{ACAD_REACTORS
330
513FC
102
}
330
513FC
100
AcDbScale
 70
     0
300
1/32" = 1'-0"
140
0.03125
141
12.0
290
     0
  0
SCALE
  5
51411
102
{ACAD_REACTORS
330
513FC
102
}
330
513FC
100
AcDbScale
 70
     0
300
1/16" = 1'-0"
140
0.0625
141
12.0
290
     0
  0
SCALE
  5
51412
102
{ACAD_REACTORS
330
513FC
102
}
330
513FC
100
AcDbScale
 70
     0
300
3/32" = 1'-0"
140
0.09375
141
12.0
290
     0
  0
SCALE
  5
51413
102
{ACAD_REACTORS
330
513FC
102
}
330
513FC
100
AcDbScale
 70
     0
300
1/8" = 1'-0"
140
0.125
141
12.0
290
     0
  0
SCALE
  5
51414
102
{ACAD_REACTORS
330
513FC
102
}
330
513FC
100
AcDbScale
 70
     0
300
3/16" = 1'-0"
140
0.1875
141
12.0
290
     0
  0
SCALE
  5
51415
102
{ACAD_REACTORS
330
513FC
102
}
330
513FC
100
AcDbScale
 70
     0
300
1/4" = 1'-0"
140
0.25
141
12.0
290
     0
  0
SCALE
  5
51416
102
{ACAD_REACTORS
330
513FC
102
}
330
513FC
100
AcDbScale
 70
     0
300
3/8" = 1'-0"
140
0.375
141
12.0
290
     0
  0
SCALE
  5
51417
102
{ACAD_REACTORS
330
513FC
102
}
330
513FC
100
AcDbScale
 70
     0
300
1/2" = 1'-0"
140
0.5
141
12.0
290
     0
  0
SCALE
  5
51418
102
{ACAD_REACTORS
330
513FC
102
}
330
513FC
100
AcDbScale
 70
     0
300
3/4" = 1'-0"
140
0.75
141
12.0
290
     0
  0
SCALE
  5
51419
102
{ACAD_REACTORS
330
513FC
102
}
330
513FC
100
AcDbScale
 70
     0
300
1" = 1'-0"
140
1.0
141
12.0
290
     0
  0
SCALE
  5
5141A
102
{ACAD_REACTORS
330
513FC
102
}
330
513FC
100
AcDbScale
 70
     0
300
1-1/2" = 1'-0"
140
1.5
141
12.0
290
     0
  0
SCALE
  5
5141B
102
{ACAD_REACTORS
330
513FC
102
}
330
513FC
100
AcDbScale
 70
     0
300
3" = 1'-0"
140
3.0
141
12.0
290
     0
  0
SCALE
  5
5141C
102
{ACAD_REACTORS
330
513FC
102
}
330
513FC
100
AcDbScale
 70
     0
300
6" = 1'-0"
140
6.0
141
12.0
290
     0
  0
SCALE
  5
5141D
102
{ACAD_REACTORS
330
513FC
102
}
330
513FC
100
AcDbScale
 70
     0
300
1'-0" = 1'-0"
140
12.0
141
12.0
290
     0
  0
ACDBSECTIONVIEWSTYLE
  5
9B344
102
{ACAD_XDICTIONARY
360
9B569
102
}
102
{ACAD_REACTORS
330
9B343
102
}
330
9B343
100
AcDbModelDocViewStyle
 70
     0
  3
Imperial24
290
     0
100
AcDbSectionViewStyle
 70
     0
 71
     0
 90
       78
 71
     1
340
F
 40
0.24
340
0
340
0
 40
0.24
300
I, O, Q, S, X, Z
 40
0.48
 90
        3
 40
0.18
 90
        1
 71
     2
340
14
 90
       25
340
14
 90
       50
 40
0.24
 40
0.0
 40
0.24
 71
     3
340
F
 40
0.24
 90
        1
 40
0.75
 90
        1
300
%<\AcVar ViewType \f "%tc1">% %<\AcVar ViewSectionStartId>%-%<\AcVar ViewSectionEndId>%\PSCALE %<\AcVar ViewScale \f "%sn">%
 71
     4
300
ANSI31
 40
1.0
 90
        0
290
     0
290
     0
 90
        6
 40
0.0
 40
1.570796326794896
 40
0.2617993877991494
 40
1.308996938995747
 40
-0.2617993877991494
 40
1.832595714594046
  0
TABLESTYLE
  5
513FB
102
{ACAD_XDICTIONARY
360
5147A
102
}
102
{ACAD_REACTORS
330
513FA
102
}
330
513FA
100
AcDbTableStyle
  3
Standard
 70
     0
 71
     0
 40
0.06
 41
0.06
280
     0
281
     0
  7
STANDARD
140
0.18
170
     2
 62
     0
 63
     7
283
     0
274
    -2
284
     1
 64
     0
275
    -2
285
     1
 65
     0
276
    -2
286
     1
 66
     0
277
    -2
287
     1
 67
     0
278
    -2
288
     1
 68
     0
279
    -2
289
     1
 69
     0
  7
STANDARD
140
0.25
170
     5
 62
     0
 63
     7
283
     0
274
    -2
284
     1
 64
     0
275
    -2
285
     1
 65
     0
276
    -2
286
     1
 66
     0
277
    -2
287
     1
 67
     0
278
    -2
288
     1
 68
     0
279
    -2
289
     1
 69
     0
  7
STANDARD
140
0.18
170
     5
 62
     0
 63
     7
283
     0
274
    -2
284
     1
 64
     0
275
    -2
285
     1
 65
     0
276
    -2
286
     1
 66
     0
277
    -2
287
     1
 67
     0
278
    -2
288
     1
 68
     0
279
    -2
289
     1
 69
     0
  0
VISUALSTYLE
  5
513EE
102
{ACAD_XDICTIONARY
360
9B53E
102
}
102
{ACAD_REACTORS
330
513E8
102
}
330
513E8
100
AcDbVisualStyle
  2
2dWireframe
 70
     4
 71
     0
 72
     2
 73
     0
 90
        0
 40
-0.6
 41
-30.0
 62
     5
 63
     7
 74
     1
 91
        4
 64
     7
 65
   257
 75
     1
175
     1
 42
1.0
 92
        0
 66
   257
 43
1.0
 76
     1
 77
     6
 78
     2
 67
     7
 79
     5
170
     0
171
     0
290
     0
174
     0
 93
        1
 44
0.0
173
     0
291
     0
 45
0.0
1001
ACAD
1000
AcDbSavedByObjectVersion
1070
     0
  0
VISUALSTYLE
  5
513F0
102
{ACAD_XDICTIONARY
360
9B542
102
}
102
{ACAD_REACTORS
330
513E8
102
}
330
513E8
100
AcDbVisualStyle
  2
3D Hidden
 70
     6
 71
     1
 72
     2
 73
     2
 90
        0
 40
-0.6
 41
-30.0
 62
     5
 63
     7
 74
     2
 91
        2
 64
     7
 65
   257
 75
     2
175
     1
 42
40.0
 92
        0
 66
   257
 43
1.0
 76
     1
 77
     6
 78
     2
 67
     7
 79
     3
170
     0
171
     0
290
     0
174
     0
 93
        1
 44
0.0
173
     0
291
     0
 45
0.0
1001
ACAD
1000
AcDbSavedByObjectVersion
1070
     0
  0
VISUALSTYLE
  5
513EF
102
{ACAD_XDICTIONARY
360
9B540
102
}
102
{ACAD_REACTORS
330
513E8
102
}
330
513E8
100
AcDbVisualStyle
  2
3dWireframe
 70
     5
 71
     0
 72
     2
 73
     0
 90
        0
 40
-0.6
 41
-30.0
 62
     5
 63
     7
 74
     1
 91
        4
 64
     7
 65
   257
 75
     1
175
     1
 42
1.0
 92
        0
 66
   257
 43
1.0
 76
     1
 77
     6
 78
     2
 67
     7
 79
     5
170
     0
171
     0
290
     0
174
     0
 93
        1
 44
0.0
173
     0
291
     0
 45
0.0
1001
ACAD
1000
AcDbSavedByObjectVersion
1070
     0
  0
VISUALSTYLE
  5
513ED
102
{ACAD_XDICTIONARY
360
9B53C
102
}
102
{ACAD_REACTORS
330
513E8
102
}
330
513E8
100
AcDbVisualStyle
  2
Basic
 70
     7
 71
     1
 72
     0
 73
     1
 90
        0
 40
-0.6
 41
-30.0
 62
     5
 63
     7
 74
     0
 91
        4
 64
     7
 65
   257
 75
     1
175
     1
 42
1.0
 92
        8
 66
     7
 43
1.0
 76
     1
 77
     6
 78
     2
 67
     7
 79
     5
170
     0
171
     0
290
     0
174
     0
 93
        1
 44
0.0
173
     0
291
     1
 45
0.0
1001
ACAD
1000
AcDbSavedByObjectVersion
1070
     0
  0
VISUALSTYLE
  5
513F4
102
{ACAD_XDICTIONARY
360
9B54A
102
}
102
{ACAD_REACTORS
330
513E8
102
}
330
513E8
100
AcDbVisualStyle
  2
Brighten
 70
    12
 71
     2
 72
     2
 73
     0
 90
        0
 40
-0.6
 41
-30.0
 62
     5
 63
     7
 74
     1
 91
        4
 64
     7
 65
   257
 75
     1
175
     1
 42
1.0
 92
        8
 66
     7
 43
1.0
 76
     1
 77
     6
 78
     2
 67
     7
 79
     5
170
     0
171
     0
290
     0
174
     0
 93
        1
 44
50.0
173
     0
291
     1
 45
0.0
1001
ACAD
1000
AcDbSavedByObjectVersion
1070
     0
  0
VISUALSTYLE
  5
513F8
102
{ACAD_XDICTIONARY
360
9B552
102
}
102
{ACAD_REACTORS
330
513E8
102
}
330
513E8
100
AcDbVisualStyle
  2
ColorChange
 70
    16
 71
     2
 72
     2
 73
     3
 90
        0
 40
-0.6
 41
-30.0
 62
     5
 63
     8
 74
     1
 91
        4
 64
     7
 65
   257
 75
     1
175
     1
 42
1.0
 92
        8
 66
     8
 43
1.0
 76
     1
 77
     6
 78
     2
 67
     7
 79
     5
170
     0
171
     0
290
     0
174
     0
 93
        1
 44
0.0
173
     0
291
     1
 45
0.0
1001
ACAD
1000
AcDbSavedByObjectVersion
1070
     0
  0
VISUALSTYLE
  5
513F1
102
{ACAD_XDICTIONARY
360
9B544
102
}
102
{ACAD_REACTORS
330
513E8
102
}
330
513E8
100
AcDbVisualStyle
  2
Conceptual
 70
     9
 71
     3
 72
     2
 73
     0
 90
        0
 40
-0.6
 41
-30.0
 62
     5
 63
     7
 74
     2
 91
        2
 64
     7
 65
   257
 75
     1
175
     1
 42
40.0
 92
        8
 66
     7
 43
1.0
 76
     1
 77
     6
 78
     2
 67
     7
 79
     3
170
     0
171
     0
290
     0
174
     0
 93
        1
 44
0.0
173
     0
291
     0
 45
0.0
1001
ACAD
1000
AcDbSavedByObjectVersion
1070
     0
  0
VISUALSTYLE
  5
513F3
102
{ACAD_XDICTIONARY
360
9B548
102
}
102
{ACAD_REACTORS
330
513E8
102
}
330
513E8
100
AcDbVisualStyle
  2
Dim
 70
    11
 71
     2
 72
     2
 73
     0
 90
        0
 40
-0.6
 41
-30.0
 62
     5
 63
     7
 74
     1
 91
        4
 64
     7
 65
   257
 75
     1
175
     1
 42
1.0
 92
        8
 66
     7
 43
1.0
 76
     1
 77
     6
 78
     2
 67
     7
 79
     5
170
     0
171
     0
290
     0
174
     0
 93
        1
 44
-50.0
173
     0
291
     1
 45
0.0
1001
ACAD
1000
AcDbSavedByObjectVersion
1070
     0
  0
VISUALSTYLE
  5
70D09
102
{ACAD_XDICTIONARY
360
9B567
102
}
102
{ACAD_REACTORS
330
513E8
102
}
330
513E8
100
AcDbVisualStyle
  2
EdgeColorOff
 70
    22
 71
     2
 72
     2
 73
     0
 90
        0
 40
-0.6
 41
-30.0
 62
     5
 63
     7
 74
     1
 91
        4
 64
     7
 65
   257
 75
     1
175
     1
 42
1.0
 92
        8
 66
     7
 43
1.0
 76
     1
 77
     6
 78
     2
 67
     7
 79
     5
170
     0
171
     0
290
     0
174
     0
 93
        1
 44
0.0
173
     0
291
     1
 45
0.0
1001
ACAD
1000
AcDbSavedByObjectVersion
1070
     0
  0
VISUALSTYLE
  5
513F7
102
{ACAD_XDICTIONARY
360
9B550
102
}
102
{ACAD_REACTORS
330
513E8
102
}
330
513E8
100
AcDbVisualStyle
  2
Facepattern
 70
    15
 71
     2
 72
     2
 73
     0
 90
        0
 40
-0.6
 41
-30.0
 62
     5
 63
     7
 74
     1
 91
        4
 64
     7
 65
   257
 75
     1
175
     1
 42
1.0
 92
        8
 66
     7
 43
1.0
 76
     1
 77
     6
 78
     2
 67
     7
 79
     5
170
     0
171
     0
290
     0
174
     0
 93
        1
 44
0.0
173
     0
291
     1
 45
0.0
1001
ACAD
1000
AcDbSavedByObjectVersion
1070
     0
  0
VISUALSTYLE
  5
513E9
102
{ACAD_XDICTIONARY
360
9B534
102
}
102
{ACAD_REACTORS
330
513E8
102
}
330
513E8
100
AcDbVisualStyle
  2
Flat
 70
     0
 71
     2
 72
     1
 73
     1
 90
        2
 40
-0.6
 41
30.0
 62
     5
 63
     7
 74
     0
 91
        4
 64
     7
 65
   257
 75
     1
175
     1
 42
1.0
 92
        8
 66
     7
 43
1.0
 76
     1
 77
     6
 78
     2
 67
     7
 79
     5
170
     0
171
     0
290
     0
174
     0
 93
       13
 44
0.0
173
     0
291
     1
 45
0.0
1001
ACAD
1000
AcDbSavedByObjectVersion
1070
     0
  0
VISUALSTYLE
  5
513EA
102
{ACAD_XDICTIONARY
360
9B536
102
}
102
{ACAD_REACTORS
330
513E8
102
}
330
513E8
100
AcDbVisualStyle
  2
FlatWithEdges
 70
     1
 71
     2
 72
     1
 73
     1
 90
        2
 40
-0.6
 41
30.0
 62
     5
 63
     7
 74
     1
 91
        4
 64
     7
 65
   257
 75
     1
175
     1
 42
1.0
 92
        0
 66
   257
 43
1.0
 76
     1
 77
     6
 78
     2
 67
     7
 79
     5
170
     0
171
     0
290
     0
174
     0
 93
       13
 44
0.0
173
     0
291
     1
 45
0.0
1001
ACAD
1000
AcDbSavedByObjectVersion
1070
     0
  0
VISUALSTYLE
  5
513EB
102
{ACAD_XDICTIONARY
360
9B538
102
}
102
{ACAD_REACTORS
330
513E8
102
}
330
513E8
100
AcDbVisualStyle
  2
Gouraud
 70
     2
 71
     2
 72
     2
 73
     1
 90
        2
 40
-0.6
 41
30.0
 62
     5
 63
     7
 74
     0
 91
        4
 64
     7
 65
   257
 75
     1
175
     1
 42
1.0
 92
        0
 66
     7
 43
1.0
 76
     1
 77
     6
 78
     2
 67
     7
 79
     5
170
     0
171
     0
290
     0
174
     0
 93
       13
 44
0.0
173
     0
291
     1
 45
0.0
1001
ACAD
1000
AcDbSavedByObjectVersion
1070
     0
  0
VISUALSTYLE
  5
513EC
102
{ACAD_XDICTIONARY
360
9B53A
102
}
102
{ACAD_REACTORS
330
513E8
102
}
330
513E8
100
AcDbVisualStyle
  2
GouraudWithEdges
 70
     3
 71
     2
 72
     2
 73
     1
 90
        2
 40
-0.6
 41
30.0
 62
     5
 63
     7
 74
     1
 91
        4
 64
     7
 65
   257
 75
     1
175
     1
 42
1.0
 92
        0
 66
   257
 43
1.0
 76
     1
 77
     6
 78
     2
 67
     7
 79
     5
170
     0
171
     0
290
     0
174
     0
 93
       13
 44
0.0
173
     0
291
     1
 45
0.0
1001
ACAD
1000
AcDbSavedByObjectVersion
1070
     0
  0
VISUALSTYLE
  5
70D01
102
{ACAD_XDICTIONARY
360
9B557
102
}
102
{ACAD_REACTORS
330
513E8
102
}
330
513E8
100
AcDbVisualStyle
  2
Hidden
 70
     6
 71
     1
 72
     2
 73
     2
 90
        0
 40
-0.6
 41
-30.0
 62
     5
 63
     7
 74
     2
 91
        2
 64
     7
 65
   257
 75
     2
175
     1
 42
40.0
 92
        0
 66
   257
 43
1.0
 76
     1
 77
     6
 78
     2
 67
     7
 79
     3
170
     0
171
     0
290
     0
174
     0
 93
        1
 44
0.0
173
     0
291
     0
 45
0.0
1001
ACAD
1000
AcDbSavedByObjectVersion
1070
     0
  0
VISUALSTYLE
  5
70D07
102
{ACAD_XDICTIONARY
360
9B563
102
}
102
{ACAD_REACTORS
330
513E8
102
}
330
513E8
100
AcDbVisualStyle
  2
JitterOff
 70
    20
 71
     2
 72
     2
 73
     0
 90
        0
 40
-0.6
 41
-30.0
 62
     5
 63
     7
 74
     1
 91
        4
 64
     7
 65
   257
 75
     1
175
     1
 42
1.0
 92
       10
 66
     7
 43
1.0
 76
     1
 77
     6
 78
     2
 67
     7
 79
     5
170
     0
171
     0
290
     0
174
     0
 93
        1
 44
0.0
173
     0
291
     1
 45
0.0
1001
ACAD
1000
AcDbSavedByObjectVersion
1070
     0
  0
VISUALSTYLE
  5
513F6
102
{ACAD_XDICTIONARY
360
9B54E
102
}
102
{ACAD_REACTORS
330
513E8
102
}
330
513E8
100
AcDbVisualStyle
  2
Linepattern
 70
    14
 71
     2
 72
     2
 73
     0
 90
        0
 40
-0.6
 41
-30.0
 62
     5
 63
     7
 74
     1
 91
        4
 64
     7
 65
   257
 75
     7
175
     7
 42
1.0
 92
        8
 66
     7
 43
1.0
 76
     1
 77
     6
 78
     2
 67
     7
 79
     5
170
     0
171
     0
290
     0
174
     0
 93
        1
 44
0.0
173
     0
291
     1
 45
0.0
1001
ACAD
1000
AcDbSavedByObjectVersion
1070
     0
  0
VISUALSTYLE
  5
70D08
102
{ACAD_XDICTIONARY
360
9B565
102
}
102
{ACAD_REACTORS
330
513E8
102
}
330
513E8
100
AcDbVisualStyle
  2
OverhangOff
 70
    21
 71
     2
 72
     2
 73
     0
 90
        0
 40
-0.6
 41
-30.0
 62
     5
 63
     7
 74
     1
 91
        4
 64
     7
 65
   257
 75
     1
175
     1
 42
1.0
 92
        9
 66
     7
 43
1.0
 76
     1
 77
     6
 78
     2
 67
     7
 79
     5
170
     0
171
     0
290
     0
174
     0
 93
        1
 44
0.0
173
     0
291
     1
 45
0.0
1001
ACAD
1000
AcDbSavedByObjectVersion
1070
     0
  0
VISUALSTYLE
  5
513F2
102
{ACAD_XDICTIONARY
360
9B546
102
}
102
{ACAD_REACTORS
330
513E8
102
}
330
513E8
100
AcDbVisualStyle
  2
Realistic
 70
     8
 71
     2
 72
     2
 73
     0
 90
        0
 40
-0.6
 41
-30.0
 62
     5
 63
     7
 74
     1
 91
        0
 64
     7
 65
   257
 75
     1
175
     1
 42
1.0
 92
        8
 66
     8
 43
1.0
 76
     1
 77
     6
 78
     2
 67
     7
 79
     5
170
     0
171
     0
290
     0
174
     0
 93
       13
 44
0.0
173
     0
291
     0
 45
0.0
1001
ACAD
1000
AcDbSavedByObjectVersion
1070
     0
  0
VISUALSTYLE
  5
70D06
102
{ACAD_XDICTIONARY
360
9B561
102
}
102
{ACAD_REACTORS
330
513E8
102
}
330
513E8
100
AcDbVisualStyle
  2
Shaded
 70
    27
 71
     2
 72
     2
 73
     1
 90
        2
 40
-0.6
 41
30.0
 62
     5
 63
     7
 74
     0
 91
        4
 64
     7
 65
   257
 75
     1
175
     1
 42
1.0
 92
        8
 66
   257
 43
1.0
 76
     1
 77
     6
 78
     2
 67
     8
 79
     3
170
     0
171
     0
290
     0
174
     0
 93
        5
 44
0.0
173
     0
291
     0
 45
0.0
1001
ACAD
1000
AcDbSavedByObjectVersion
1070
     0
  0
VISUALSTYLE
  5
70D05
102
{ACAD_XDICTIONARY
360
9B55F
102
}
102
{ACAD_REACTORS
330
513E8
102
}
330
513E8
100
AcDbVisualStyle
  2
Shaded with edges
 70
    26
 71
     2
 72
     2
 73
     1
 90
        2
 40
-0.6
 41
30.0
 62
     5
 63
     7
 74
     1
 91
        2
 64
     7
 65
   257
 75
     2
175
     1
 42
1.0
 92
        8
 66
   257
 43
1.0
 76
     1
 77
     6
 78
     2
 67
     7
 79
     3
170
     0
171
     0
290
     0
174
     0
 93
        5
 44
0.0
173
     0
291
     0
 45
0.0
1001
ACAD
1000
AcDbSavedByObjectVersion
1070
     0
  0
VISUALSTYLE
  5
70D02
102
{ACAD_XDICTIONARY
360
9B559
102
}
102
{ACAD_REACTORS
330
513E8
102
}
330
513E8
100
AcDbVisualStyle
  2
Shades of Gray
 70
    23
 71
     2
 72
     2
 73
     3
 90
        0
 40
-0.6
 41
-30.0
 62
     5
 63
     7
 74
     2
 91
        2
 64
     7
 65
     7
 75
     1
175
     1
 42
40.0
 92
        8
 66
     7
 43
1.0
 76
     1
 77
     6
 78
     2
 67
     7
 79
     3
170
     0
171
     0
290
     0
174
     0
 93
        1
 44
0.0
173
     0
291
     0
 45
0.0
1001
ACAD
1000
AcDbSavedByObjectVersion
1070
     0
  0
VISUALSTYLE
  5
70D03
102
{ACAD_XDICTIONARY
360
9B55B
102
}
102
{ACAD_REACTORS
330
513E8
102
}
330
513E8
100
AcDbVisualStyle
  2
Sketchy
 70
    24
 71
     1
 72
     2
 73
     2
 90
        0
 40
-0.6
 41
-30.0
 62
     5
 63
     7
 74
     2
 91
        2
 64
     7
 65
     7
 75
     1
175
     1
 42
40.0
 92
       11
 66
     7
 43
1.0
 76
     1
 77
     6
 78
     2
 67
     7
 79
     6
170
     0
171
     0
290
     0
174
     0
 93
        1
 44
0.0
173
     0
291
     0
 45
0.0
1001
ACAD
1000
AcDbSavedByObjectVersion
1070
     0
  0
VISUALSTYLE
  5
513F5
102
{ACAD_XDICTIONARY
360
9B54C
102
}
102
{ACAD_REACTORS
330
513E8
102
}
330
513E8
100
AcDbVisualStyle
  2
Thicken
 70
    13
 71
     2
 72
     2
 73
     0
 90
        0
 40
-0.6
 41
-30.0
 62
     5
 63
     7
 74
     1
 91
        4
 64
     7
 65
   257
 75
     1
175
     1
 42
1.0
 92
       12
 66
     7
 43
1.0
 76
     1
 77
     6
 78
     2
 67
     7
 79
     5
170
     0
171
     0
290
     0
174
     0
 93
        1
 44
0.0
173
     0
291
     1
 45
0.0
1001
ACAD
1000
AcDbSavedByObjectVersion
1070
     0
  0
VISUALSTYLE
  5
70D00
102
{ACAD_XDICTIONARY
360
9B555
102
}
102
{ACAD_REACTORS
330
513E8
102
}
330
513E8
100
AcDbVisualStyle
  2
Wireframe
 70
     5
 71
     0
 72
     2
 73
     0
 90
        0
 40
-0.6
 41
-30.0
 62
     5
 63
     7
 74
     1
 91
        4
 64
     7
 65
   257
 75
     1
175
     1
 42
1.0
 92
        0
 66
   257
 43
1.0
 76
     1
 77
     6
 78
     2
 67
     7
 79
     3
170
     0
171
     0
290
     0
174
     0
 93
        1
 44
0.0
173
     0
291
     0
 45
0.0
1001
ACAD
1000
AcDbSavedByObjectVersion
1070
     0
  0
VISUALSTYLE
  5
70D04
102
{ACAD_XDICTIONARY
360
9B55D
102
}
102
{ACAD_REACTORS
330
513E8
102
}
330
513E8
100
AcDbVisualStyle
  2
X-Ray
 70
    25
 71
     2
 72
     2
 73
     1
 90
        1
 40
0.5
 41
-30.0
 62
     5
 63
     7
 74
     1
 91
        0
 64
     7
 65
   257
 75
     1
175
     1
 42
1.0
 92
        8
 66
     7
 43
1.0
 76
     1
 77
     6
 78
     2
 67
     7
 79
     3
170
     0
171
     0
290
     0
174
     0
 93
       13
 44
0.0
173
     0
291
     0
 45
0.0
1001
ACAD
1000
AcDbSavedByObjectVersion
1070
     0
  0
DICTIONARYVAR
  5
51480
102
{ACAD_REACTORS
330
28B1
102
}
330
28B1
100
DictionaryVariables
280
     0
  1
1:1
  0
DICTIONARYVAR
  5
5147E
102
{ACAD_REACTORS
330
28B1
102
}
330
28B1
100
DictionaryVariables
280
     0
  1
STANDARD
  0
DICTIONARYVAR
  5
5147D
102
{ACAD_REACTORS
330
28B1
102
}
330
28B1
100
DictionaryVariables
280
     0
  1
STANDARD
  0
DICTIONARYVAR
  5
9B527
102
{ACAD_REACTORS
330
28B1
102
}
330
28B1
100
DictionaryVariables
280
     0
  1
Imperial24
  0
DICTIONARYVAR
  5
9B528
102
{ACAD_REACTORS
330
28B1
102
}
330
28B1
100
DictionaryVariables
280
     0
  1
Imperial24
  0
DICTIONARYVAR
  5
5135B
102
{ACAD_REACTORS
330
28B1
102
}
330
28B1
100
DictionaryVariables
280
     0
  1
1
  0
DICTIONARYVAR
  5
70D55
102
{ACAD_REACTORS
330
28B1
102
}
330
28B1
100
DictionaryVariables
280
     0
  1
0
  0
DICTIONARYVAR
  5
51481
102
{ACAD_REACTORS
330
28B1
102
}
330
28B1
100
DictionaryVariables
280
     0
  1
0
  0
DICTIONARYVAR
  5
5147F
102
{ACAD_REACTORS
330
28B1
102
}
330
28B1
100
DictionaryVariables
280
     0
  1
0
  0
DICTIONARYVAR
  5
70D57
102
{ACAD_REACTORS
330
28B1
102
}
330
28B1
100
DictionaryVariables
280
     0
  1
1
  0
DICTIONARYVAR
  5
28B2
102
{ACAD_REACTORS
330
28B1
102
}
330
28B1
100
DictionaryVariables
280
     0
  1
127
  0
DICTIONARYVAR
  5
9B529
102
{ACAD_REACTORS
330
28B1
102
}
330
28B1
100
DictionaryVariables
280
     0
  1
2
  0
DICTIONARY
  5
9B56B
330
9B346
100
AcDbDictionary
280
     1
281
     1
  3
ACAD_XREC_ROUNDTRIP
360
9B56C
  0
DICTIONARY
  5
9B52D
330
21F3
100
AcDbDictionary
280
     1
281
     1
  3
ACAD_XREC_ROUNDTRIP
360
9B52E
  0
DICTIONARY
  5
9B52F
330
21F4
100
AcDbDictionary
280
     1
281
     1
  3
ACAD_XREC_ROUNDTRIP
360
9B530
  0
DICTIONARY
  5
513D9
330
513D8
100
AcDbDictionary
280
     1
281
     1
  3
ACAD_XREC_ROUNDTRIP
360
9B532
  3
BUMPTILE
360
513DB
  3
DIFFUSETILE
360
513DA
  3
OPACITYTILE
360
513DE
  3
REFLECTIONTILE
360
513DD
  3
REFRACTIONTILE
360
513DF
  3
SPECULARTILE
360
513DC
  0
DICTIONARY
  5
513D1
330
513D0
100
AcDbDictionary
280
     1
281
     1
  3
ACAD_XREC_ROUNDTRIP
360
9B531
  3
BUMPTILE
360
513D3
  3
DIFFUSETILE
360
513D2
  3
OPACITYTILE
360
513D6
  3
REFLECTIONTILE
360
513D5
  3
REFRACTIONTILE
360
513D7
  3
SPECULARTILE
360
513D4
  0
DICTIONARY
  5
513E1
330
513E0
100
AcDbDictionary
280
     1
281
     1
  3
ACAD_XREC_ROUNDTRIP
360
9B533
  3
BUMPTILE
360
513E3
  3
DIFFUSETILE
360
513E2
  3
OPACITYTILE
360
513E6
  3
REFLECTIONTILE
360
513E5
  3
REFRACTIONTILE
360
513E7
  3
SPECULARTILE
360
513E4
  0
DICTIONARY
  5
9B569
330
9B344
100
AcDbDictionary
280
     1
281
     1
  3
ACAD_XREC_ROUNDTRIP
360
9B56A
  0
DICTIONARY
  5
5147A
330
513FB
100
AcDbDictionary
280
     1
281
     1
  3
ACAD_ROUNDTRIP_2008_TABLESTYLE_CELLSTYLEMAP
360
9B52A
  3
ACAD_XREC_ROUNDTRIP
360
9B554
  0
DICTIONARY
  5
9B53E
330
513EE
100
AcDbDictionary
280
     1
281
     1
  3
ACAD_XREC_ROUNDTRIP
360
9B53F
  0
DICTIONARY
  5
9B542
330
513F0
100
AcDbDictionary
280
     1
281
     1
  3
ACAD_XREC_ROUNDTRIP
360
9B543
  0
DICTIONARY
  5
9B540
330
513EF
100
AcDbDictionary
280
     1
281
     1
  3
ACAD_XREC_ROUNDTRIP
360
9B541
  0
DICTIONARY
  5
9B53C
330
513ED
100
AcDbDictionary
280
     1
281
     1
  3
ACAD_XREC_ROUNDTRIP
360
9B53D
  0
DICTIONARY
  5
9B54A
330
513F4
100
AcDbDictionary
280
     1
281
     1
  3
ACAD_XREC_ROUNDTRIP
360
9B54B
  0
DICTIONARY
  5
9B552
330
513F8
100
AcDbDictionary
280
     1
281
     1
  3
ACAD_XREC_ROUNDTRIP
360
9B553
  0
DICTIONARY
  5
9B544
330
513F1
100
AcDbDictionary
280
     1
281
     1
  3
ACAD_XREC_ROUNDTRIP
360
9B545
  0
DICTIONARY
  5
9B548
330
513F3
100
AcDbDictionary
280
     1
281
     1
  3
ACAD_XREC_ROUNDTRIP
360
9B549
  0
DICTIONARY
  5
9B567
330
70D09
100
AcDbDictionary
280
     1
281
     1
  3
ACAD_XREC_ROUNDTRIP
360
9B568
  0
DICTIONARY
  5
9B550
330
513F7
100
AcDbDictionary
280
     1
281
     1
  3
ACAD_XREC_ROUNDTRIP
360
9B551
  0
DICTIONARY
  5
9B534
330
513E9
100
AcDbDictionary
280
     1
281
     1
  3
ACAD_XREC_ROUNDTRIP
360
9B535
  0
DICTIONARY
  5
9B536
330
513EA
100
AcDbDictionary
280
     1
281
     1
  3
ACAD_XREC_ROUNDTRIP
360
9B537
  0
DICTIONARY
  5
9B538
330
513EB
100
AcDbDictionary
280
     1
281
     1
  3
ACAD_XREC_ROUNDTRIP
360
9B539
  0
DICTIONARY
  5
9B53A
330
513EC
100
AcDbDictionary
280
     1
281
     1
  3
ACAD_XREC_ROUNDTRIP
360
9B53B
  0
DICTIONARY
  5
9B557
330
70D01
100
AcDbDictionary
280
     1
281
     1
  3
ACAD_XREC_ROUNDTRIP
360
9B558
  0
DICTIONARY
  5
9B563
330
70D07
100
AcDbDictionary
280
     1
281
     1
  3
ACAD_XREC_ROUNDTRIP
360
9B564
  0
DICTIONARY
  5
9B54E
330
513F6
100
AcDbDictionary
280
     1
281
     1
  3
ACAD_XREC_ROUNDTRIP
360
9B54F
  0
DICTIONARY
  5
9B565
330
70D08
100
AcDbDictionary
280
     1
281
     1
  3
ACAD_XREC_ROUNDTRIP
360
9B566
  0
DICTIONARY
  5
9B546
330
513F2
100
AcDbDictionary
280
     1
281
     1
  3
ACAD_XREC_ROUNDTRIP
360
9B547
  0
DICTIONARY
  5
9B561
330
70D06
100
AcDbDictionary
280
     1
281
     1
  3
ACAD_XREC_ROUNDTRIP
360
9B562
  0
DICTIONARY
  5
9B55F
330
70D05
100
AcDbDictionary
280
     1
281
     1
  3
ACAD_XREC_ROUNDTRIP
360
9B560
  0
DICTIONARY
  5
9B559
330
70D02
100
AcDbDictionary
280
     1
281
     1
  3
ACAD_XREC_ROUNDTRIP
360
9B55A
  0
DICTIONARY
  5
9B55B
330
70D03
100
AcDbDictionary
280
     1
281
     1
  3
ACAD_XREC_ROUNDTRIP
360
9B55C
  0
DICTIONARY
  5
9B54C
330
513F5
100
AcDbDictionary
280
     1
281
     1
  3
ACAD_XREC_ROUNDTRIP
360
9B54D
  0
DICTIONARY
  5
9B555
330
70D00
100
AcDbDictionary
280
     1
281
     1
  3
ACAD_XREC_ROUNDTRIP
360
9B556
  0
DICTIONARY
  5
9B55D
330
70D04
100
AcDbDictionary
280
     1
281
     1
  3
ACAD_XREC_ROUNDTRIP
360
9B55E
  0
XRECORD
  5
9B56C
102
{ACAD_REACTORS
330
9B56B
102
}
330
9B56B
100
AcDbXrecord
280
     1
102
DISPLAYNAME
  1
Imperial24
102
FLAGS
 90
        0
  0
XRECORD
  5
9B52E
102
{ACAD_REACTORS
330
9B52D
102
}
330
9B52D
100
AcDbXrecord
280
     1
102
SHADEPLOT
 70
     0
102
SHADEPLOTRESLEVEL
 70
     2
102
SHADEPLOTCUSTOMDPI
 70
   300
  0
XRECORD
  5
9B530
102
{ACAD_REACTORS
330
9B52F
102
}
330
9B52F
100
AcDbXrecord
280
     1
102
SHADEPLOT
 70
     0
102
SHADEPLOTRESLEVEL
 70
     2
102
SHADEPLOTCUSTOMDPI
 70
   300
  0
XRECORD
  5
9B532
102
{ACAD_REACTORS
330
513D9
102
}
330
513D9
100
AcDbXrecord
280
     1
102
MATERIAL
148
0.0
149
0.0
149
0.0
 93
        0
 94
      127
282
     0
 72
     0
 77
     0
171
     0
175
     0
179
     0
273
     0
  0
XRECORD
  5
513DB
102
{ACAD_REACTORS
330
513D9
102
}
330
513D9
100
AcDbXrecord
280
     1
270
     1
271
     1
  0
XRECORD
  5
513DA
102
{ACAD_REACTORS
330
513D9
102
}
330
513D9
100
AcDbXrecord
280
     1
270
     1
271
     1
  0
XRECORD
  5
513DE
102
{ACAD_REACTORS
330
513D9
102
}
330
513D9
100
AcDbXrecord
280
     1
270
     1
271
     1
  0
XRECORD
  5
513DD
102
{ACAD_REACTORS
330
513D9
102
}
330
513D9
100
AcDbXrecord
280
     1
270
     1
271
     1
  0
XRECORD
  5
513DF
102
{ACAD_REACTORS
330
513D9
102
}
330
513D9
100
AcDbXrecord
280
     1
270
     1
271
     1
  0
XRECORD
  5
513DC
102
{ACAD_REACTORS
330
513D9
102
}
330
513D9
100
AcDbXrecord
280
     1
270
     1
271
     1
  0
XRECORD
  5
9B531
102
{ACAD_REACTORS
330
513D1
102
}
330
513D1
100
AcDbXrecord
280
     1
102
MATERIAL
148
0.0
149
0.0
149
0.0
 93
        0
 94
      127
282
     0
 72
     0
 77
     0
171
     0
175
     0
179
     0
273
     0
  0
XRECORD
  5
513D3
102
{ACAD_REACTORS
330
513D1
102
}
330
513D1
100
AcDbXrecord
280
     1
270
     1
271
     1
  0
XRECORD
  5
513D2
102
{ACAD_REACTORS
330
513D1
102
}
330
513D1
100
AcDbXrecord
280
     1
270
     1
271
     1
  0
XRECORD
  5
513D6
102
{ACAD_REACTORS
330
513D1
102
}
330
513D1
100
AcDbXrecord
280
     1
270
     1
271
     1
  0
XRECORD
  5
513D5
102
{ACAD_REACTORS
330
513D1
102
}
330
513D1
100
AcDbXrecord
280
     1
270
     1
271
     1
  0
XRECORD
  5
513D7
102
{ACAD_REACTORS
330
513D1
102
}
330
513D1
100
AcDbXrecord
280
     1
270
     1
271
     1
  0
XRECORD
  5
513D4
102
{ACAD_REACTORS
330
513D1
102
}
330
513D1
100
AcDbXrecord
280
     1
270
     1
271
     1
  0
XRECORD
  5
9B533
102
{ACAD_REACTORS
330
513E1
102
}
330
513E1
100
AcDbXrecord
280
     1
102
MATERIAL
148
0.0
149
0.0
149
0.0
 93
        0
 94
      127
282
     0
 72
     0
 77
     0
171
     0
175
     0
179
     0
273
     0
  0
XRECORD
  5
513E3
102
{ACAD_REACTORS
330
513E1
102
}
330
513E1
100
AcDbXrecord
280
     1
270
     1
271
     1
  0
XRECORD
  5
513E2
102
{ACAD_REACTORS
330
513E1
102
}
330
513E1
100
AcDbXrecord
280
     1
270
     1
271
     1
  0
XRECORD
  5
513E6
102
{ACAD_REACTORS
330
513E1
102
}
330
513E1
100
AcDbXrecord
280
     1
270
     1
271
     1
  0
XRECORD
  5
513E5
102
{ACAD_REACTORS
330
513E1
102
}
330
513E1
100
AcDbXrecord
280
     1
270
     1
271
     1
  0
XRECORD
  5
513E7
102
{ACAD_REACTORS
330
513E1
102
}
330
513E1
100
AcDbXrecord
280
     1
270
     1
271
     1
  0
XRECORD
  5
513E4
102
{ACAD_REACTORS
330
513E1
102
}
330
513E1
100
AcDbXrecord
280
     1
270
     1
271
     1
  0
XRECORD
  5
9B56A
102
{ACAD_REACTORS
330
9B569
102
}
330
9B569
100
AcDbXrecord
280
     1
102
DISPLAYNAME
  1
Imperial24
102
FLAGS
 90
        0
  0
CELLSTYLEMAP
  5
9B52A
102
{ACAD_REACTORS
330
5147A
102
}
330
5147A
100
AcDbCellStyleMap
 90
        3
300
CELLSTYLE
  1
TABLEFORMAT_BEGIN
 90
        5
170
     1
 91
        0
 92
    32768
 62
   257
 93
        1
300
CONTENTFORMAT
  1
CONTENTFORMAT_BEGIN
 90
        0
 91
        0
 92
      512
 93
        0
300

 40
0.0
140
1.0
 94
        5
 62
     0
340
F
144
0.25
309
CONTENTFORMAT_END
171
     0
 94
        0
309
TABLEFORMAT_END
  1
CELLSTYLE_BEGIN
 90
        1
 91
        1
300
_TITLE
309
CELLSTYLE_END
300
CELLSTYLE
  1
TABLEFORMAT_BEGIN
 90
        5
170
     1
 91
        0
 92
        0
 62
   257
 93
        1
300
CONTENTFORMAT
  1
CONTENTFORMAT_BEGIN
 90
        0
 91
        0
 92
      512
 93
        0
300

 40
0.0
140
1.0
 94
        5
 62
     0
340
F
144
0.18
309
CONTENTFORMAT_END
171
     0
 94
        0
309
TABLEFORMAT_END
  1
CELLSTYLE_BEGIN
 90
        2
 91
        1
300
_HEADER
309
CELLSTYLE_END
300
CELLSTYLE
  1
TABLEFORMAT_BEGIN
 90
        5
170
     1
 91
        0
 92
        0
 62
   257
 93
        1
300
CONTENTFORMAT
  1
CONTENTFORMAT_BEGIN
 90
        0
 91
        0
 92
      512
 93
        0
300

 40
0.0
140
1.0
 94
        2
 62
     0
340
F
144
0.18
309
CONTENTFORMAT_END
171
     0
 94
        0
309
TABLEFORMAT_END
  1
CELLSTYLE_BEGIN
 90
        3
 91
        2
300
_DATA
309
CELLSTYLE_END
  0
XRECORD
  5
9B554
102
{ACAD_REACTORS
330
5147A
102
}
330
5147A
100
AcDbXrecord
280
     1
102
ACAD_ROUNDTRIP_PRE2007_TABLESTYLE
 90
      512
 91
        0
  1

 92
      512
 93
        0
  2

 94
      512
 95
        0
  3

  0
XRECORD
  5
9B53F
102
{ACAD_REACTORS
330
9B53E
102
}
330
9B53E
100
AcDbXrecord
280
     1
102
RTVSPost2010Prop28
280
     1
102
RTVSPost2010PropOp28
 70
     1
102
RTVSPost2010Prop29
280
     1
102
RTVSPost2010PropOp29
 70
     1
102
RTVSPost2010Prop30
280
     0
102
RTVSPost2010PropOp30
 70
     1
102
RTVSPost2010Prop31
280
     0
102
RTVSPost2010PropOp31
 70
     1
102
RTVSPost2010Prop32
280
     0
102
RTVSPost2010PropOp32
 70
     1
102
RTVSPost2010Prop33
280
     0
102
RTVSPost2010PropOp33
 70
     1
102
RTVSPost2010Prop34
280
     0
102
RTVSPost2010PropOp34
 70
     1
102
RTVSPost2010Prop35
280
     0
102
RTVSPost2010PropOp35
 70
     1
102
RTVSPost2010Prop36
280
     0
102
RTVSPost2010PropOp36
 70
     1
102
RTVSPost2010Prop37
 90
       50
102
RTVSPost2010PropOp37
 70
     1
102
RTVSPost2010Prop38
140
0.0
102
RTVSPost2010PropOp38
 70
     1
102
RTVSPost2010Prop39
140
1.0
102
RTVSPost2010PropOp39
 70
     1
102
RTVSPost2010Prop40
 90
        0
102
RTVSPost2010PropOp40
 70
     1
102
RTVSPost2010Prop41ColorIndex
 90
       18
102
RTVSPost2010Prop41ColorRGB
 90
        0
102
RTVSPost2010PropOp41
 70
     1
102
RTVSPost2010Prop42
 90
       50
102
RTVSPost2010PropOp42
 70
     1
102
RTVSPost2010Prop43
 90
        3
102
RTVSPost2010PropOp43
 70
     1
102
RTVSPost2010Prop44ColorIndex
 90
        5
102
RTVSPost2010Prop44ColorRGB
 90
      255
102
RTVSPost2010PropOp44
 70
     1
102
RTVSPost2010Prop45
280
     0
102
RTVSPost2010PropOp45
 70
     1
102
RTVSPost2010Prop46
 90
       50
102
RTVSPost2010PropOp46
 70
     1
102
RTVSPost2010Prop47
 90
       50
102
RTVSPost2010PropOp47
 70
     1
102
RTVSPost2010Prop48
 90
       50
102
RTVSPost2010PropOp48
 70
     1
102
RTVSPost2010Prop49
280
     0
102
RTVSPost2010PropOp49
 70
     1
102
RTVSPost2010Prop50
 90
       50
102
RTVSPost2010PropOp50
 70
     1
102
RTVSPost2010Prop51ColorIndex
 90
      256
102
RTVSPost2010Prop51ColorRGB
 90
-16777216
102
RTVSPost2010PropOp51
 70
     0
102
RTVSPost2010Prop52
140
1.0
102
RTVSPost2010PropOp52
 70
     0
102
RTVSPost2010Prop53
 90
        2
102
RTVSPost2010PropOp53
 70
     1
102
RTVSPost2010Prop54
  1
strokes_ogs.tif
102
RTVSPost2010PropOp54
 70
     1
102
RTVSPost2010Prop55
280
     0
102
RTVSPost2010PropOp55
 70
     1
102
RTVSPost2010Prop56
140
1.0
102
RTVSPost2010PropOp56
 70
     1
102
RTVSPost2010Prop57
140
1.0
102
RTVSPost2010PropOp57
 70
     1
102
RTVSPropertyOp0
 70
     1
102
RTVSPropertyOp1
 70
     1
102
RTVSPropertyOp2
 70
     1
102
RTVSPropertyOp3
 70
     1
102
RTVSPropertyOp4
 70
     1
102
RTVSPropertyOp5
 70
     1
102
RTVSPropertyOp6
 70
     1
102
RTVSPropertyOp7
 70
     1
102
RTVSPropertyOp8
 70
     1
102
RTVSPropertyOp9
 70
     1
102
RTVSPropertyOp10
 70
     1
102
RTVSPropertyOp11
 70
     1
102
RTVSPropertyOp12
 70
     1
102
RTVSPropertyOp13
 70
     1
102
RTVSPropertyOp14
 70
     1
102
RTVSPropertyOp15
 70
     1
102
RTVSPropertyOp16
 70
     1
102
RTVSPropertyOp17
 70
     1
102
RTVSPropertyOp18
 70
     1
102
RTVSPropertyOp19
 70
     1
102
RTVSPropertyOp20
 70
     1
102
RTVSPropertyOp21
 70
     1
102
RTVSPropertyOp22
 70
     1
102
RTVSPropertyOp23
 70
     1
102
RTVSPropertyOp24
 70
     1
102
RTVSPropertyOp25
 70
     1
102
RTVSPropertyOp26
 70
     1
102
RTVSPropertyOp27
 70
     1
102
RTVSPropertyOp28
 70
     1
102
RTVSPropertyOp29
 70
     1
102
RTVSPropertyOp30
 70
     1
102
RTVSPropertyOp31
 70
     1
102
RTVSPropertyOp32
 70
     1
102
RTVSPropertyOp33
 70
     1
102
RTVSPropertyOp34
 70
     1
102
RTVSPropertyOp35
 70
     1
102
RTVSPropertyOp36
 70
     1
102
RTVSPropertyOp37
 70
     1
102
RTVSPropertyOp38
 70
     1
102
RTVSPropertyOp39
 70
     1
102
RTVSPropertyOp40
 70
     1
102
RTVSPropertyOp41
 70
     1
102
RTVSPropertyOp42
 70
     1
102
RTVSPropertyOp43
 70
     1
102
RTVSPropertyOp44
 70
     1
102
RTVSPropertyOp45
 70
     1
102
RTVSPropertyOp46
 70
     1
102
RTVSPropertyOp47
 70
     1
102
RTVSPropertyOp48
 70
     1
102
RTVSPropertyOp49
 70
     1
102
RTVSPropertyOp50
 70
     1
102
RTVSPropertyOp51
 70
     0
102
RTVSPropertyOp52
 70
     0
102
RTVSPropertyOp53
 70
     1
102
RTVSPropertyOp54
 70
     1
102
RTVSPropertyOp55
 70
     1
102
RTVSPropertyOp56
 70
     1
102
RTVSPropertyOp57
 70
     1
102
RTVSPropertyOp58
 70
     1
102
RTVSPropertyOp59
 70
     1
102
RTVSPropertyOp60
 70
     1
102
RTVSPropertyOp61
 70
     1
102
RTVSPropertyOp62
 70
     1
  0
XRECORD
  5
9B543
102
{ACAD_REACTORS
330
9B542
102
}
330
9B542
100
AcDbXrecord
280
     1
102
RTVSPost2010Prop28
280
     0
102
RTVSPost2010PropOp28
 70
     1
102
RTVSPost2010Prop29
280
     1
102
RTVSPost2010PropOp29
 70
     1
102
RTVSPost2010Prop30
280
     1
102
RTVSPost2010PropOp30
 70
     1
102
RTVSPost2010Prop31
280
     0
102
RTVSPost2010PropOp31
 70
     1
102
RTVSPost2010Prop32
280
     0
102
RTVSPost2010PropOp32
 70
     1
102
RTVSPost2010Prop33
280
     0
102
RTVSPost2010PropOp33
 70
     1
102
RTVSPost2010Prop34
280
     0
102
RTVSPost2010PropOp34
 70
     1
102
RTVSPost2010Prop35
280
     0
102
RTVSPost2010PropOp35
 70
     1
102
RTVSPost2010Prop36
280
     0
102
RTVSPost2010PropOp36
 70
     1
102
RTVSPost2010Prop37
 90
       50
102
RTVSPost2010PropOp37
 70
     1
102
RTVSPost2010Prop38
140
0.0
102
RTVSPost2010PropOp38
 70
     1
102
RTVSPost2010Prop39
140
1.0
102
RTVSPost2010PropOp39
 70
     1
102
RTVSPost2010Prop40
 90
        0
102
RTVSPost2010PropOp40
 70
     1
102
RTVSPost2010Prop41ColorIndex
 90
       18
102
RTVSPost2010Prop41ColorRGB
 90
        0
102
RTVSPost2010PropOp41
 70
     1
102
RTVSPost2010Prop42
 90
       50
102
RTVSPost2010PropOp42
 70
     1
102
RTVSPost2010Prop43
 90
        3
102
RTVSPost2010PropOp43
 70
     1
102
RTVSPost2010Prop44ColorIndex
 90
        5
102
RTVSPost2010Prop44ColorRGB
 90
      255
102
RTVSPost2010PropOp44
 70
     1
102
RTVSPost2010Prop45
280
     0
102
RTVSPost2010PropOp45
 70
     1
102
RTVSPost2010Prop46
 90
       50
102
RTVSPost2010PropOp46
 70
     1
102
RTVSPost2010Prop47
 90
       50
102
RTVSPost2010PropOp47
 70
     1
102
RTVSPost2010Prop48
 90
       50
102
RTVSPost2010PropOp48
 70
     1
102
RTVSPost2010Prop49
280
     0
102
RTVSPost2010PropOp49
 70
     1
102
RTVSPost2010Prop50
 90
       50
102
RTVSPost2010PropOp50
 70
     1
102
RTVSPost2010Prop51ColorIndex
 90
      256
102
RTVSPost2010Prop51ColorRGB
 90
-16777216
102
RTVSPost2010PropOp51
 70
     0
102
RTVSPost2010Prop52
140
1.0
102
RTVSPost2010PropOp52
 70
     0
102
RTVSPost2010Prop53
 90
        2
102
RTVSPost2010PropOp53
 70
     1
102
RTVSPost2010Prop54
  1
strokes_ogs.tif
102
RTVSPost2010PropOp54
 70
     1
102
RTVSPost2010Prop55
280
     0
102
RTVSPost2010PropOp55
 70
     1
102
RTVSPost2010Prop56
140
1.0
102
RTVSPost2010PropOp56
 70
     1
102
RTVSPost2010Prop57
140
1.0
102
RTVSPost2010PropOp57
 70
     1
102
RTVSPropertyOp0
 70
     1
102
RTVSPropertyOp1
 70
     1
102
RTVSPropertyOp2
 70
     1
102
RTVSPropertyOp3
 70
     1
102
RTVSPropertyOp4
 70
     1
102
RTVSPropertyOp5
 70
     1
102
RTVSPropertyOp6
 70
     1
102
RTVSPropertyOp7
 70
     1
102
RTVSPropertyOp8
 70
     1
102
RTVSPropertyOp9
 70
     1
102
RTVSPropertyOp10
 70
     1
102
RTVSPropertyOp11
 70
     1
102
RTVSPropertyOp12
 70
     1
102
RTVSPropertyOp13
 70
     1
102
RTVSPropertyOp14
 70
     1
102
RTVSPropertyOp15
 70
     1
102
RTVSPropertyOp16
 70
     1
102
RTVSPropertyOp17
 70
     1
102
RTVSPropertyOp18
 70
     1
102
RTVSPropertyOp19
 70
     1
102
RTVSPropertyOp20
 70
     1
102
RTVSPropertyOp21
 70
     1
102
RTVSPropertyOp22
 70
     1
102
RTVSPropertyOp23
 70
     1
102
RTVSPropertyOp24
 70
     1
102
RTVSPropertyOp25
 70
     1
102
RTVSPropertyOp26
 70
     1
102
RTVSPropertyOp27
 70
     1
102
RTVSPropertyOp28
 70
     1
102
RTVSPropertyOp29
 70
     1
102
RTVSPropertyOp30
 70
     1
102
RTVSPropertyOp31
 70
     1
102
RTVSPropertyOp32
 70
     1
102
RTVSPropertyOp33
 70
     1
102
RTVSPropertyOp34
 70
     1
102
RTVSPropertyOp35
 70
     1
102
RTVSPropertyOp36
 70
     1
102
RTVSPropertyOp37
 70
     1
102
RTVSPropertyOp38
 70
     1
102
RTVSPropertyOp39
 70
     1
102
RTVSPropertyOp40
 70
     1
102
RTVSPropertyOp41
 70
     1
102
RTVSPropertyOp42
 70
     1
102
RTVSPropertyOp43
 70
     1
102
RTVSPropertyOp44
 70
     1
102
RTVSPropertyOp45
 70
     1
102
RTVSPropertyOp46
 70
     1
102
RTVSPropertyOp47
 70
     1
102
RTVSPropertyOp48
 70
     1
102
RTVSPropertyOp49
 70
     1
102
RTVSPropertyOp50
 70
     1
102
RTVSPropertyOp51
 70
     0
102
RTVSPropertyOp52
 70
     0
102
RTVSPropertyOp53
 70
     1
102
RTVSPropertyOp54
 70
     1
102
RTVSPropertyOp55
 70
     1
102
RTVSPropertyOp56
 70
     1
102
RTVSPropertyOp57
 70
     1
102
RTVSPropertyOp58
 70
     1
102
RTVSPropertyOp59
 70
     1
102
RTVSPropertyOp60
 70
     1
102
RTVSPropertyOp61
 70
     1
102
RTVSPropertyOp62
 70
     1
  0
XRECORD
  5
9B541
102
{ACAD_REACTORS
330
9B540
102
}
330
9B540
100
AcDbXrecord
280
     1
102
RTVSPost2010Prop28
280
     0
102
RTVSPost2010PropOp28
 70
     1
102
RTVSPost2010Prop29
280
     1
102
RTVSPost2010PropOp29
 70
     1
102
RTVSPost2010Prop30
280
     1
102
RTVSPost2010PropOp30
 70
     1
102
RTVSPost2010Prop31
280
     0
102
RTVSPost2010PropOp31
 70
     1
102
RTVSPost2010Prop32
280
     0
102
RTVSPost2010PropOp32
 70
     1
102
RTVSPost2010Prop33
280
     0
102
RTVSPost2010PropOp33
 70
     1
102
RTVSPost2010Prop34
280
     0
102
RTVSPost2010PropOp34
 70
     1
102
RTVSPost2010Prop35
280
     0
102
RTVSPost2010PropOp35
 70
     1
102
RTVSPost2010Prop36
280
     0
102
RTVSPost2010PropOp36
 70
     1
102
RTVSPost2010Prop37
 90
       50
102
RTVSPost2010PropOp37
 70
     1
102
RTVSPost2010Prop38
140
0.0
102
RTVSPost2010PropOp38
 70
     1
102
RTVSPost2010Prop39
140
1.0
102
RTVSPost2010PropOp39
 70
     1
102
RTVSPost2010Prop40
 90
        0
102
RTVSPost2010PropOp40
 70
     1
102
RTVSPost2010Prop41ColorIndex
 90
       18
102
RTVSPost2010Prop41ColorRGB
 90
        0
102
RTVSPost2010PropOp41
 70
     1
102
RTVSPost2010Prop42
 90
       50
102
RTVSPost2010PropOp42
 70
     1
102
RTVSPost2010Prop43
 90
        3
102
RTVSPost2010PropOp43
 70
     1
102
RTVSPost2010Prop44ColorIndex
 90
        5
102
RTVSPost2010Prop44ColorRGB
 90
      255
102
RTVSPost2010PropOp44
 70
     1
102
RTVSPost2010Prop45
280
     0
102
RTVSPost2010PropOp45
 70
     1
102
RTVSPost2010Prop46
 90
       50
102
RTVSPost2010PropOp46
 70
     1
102
RTVSPost2010Prop47
 90
       50
102
RTVSPost2010PropOp47
 70
     1
102
RTVSPost2010Prop48
 90
       50
102
RTVSPost2010PropOp48
 70
     1
102
RTVSPost2010Prop49
280
     0
102
RTVSPost2010PropOp49
 70
     1
102
RTVSPost2010Prop50
 90
       50
102
RTVSPost2010PropOp50
 70
     1
102
RTVSPost2010Prop51ColorIndex
 90
      256
102
RTVSPost2010Prop51ColorRGB
 90
-16777216
102
RTVSPost2010PropOp51
 70
     0
102
RTVSPost2010Prop52
140
1.0
102
RTVSPost2010PropOp52
 70
     0
102
RTVSPost2010Prop53
 90
        2
102
RTVSPost2010PropOp53
 70
     1
102
RTVSPost2010Prop54
  1
strokes_ogs.tif
102
RTVSPost2010PropOp54
 70
     1
102
RTVSPost2010Prop55
280
     0
102
RTVSPost2010PropOp55
 70
     1
102
RTVSPost2010Prop56
140
1.0
102
RTVSPost2010PropOp56
 70
     1
102
RTVSPost2010Prop57
140
1.0
102
RTVSPost2010PropOp57
 70
     1
102
RTVSPropertyOp0
 70
     1
102
RTVSPropertyOp1
 70
     1
102
RTVSPropertyOp2
 70
     1
102
RTVSPropertyOp3
 70
     1
102
RTVSPropertyOp4
 70
     1
102
RTVSPropertyOp5
 70
     1
102
RTVSPropertyOp6
 70
     1
102
RTVSPropertyOp7
 70
     1
102
RTVSPropertyOp8
 70
     1
102
RTVSPropertyOp9
 70
     1
102
RTVSPropertyOp10
 70
     1
102
RTVSPropertyOp11
 70
     1
102
RTVSPropertyOp12
 70
     1
102
RTVSPropertyOp13
 70
     1
102
RTVSPropertyOp14
 70
     1
102
RTVSPropertyOp15
 70
     1
102
RTVSPropertyOp16
 70
     1
102
RTVSPropertyOp17
 70
     1
102
RTVSPropertyOp18
 70
     1
102
RTVSPropertyOp19
 70
     1
102
RTVSPropertyOp20
 70
     1
102
RTVSPropertyOp21
 70
     1
102
RTVSPropertyOp22
 70
     1
102
RTVSPropertyOp23
 70
     1
102
RTVSPropertyOp24
 70
     1
102
RTVSPropertyOp25
 70
     1
102
RTVSPropertyOp26
 70
     1
102
RTVSPropertyOp27
 70
     1
102
RTVSPropertyOp28
 70
     1
102
RTVSPropertyOp29
 70
     1
102
RTVSPropertyOp30
 70
     1
102
RTVSPropertyOp31
 70
     1
102
RTVSPropertyOp32
 70
     1
102
RTVSPropertyOp33
 70
     1
102
RTVSPropertyOp34
 70
     1
102
RTVSPropertyOp35
 70
     1
102
RTVSPropertyOp36
 70
     1
102
RTVSPropertyOp37
 70
     1
102
RTVSPropertyOp38
 70
     1
102
RTVSPropertyOp39
 70
     1
102
RTVSPropertyOp40
 70
     1
102
RTVSPropertyOp41
 70
     1
102
RTVSPropertyOp42
 70
     1
102
RTVSPropertyOp43
 70
     1
102
RTVSPropertyOp44
 70
     1
102
RTVSPropertyOp45
 70
     1
102
RTVSPropertyOp46
 70
     1
102
RTVSPropertyOp47
 70
     1
102
RTVSPropertyOp48
 70
     1
102
RTVSPropertyOp49
 70
     1
102
RTVSPropertyOp50
 70
     1
102
RTVSPropertyOp51
 70
     0
102
RTVSPropertyOp52
 70
     0
102
RTVSPropertyOp53
 70
     1
102
RTVSPropertyOp54
 70
     1
102
RTVSPropertyOp55
 70
     1
102
RTVSPropertyOp56
 70
     1
102
RTVSPropertyOp57
 70
     1
102
RTVSPropertyOp58
 70
     1
102
RTVSPropertyOp59
 70
     1
102
RTVSPropertyOp60
 70
     1
102
RTVSPropertyOp61
 70
     1
102
RTVSPropertyOp62
 70
     1
  0
XRECORD
  5
9B53D
102
{ACAD_REACTORS
330
9B53C
102
}
330
9B53C
100
AcDbXrecord
280
     1
102
RTVSPost2010Prop28
280
     0
102
RTVSPost2010PropOp28
 70
     1
102
RTVSPost2010Prop29
280
     1
102
RTVSPost2010PropOp29
 70
     1
102
RTVSPost2010Prop30
280
     1
102
RTVSPost2010PropOp30
 70
     1
102
RTVSPost2010Prop31
280
     0
102
RTVSPost2010PropOp31
 70
     1
102
RTVSPost2010Prop32
280
     0
102
RTVSPost2010PropOp32
 70
     1
102
RTVSPost2010Prop33
280
     0
102
RTVSPost2010PropOp33
 70
     1
102
RTVSPost2010Prop34
280
     0
102
RTVSPost2010PropOp34
 70
     1
102
RTVSPost2010Prop35
280
     0
102
RTVSPost2010PropOp35
 70
     1
102
RTVSPost2010Prop36
280
     0
102
RTVSPost2010PropOp36
 70
     1
102
RTVSPost2010Prop37
 90
       50
102
RTVSPost2010PropOp37
 70
     1
102
RTVSPost2010Prop38
140
0.0
102
RTVSPost2010PropOp38
 70
     1
102
RTVSPost2010Prop39
140
1.0
102
RTVSPost2010PropOp39
 70
     1
102
RTVSPost2010Prop40
 90
        0
102
RTVSPost2010PropOp40
 70
     1
102
RTVSPost2010Prop41ColorIndex
 90
       18
102
RTVSPost2010Prop41ColorRGB
 90
        0
102
RTVSPost2010PropOp41
 70
     1
102
RTVSPost2010Prop42
 90
       50
102
RTVSPost2010PropOp42
 70
     1
102
RTVSPost2010Prop43
 90
        3
102
RTVSPost2010PropOp43
 70
     1
102
RTVSPost2010Prop44ColorIndex
 90
        5
102
RTVSPost2010Prop44ColorRGB
 90
      255
102
RTVSPost2010PropOp44
 70
     1
102
RTVSPost2010Prop45
280
     0
102
RTVSPost2010PropOp45
 70
     1
102
RTVSPost2010Prop46
 90
       50
102
RTVSPost2010PropOp46
 70
     1
102
RTVSPost2010Prop47
 90
       50
102
RTVSPost2010PropOp47
 70
     1
102
RTVSPost2010Prop48
 90
       50
102
RTVSPost2010PropOp48
 70
     1
102
RTVSPost2010Prop49
280
     0
102
RTVSPost2010PropOp49
 70
     1
102
RTVSPost2010Prop50
 90
       50
102
RTVSPost2010PropOp50
 70
     1
102
RTVSPost2010Prop51ColorIndex
 90
      256
102
RTVSPost2010Prop51ColorRGB
 90
-16777216
102
RTVSPost2010PropOp51
 70
     0
102
RTVSPost2010Prop52
140
1.0
102
RTVSPost2010PropOp52
 70
     0
102
RTVSPost2010Prop53
 90
        2
102
RTVSPost2010PropOp53
 70
     1
102
RTVSPost2010Prop54
  1
strokes_ogs.tif
102
RTVSPost2010PropOp54
 70
     1
102
RTVSPost2010Prop55
280
     0
102
RTVSPost2010PropOp55
 70
     1
102
RTVSPost2010Prop56
140
1.0
102
RTVSPost2010PropOp56
 70
     1
102
RTVSPost2010Prop57
140
1.0
102
RTVSPost2010PropOp57
 70
     1
102
RTVSPropertyOp0
 70
     1
102
RTVSPropertyOp1
 70
     1
102
RTVSPropertyOp2
 70
     1
102
RTVSPropertyOp3
 70
     1
102
RTVSPropertyOp4
 70
     1
102
RTVSPropertyOp5
 70
     1
102
RTVSPropertyOp6
 70
     1
102
RTVSPropertyOp7
 70
     1
102
RTVSPropertyOp8
 70
     1
102
RTVSPropertyOp9
 70
     1
102
RTVSPropertyOp10
 70
     1
102
RTVSPropertyOp11
 70
     1
102
RTVSPropertyOp12
 70
     1
102
RTVSPropertyOp13
 70
     1
102
RTVSPropertyOp14
 70
     1
102
RTVSPropertyOp15
 70
     1
102
RTVSPropertyOp16
 70
     1
102
RTVSPropertyOp17
 70
     1
102
RTVSPropertyOp18
 70
     1
102
RTVSPropertyOp19
 70
     1
102
RTVSPropertyOp20
 70
     1
102
RTVSPropertyOp21
 70
     1
102
RTVSPropertyOp22
 70
     1
102
RTVSPropertyOp23
 70
     1
102
RTVSPropertyOp24
 70
     1
102
RTVSPropertyOp25
 70
     1
102
RTVSPropertyOp26
 70
     1
102
RTVSPropertyOp27
 70
     1
102
RTVSPropertyOp28
 70
     1
102
RTVSPropertyOp29
 70
     1
102
RTVSPropertyOp30
 70
     1
102
RTVSPropertyOp31
 70
     1
102
RTVSPropertyOp32
 70
     1
102
RTVSPropertyOp33
 70
     1
102
RTVSPropertyOp34
 70
     1
102
RTVSPropertyOp35
 70
     1
102
RTVSPropertyOp36
 70
     1
102
RTVSPropertyOp37
 70
     1
102
RTVSPropertyOp38
 70
     1
102
RTVSPropertyOp39
 70
     1
102
RTVSPropertyOp40
 70
     1
102
RTVSPropertyOp41
 70
     1
102
RTVSPropertyOp42
 70
     1
102
RTVSPropertyOp43
 70
     1
102
RTVSPropertyOp44
 70
     1
102
RTVSPropertyOp45
 70
     1
102
RTVSPropertyOp46
 70
     1
102
RTVSPropertyOp47
 70
     1
102
RTVSPropertyOp48
 70
     1
102
RTVSPropertyOp49
 70
     1
102
RTVSPropertyOp50
 70
     1
102
RTVSPropertyOp51
 70
     0
102
RTVSPropertyOp52
 70
     0
102
RTVSPropertyOp53
 70
     1
102
RTVSPropertyOp54
 70
     1
102
RTVSPropertyOp55
 70
     1
102
RTVSPropertyOp56
 70
     1
102
RTVSPropertyOp57
 70
     1
102
RTVSPropertyOp58
 70
     1
102
RTVSPropertyOp59
 70
     1
102
RTVSPropertyOp60
 70
     1
102
RTVSPropertyOp61
 70
     1
102
RTVSPropertyOp62
 70
     1
  0
XRECORD
  5
9B54B
102
{ACAD_REACTORS
330
9B54A
102
}
330
9B54A
100
AcDbXrecord
280
     1
102
RTVSPost2010Prop28
280
     0
102
RTVSPost2010PropOp28
 70
     1
102
RTVSPost2010Prop29
280
     1
102
RTVSPost2010PropOp29
 70
     1
102
RTVSPost2010Prop30
280
     1
102
RTVSPost2010PropOp30
 70
     1
102
RTVSPost2010Prop31
280
     0
102
RTVSPost2010PropOp31
 70
     1
102
RTVSPost2010Prop32
280
     0
102
RTVSPost2010PropOp32
 70
     1
102
RTVSPost2010Prop33
280
     0
102
RTVSPost2010PropOp33
 70
     1
102
RTVSPost2010Prop34
280
     0
102
RTVSPost2010PropOp34
 70
     1
102
RTVSPost2010Prop35
280
     0
102
RTVSPost2010PropOp35
 70
     1
102
RTVSPost2010Prop36
280
     0
102
RTVSPost2010PropOp36
 70
     1
102
RTVSPost2010Prop37
 90
       50
102
RTVSPost2010PropOp37
 70
     1
102
RTVSPost2010Prop38
140
0.0
102
RTVSPost2010PropOp38
 70
     1
102
RTVSPost2010Prop39
140
1.0
102
RTVSPost2010PropOp39
 70
     1
102
RTVSPost2010Prop40
 90
        0
102
RTVSPost2010PropOp40
 70
     1
102
RTVSPost2010Prop41ColorIndex
 90
       18
102
RTVSPost2010Prop41ColorRGB
 90
        0
102
RTVSPost2010PropOp41
 70
     1
102
RTVSPost2010Prop42
 90
       50
102
RTVSPost2010PropOp42
 70
     1
102
RTVSPost2010Prop43
 90
        3
102
RTVSPost2010PropOp43
 70
     1
102
RTVSPost2010Prop44ColorIndex
 90
        5
102
RTVSPost2010Prop44ColorRGB
 90
      255
102
RTVSPost2010PropOp44
 70
     1
102
RTVSPost2010Prop45
280
     0
102
RTVSPost2010PropOp45
 70
     1
102
RTVSPost2010Prop46
 90
       50
102
RTVSPost2010PropOp46
 70
     1
102
RTVSPost2010Prop47
 90
       50
102
RTVSPost2010PropOp47
 70
     1
102
RTVSPost2010Prop48
 90
       50
102
RTVSPost2010PropOp48
 70
     1
102
RTVSPost2010Prop49
280
     0
102
RTVSPost2010PropOp49
 70
     1
102
RTVSPost2010Prop50
 90
       50
102
RTVSPost2010PropOp50
 70
     1
102
RTVSPost2010Prop51ColorIndex
 90
      256
102
RTVSPost2010Prop51ColorRGB
 90
-16777216
102
RTVSPost2010PropOp51
 70
     0
102
RTVSPost2010Prop52
140
1.0
102
RTVSPost2010PropOp52
 70
     0
102
RTVSPost2010Prop53
 90
        2
102
RTVSPost2010PropOp53
 70
     1
102
RTVSPost2010Prop54
  1
strokes_ogs.tif
102
RTVSPost2010PropOp54
 70
     1
102
RTVSPost2010Prop55
280
     0
102
RTVSPost2010PropOp55
 70
     1
102
RTVSPost2010Prop56
140
1.0
102
RTVSPost2010PropOp56
 70
     1
102
RTVSPost2010Prop57
140
1.0
102
RTVSPost2010PropOp57
 70
     1
102
RTVSPropertyOp0
 70
     1
102
RTVSPropertyOp1
 70
     1
102
RTVSPropertyOp2
 70
     1
102
RTVSPropertyOp3
 70
     1
102
RTVSPropertyOp4
 70
     1
102
RTVSPropertyOp5
 70
     1
102
RTVSPropertyOp6
 70
     1
102
RTVSPropertyOp7
 70
     1
102
RTVSPropertyOp8
 70
     1
102
RTVSPropertyOp9
 70
     1
102
RTVSPropertyOp10
 70
     1
102
RTVSPropertyOp11
 70
     1
102
RTVSPropertyOp12
 70
     1
102
RTVSPropertyOp13
 70
     1
102
RTVSPropertyOp14
 70
     1
102
RTVSPropertyOp15
 70
     1
102
RTVSPropertyOp16
 70
     1
102
RTVSPropertyOp17
 70
     1
102
RTVSPropertyOp18
 70
     1
102
RTVSPropertyOp19
 70
     1
102
RTVSPropertyOp20
 70
     1
102
RTVSPropertyOp21
 70
     1
102
RTVSPropertyOp22
 70
     1
102
RTVSPropertyOp23
 70
     1
102
RTVSPropertyOp24
 70
     1
102
RTVSPropertyOp25
 70
     1
102
RTVSPropertyOp26
 70
     1
102
RTVSPropertyOp27
 70
     1
102
RTVSPropertyOp28
 70
     1
102
RTVSPropertyOp29
 70
     1
102
RTVSPropertyOp30
 70
     1
102
RTVSPropertyOp31
 70
     1
102
RTVSPropertyOp32
 70
     1
102
RTVSPropertyOp33
 70
     1
102
RTVSPropertyOp34
 70
     1
102
RTVSPropertyOp35
 70
     1
102
RTVSPropertyOp36
 70
     1
102
RTVSPropertyOp37
 70
     1
102
RTVSPropertyOp38
 70
     1
102
RTVSPropertyOp39
 70
     1
102
RTVSPropertyOp40
 70
     1
102
RTVSPropertyOp41
 70
     1
102
RTVSPropertyOp42
 70
     1
102
RTVSPropertyOp43
 70
     1
102
RTVSPropertyOp44
 70
     1
102
RTVSPropertyOp45
 70
     1
102
RTVSPropertyOp46
 70
     1
102
RTVSPropertyOp47
 70
     1
102
RTVSPropertyOp48
 70
     1
102
RTVSPropertyOp49
 70
     1
102
RTVSPropertyOp50
 70
     1
102
RTVSPropertyOp51
 70
     0
102
RTVSPropertyOp52
 70
     0
102
RTVSPropertyOp53
 70
     1
102
RTVSPropertyOp54
 70
     1
102
RTVSPropertyOp55
 70
     1
102
RTVSPropertyOp56
 70
     1
102
RTVSPropertyOp57
 70
     1
102
RTVSPropertyOp58
 70
     1
102
RTVSPropertyOp59
 70
     1
102
RTVSPropertyOp60
 70
     1
102
RTVSPropertyOp61
 70
     1
102
RTVSPropertyOp62
 70
     1
  0
XRECORD
  5
9B553
102
{ACAD_REACTORS
330
9B552
102
}
330
9B552
100
AcDbXrecord
280
     1
102
RTVSPost2010Prop28
280
     0
102
RTVSPost2010PropOp28
 70
     1
102
RTVSPost2010Prop29
280
     1
102
RTVSPost2010PropOp29
 70
     1
102
RTVSPost2010Prop30
280
     1
102
RTVSPost2010PropOp30
 70
     1
102
RTVSPost2010Prop31
280
     0
102
RTVSPost2010PropOp31
 70
     1
102
RTVSPost2010Prop32
280
     0
102
RTVSPost2010PropOp32
 70
     1
102
RTVSPost2010Prop33
280
     0
102
RTVSPost2010PropOp33
 70
     1
102
RTVSPost2010Prop34
280
     0
102
RTVSPost2010PropOp34
 70
     1
102
RTVSPost2010Prop35
280
     0
102
RTVSPost2010PropOp35
 70
     1
102
RTVSPost2010Prop36
280
     0
102
RTVSPost2010PropOp36
 70
     1
102
RTVSPost2010Prop37
 90
       50
102
RTVSPost2010PropOp37
 70
     1
102
RTVSPost2010Prop38
140
0.0
102
RTVSPost2010PropOp38
 70
     1
102
RTVSPost2010Prop39
140
1.0
102
RTVSPost2010PropOp39
 70
     1
102
RTVSPost2010Prop40
 90
        0
102
RTVSPost2010PropOp40
 70
     1
102
RTVSPost2010Prop41ColorIndex
 90
       18
102
RTVSPost2010Prop41ColorRGB
 90
        0
102
RTVSPost2010PropOp41
 70
     1
102
RTVSPost2010Prop42
 90
       50
102
RTVSPost2010PropOp42
 70
     1
102
RTVSPost2010Prop43
 90
        3
102
RTVSPost2010PropOp43
 70
     1
102
RTVSPost2010Prop44ColorIndex
 90
        5
102
RTVSPost2010Prop44ColorRGB
 90
      255
102
RTVSPost2010PropOp44
 70
     1
102
RTVSPost2010Prop45
280
     0
102
RTVSPost2010PropOp45
 70
     1
102
RTVSPost2010Prop46
 90
       50
102
RTVSPost2010PropOp46
 70
     1
102
RTVSPost2010Prop47
 90
       50
102
RTVSPost2010PropOp47
 70
     1
102
RTVSPost2010Prop48
 90
       50
102
RTVSPost2010PropOp48
 70
     1
102
RTVSPost2010Prop49
280
     0
102
RTVSPost2010PropOp49
 70
     1
102
RTVSPost2010Prop50
 90
       50
102
RTVSPost2010PropOp50
 70
     1
102
RTVSPost2010Prop51ColorIndex
 90
      256
102
RTVSPost2010Prop51ColorRGB
 90
-16777216
102
RTVSPost2010PropOp51
 70
     0
102
RTVSPost2010Prop52
140
1.0
102
RTVSPost2010PropOp52
 70
     0
102
RTVSPost2010Prop53
 90
        2
102
RTVSPost2010PropOp53
 70
     1
102
RTVSPost2010Prop54
  1
strokes_ogs.tif
102
RTVSPost2010PropOp54
 70
     1
102
RTVSPost2010Prop55
280
     0
102
RTVSPost2010PropOp55
 70
     1
102
RTVSPost2010Prop56
140
1.0
102
RTVSPost2010PropOp56
 70
     1
102
RTVSPost2010Prop57
140
1.0
102
RTVSPost2010PropOp57
 70
     1
102
RTVSPropertyOp0
 70
     1
102
RTVSPropertyOp1
 70
     1
102
RTVSPropertyOp2
 70
     1
102
RTVSPropertyOp3
 70
     1
102
RTVSPropertyOp4
 70
     1
102
RTVSPropertyOp5
 70
     1
102
RTVSPropertyOp6
 70
     1
102
RTVSPropertyOp7
 70
     1
102
RTVSPropertyOp8
 70
     1
102
RTVSPropertyOp9
 70
     1
102
RTVSPropertyOp10
 70
     1
102
RTVSPropertyOp11
 70
     1
102
RTVSPropertyOp12
 70
     1
102
RTVSPropertyOp13
 70
     1
102
RTVSPropertyOp14
 70
     1
102
RTVSPropertyOp15
 70
     1
102
RTVSPropertyOp16
 70
     1
102
RTVSPropertyOp17
 70
     1
102
RTVSPropertyOp18
 70
     1
102
RTVSPropertyOp19
 70
     1
102
RTVSPropertyOp20
 70
     1
102
RTVSPropertyOp21
 70
     1
102
RTVSPropertyOp22
 70
     1
102
RTVSPropertyOp23
 70
     1
102
RTVSPropertyOp24
 70
     1
102
RTVSPropertyOp25
 70
     1
102
RTVSPropertyOp26
 70
     1
102
RTVSPropertyOp27
 70
     1
102
RTVSPropertyOp28
 70
     1
102
RTVSPropertyOp29
 70
     1
102
RTVSPropertyOp30
 70
     1
102
RTVSPropertyOp31
 70
     1
102
RTVSPropertyOp32
 70
     1
102
RTVSPropertyOp33
 70
     1
102
RTVSPropertyOp34
 70
     1
102
RTVSPropertyOp35
 70
     1
102
RTVSPropertyOp36
 70
     1
102
RTVSPropertyOp37
 70
     1
102
RTVSPropertyOp38
 70
     1
102
RTVSPropertyOp39
 70
     1
102
RTVSPropertyOp40
 70
     1
102
RTVSPropertyOp41
 70
     1
102
RTVSPropertyOp42
 70
     1
102
RTVSPropertyOp43
 70
     1
102
RTVSPropertyOp44
 70
     1
102
RTVSPropertyOp45
 70
     1
102
RTVSPropertyOp46
 70
     1
102
RTVSPropertyOp47
 70
     1
102
RTVSPropertyOp48
 70
     1
102
RTVSPropertyOp49
 70
     1
102
RTVSPropertyOp50
 70
     1
102
RTVSPropertyOp51
 70
     0
102
RTVSPropertyOp52
 70
     0
102
RTVSPropertyOp53
 70
     1
102
RTVSPropertyOp54
 70
     1
102
RTVSPropertyOp55
 70
     1
102
RTVSPropertyOp56
 70
     1
102
RTVSPropertyOp57
 70
     1
102
RTVSPropertyOp58
 70
     1
102
RTVSPropertyOp59
 70
     1
102
RTVSPropertyOp60
 70
     1
102
RTVSPropertyOp61
 70
     1
102
RTVSPropertyOp62
 70
     1
  0
XRECORD
  5
9B545
102
{ACAD_REACTORS
330
9B544
102
}
330
9B544
100
AcDbXrecord
280
     1
102
RTVSPost2010Prop28
280
     0
102
RTVSPost2010PropOp28
 70
     1
102
RTVSPost2010Prop29
280
     1
102
RTVSPost2010PropOp29
 70
     1
102
RTVSPost2010Prop30
280
     1
102
RTVSPost2010PropOp30
 70
     1
102
RTVSPost2010Prop31
280
     0
102
RTVSPost2010PropOp31
 70
     1
102
RTVSPost2010Prop32
280
     0
102
RTVSPost2010PropOp32
 70
     1
102
RTVSPost2010Prop33
280
     0
102
RTVSPost2010PropOp33
 70
     1
102
RTVSPost2010Prop34
280
     0
102
RTVSPost2010PropOp34
 70
     1
102
RTVSPost2010Prop35
280
     0
102
RTVSPost2010PropOp35
 70
     1
102
RTVSPost2010Prop36
280
     0
102
RTVSPost2010PropOp36
 70
     1
102
RTVSPost2010Prop37
 90
       50
102
RTVSPost2010PropOp37
 70
     1
102
RTVSPost2010Prop38
140
0.0
102
RTVSPost2010PropOp38
 70
     1
102
RTVSPost2010Prop39
140
1.0
102
RTVSPost2010PropOp39
 70
     1
102
RTVSPost2010Prop40
 90
        0
102
RTVSPost2010PropOp40
 70
     1
102
RTVSPost2010Prop41ColorIndex
 90
       18
102
RTVSPost2010Prop41ColorRGB
 90
        0
102
RTVSPost2010PropOp41
 70
     1
102
RTVSPost2010Prop42
 90
       50
102
RTVSPost2010PropOp42
 70
     1
102
RTVSPost2010Prop43
 90
        3
102
RTVSPost2010PropOp43
 70
     1
102
RTVSPost2010Prop44ColorIndex
 90
        5
102
RTVSPost2010Prop44ColorRGB
 90
      255
102
RTVSPost2010PropOp44
 70
     1
102
RTVSPost2010Prop45
280
     0
102
RTVSPost2010PropOp45
 70
     1
102
RTVSPost2010Prop46
 90
       50
102
RTVSPost2010PropOp46
 70
     1
102
RTVSPost2010Prop47
 90
       50
102
RTVSPost2010PropOp47
 70
     1
102
RTVSPost2010Prop48
 90
       50
102
RTVSPost2010PropOp48
 70
     1
102
RTVSPost2010Prop49
280
     0
102
RTVSPost2010PropOp49
 70
     1
102
RTVSPost2010Prop50
 90
       50
102
RTVSPost2010PropOp50
 70
     1
102
RTVSPost2010Prop51ColorIndex
 90
      256
102
RTVSPost2010Prop51ColorRGB
 90
-16777216
102
RTVSPost2010PropOp51
 70
     0
102
RTVSPost2010Prop52
140
1.0
102
RTVSPost2010PropOp52
 70
     0
102
RTVSPost2010Prop53
 90
        2
102
RTVSPost2010PropOp53
 70
     1
102
RTVSPost2010Prop54
  1
strokes_ogs.tif
102
RTVSPost2010PropOp54
 70
     1
102
RTVSPost2010Prop55
280
     0
102
RTVSPost2010PropOp55
 70
     1
102
RTVSPost2010Prop56
140
1.0
102
RTVSPost2010PropOp56
 70
     1
102
RTVSPost2010Prop57
140
1.0
102
RTVSPost2010PropOp57
 70
     1
102
RTVSPropertyOp0
 70
     1
102
RTVSPropertyOp1
 70
     1
102
RTVSPropertyOp2
 70
     1
102
RTVSPropertyOp3
 70
     1
102
RTVSPropertyOp4
 70
     1
102
RTVSPropertyOp5
 70
     1
102
RTVSPropertyOp6
 70
     1
102
RTVSPropertyOp7
 70
     1
102
RTVSPropertyOp8
 70
     1
102
RTVSPropertyOp9
 70
     1
102
RTVSPropertyOp10
 70
     1
102
RTVSPropertyOp11
 70
     1
102
RTVSPropertyOp12
 70
     1
102
RTVSPropertyOp13
 70
     1
102
RTVSPropertyOp14
 70
     1
102
RTVSPropertyOp15
 70
     1
102
RTVSPropertyOp16
 70
     1
102
RTVSPropertyOp17
 70
     1
102
RTVSPropertyOp18
 70
     1
102
RTVSPropertyOp19
 70
     1
102
RTVSPropertyOp20
 70
     1
102
RTVSPropertyOp21
 70
     1
102
RTVSPropertyOp22
 70
     1
102
RTVSPropertyOp23
 70
     1
102
RTVSPropertyOp24
 70
     1
102
RTVSPropertyOp25
 70
     1
102
RTVSPropertyOp26
 70
     1
102
RTVSPropertyOp27
 70
     1
102
RTVSPropertyOp28
 70
     1
102
RTVSPropertyOp29
 70
     1
102
RTVSPropertyOp30
 70
     1
102
RTVSPropertyOp31
 70
     1
102
RTVSPropertyOp32
 70
     1
102
RTVSPropertyOp33
 70
     1
102
RTVSPropertyOp34
 70
     1
102
RTVSPropertyOp35
 70
     1
102
RTVSPropertyOp36
 70
     1
102
RTVSPropertyOp37
 70
     1
102
RTVSPropertyOp38
 70
     1
102
RTVSPropertyOp39
 70
     1
102
RTVSPropertyOp40
 70
     1
102
RTVSPropertyOp41
 70
     1
102
RTVSPropertyOp42
 70
     1
102
RTVSPropertyOp43
 70
     1
102
RTVSPropertyOp44
 70
     1
102
RTVSPropertyOp45
 70
     1
102
RTVSPropertyOp46
 70
     1
102
RTVSPropertyOp47
 70
     1
102
RTVSPropertyOp48
 70
     1
102
RTVSPropertyOp49
 70
     1
102
RTVSPropertyOp50
 70
     1
102
RTVSPropertyOp51
 70
     0
102
RTVSPropertyOp52
 70
     0
102
RTVSPropertyOp53
 70
     1
102
RTVSPropertyOp54
 70
     1
102
RTVSPropertyOp55
 70
     1
102
RTVSPropertyOp56
 70
     1
102
RTVSPropertyOp57
 70
     1
102
RTVSPropertyOp58
 70
     1
102
RTVSPropertyOp59
 70
     1
102
RTVSPropertyOp60
 70
     1
102
RTVSPropertyOp61
 70
     1
102
RTVSPropertyOp62
 70
     1
  0
XRECORD
  5
9B549
102
{ACAD_REACTORS
330
9B548
102
}
330
9B548
100
AcDbXrecord
280
     1
102
RTVSPost2010Prop28
280
     0
102
RTVSPost2010PropOp28
 70
     1
102
RTVSPost2010Prop29
280
     1
102
RTVSPost2010PropOp29
 70
     1
102
RTVSPost2010Prop30
280
     1
102
RTVSPost2010PropOp30
 70
     1
102
RTVSPost2010Prop31
280
     0
102
RTVSPost2010PropOp31
 70
     1
102
RTVSPost2010Prop32
280
     0
102
RTVSPost2010PropOp32
 70
     1
102
RTVSPost2010Prop33
280
     0
102
RTVSPost2010PropOp33
 70
     1
102
RTVSPost2010Prop34
280
     0
102
RTVSPost2010PropOp34
 70
     1
102
RTVSPost2010Prop35
280
     0
102
RTVSPost2010PropOp35
 70
     1
102
RTVSPost2010Prop36
280
     0
102
RTVSPost2010PropOp36
 70
     1
102
RTVSPost2010Prop37
 90
       50
102
RTVSPost2010PropOp37
 70
     1
102
RTVSPost2010Prop38
140
0.0
102
RTVSPost2010PropOp38
 70
     1
102
RTVSPost2010Prop39
140
1.0
102
RTVSPost2010PropOp39
 70
     1
102
RTVSPost2010Prop40
 90
        0
102
RTVSPost2010PropOp40
 70
     1
102
RTVSPost2010Prop41ColorIndex
 90
       18
102
RTVSPost2010Prop41ColorRGB
 90
        0
102
RTVSPost2010PropOp41
 70
     1
102
RTVSPost2010Prop42
 90
       50
102
RTVSPost2010PropOp42
 70
     1
102
RTVSPost2010Prop43
 90
        3
102
RTVSPost2010PropOp43
 70
     1
102
RTVSPost2010Prop44ColorIndex
 90
        5
102
RTVSPost2010Prop44ColorRGB
 90
      255
102
RTVSPost2010PropOp44
 70
     1
102
RTVSPost2010Prop45
280
     0
102
RTVSPost2010PropOp45
 70
     1
102
RTVSPost2010Prop46
 90
       50
102
RTVSPost2010PropOp46
 70
     1
102
RTVSPost2010Prop47
 90
       50
102
RTVSPost2010PropOp47
 70
     1
102
RTVSPost2010Prop48
 90
       50
102
RTVSPost2010PropOp48
 70
     1
102
RTVSPost2010Prop49
280
     0
102
RTVSPost2010PropOp49
 70
     1
102
RTVSPost2010Prop50
 90
       50
102
RTVSPost2010PropOp50
 70
     1
102
RTVSPost2010Prop51ColorIndex
 90
      256
102
RTVSPost2010Prop51ColorRGB
 90
-16777216
102
RTVSPost2010PropOp51
 70
     0
102
RTVSPost2010Prop52
140
1.0
102
RTVSPost2010PropOp52
 70
     0
102
RTVSPost2010Prop53
 90
        2
102
RTVSPost2010PropOp53
 70
     1
102
RTVSPost2010Prop54
  1
strokes_ogs.tif
102
RTVSPost2010PropOp54
 70
     1
102
RTVSPost2010Prop55
280
     0
102
RTVSPost2010PropOp55
 70
     1
102
RTVSPost2010Prop56
140
1.0
102
RTVSPost2010PropOp56
 70
     1
102
RTVSPost2010Prop57
140
1.0
102
RTVSPost2010PropOp57
 70
     1
102
RTVSPropertyOp0
 70
     1
102
RTVSPropertyOp1
 70
     1
102
RTVSPropertyOp2
 70
     1
102
RTVSPropertyOp3
 70
     1
102
RTVSPropertyOp4
 70
     1
102
RTVSPropertyOp5
 70
     1
102
RTVSPropertyOp6
 70
     1
102
RTVSPropertyOp7
 70
     1
102
RTVSPropertyOp8
 70
     1
102
RTVSPropertyOp9
 70
     1
102
RTVSPropertyOp10
 70
     1
102
RTVSPropertyOp11
 70
     1
102
RTVSPropertyOp12
 70
     1
102
RTVSPropertyOp13
 70
     1
102
RTVSPropertyOp14
 70
     1
102
RTVSPropertyOp15
 70
     1
102
RTVSPropertyOp16
 70
     1
102
RTVSPropertyOp17
 70
     1
102
RTVSPropertyOp18
 70
     1
102
RTVSPropertyOp19
 70
     1
102
RTVSPropertyOp20
 70
     1
102
RTVSPropertyOp21
 70
     1
102
RTVSPropertyOp22
 70
     1
102
RTVSPropertyOp23
 70
     1
102
RTVSPropertyOp24
 70
     1
102
RTVSPropertyOp25
 70
     1
102
RTVSPropertyOp26
 70
     1
102
RTVSPropertyOp27
 70
     1
102
RTVSPropertyOp28
 70
     1
102
RTVSPropertyOp29
 70
     1
102
RTVSPropertyOp30
 70
     1
102
RTVSPropertyOp31
 70
     1
102
RTVSPropertyOp32
 70
     1
102
RTVSPropertyOp33
 70
     1
102
RTVSPropertyOp34
 70
     1
102
RTVSPropertyOp35
 70
     1
102
RTVSPropertyOp36
 70
     1
102
RTVSPropertyOp37
 70
     1
102
RTVSPropertyOp38
 70
     1
102
RTVSPropertyOp39
 70
     1
102
RTVSPropertyOp40
 70
     1
102
RTVSPropertyOp41
 70
     1
102
RTVSPropertyOp42
 70
     1
102
RTVSPropertyOp43
 70
     1
102
RTVSPropertyOp44
 70
     1
102
RTVSPropertyOp45
 70
     1
102
RTVSPropertyOp46
 70
     1
102
RTVSPropertyOp47
 70
     1
102
RTVSPropertyOp48
 70
     1
102
RTVSPropertyOp49
 70
     1
102
RTVSPropertyOp50
 70
     1
102
RTVSPropertyOp51
 70
     0
102
RTVSPropertyOp52
 70
     0
102
RTVSPropertyOp53
 70
     1
102
RTVSPropertyOp54
 70
     1
102
RTVSPropertyOp55
 70
     1
102
RTVSPropertyOp56
 70
     1
102
RTVSPropertyOp57
 70
     1
102
RTVSPropertyOp58
 70
     1
102
RTVSPropertyOp59
 70
     1
102
RTVSPropertyOp60
 70
     1
102
RTVSPropertyOp61
 70
     1
102
RTVSPropertyOp62
 70
     1
  0
XRECORD
  5
9B568
102
{ACAD_REACTORS
330
9B567
102
}
330
9B567
100
AcDbXrecord
280
     1
102
RTVSPost2010Prop28
280
     0
102
RTVSPost2010PropOp28
 70
     0
102
RTVSPost2010Prop29
280
     1
102
RTVSPost2010PropOp29
 70
     0
102
RTVSPost2010Prop30
280
     1
102
RTVSPost2010PropOp30
 70
     0
102
RTVSPost2010Prop31
280
     0
102
RTVSPost2010PropOp31
 70
     0
102
RTVSPost2010Prop32
280
     0
102
RTVSPost2010PropOp32
 70
     0
102
RTVSPost2010Prop33
280
     0
102
RTVSPost2010PropOp33
 70
     1
102
RTVSPost2010Prop34
280
     0
102
RTVSPost2010PropOp34
 70
     1
102
RTVSPost2010Prop35
280
     0
102
RTVSPost2010PropOp35
 70
     1
102
RTVSPost2010Prop36
280
     0
102
RTVSPost2010PropOp36
 70
     1
102
RTVSPost2010Prop37
 90
       50
102
RTVSPost2010PropOp37
 70
     1
102
RTVSPost2010Prop38
140
0.0
102
RTVSPost2010PropOp38
 70
     1
102
RTVSPost2010Prop39
140
1.0
102
RTVSPost2010PropOp39
 70
     1
102
RTVSPost2010Prop40
 90
        0
102
RTVSPost2010PropOp40
 70
     1
102
RTVSPost2010Prop41ColorIndex
 90
       18
102
RTVSPost2010Prop41ColorRGB
 90
        0
102
RTVSPost2010PropOp41
 70
     1
102
RTVSPost2010Prop42
 90
       50
102
RTVSPost2010PropOp42
 70
     1
102
RTVSPost2010Prop43
 90
        3
102
RTVSPost2010PropOp43
 70
     1
102
RTVSPost2010Prop44ColorIndex
 90
        5
102
RTVSPost2010Prop44ColorRGB
 90
      255
102
RTVSPost2010PropOp44
 70
     1
102
RTVSPost2010Prop45
280
     0
102
RTVSPost2010PropOp45
 70
     1
102
RTVSPost2010Prop46
 90
       50
102
RTVSPost2010PropOp46
 70
     1
102
RTVSPost2010Prop47
 90
       50
102
RTVSPost2010PropOp47
 70
     1
102
RTVSPost2010Prop48
 90
       50
102
RTVSPost2010PropOp48
 70
     1
102
RTVSPost2010Prop49
280
     0
102
RTVSPost2010PropOp49
 70
     1
102
RTVSPost2010Prop50
 90
       50
102
RTVSPost2010PropOp50
 70
     1
102
RTVSPost2010Prop51ColorIndex
 90
      256
102
RTVSPost2010Prop51ColorRGB
 90
-16777216
102
RTVSPost2010PropOp51
 70
     0
102
RTVSPost2010Prop52
140
1.0
102
RTVSPost2010PropOp52
 70
     0
102
RTVSPost2010Prop53
 90
        2
102
RTVSPost2010PropOp53
 70
     1
102
RTVSPost2010Prop54
  1
strokes_ogs.tif
102
RTVSPost2010PropOp54
 70
     1
102
RTVSPost2010Prop55
280
     0
102
RTVSPost2010PropOp55
 70
     1
102
RTVSPost2010Prop56
140
1.0
102
RTVSPost2010PropOp56
 70
     1
102
RTVSPost2010Prop57
140
1.0
102
RTVSPost2010PropOp57
 70
     1
102
RTVSPropertyOp0
 70
     0
102
RTVSPropertyOp1
 70
     0
102
RTVSPropertyOp2
 70
     0
102
RTVSPropertyOp3
 70
     0
102
RTVSPropertyOp4
 70
     0
102
RTVSPropertyOp5
 70
     0
102
RTVSPropertyOp6
 70
     0
102
RTVSPropertyOp7
 70
     0
102
RTVSPropertyOp8
 70
     0
102
RTVSPropertyOp9
 70
     0
102
RTVSPropertyOp10
 70
     0
102
RTVSPropertyOp11
 70
     0
102
RTVSPropertyOp12
 70
     0
102
RTVSPropertyOp13
 70
     0
102
RTVSPropertyOp14
 70
     2
102
RTVSPropertyOp15
 70
     0
102
RTVSPropertyOp16
 70
     0
102
RTVSPropertyOp17
 70
     0
102
RTVSPropertyOp18
 70
     0
102
RTVSPropertyOp19
 70
     0
102
RTVSPropertyOp20
 70
     0
102
RTVSPropertyOp21
 70
     0
102
RTVSPropertyOp22
 70
     0
102
RTVSPropertyOp23
 70
     0
102
RTVSPropertyOp24
 70
     0
102
RTVSPropertyOp25
 70
     0
102
RTVSPropertyOp26
 70
     0
102
RTVSPropertyOp27
 70
     0
102
RTVSPropertyOp28
 70
     0
102
RTVSPropertyOp29
 70
     0
102
RTVSPropertyOp30
 70
     0
102
RTVSPropertyOp31
 70
     0
102
RTVSPropertyOp32
 70
     0
102
RTVSPropertyOp33
 70
     1
102
RTVSPropertyOp34
 70
     1
102
RTVSPropertyOp35
 70
     1
102
RTVSPropertyOp36
 70
     1
102
RTVSPropertyOp37
 70
     1
102
RTVSPropertyOp38
 70
     1
102
RTVSPropertyOp39
 70
     1
102
RTVSPropertyOp40
 70
     1
102
RTVSPropertyOp41
 70
     1
102
RTVSPropertyOp42
 70
     1
102
RTVSPropertyOp43
 70
     1
102
RTVSPropertyOp44
 70
     1
102
RTVSPropertyOp45
 70
     1
102
RTVSPropertyOp46
 70
     1
102
RTVSPropertyOp47
 70
     1
102
RTVSPropertyOp48
 70
     1
102
RTVSPropertyOp49
 70
     1
102
RTVSPropertyOp50
 70
     1
102
RTVSPropertyOp51
 70
     0
102
RTVSPropertyOp52
 70
     0
102
RTVSPropertyOp53
 70
     1
102
RTVSPropertyOp54
 70
     1
102
RTVSPropertyOp55
 70
     1
102
RTVSPropertyOp56
 70
     1
102
RTVSPropertyOp57
 70
     1
102
RTVSPropertyOp58
 70
     1
102
RTVSPropertyOp59
 70
     1
102
RTVSPropertyOp60
 70
     1
102
RTVSPropertyOp61
 70
     1
102
RTVSPropertyOp62
 70
     1
  0
XRECORD
  5
9B551
102
{ACAD_REACTORS
330
9B550
102
}
330
9B550
100
AcDbXrecord
280
     1
102
RTVSPost2010Prop28
280
     0
102
RTVSPost2010PropOp28
 70
     1
102
RTVSPost2010Prop29
280
     1
102
RTVSPost2010PropOp29
 70
     1
102
RTVSPost2010Prop30
280
     1
102
RTVSPost2010PropOp30
 70
     1
102
RTVSPost2010Prop31
280
     0
102
RTVSPost2010PropOp31
 70
     1
102
RTVSPost2010Prop32
280
     0
102
RTVSPost2010PropOp32
 70
     1
102
RTVSPost2010Prop33
280
     0
102
RTVSPost2010PropOp33
 70
     1
102
RTVSPost2010Prop34
280
     0
102
RTVSPost2010PropOp34
 70
     1
102
RTVSPost2010Prop35
280
     0
102
RTVSPost2010PropOp35
 70
     1
102
RTVSPost2010Prop36
280
     0
102
RTVSPost2010PropOp36
 70
     1
102
RTVSPost2010Prop37
 90
       50
102
RTVSPost2010PropOp37
 70
     1
102
RTVSPost2010Prop38
140
0.0
102
RTVSPost2010PropOp38
 70
     1
102
RTVSPost2010Prop39
140
1.0
102
RTVSPost2010PropOp39
 70
     1
102
RTVSPost2010Prop40
 90
        0
102
RTVSPost2010PropOp40
 70
     1
102
RTVSPost2010Prop41ColorIndex
 90
       18
102
RTVSPost2010Prop41ColorRGB
 90
        0
102
RTVSPost2010PropOp41
 70
     1
102
RTVSPost2010Prop42
 90
       50
102
RTVSPost2010PropOp42
 70
     1
102
RTVSPost2010Prop43
 90
        3
102
RTVSPost2010PropOp43
 70
     1
102
RTVSPost2010Prop44ColorIndex
 90
        5
102
RTVSPost2010Prop44ColorRGB
 90
      255
102
RTVSPost2010PropOp44
 70
     1
102
RTVSPost2010Prop45
280
     0
102
RTVSPost2010PropOp45
 70
     1
102
RTVSPost2010Prop46
 90
       50
102
RTVSPost2010PropOp46
 70
     1
102
RTVSPost2010Prop47
 90
       50
102
RTVSPost2010PropOp47
 70
     1
102
RTVSPost2010Prop48
 90
       50
102
RTVSPost2010PropOp48
 70
     1
102
RTVSPost2010Prop49
280
     0
102
RTVSPost2010PropOp49
 70
     1
102
RTVSPost2010Prop50
 90
       50
102
RTVSPost2010PropOp50
 70
     1
102
RTVSPost2010Prop51ColorIndex
 90
      256
102
RTVSPost2010Prop51ColorRGB
 90
-16777216
102
RTVSPost2010PropOp51
 70
     0
102
RTVSPost2010Prop52
140
1.0
102
RTVSPost2010PropOp52
 70
     0
102
RTVSPost2010Prop53
 90
        2
102
RTVSPost2010PropOp53
 70
     1
102
RTVSPost2010Prop54
  1
strokes_ogs.tif
102
RTVSPost2010PropOp54
 70
     1
102
RTVSPost2010Prop55
280
     0
102
RTVSPost2010PropOp55
 70
     1
102
RTVSPost2010Prop56
140
1.0
102
RTVSPost2010PropOp56
 70
     1
102
RTVSPost2010Prop57
140
1.0
102
RTVSPost2010PropOp57
 70
     1
102
RTVSPropertyOp0
 70
     1
102
RTVSPropertyOp1
 70
     1
102
RTVSPropertyOp2
 70
     1
102
RTVSPropertyOp3
 70
     1
102
RTVSPropertyOp4
 70
     1
102
RTVSPropertyOp5
 70
     1
102
RTVSPropertyOp6
 70
     1
102
RTVSPropertyOp7
 70
     1
102
RTVSPropertyOp8
 70
     1
102
RTVSPropertyOp9
 70
     1
102
RTVSPropertyOp10
 70
     1
102
RTVSPropertyOp11
 70
     1
102
RTVSPropertyOp12
 70
     1
102
RTVSPropertyOp13
 70
     1
102
RTVSPropertyOp14
 70
     1
102
RTVSPropertyOp15
 70
     1
102
RTVSPropertyOp16
 70
     1
102
RTVSPropertyOp17
 70
     1
102
RTVSPropertyOp18
 70
     1
102
RTVSPropertyOp19
 70
     1
102
RTVSPropertyOp20
 70
     1
102
RTVSPropertyOp21
 70
     1
102
RTVSPropertyOp22
 70
     1
102
RTVSPropertyOp23
 70
     1
102
RTVSPropertyOp24
 70
     1
102
RTVSPropertyOp25
 70
     1
102
RTVSPropertyOp26
 70
     1
102
RTVSPropertyOp27
 70
     1
102
RTVSPropertyOp28
 70
     1
102
RTVSPropertyOp29
 70
     1
102
RTVSPropertyOp30
 70
     1
102
RTVSPropertyOp31
 70
     1
102
RTVSPropertyOp32
 70
     1
102
RTVSPropertyOp33
 70
     1
102
RTVSPropertyOp34
 70
     1
102
RTVSPropertyOp35
 70
     1
102
RTVSPropertyOp36
 70
     1
102
RTVSPropertyOp37
 70
     1
102
RTVSPropertyOp38
 70
     1
102
RTVSPropertyOp39
 70
     1
102
RTVSPropertyOp40
 70
     1
102
RTVSPropertyOp41
 70
     1
102
RTVSPropertyOp42
 70
     1
102
RTVSPropertyOp43
 70
     1
102
RTVSPropertyOp44
 70
     1
102
RTVSPropertyOp45
 70
     1
102
RTVSPropertyOp46
 70
     1
102
RTVSPropertyOp47
 70
     1
102
RTVSPropertyOp48
 70
     1
102
RTVSPropertyOp49
 70
     1
102
RTVSPropertyOp50
 70
     1
102
RTVSPropertyOp51
 70
     0
102
RTVSPropertyOp52
 70
     0
102
RTVSPropertyOp53
 70
     1
102
RTVSPropertyOp54
 70
     1
102
RTVSPropertyOp55
 70
     1
102
RTVSPropertyOp56
 70
     1
102
RTVSPropertyOp57
 70
     1
102
RTVSPropertyOp58
 70
     1
102
RTVSPropertyOp59
 70
     1
102
RTVSPropertyOp60
 70
     1
102
RTVSPropertyOp61
 70
     1
102
RTVSPropertyOp62
 70
     1
  0
XRECORD
  5
9B535
102
{ACAD_REACTORS
330
9B534
102
}
330
9B534
100
AcDbXrecord
280
     1
102
RTVSPost2010Prop28
280
     0
102
RTVSPost2010PropOp28
 70
     1
102
RTVSPost2010Prop29
280
     1
102
RTVSPost2010PropOp29
 70
     1
102
RTVSPost2010Prop30
280
     1
102
RTVSPost2010PropOp30
 70
     1
102
RTVSPost2010Prop31
280
     0
102
RTVSPost2010PropOp31
 70
     1
102
RTVSPost2010Prop32
280
     0
102
RTVSPost2010PropOp32
 70
     1
102
RTVSPost2010Prop33
280
     0
102
RTVSPost2010PropOp33
 70
     1
102
RTVSPost2010Prop34
280
     0
102
RTVSPost2010PropOp34
 70
     1
102
RTVSPost2010Prop35
280
     0
102
RTVSPost2010PropOp35
 70
     1
102
RTVSPost2010Prop36
280
     0
102
RTVSPost2010PropOp36
 70
     1
102
RTVSPost2010Prop37
 90
       50
102
RTVSPost2010PropOp37
 70
     1
102
RTVSPost2010Prop38
140
0.0
102
RTVSPost2010PropOp38
 70
     1
102
RTVSPost2010Prop39
140
1.0
102
RTVSPost2010PropOp39
 70
     1
102
RTVSPost2010Prop40
 90
        0
102
RTVSPost2010PropOp40
 70
     1
102
RTVSPost2010Prop41ColorIndex
 90
       18
102
RTVSPost2010Prop41ColorRGB
 90
        0
102
RTVSPost2010PropOp41
 70
     1
102
RTVSPost2010Prop42
 90
       50
102
RTVSPost2010PropOp42
 70
     1
102
RTVSPost2010Prop43
 90
        3
102
RTVSPost2010PropOp43
 70
     1
102
RTVSPost2010Prop44ColorIndex
 90
        5
102
RTVSPost2010Prop44ColorRGB
 90
      255
102
RTVSPost2010PropOp44
 70
     1
102
RTVSPost2010Prop45
280
     0
102
RTVSPost2010PropOp45
 70
     1
102
RTVSPost2010Prop46
 90
       50
102
RTVSPost2010PropOp46
 70
     1
102
RTVSPost2010Prop47
 90
       50
102
RTVSPost2010PropOp47
 70
     1
102
RTVSPost2010Prop48
 90
       50
102
RTVSPost2010PropOp48
 70
     1
102
RTVSPost2010Prop49
280
     0
102
RTVSPost2010PropOp49
 70
     1
102
RTVSPost2010Prop50
 90
       50
102
RTVSPost2010PropOp50
 70
     1
102
RTVSPost2010Prop51ColorIndex
 90
      256
102
RTVSPost2010Prop51ColorRGB
 90
-16777216
102
RTVSPost2010PropOp51
 70
     0
102
RTVSPost2010Prop52
140
1.0
102
RTVSPost2010PropOp52
 70
     0
102
RTVSPost2010Prop53
 90
        2
102
RTVSPost2010PropOp53
 70
     1
102
RTVSPost2010Prop54
  1
strokes_ogs.tif
102
RTVSPost2010PropOp54
 70
     1
102
RTVSPost2010Prop55
280
     0
102
RTVSPost2010PropOp55
 70
     1
102
RTVSPost2010Prop56
140
1.0
102
RTVSPost2010PropOp56
 70
     1
102
RTVSPost2010Prop57
140
1.0
102
RTVSPost2010PropOp57
 70
     1
102
RTVSPropertyOp0
 70
     1
102
RTVSPropertyOp1
 70
     1
102
RTVSPropertyOp2
 70
     1
102
RTVSPropertyOp3
 70
     1
102
RTVSPropertyOp4
 70
     1
102
RTVSPropertyOp5
 70
     1
102
RTVSPropertyOp6
 70
     1
102
RTVSPropertyOp7
 70
     1
102
RTVSPropertyOp8
 70
     1
102
RTVSPropertyOp9
 70
     1
102
RTVSPropertyOp10
 70
     1
102
RTVSPropertyOp11
 70
     1
102
RTVSPropertyOp12
 70
     1
102
RTVSPropertyOp13
 70
     1
102
RTVSPropertyOp14
 70
     1
102
RTVSPropertyOp15
 70
     1
102
RTVSPropertyOp16
 70
     1
102
RTVSPropertyOp17
 70
     1
102
RTVSPropertyOp18
 70
     1
102
RTVSPropertyOp19
 70
     1
102
RTVSPropertyOp20
 70
     1
102
RTVSPropertyOp21
 70
     1
102
RTVSPropertyOp22
 70
     1
102
RTVSPropertyOp23
 70
     1
102
RTVSPropertyOp24
 70
     1
102
RTVSPropertyOp25
 70
     1
102
RTVSPropertyOp26
 70
     1
102
RTVSPropertyOp27
 70
     1
102
RTVSPropertyOp28
 70
     1
102
RTVSPropertyOp29
 70
     1
102
RTVSPropertyOp30
 70
     1
102
RTVSPropertyOp31
 70
     1
102
RTVSPropertyOp32
 70
     1
102
RTVSPropertyOp33
 70
     1
102
RTVSPropertyOp34
 70
     1
102
RTVSPropertyOp35
 70
     1
102
RTVSPropertyOp36
 70
     1
102
RTVSPropertyOp37
 70
     1
102
RTVSPropertyOp38
 70
     1
102
RTVSPropertyOp39
 70
     1
102
RTVSPropertyOp40
 70
     1
102
RTVSPropertyOp41
 70
     1
102
RTVSPropertyOp42
 70
     1
102
RTVSPropertyOp43
 70
     1
102
RTVSPropertyOp44
 70
     1
102
RTVSPropertyOp45
 70
     1
102
RTVSPropertyOp46
 70
     1
102
RTVSPropertyOp47
 70
     1
102
RTVSPropertyOp48
 70
     1
102
RTVSPropertyOp49
 70
     1
102
RTVSPropertyOp50
 70
     1
102
RTVSPropertyOp51
 70
     0
102
RTVSPropertyOp52
 70
     0
102
RTVSPropertyOp53
 70
     1
102
RTVSPropertyOp54
 70
     1
102
RTVSPropertyOp55
 70
     1
102
RTVSPropertyOp56
 70
     1
102
RTVSPropertyOp57
 70
     1
102
RTVSPropertyOp58
 70
     1
102
RTVSPropertyOp59
 70
     1
102
RTVSPropertyOp60
 70
     1
102
RTVSPropertyOp61
 70
     1
102
RTVSPropertyOp62
 70
     1
  0
XRECORD
  5
9B537
102
{ACAD_REACTORS
330
9B536
102
}
330
9B536
100
AcDbXrecord
280
     1
102
RTVSPost2010Prop28
280
     0
102
RTVSPost2010PropOp28
 70
     1
102
RTVSPost2010Prop29
280
     1
102
RTVSPost2010PropOp29
 70
     1
102
RTVSPost2010Prop30
280
     1
102
RTVSPost2010PropOp30
 70
     1
102
RTVSPost2010Prop31
280
     0
102
RTVSPost2010PropOp31
 70
     1
102
RTVSPost2010Prop32
280
     0
102
RTVSPost2010PropOp32
 70
     1
102
RTVSPost2010Prop33
280
     0
102
RTVSPost2010PropOp33
 70
     1
102
RTVSPost2010Prop34
280
     0
102
RTVSPost2010PropOp34
 70
     1
102
RTVSPost2010Prop35
280
     0
102
RTVSPost2010PropOp35
 70
     1
102
RTVSPost2010Prop36
280
     0
102
RTVSPost2010PropOp36
 70
     1
102
RTVSPost2010Prop37
 90
       50
102
RTVSPost2010PropOp37
 70
     1
102
RTVSPost2010Prop38
140
0.0
102
RTVSPost2010PropOp38
 70
     1
102
RTVSPost2010Prop39
140
1.0
102
RTVSPost2010PropOp39
 70
     1
102
RTVSPost2010Prop40
 90
        0
102
RTVSPost2010PropOp40
 70
     1
102
RTVSPost2010Prop41ColorIndex
 90
       18
102
RTVSPost2010Prop41ColorRGB
 90
        0
102
RTVSPost2010PropOp41
 70
     1
102
RTVSPost2010Prop42
 90
       50
102
RTVSPost2010PropOp42
 70
     1
102
RTVSPost2010Prop43
 90
        3
102
RTVSPost2010PropOp43
 70
     1
102
RTVSPost2010Prop44ColorIndex
 90
        5
102
RTVSPost2010Prop44ColorRGB
 90
      255
102
RTVSPost2010PropOp44
 70
     1
102
RTVSPost2010Prop45
280
     0
102
RTVSPost2010PropOp45
 70
     1
102
RTVSPost2010Prop46
 90
       50
102
RTVSPost2010PropOp46
 70
     1
102
RTVSPost2010Prop47
 90
       50
102
RTVSPost2010PropOp47
 70
     1
102
RTVSPost2010Prop48
 90
       50
102
RTVSPost2010PropOp48
 70
     1
102
RTVSPost2010Prop49
280
     0
102
RTVSPost2010PropOp49
 70
     1
102
RTVSPost2010Prop50
 90
       50
102
RTVSPost2010PropOp50
 70
     1
102
RTVSPost2010Prop51ColorIndex
 90
      256
102
RTVSPost2010Prop51ColorRGB
 90
-16777216
102
RTVSPost2010PropOp51
 70
     0
102
RTVSPost2010Prop52
140
1.0
102
RTVSPost2010PropOp52
 70
     0
102
RTVSPost2010Prop53
 90
        2
102
RTVSPost2010PropOp53
 70
     1
102
RTVSPost2010Prop54
  1
strokes_ogs.tif
102
RTVSPost2010PropOp54
 70
     1
102
RTVSPost2010Prop55
280
     0
102
RTVSPost2010PropOp55
 70
     1
102
RTVSPost2010Prop56
140
1.0
102
RTVSPost2010PropOp56
 70
     1
102
RTVSPost2010Prop57
140
1.0
102
RTVSPost2010PropOp57
 70
     1
102
RTVSPropertyOp0
 70
     1
102
RTVSPropertyOp1
 70
     1
102
RTVSPropertyOp2
 70
     1
102
RTVSPropertyOp3
 70
     1
102
RTVSPropertyOp4
 70
     1
102
RTVSPropertyOp5
 70
     1
102
RTVSPropertyOp6
 70
     1
102
RTVSPropertyOp7
 70
     1
102
RTVSPropertyOp8
 70
     1
102
RTVSPropertyOp9
 70
     1
102
RTVSPropertyOp10
 70
     1
102
RTVSPropertyOp11
 70
     1
102
RTVSPropertyOp12
 70
     1
102
RTVSPropertyOp13
 70
     1
102
RTVSPropertyOp14
 70
     1
102
RTVSPropertyOp15
 70
     1
102
RTVSPropertyOp16
 70
     1
102
RTVSPropertyOp17
 70
     1
102
RTVSPropertyOp18
 70
     1
102
RTVSPropertyOp19
 70
     1
102
RTVSPropertyOp20
 70
     1
102
RTVSPropertyOp21
 70
     1
102
RTVSPropertyOp22
 70
     1
102
RTVSPropertyOp23
 70
     1
102
RTVSPropertyOp24
 70
     1
102
RTVSPropertyOp25
 70
     1
102
RTVSPropertyOp26
 70
     1
102
RTVSPropertyOp27
 70
     1
102
RTVSPropertyOp28
 70
     1
102
RTVSPropertyOp29
 70
     1
102
RTVSPropertyOp30
 70
     1
102
RTVSPropertyOp31
 70
     1
102
RTVSPropertyOp32
 70
     1
102
RTVSPropertyOp33
 70
     1
102
RTVSPropertyOp34
 70
     1
102
RTVSPropertyOp35
 70
     1
102
RTVSPropertyOp36
 70
     1
102
RTVSPropertyOp37
 70
     1
102
RTVSPropertyOp38
 70
     1
102
RTVSPropertyOp39
 70
     1
102
RTVSPropertyOp40
 70
     1
102
RTVSPropertyOp41
 70
     1
102
RTVSPropertyOp42
 70
     1
102
RTVSPropertyOp43
 70
     1
102
RTVSPropertyOp44
 70
     1
102
RTVSPropertyOp45
 70
     1
102
RTVSPropertyOp46
 70
     1
102
RTVSPropertyOp47
 70
     1
102
RTVSPropertyOp48
 70
     1
102
RTVSPropertyOp49
 70
     1
102
RTVSPropertyOp50
 70
     1
102
RTVSPropertyOp51
 70
     0
102
RTVSPropertyOp52
 70
     0
102
RTVSPropertyOp53
 70
     1
102
RTVSPropertyOp54
 70
     1
102
RTVSPropertyOp55
 70
     1
102
RTVSPropertyOp56
 70
     1
102
RTVSPropertyOp57
 70
     1
102
RTVSPropertyOp58
 70
     1
102
RTVSPropertyOp59
 70
     1
102
RTVSPropertyOp60
 70
     1
102
RTVSPropertyOp61
 70
     1
102
RTVSPropertyOp62
 70
     1
  0
XRECORD
  5
9B539
102
{ACAD_REACTORS
330
9B538
102
}
330
9B538
100
AcDbXrecord
280
     1
102
RTVSPost2010Prop28
280
     0
102
RTVSPost2010PropOp28
 70
     1
102
RTVSPost2010Prop29
280
     1
102
RTVSPost2010PropOp29
 70
     1
102
RTVSPost2010Prop30
280
     1
102
RTVSPost2010PropOp30
 70
     1
102
RTVSPost2010Prop31
280
     0
102
RTVSPost2010PropOp31
 70
     1
102
RTVSPost2010Prop32
280
     0
102
RTVSPost2010PropOp32
 70
     1
102
RTVSPost2010Prop33
280
     0
102
RTVSPost2010PropOp33
 70
     1
102
RTVSPost2010Prop34
280
     0
102
RTVSPost2010PropOp34
 70
     1
102
RTVSPost2010Prop35
280
     0
102
RTVSPost2010PropOp35
 70
     1
102
RTVSPost2010Prop36
280
     0
102
RTVSPost2010PropOp36
 70
     1
102
RTVSPost2010Prop37
 90
       50
102
RTVSPost2010PropOp37
 70
     1
102
RTVSPost2010Prop38
140
0.0
102
RTVSPost2010PropOp38
 70
     1
102
RTVSPost2010Prop39
140
1.0
102
RTVSPost2010PropOp39
 70
     1
102
RTVSPost2010Prop40
 90
        0
102
RTVSPost2010PropOp40
 70
     1
102
RTVSPost2010Prop41ColorIndex
 90
       18
102
RTVSPost2010Prop41ColorRGB
 90
        0
102
RTVSPost2010PropOp41
 70
     1
102
RTVSPost2010Prop42
 90
       50
102
RTVSPost2010PropOp42
 70
     1
102
RTVSPost2010Prop43
 90
        3
102
RTVSPost2010PropOp43
 70
     1
102
RTVSPost2010Prop44ColorIndex
 90
        5
102
RTVSPost2010Prop44ColorRGB
 90
      255
102
RTVSPost2010PropOp44
 70
     1
102
RTVSPost2010Prop45
280
     0
102
RTVSPost2010PropOp45
 70
     1
102
RTVSPost2010Prop46
 90
       50
102
RTVSPost2010PropOp46
 70
     1
102
RTVSPost2010Prop47
 90
       50
102
RTVSPost2010PropOp47
 70
     1
102
RTVSPost2010Prop48
 90
       50
102
RTVSPost2010PropOp48
 70
     1
102
RTVSPost2010Prop49
280
     0
102
RTVSPost2010PropOp49
 70
     1
102
RTVSPost2010Prop50
 90
       50
102
RTVSPost2010PropOp50
 70
     1
102
RTVSPost2010Prop51ColorIndex
 90
      256
102
RTVSPost2010Prop51ColorRGB
 90
-16777216
102
RTVSPost2010PropOp51
 70
     0
102
RTVSPost2010Prop52
140
1.0
102
RTVSPost2010PropOp52
 70
     0
102
RTVSPost2010Prop53
 90
        2
102
RTVSPost2010PropOp53
 70
     1
102
RTVSPost2010Prop54
  1
strokes_ogs.tif
102
RTVSPost2010PropOp54
 70
     1
102
RTVSPost2010Prop55
280
     0
102
RTVSPost2010PropOp55
 70
     1
102
RTVSPost2010Prop56
140
1.0
102
RTVSPost2010PropOp56
 70
     1
102
RTVSPost2010Prop57
140
1.0
102
RTVSPost2010PropOp57
 70
     1
102
RTVSPropertyOp0
 70
     1
102
RTVSPropertyOp1
 70
     1
102
RTVSPropertyOp2
 70
     1
102
RTVSPropertyOp3
 70
     1
102
RTVSPropertyOp4
 70
     1
102
RTVSPropertyOp5
 70
     1
102
RTVSPropertyOp6
 70
     1
102
RTVSPropertyOp7
 70
     1
102
RTVSPropertyOp8
 70
     1
102
RTVSPropertyOp9
 70
     1
102
RTVSPropertyOp10
 70
     1
102
RTVSPropertyOp11
 70
     1
102
RTVSPropertyOp12
 70
     1
102
RTVSPropertyOp13
 70
     1
102
RTVSPropertyOp14
 70
     1
102
RTVSPropertyOp15
 70
     1
102
RTVSPropertyOp16
 70
     1
102
RTVSPropertyOp17
 70
     1
102
RTVSPropertyOp18
 70
     1
102
RTVSPropertyOp19
 70
     1
102
RTVSPropertyOp20
 70
     1
102
RTVSPropertyOp21
 70
     1
102
RTVSPropertyOp22
 70
     1
102
RTVSPropertyOp23
 70
     1
102
RTVSPropertyOp24
 70
     1
102
RTVSPropertyOp25
 70
     1
102
RTVSPropertyOp26
 70
     1
102
RTVSPropertyOp27
 70
     1
102
RTVSPropertyOp28
 70
     1
102
RTVSPropertyOp29
 70
     1
102
RTVSPropertyOp30
 70
     1
102
RTVSPropertyOp31
 70
     1
102
RTVSPropertyOp32
 70
     1
102
RTVSPropertyOp33
 70
     1
102
RTVSPropertyOp34
 70
     1
102
RTVSPropertyOp35
 70
     1
102
RTVSPropertyOp36
 70
     1
102
RTVSPropertyOp37
 70
     1
102
RTVSPropertyOp38
 70
     1
102
RTVSPropertyOp39
 70
     1
102
RTVSPropertyOp40
 70
     1
102
RTVSPropertyOp41
 70
     1
102
RTVSPropertyOp42
 70
     1
102
RTVSPropertyOp43
 70
     1
102
RTVSPropertyOp44
 70
     1
102
RTVSPropertyOp45
 70
     1
102
RTVSPropertyOp46
 70
     1
102
RTVSPropertyOp47
 70
     1
102
RTVSPropertyOp48
 70
     1
102
RTVSPropertyOp49
 70
     1
102
RTVSPropertyOp50
 70
     1
102
RTVSPropertyOp51
 70
     0
102
RTVSPropertyOp52
 70
     0
102
RTVSPropertyOp53
 70
     1
102
RTVSPropertyOp54
 70
     1
102
RTVSPropertyOp55
 70
     1
102
RTVSPropertyOp56
 70
     1
102
RTVSPropertyOp57
 70
     1
102
RTVSPropertyOp58
 70
     1
102
RTVSPropertyOp59
 70
     1
102
RTVSPropertyOp60
 70
     1
102
RTVSPropertyOp61
 70
     1
102
RTVSPropertyOp62
 70
     1
  0
XRECORD
  5
9B53B
102
{ACAD_REACTORS
330
9B53A
102
}
330
9B53A
100
AcDbXrecord
280
     1
102
RTVSPost2010Prop28
280
     0
102
RTVSPost2010PropOp28
 70
     1
102
RTVSPost2010Prop29
280
     1
102
RTVSPost2010PropOp29
 70
     1
102
RTVSPost2010Prop30
280
     1
102
RTVSPost2010PropOp30
 70
     1
102
RTVSPost2010Prop31
280
     0
102
RTVSPost2010PropOp31
 70
     1
102
RTVSPost2010Prop32
280
     0
102
RTVSPost2010PropOp32
 70
     1
102
RTVSPost2010Prop33
280
     0
102
RTVSPost2010PropOp33
 70
     1
102
RTVSPost2010Prop34
280
     0
102
RTVSPost2010PropOp34
 70
     1
102
RTVSPost2010Prop35
280
     0
102
RTVSPost2010PropOp35
 70
     1
102
RTVSPost2010Prop36
280
     0
102
RTVSPost2010PropOp36
 70
     1
102
RTVSPost2010Prop37
 90
       50
102
RTVSPost2010PropOp37
 70
     1
102
RTVSPost2010Prop38
140
0.0
102
RTVSPost2010PropOp38
 70
     1
102
RTVSPost2010Prop39
140
1.0
102
RTVSPost2010PropOp39
 70
     1
102
RTVSPost2010Prop40
 90
        0
102
RTVSPost2010PropOp40
 70
     1
102
RTVSPost2010Prop41ColorIndex
 90
       18
102
RTVSPost2010Prop41ColorRGB
 90
        0
102
RTVSPost2010PropOp41
 70
     1
102
RTVSPost2010Prop42
 90
       50
102
RTVSPost2010PropOp42
 70
     1
102
RTVSPost2010Prop43
 90
        3
102
RTVSPost2010PropOp43
 70
     1
102
RTVSPost2010Prop44ColorIndex
 90
        5
102
RTVSPost2010Prop44ColorRGB
 90
      255
102
RTVSPost2010PropOp44
 70
     1
102
RTVSPost2010Prop45
280
     0
102
RTVSPost2010PropOp45
 70
     1
102
RTVSPost2010Prop46
 90
       50
102
RTVSPost2010PropOp46
 70
     1
102
RTVSPost2010Prop47
 90
       50
102
RTVSPost2010PropOp47
 70
     1
102
RTVSPost2010Prop48
 90
       50
102
RTVSPost2010PropOp48
 70
     1
102
RTVSPost2010Prop49
280
     0
102
RTVSPost2010PropOp49
 70
     1
102
RTVSPost2010Prop50
 90
       50
102
RTVSPost2010PropOp50
 70
     1
102
RTVSPost2010Prop51ColorIndex
 90
      256
102
RTVSPost2010Prop51ColorRGB
 90
-16777216
102
RTVSPost2010PropOp51
 70
     0
102
RTVSPost2010Prop52
140
1.0
102
RTVSPost2010PropOp52
 70
     0
102
RTVSPost2010Prop53
 90
        2
102
RTVSPost2010PropOp53
 70
     1
102
RTVSPost2010Prop54
  1
strokes_ogs.tif
102
RTVSPost2010PropOp54
 70
     1
102
RTVSPost2010Prop55
280
     0
102
RTVSPost2010PropOp55
 70
     1
102
RTVSPost2010Prop56
140
1.0
102
RTVSPost2010PropOp56
 70
     1
102
RTVSPost2010Prop57
140
1.0
102
RTVSPost2010PropOp57
 70
     1
102
RTVSPropertyOp0
 70
     1
102
RTVSPropertyOp1
 70
     1
102
RTVSPropertyOp2
 70
     1
102
RTVSPropertyOp3
 70
     1
102
RTVSPropertyOp4
 70
     1
102
RTVSPropertyOp5
 70
     1
102
RTVSPropertyOp6
 70
     1
102
RTVSPropertyOp7
 70
     1
102
RTVSPropertyOp8
 70
     1
102
RTVSPropertyOp9
 70
     1
102
RTVSPropertyOp10
 70
     1
102
RTVSPropertyOp11
 70
     1
102
RTVSPropertyOp12
 70
     1
102
RTVSPropertyOp13
 70
     1
102
RTVSPropertyOp14
 70
     1
102
RTVSPropertyOp15
 70
     1
102
RTVSPropertyOp16
 70
     1
102
RTVSPropertyOp17
 70
     1
102
RTVSPropertyOp18
 70
     1
102
RTVSPropertyOp19
 70
     1
102
RTVSPropertyOp20
 70
     1
102
RTVSPropertyOp21
 70
     1
102
RTVSPropertyOp22
 70
     1
102
RTVSPropertyOp23
 70
     1
102
RTVSPropertyOp24
 70
     1
102
RTVSPropertyOp25
 70
     1
102
RTVSPropertyOp26
 70
     1
102
RTVSPropertyOp27
 70
     1
102
RTVSPropertyOp28
 70
     1
102
RTVSPropertyOp29
 70
     1
102
RTVSPropertyOp30
 70
     1
102
RTVSPropertyOp31
 70
     1
102
RTVSPropertyOp32
 70
     1
102
RTVSPropertyOp33
 70
     1
102
RTVSPropertyOp34
 70
     1
102
RTVSPropertyOp35
 70
     1
102
RTVSPropertyOp36
 70
     1
102
RTVSPropertyOp37
 70
     1
102
RTVSPropertyOp38
 70
     1
102
RTVSPropertyOp39
 70
     1
102
RTVSPropertyOp40
 70
     1
102
RTVSPropertyOp41
 70
     1
102
RTVSPropertyOp42
 70
     1
102
RTVSPropertyOp43
 70
     1
102
RTVSPropertyOp44
 70
     1
102
RTVSPropertyOp45
 70
     1
102
RTVSPropertyOp46
 70
     1
102
RTVSPropertyOp47
 70
     1
102
RTVSPropertyOp48
 70
     1
102
RTVSPropertyOp49
 70
     1
102
RTVSPropertyOp50
 70
     1
102
RTVSPropertyOp51
 70
     0
102
RTVSPropertyOp52
 70
     0
102
RTVSPropertyOp53
 70
     1
102
RTVSPropertyOp54
 70
     1
102
RTVSPropertyOp55
 70
     1
102
RTVSPropertyOp56
 70
     1
102
RTVSPropertyOp57
 70
     1
102
RTVSPropertyOp58
 70
     1
102
RTVSPropertyOp59
 70
     1
102
RTVSPropertyOp60
 70
     1
102
RTVSPropertyOp61
 70
     1
102
RTVSPropertyOp62
 70
     1
  0
XRECORD
  5
9B558
102
{ACAD_REACTORS
330
9B557
102
}
330
9B557
100
AcDbXrecord
280
     1
102
RTVSPost2010Prop28
280
     0
102
RTVSPost2010PropOp28
 70
     1
102
RTVSPost2010Prop29
280
     1
102
RTVSPost2010PropOp29
 70
     1
102
RTVSPost2010Prop30
280
     1
102
RTVSPost2010PropOp30
 70
     1
102
RTVSPost2010Prop31
280
     0
102
RTVSPost2010PropOp31
 70
     1
102
RTVSPost2010Prop32
280
     0
102
RTVSPost2010PropOp32
 70
     1
102
RTVSPost2010Prop33
280
     0
102
RTVSPost2010PropOp33
 70
     1
102
RTVSPost2010Prop34
280
     0
102
RTVSPost2010PropOp34
 70
     1
102
RTVSPost2010Prop35
280
     0
102
RTVSPost2010PropOp35
 70
     1
102
RTVSPost2010Prop36
280
     0
102
RTVSPost2010PropOp36
 70
     1
102
RTVSPost2010Prop37
 90
       50
102
RTVSPost2010PropOp37
 70
     1
102
RTVSPost2010Prop38
140
0.0
102
RTVSPost2010PropOp38
 70
     1
102
RTVSPost2010Prop39
140
1.0
102
RTVSPost2010PropOp39
 70
     1
102
RTVSPost2010Prop40
 90
        0
102
RTVSPost2010PropOp40
 70
     1
102
RTVSPost2010Prop41ColorIndex
 90
       18
102
RTVSPost2010Prop41ColorRGB
 90
        0
102
RTVSPost2010PropOp41
 70
     1
102
RTVSPost2010Prop42
 90
       50
102
RTVSPost2010PropOp42
 70
     1
102
RTVSPost2010Prop43
 90
        3
102
RTVSPost2010PropOp43
 70
     1
102
RTVSPost2010Prop44ColorIndex
 90
        5
102
RTVSPost2010Prop44ColorRGB
 90
      255
102
RTVSPost2010PropOp44
 70
     1
102
RTVSPost2010Prop45
280
     0
102
RTVSPost2010PropOp45
 70
     1
102
RTVSPost2010Prop46
 90
       50
102
RTVSPost2010PropOp46
 70
     1
102
RTVSPost2010Prop47
 90
       50
102
RTVSPost2010PropOp47
 70
     1
102
RTVSPost2010Prop48
 90
       50
102
RTVSPost2010PropOp48
 70
     1
102
RTVSPost2010Prop49
280
     0
102
RTVSPost2010PropOp49
 70
     1
102
RTVSPost2010Prop50
 90
       50
102
RTVSPost2010PropOp50
 70
     1
102
RTVSPost2010Prop51ColorIndex
 90
      256
102
RTVSPost2010Prop51ColorRGB
 90
-16777216
102
RTVSPost2010PropOp51
 70
     0
102
RTVSPost2010Prop52
140
1.0
102
RTVSPost2010PropOp52
 70
     0
102
RTVSPost2010Prop53
 90
        2
102
RTVSPost2010PropOp53
 70
     1
102
RTVSPost2010Prop54
  1
strokes_ogs.tif
102
RTVSPost2010PropOp54
 70
     1
102
RTVSPost2010Prop55
280
     0
102
RTVSPost2010PropOp55
 70
     1
102
RTVSPost2010Prop56
140
1.0
102
RTVSPost2010PropOp56
 70
     1
102
RTVSPost2010Prop57
140
1.0
102
RTVSPost2010PropOp57
 70
     1
102
RTVSPropertyOp0
 70
     1
102
RTVSPropertyOp1
 70
     1
102
RTVSPropertyOp2
 70
     1
102
RTVSPropertyOp3
 70
     1
102
RTVSPropertyOp4
 70
     1
102
RTVSPropertyOp5
 70
     1
102
RTVSPropertyOp6
 70
     1
102
RTVSPropertyOp7
 70
     1
102
RTVSPropertyOp8
 70
     1
102
RTVSPropertyOp9
 70
     1
102
RTVSPropertyOp10
 70
     1
102
RTVSPropertyOp11
 70
     1
102
RTVSPropertyOp12
 70
     1
102
RTVSPropertyOp13
 70
     1
102
RTVSPropertyOp14
 70
     1
102
RTVSPropertyOp15
 70
     1
102
RTVSPropertyOp16
 70
     1
102
RTVSPropertyOp17
 70
     1
102
RTVSPropertyOp18
 70
     1
102
RTVSPropertyOp19
 70
     1
102
RTVSPropertyOp20
 70
     1
102
RTVSPropertyOp21
 70
     1
102
RTVSPropertyOp22
 70
     1
102
RTVSPropertyOp23
 70
     1
102
RTVSPropertyOp24
 70
     1
102
RTVSPropertyOp25
 70
     1
102
RTVSPropertyOp26
 70
     1
102
RTVSPropertyOp27
 70
     1
102
RTVSPropertyOp28
 70
     1
102
RTVSPropertyOp29
 70
     1
102
RTVSPropertyOp30
 70
     1
102
RTVSPropertyOp31
 70
     1
102
RTVSPropertyOp32
 70
     1
102
RTVSPropertyOp33
 70
     1
102
RTVSPropertyOp34
 70
     1
102
RTVSPropertyOp35
 70
     1
102
RTVSPropertyOp36
 70
     1
102
RTVSPropertyOp37
 70
     1
102
RTVSPropertyOp38
 70
     1
102
RTVSPropertyOp39
 70
     1
102
RTVSPropertyOp40
 70
     1
102
RTVSPropertyOp41
 70
     1
102
RTVSPropertyOp42
 70
     1
102
RTVSPropertyOp43
 70
     1
102
RTVSPropertyOp44
 70
     1
102
RTVSPropertyOp45
 70
     1
102
RTVSPropertyOp46
 70
     1
102
RTVSPropertyOp47
 70
     1
102
RTVSPropertyOp48
 70
     1
102
RTVSPropertyOp49
 70
     1
102
RTVSPropertyOp50
 70
     1
102
RTVSPropertyOp51
 70
     0
102
RTVSPropertyOp52
 70
     0
102
RTVSPropertyOp53
 70
     1
102
RTVSPropertyOp54
 70
     1
102
RTVSPropertyOp55
 70
     1
102
RTVSPropertyOp56
 70
     1
102
RTVSPropertyOp57
 70
     1
102
RTVSPropertyOp58
 70
     1
102
RTVSPropertyOp59
 70
     1
102
RTVSPropertyOp60
 70
     1
102
RTVSPropertyOp61
 70
     1
102
RTVSPropertyOp62
 70
     1
  0
XRECORD
  5
9B564
102
{ACAD_REACTORS
330
9B563
102
}
330
9B563
100
AcDbXrecord
280
     1
102
RTVSPost2010Prop28
280
     0
102
RTVSPost2010PropOp28
 70
     0
102
RTVSPost2010Prop29
280
     1
102
RTVSPost2010PropOp29
 70
     0
102
RTVSPost2010Prop30
280
     1
102
RTVSPost2010PropOp30
 70
     0
102
RTVSPost2010Prop31
280
     0
102
RTVSPost2010PropOp31
 70
     0
102
RTVSPost2010Prop32
280
     0
102
RTVSPost2010PropOp32
 70
     0
102
RTVSPost2010Prop33
280
     0
102
RTVSPost2010PropOp33
 70
     1
102
RTVSPost2010Prop34
280
     0
102
RTVSPost2010PropOp34
 70
     1
102
RTVSPost2010Prop35
280
     0
102
RTVSPost2010PropOp35
 70
     1
102
RTVSPost2010Prop36
280
     0
102
RTVSPost2010PropOp36
 70
     1
102
RTVSPost2010Prop37
 90
       50
102
RTVSPost2010PropOp37
 70
     1
102
RTVSPost2010Prop38
140
0.0
102
RTVSPost2010PropOp38
 70
     1
102
RTVSPost2010Prop39
140
1.0
102
RTVSPost2010PropOp39
 70
     1
102
RTVSPost2010Prop40
 90
        0
102
RTVSPost2010PropOp40
 70
     1
102
RTVSPost2010Prop41ColorIndex
 90
       18
102
RTVSPost2010Prop41ColorRGB
 90
        0
102
RTVSPost2010PropOp41
 70
     1
102
RTVSPost2010Prop42
 90
       50
102
RTVSPost2010PropOp42
 70
     1
102
RTVSPost2010Prop43
 90
        3
102
RTVSPost2010PropOp43
 70
     1
102
RTVSPost2010Prop44ColorIndex
 90
        5
102
RTVSPost2010Prop44ColorRGB
 90
      255
102
RTVSPost2010PropOp44
 70
     1
102
RTVSPost2010Prop45
280
     0
102
RTVSPost2010PropOp45
 70
     1
102
RTVSPost2010Prop46
 90
       50
102
RTVSPost2010PropOp46
 70
     1
102
RTVSPost2010Prop47
 90
       50
102
RTVSPost2010PropOp47
 70
     1
102
RTVSPost2010Prop48
 90
       50
102
RTVSPost2010PropOp48
 70
     1
102
RTVSPost2010Prop49
280
     0
102
RTVSPost2010PropOp49
 70
     1
102
RTVSPost2010Prop50
 90
       50
102
RTVSPost2010PropOp50
 70
     1
102
RTVSPost2010Prop51ColorIndex
 90
      256
102
RTVSPost2010Prop51ColorRGB
 90
-16777216
102
RTVSPost2010PropOp51
 70
     0
102
RTVSPost2010Prop52
140
1.0
102
RTVSPost2010PropOp52
 70
     0
102
RTVSPost2010Prop53
 90
        2
102
RTVSPost2010PropOp53
 70
     1
102
RTVSPost2010Prop54
  1
strokes_ogs.tif
102
RTVSPost2010PropOp54
 70
     1
102
RTVSPost2010Prop55
280
     0
102
RTVSPost2010PropOp55
 70
     1
102
RTVSPost2010Prop56
140
1.0
102
RTVSPost2010PropOp56
 70
     1
102
RTVSPost2010Prop57
140
1.0
102
RTVSPost2010PropOp57
 70
     1
102
RTVSPropertyOp0
 70
     0
102
RTVSPropertyOp1
 70
     0
102
RTVSPropertyOp2
 70
     0
102
RTVSPropertyOp3
 70
     0
102
RTVSPropertyOp4
 70
     0
102
RTVSPropertyOp5
 70
     0
102
RTVSPropertyOp6
 70
     0
102
RTVSPropertyOp7
 70
     0
102
RTVSPropertyOp8
 70
     0
102
RTVSPropertyOp9
 70
     0
102
RTVSPropertyOp10
 70
     0
102
RTVSPropertyOp11
 70
     0
102
RTVSPropertyOp12
 70
     0
102
RTVSPropertyOp13
 70
     0
102
RTVSPropertyOp14
 70
     2
102
RTVSPropertyOp15
 70
     0
102
RTVSPropertyOp16
 70
     0
102
RTVSPropertyOp17
 70
     0
102
RTVSPropertyOp18
 70
     0
102
RTVSPropertyOp19
 70
     0
102
RTVSPropertyOp20
 70
     0
102
RTVSPropertyOp21
 70
     0
102
RTVSPropertyOp22
 70
     0
102
RTVSPropertyOp23
 70
     0
102
RTVSPropertyOp24
 70
     0
102
RTVSPropertyOp25
 70
     0
102
RTVSPropertyOp26
 70
     0
102
RTVSPropertyOp27
 70
     0
102
RTVSPropertyOp28
 70
     0
102
RTVSPropertyOp29
 70
     0
102
RTVSPropertyOp30
 70
     0
102
RTVSPropertyOp31
 70
     0
102
RTVSPropertyOp32
 70
     0
102
RTVSPropertyOp33
 70
     1
102
RTVSPropertyOp34
 70
     1
102
RTVSPropertyOp35
 70
     1
102
RTVSPropertyOp36
 70
     1
102
RTVSPropertyOp37
 70
     1
102
RTVSPropertyOp38
 70
     1
102
RTVSPropertyOp39
 70
     1
102
RTVSPropertyOp40
 70
     1
102
RTVSPropertyOp41
 70
     1
102
RTVSPropertyOp42
 70
     1
102
RTVSPropertyOp43
 70
     1
102
RTVSPropertyOp44
 70
     1
102
RTVSPropertyOp45
 70
     1
102
RTVSPropertyOp46
 70
     1
102
RTVSPropertyOp47
 70
     1
102
RTVSPropertyOp48
 70
     1
102
RTVSPropertyOp49
 70
     1
102
RTVSPropertyOp50
 70
     1
102
RTVSPropertyOp51
 70
     0
102
RTVSPropertyOp52
 70
     0
102
RTVSPropertyOp53
 70
     1
102
RTVSPropertyOp54
 70
     1
102
RTVSPropertyOp55
 70
     1
102
RTVSPropertyOp56
 70
     1
102
RTVSPropertyOp57
 70
     1
102
RTVSPropertyOp58
 70
     1
102
RTVSPropertyOp59
 70
     1
102
RTVSPropertyOp60
 70
     1
102
RTVSPropertyOp61
 70
     1
102
RTVSPropertyOp62
 70
     1
  0
XRECORD
  5
9B54F
102
{ACAD_REACTORS
330
9B54E
102
}
330
9B54E
100
AcDbXrecord
280
     1
102
RTVSPost2010Prop28
280
     0
102
RTVSPost2010PropOp28
 70
     1
102
RTVSPost2010Prop29
280
     1
102
RTVSPost2010PropOp29
 70
     1
102
RTVSPost2010Prop30
280
     1
102
RTVSPost2010PropOp30
 70
     1
102
RTVSPost2010Prop31
280
     0
102
RTVSPost2010PropOp31
 70
     1
102
RTVSPost2010Prop32
280
     0
102
RTVSPost2010PropOp32
 70
     1
102
RTVSPost2010Prop33
280
     0
102
RTVSPost2010PropOp33
 70
     1
102
RTVSPost2010Prop34
280
     0
102
RTVSPost2010PropOp34
 70
     1
102
RTVSPost2010Prop35
280
     0
102
RTVSPost2010PropOp35
 70
     1
102
RTVSPost2010Prop36
280
     0
102
RTVSPost2010PropOp36
 70
     1
102
RTVSPost2010Prop37
 90
       50
102
RTVSPost2010PropOp37
 70
     1
102
RTVSPost2010Prop38
140
0.0
102
RTVSPost2010PropOp38
 70
     1
102
RTVSPost2010Prop39
140
1.0
102
RTVSPost2010PropOp39
 70
     1
102
RTVSPost2010Prop40
 90
        0
102
RTVSPost2010PropOp40
 70
     1
102
RTVSPost2010Prop41ColorIndex
 90
       18
102
RTVSPost2010Prop41ColorRGB
 90
        0
102
RTVSPost2010PropOp41
 70
     1
102
RTVSPost2010Prop42
 90
       50
102
RTVSPost2010PropOp42
 70
     1
102
RTVSPost2010Prop43
 90
        3
102
RTVSPost2010PropOp43
 70
     1
102
RTVSPost2010Prop44ColorIndex
 90
        5
102
RTVSPost2010Prop44ColorRGB
 90
      255
102
RTVSPost2010PropOp44
 70
     1
102
RTVSPost2010Prop45
280
     0
102
RTVSPost2010PropOp45
 70
     1
102
RTVSPost2010Prop46
 90
       50
102
RTVSPost2010PropOp46
 70
     1
102
RTVSPost2010Prop47
 90
       50
102
RTVSPost2010PropOp47
 70
     1
102
RTVSPost2010Prop48
 90
       50
102
RTVSPost2010PropOp48
 70
     1
102
RTVSPost2010Prop49
280
     0
102
RTVSPost2010PropOp49
 70
     1
102
RTVSPost2010Prop50
 90
       50
102
RTVSPost2010PropOp50
 70
     1
102
RTVSPost2010Prop51ColorIndex
 90
      256
102
RTVSPost2010Prop51ColorRGB
 90
-16777216
102
RTVSPost2010PropOp51
 70
     0
102
RTVSPost2010Prop52
140
1.0
102
RTVSPost2010PropOp52
 70
     0
102
RTVSPost2010Prop53
 90
        2
102
RTVSPost2010PropOp53
 70
     1
102
RTVSPost2010Prop54
  1
strokes_ogs.tif
102
RTVSPost2010PropOp54
 70
     1
102
RTVSPost2010Prop55
280
     0
102
RTVSPost2010PropOp55
 70
     1
102
RTVSPost2010Prop56
140
1.0
102
RTVSPost2010PropOp56
 70
     1
102
RTVSPost2010Prop57
140
1.0
102
RTVSPost2010PropOp57
 70
     1
102
RTVSPropertyOp0
 70
     1
102
RTVSPropertyOp1
 70
     1
102
RTVSPropertyOp2
 70
     1
102
RTVSPropertyOp3
 70
     1
102
RTVSPropertyOp4
 70
     1
102
RTVSPropertyOp5
 70
     1
102
RTVSPropertyOp6
 70
     1
102
RTVSPropertyOp7
 70
     1
102
RTVSPropertyOp8
 70
     1
102
RTVSPropertyOp9
 70
     1
102
RTVSPropertyOp10
 70
     1
102
RTVSPropertyOp11
 70
     1
102
RTVSPropertyOp12
 70
     1
102
RTVSPropertyOp13
 70
     1
102
RTVSPropertyOp14
 70
     1
102
RTVSPropertyOp15
 70
     1
102
RTVSPropertyOp16
 70
     1
102
RTVSPropertyOp17
 70
     1
102
RTVSPropertyOp18
 70
     1
102
RTVSPropertyOp19
 70
     1
102
RTVSPropertyOp20
 70
     1
102
RTVSPropertyOp21
 70
     1
102
RTVSPropertyOp22
 70
     1
102
RTVSPropertyOp23
 70
     1
102
RTVSPropertyOp24
 70
     1
102
RTVSPropertyOp25
 70
     1
102
RTVSPropertyOp26
 70
     1
102
RTVSPropertyOp27
 70
     1
102
RTVSPropertyOp28
 70
     1
102
RTVSPropertyOp29
 70
     1
102
RTVSPropertyOp30
 70
     1
102
RTVSPropertyOp31
 70
     1
102
RTVSPropertyOp32
 70
     1
102
RTVSPropertyOp33
 70
     1
102
RTVSPropertyOp34
 70
     1
102
RTVSPropertyOp35
 70
     1
102
RTVSPropertyOp36
 70
     1
102
RTVSPropertyOp37
 70
     1
102
RTVSPropertyOp38
 70
     1
102
RTVSPropertyOp39
 70
     1
102
RTVSPropertyOp40
 70
     1
102
RTVSPropertyOp41
 70
     1
102
RTVSPropertyOp42
 70
     1
102
RTVSPropertyOp43
 70
     1
102
RTVSPropertyOp44
 70
     1
102
RTVSPropertyOp45
 70
     1
102
RTVSPropertyOp46
 70
     1
102
RTVSPropertyOp47
 70
     1
102
RTVSPropertyOp48
 70
     1
102
RTVSPropertyOp49
 70
     1
102
RTVSPropertyOp50
 70
     1
102
RTVSPropertyOp51
 70
     0
102
RTVSPropertyOp52
 70
     0
102
RTVSPropertyOp53
 70
     1
102
RTVSPropertyOp54
 70
     1
102
RTVSPropertyOp55
 70
     1
102
RTVSPropertyOp56
 70
     1
102
RTVSPropertyOp57
 70
     1
102
RTVSPropertyOp58
 70
     1
102
RTVSPropertyOp59
 70
     1
102
RTVSPropertyOp60
 70
     1
102
RTVSPropertyOp61
 70
     1
102
RTVSPropertyOp62
 70
     1
  0
XRECORD
  5
9B566
102
{ACAD_REACTORS
330
9B565
102
}
330
9B565
100
AcDbXrecord
280
     1
102
RTVSPost2010Prop28
280
     0
102
RTVSPost2010PropOp28
 70
     0
102
RTVSPost2010Prop29
280
     1
102
RTVSPost2010PropOp29
 70
     0
102
RTVSPost2010Prop30
280
     1
102
RTVSPost2010PropOp30
 70
     0
102
RTVSPost2010Prop31
280
     0
102
RTVSPost2010PropOp31
 70
     0
102
RTVSPost2010Prop32
280
     0
102
RTVSPost2010PropOp32
 70
     0
102
RTVSPost2010Prop33
280
     0
102
RTVSPost2010PropOp33
 70
     1
102
RTVSPost2010Prop34
280
     0
102
RTVSPost2010PropOp34
 70
     1
102
RTVSPost2010Prop35
280
     0
102
RTVSPost2010PropOp35
 70
     1
102
RTVSPost2010Prop36
280
     0
102
RTVSPost2010PropOp36
 70
     1
102
RTVSPost2010Prop37
 90
       50
102
RTVSPost2010PropOp37
 70
     1
102
RTVSPost2010Prop38
140
0.0
102
RTVSPost2010PropOp38
 70
     1
102
RTVSPost2010Prop39
140
1.0
102
RTVSPost2010PropOp39
 70
     1
102
RTVSPost2010Prop40
 90
        0
102
RTVSPost2010PropOp40
 70
     1
102
RTVSPost2010Prop41ColorIndex
 90
       18
102
RTVSPost2010Prop41ColorRGB
 90
        0
102
RTVSPost2010PropOp41
 70
     1
102
RTVSPost2010Prop42
 90
       50
102
RTVSPost2010PropOp42
 70
     1
102
RTVSPost2010Prop43
 90
        3
102
RTVSPost2010PropOp43
 70
     1
102
RTVSPost2010Prop44ColorIndex
 90
        5
102
RTVSPost2010Prop44ColorRGB
 90
      255
102
RTVSPost2010PropOp44
 70
     1
102
RTVSPost2010Prop45
280
     0
102
RTVSPost2010PropOp45
 70
     1
102
RTVSPost2010Prop46
 90
       50
102
RTVSPost2010PropOp46
 70
     1
102
RTVSPost2010Prop47
 90
       50
102
RTVSPost2010PropOp47
 70
     1
102
RTVSPost2010Prop48
 90
       50
102
RTVSPost2010PropOp48
 70
     1
102
RTVSPost2010Prop49
280
     0
102
RTVSPost2010PropOp49
 70
     1
102
RTVSPost2010Prop50
 90
       50
102
RTVSPost2010PropOp50
 70
     1
102
RTVSPost2010Prop51ColorIndex
 90
      256
102
RTVSPost2010Prop51ColorRGB
 90
-16777216
102
RTVSPost2010PropOp51
 70
     0
102
RTVSPost2010Prop52
140
1.0
102
RTVSPost2010PropOp52
 70
     0
102
RTVSPost2010Prop53
 90
        2
102
RTVSPost2010PropOp53
 70
     1
102
RTVSPost2010Prop54
  1
strokes_ogs.tif
102
RTVSPost2010PropOp54
 70
     1
102
RTVSPost2010Prop55
280
     0
102
RTVSPost2010PropOp55
 70
     1
102
RTVSPost2010Prop56
140
1.0
102
RTVSPost2010PropOp56
 70
     1
102
RTVSPost2010Prop57
140
1.0
102
RTVSPost2010PropOp57
 70
     1
102
RTVSPropertyOp0
 70
     0
102
RTVSPropertyOp1
 70
     0
102
RTVSPropertyOp2
 70
     0
102
RTVSPropertyOp3
 70
     0
102
RTVSPropertyOp4
 70
     0
102
RTVSPropertyOp5
 70
     0
102
RTVSPropertyOp6
 70
     0
102
RTVSPropertyOp7
 70
     0
102
RTVSPropertyOp8
 70
     0
102
RTVSPropertyOp9
 70
     0
102
RTVSPropertyOp10
 70
     0
102
RTVSPropertyOp11
 70
     0
102
RTVSPropertyOp12
 70
     0
102
RTVSPropertyOp13
 70
     0
102
RTVSPropertyOp14
 70
     2
102
RTVSPropertyOp15
 70
     0
102
RTVSPropertyOp16
 70
     0
102
RTVSPropertyOp17
 70
     0
102
RTVSPropertyOp18
 70
     0
102
RTVSPropertyOp19
 70
     0
102
RTVSPropertyOp20
 70
     0
102
RTVSPropertyOp21
 70
     0
102
RTVSPropertyOp22
 70
     0
102
RTVSPropertyOp23
 70
     0
102
RTVSPropertyOp24
 70
     0
102
RTVSPropertyOp25
 70
     0
102
RTVSPropertyOp26
 70
     0
102
RTVSPropertyOp27
 70
     0
102
RTVSPropertyOp28
 70
     0
102
RTVSPropertyOp29
 70
     0
102
RTVSPropertyOp30
 70
     0
102
RTVSPropertyOp31
 70
     0
102
RTVSPropertyOp32
 70
     0
102
RTVSPropertyOp33
 70
     1
102
RTVSPropertyOp34
 70
     1
102
RTVSPropertyOp35
 70
     1
102
RTVSPropertyOp36
 70
     1
102
RTVSPropertyOp37
 70
     1
102
RTVSPropertyOp38
 70
     1
102
RTVSPropertyOp39
 70
     1
102
RTVSPropertyOp40
 70
     1
102
RTVSPropertyOp41
 70
     1
102
RTVSPropertyOp42
 70
     1
102
RTVSPropertyOp43
 70
     1
102
RTVSPropertyOp44
 70
     1
102
RTVSPropertyOp45
 70
     1
102
RTVSPropertyOp46
 70
     1
102
RTVSPropertyOp47
 70
     1
102
RTVSPropertyOp48
 70
     1
102
RTVSPropertyOp49
 70
     1
102
RTVSPropertyOp50
 70
     1
102
RTVSPropertyOp51
 70
     0
102
RTVSPropertyOp52
 70
     0
102
RTVSPropertyOp53
 70
     1
102
RTVSPropertyOp54
 70
     1
102
RTVSPropertyOp55
 70
     1
102
RTVSPropertyOp56
 70
     1
102
RTVSPropertyOp57
 70
     1
102
RTVSPropertyOp58
 70
     1
102
RTVSPropertyOp59
 70
     1
102
RTVSPropertyOp60
 70
     1
102
RTVSPropertyOp61
 70
     1
102
RTVSPropertyOp62
 70
     1
  0
XRECORD
  5
9B547
102
{ACAD_REACTORS
330
9B546
102
}
330
9B546
100
AcDbXrecord
280
     1
102
RTVSPost2010Prop28
280
     0
102
RTVSPost2010PropOp28
 70
     1
102
RTVSPost2010Prop29
280
     1
102
RTVSPost2010PropOp29
 70
     1
102
RTVSPost2010Prop30
280
     1
102
RTVSPost2010PropOp30
 70
     1
102
RTVSPost2010Prop31
280
     0
102
RTVSPost2010PropOp31
 70
     1
102
RTVSPost2010Prop32
280
     0
102
RTVSPost2010PropOp32
 70
     1
102
RTVSPost2010Prop33
280
     0
102
RTVSPost2010PropOp33
 70
     1
102
RTVSPost2010Prop34
280
     0
102
RTVSPost2010PropOp34
 70
     1
102
RTVSPost2010Prop35
280
     0
102
RTVSPost2010PropOp35
 70
     1
102
RTVSPost2010Prop36
280
     0
102
RTVSPost2010PropOp36
 70
     1
102
RTVSPost2010Prop37
 90
       50
102
RTVSPost2010PropOp37
 70
     1
102
RTVSPost2010Prop38
140
0.0
102
RTVSPost2010PropOp38
 70
     1
102
RTVSPost2010Prop39
140
1.0
102
RTVSPost2010PropOp39
 70
     1
102
RTVSPost2010Prop40
 90
        0
102
RTVSPost2010PropOp40
 70
     1
102
RTVSPost2010Prop41ColorIndex
 90
       18
102
RTVSPost2010Prop41ColorRGB
 90
        0
102
RTVSPost2010PropOp41
 70
     1
102
RTVSPost2010Prop42
 90
       50
102
RTVSPost2010PropOp42
 70
     1
102
RTVSPost2010Prop43
 90
        3
102
RTVSPost2010PropOp43
 70
     1
102
RTVSPost2010Prop44ColorIndex
 90
        5
102
RTVSPost2010Prop44ColorRGB
 90
      255
102
RTVSPost2010PropOp44
 70
     1
102
RTVSPost2010Prop45
280
     0
102
RTVSPost2010PropOp45
 70
     1
102
RTVSPost2010Prop46
 90
       50
102
RTVSPost2010PropOp46
 70
     1
102
RTVSPost2010Prop47
 90
       50
102
RTVSPost2010PropOp47
 70
     1
102
RTVSPost2010Prop48
 90
       50
102
RTVSPost2010PropOp48
 70
     1
102
RTVSPost2010Prop49
280
     0
102
RTVSPost2010PropOp49
 70
     1
102
RTVSPost2010Prop50
 90
       50
102
RTVSPost2010PropOp50
 70
     1
102
RTVSPost2010Prop51ColorIndex
 90
      256
102
RTVSPost2010Prop51ColorRGB
 90
-16777216
102
RTVSPost2010PropOp51
 70
     0
102
RTVSPost2010Prop52
140
1.0
102
RTVSPost2010PropOp52
 70
     0
102
RTVSPost2010Prop53
 90
        2
102
RTVSPost2010PropOp53
 70
     1
102
RTVSPost2010Prop54
  1
strokes_ogs.tif
102
RTVSPost2010PropOp54
 70
     1
102
RTVSPost2010Prop55
280
     0
102
RTVSPost2010PropOp55
 70
     1
102
RTVSPost2010Prop56
140
1.0
102
RTVSPost2010PropOp56
 70
     1
102
RTVSPost2010Prop57
140
1.0
102
RTVSPost2010PropOp57
 70
     1
102
RTVSPropertyOp0
 70
     1
102
RTVSPropertyOp1
 70
     1
102
RTVSPropertyOp2
 70
     1
102
RTVSPropertyOp3
 70
     1
102
RTVSPropertyOp4
 70
     1
102
RTVSPropertyOp5
 70
     1
102
RTVSPropertyOp6
 70
     1
102
RTVSPropertyOp7
 70
     1
102
RTVSPropertyOp8
 70
     1
102
RTVSPropertyOp9
 70
     1
102
RTVSPropertyOp10
 70
     1
102
RTVSPropertyOp11
 70
     1
102
RTVSPropertyOp12
 70
     1
102
RTVSPropertyOp13
 70
     1
102
RTVSPropertyOp14
 70
     1
102
RTVSPropertyOp15
 70
     1
102
RTVSPropertyOp16
 70
     1
102
RTVSPropertyOp17
 70
     1
102
RTVSPropertyOp18
 70
     1
102
RTVSPropertyOp19
 70
     1
102
RTVSPropertyOp20
 70
     1
102
RTVSPropertyOp21
 70
     1
102
RTVSPropertyOp22
 70
     1
102
RTVSPropertyOp23
 70
     1
102
RTVSPropertyOp24
 70
     1
102
RTVSPropertyOp25
 70
     1
102
RTVSPropertyOp26
 70
     1
102
RTVSPropertyOp27
 70
     1
102
RTVSPropertyOp28
 70
     1
102
RTVSPropertyOp29
 70
     1
102
RTVSPropertyOp30
 70
     1
102
RTVSPropertyOp31
 70
     1
102
RTVSPropertyOp32
 70
     1
102
RTVSPropertyOp33
 70
     1
102
RTVSPropertyOp34
 70
     1
102
RTVSPropertyOp35
 70
     1
102
RTVSPropertyOp36
 70
     1
102
RTVSPropertyOp37
 70
     1
102
RTVSPropertyOp38
 70
     1
102
RTVSPropertyOp39
 70
     1
102
RTVSPropertyOp40
 70
     1
102
RTVSPropertyOp41
 70
     1
102
RTVSPropertyOp42
 70
     1
102
RTVSPropertyOp43
 70
     1
102
RTVSPropertyOp44
 70
     1
102
RTVSPropertyOp45
 70
     1
102
RTVSPropertyOp46
 70
     1
102
RTVSPropertyOp47
 70
     1
102
RTVSPropertyOp48
 70
     1
102
RTVSPropertyOp49
 70
     1
102
RTVSPropertyOp50
 70
     1
102
RTVSPropertyOp51
 70
     0
102
RTVSPropertyOp52
 70
     0
102
RTVSPropertyOp53
 70
     1
102
RTVSPropertyOp54
 70
     1
102
RTVSPropertyOp55
 70
     1
102
RTVSPropertyOp56
 70
     1
102
RTVSPropertyOp57
 70
     1
102
RTVSPropertyOp58
 70
     1
102
RTVSPropertyOp59
 70
     1
102
RTVSPropertyOp60
 70
     1
102
RTVSPropertyOp61
 70
     1
102
RTVSPropertyOp62
 70
     1
  0
XRECORD
  5
9B562
102
{ACAD_REACTORS
330
9B561
102
}
330
9B561
100
AcDbXrecord
280
     1
102
RTVSPost2010Prop28
280
     0
102
RTVSPost2010PropOp28
 70
     1
102
RTVSPost2010Prop29
280
     1
102
RTVSPost2010PropOp29
 70
     1
102
RTVSPost2010Prop30
280
     1
102
RTVSPost2010PropOp30
 70
     1
102
RTVSPost2010Prop31
280
     0
102
RTVSPost2010PropOp31
 70
     1
102
RTVSPost2010Prop32
280
     0
102
RTVSPost2010PropOp32
 70
     1
102
RTVSPost2010Prop33
280
     0
102
RTVSPost2010PropOp33
 70
     1
102
RTVSPost2010Prop34
280
     0
102
RTVSPost2010PropOp34
 70
     1
102
RTVSPost2010Prop35
280
     0
102
RTVSPost2010PropOp35
 70
     1
102
RTVSPost2010Prop36
280
     0
102
RTVSPost2010PropOp36
 70
     1
102
RTVSPost2010Prop37
 90
       50
102
RTVSPost2010PropOp37
 70
     1
102
RTVSPost2010Prop38
140
0.0
102
RTVSPost2010PropOp38
 70
     1
102
RTVSPost2010Prop39
140
1.0
102
RTVSPost2010PropOp39
 70
     1
102
RTVSPost2010Prop40
 90
        0
102
RTVSPost2010PropOp40
 70
     1
102
RTVSPost2010Prop41ColorIndex
 90
       18
102
RTVSPost2010Prop41ColorRGB
 90
        0
102
RTVSPost2010PropOp41
 70
     1
102
RTVSPost2010Prop42
 90
       50
102
RTVSPost2010PropOp42
 70
     1
102
RTVSPost2010Prop43
 90
        3
102
RTVSPost2010PropOp43
 70
     1
102
RTVSPost2010Prop44ColorIndex
 90
        5
102
RTVSPost2010Prop44ColorRGB
 90
      255
102
RTVSPost2010PropOp44
 70
     1
102
RTVSPost2010Prop45
280
     0
102
RTVSPost2010PropOp45
 70
     1
102
RTVSPost2010Prop46
 90
       50
102
RTVSPost2010PropOp46
 70
     1
102
RTVSPost2010Prop47
 90
       50
102
RTVSPost2010PropOp47
 70
     1
102
RTVSPost2010Prop48
 90
       50
102
RTVSPost2010PropOp48
 70
     1
102
RTVSPost2010Prop49
280
     0
102
RTVSPost2010PropOp49
 70
     1
102
RTVSPost2010Prop50
 90
       50
102
RTVSPost2010PropOp50
 70
     1
102
RTVSPost2010Prop51ColorIndex
 90
      256
102
RTVSPost2010Prop51ColorRGB
 90
-16777216
102
RTVSPost2010PropOp51
 70
     0
102
RTVSPost2010Prop52
140
1.0
102
RTVSPost2010PropOp52
 70
     0
102
RTVSPost2010Prop53
 90
        2
102
RTVSPost2010PropOp53
 70
     1
102
RTVSPost2010Prop54
  1
strokes_ogs.tif
102
RTVSPost2010PropOp54
 70
     1
102
RTVSPost2010Prop55
280
     0
102
RTVSPost2010PropOp55
 70
     1
102
RTVSPost2010Prop56
140
1.0
102
RTVSPost2010PropOp56
 70
     1
102
RTVSPost2010Prop57
140
1.0
102
RTVSPost2010PropOp57
 70
     1
102
RTVSPropertyOp0
 70
     1
102
RTVSPropertyOp1
 70
     1
102
RTVSPropertyOp2
 70
     1
102
RTVSPropertyOp3
 70
     1
102
RTVSPropertyOp4
 70
     1
102
RTVSPropertyOp5
 70
     1
102
RTVSPropertyOp6
 70
     1
102
RTVSPropertyOp7
 70
     1
102
RTVSPropertyOp8
 70
     1
102
RTVSPropertyOp9
 70
     1
102
RTVSPropertyOp10
 70
     1
102
RTVSPropertyOp11
 70
     1
102
RTVSPropertyOp12
 70
     1
102
RTVSPropertyOp13
 70
     1
102
RTVSPropertyOp14
 70
     1
102
RTVSPropertyOp15
 70
     1
102
RTVSPropertyOp16
 70
     1
102
RTVSPropertyOp17
 70
     1
102
RTVSPropertyOp18
 70
     1
102
RTVSPropertyOp19
 70
     1
102
RTVSPropertyOp20
 70
     1
102
RTVSPropertyOp21
 70
     1
102
RTVSPropertyOp22
 70
     1
102
RTVSPropertyOp23
 70
     1
102
RTVSPropertyOp24
 70
     1
102
RTVSPropertyOp25
 70
     1
102
RTVSPropertyOp26
 70
     1
102
RTVSPropertyOp27
 70
     1
102
RTVSPropertyOp28
 70
     1
102
RTVSPropertyOp29
 70
     1
102
RTVSPropertyOp30
 70
     1
102
RTVSPropertyOp31
 70
     1
102
RTVSPropertyOp32
 70
     1
102
RTVSPropertyOp33
 70
     1
102
RTVSPropertyOp34
 70
     1
102
RTVSPropertyOp35
 70
     1
102
RTVSPropertyOp36
 70
     1
102
RTVSPropertyOp37
 70
     1
102
RTVSPropertyOp38
 70
     1
102
RTVSPropertyOp39
 70
     1
102
RTVSPropertyOp40
 70
     1
102
RTVSPropertyOp41
 70
     1
102
RTVSPropertyOp42
 70
     1
102
RTVSPropertyOp43
 70
     1
102
RTVSPropertyOp44
 70
     1
102
RTVSPropertyOp45
 70
     1
102
RTVSPropertyOp46
 70
     1
102
RTVSPropertyOp47
 70
     1
102
RTVSPropertyOp48
 70
     1
102
RTVSPropertyOp49
 70
     1
102
RTVSPropertyOp50
 70
     1
102
RTVSPropertyOp51
 70
     0
102
RTVSPropertyOp52
 70
     0
102
RTVSPropertyOp53
 70
     1
102
RTVSPropertyOp54
 70
     1
102
RTVSPropertyOp55
 70
     1
102
RTVSPropertyOp56
 70
     1
102
RTVSPropertyOp57
 70
     1
102
RTVSPropertyOp58
 70
     1
102
RTVSPropertyOp59
 70
     1
102
RTVSPropertyOp60
 70
     1
102
RTVSPropertyOp61
 70
     1
102
RTVSPropertyOp62
 70
     1
  0
XRECORD
  5
9B560
102
{ACAD_REACTORS
330
9B55F
102
}
330
9B55F
100
AcDbXrecord
280
     1
102
RTVSPost2010Prop28
280
     0
102
RTVSPost2010PropOp28
 70
     1
102
RTVSPost2010Prop29
280
     1
102
RTVSPost2010PropOp29
 70
     1
102
RTVSPost2010Prop30
280
     1
102
RTVSPost2010PropOp30
 70
     1
102
RTVSPost2010Prop31
280
     0
102
RTVSPost2010PropOp31
 70
     1
102
RTVSPost2010Prop32
280
     0
102
RTVSPost2010PropOp32
 70
     1
102
RTVSPost2010Prop33
280
     0
102
RTVSPost2010PropOp33
 70
     1
102
RTVSPost2010Prop34
280
     0
102
RTVSPost2010PropOp34
 70
     1
102
RTVSPost2010Prop35
280
     0
102
RTVSPost2010PropOp35
 70
     1
102
RTVSPost2010Prop36
280
     0
102
RTVSPost2010PropOp36
 70
     1
102
RTVSPost2010Prop37
 90
       50
102
RTVSPost2010PropOp37
 70
     1
102
RTVSPost2010Prop38
140
0.0
102
RTVSPost2010PropOp38
 70
     1
102
RTVSPost2010Prop39
140
1.0
102
RTVSPost2010PropOp39
 70
     1
102
RTVSPost2010Prop40
 90
        0
102
RTVSPost2010PropOp40
 70
     1
102
RTVSPost2010Prop41ColorIndex
 90
       18
102
RTVSPost2010Prop41ColorRGB
 90
        0
102
RTVSPost2010PropOp41
 70
     1
102
RTVSPost2010Prop42
 90
       50
102
RTVSPost2010PropOp42
 70
     1
102
RTVSPost2010Prop43
 90
        3
102
RTVSPost2010PropOp43
 70
     1
102
RTVSPost2010Prop44ColorIndex
 90
        5
102
RTVSPost2010Prop44ColorRGB
 90
      255
102
RTVSPost2010PropOp44
 70
     1
102
RTVSPost2010Prop45
280
     0
102
RTVSPost2010PropOp45
 70
     1
102
RTVSPost2010Prop46
 90
       50
102
RTVSPost2010PropOp46
 70
     1
102
RTVSPost2010Prop47
 90
       50
102
RTVSPost2010PropOp47
 70
     1
102
RTVSPost2010Prop48
 90
       50
102
RTVSPost2010PropOp48
 70
     1
102
RTVSPost2010Prop49
280
     0
102
RTVSPost2010PropOp49
 70
     1
102
RTVSPost2010Prop50
 90
       50
102
RTVSPost2010PropOp50
 70
     1
102
RTVSPost2010Prop51ColorIndex
 90
      256
102
RTVSPost2010Prop51ColorRGB
 90
-16777216
102
RTVSPost2010PropOp51
 70
     0
102
RTVSPost2010Prop52
140
1.0
102
RTVSPost2010PropOp52
 70
     0
102
RTVSPost2010Prop53
 90
        2
102
RTVSPost2010PropOp53
 70
     1
102
RTVSPost2010Prop54
  1
strokes_ogs.tif
102
RTVSPost2010PropOp54
 70
     1
102
RTVSPost2010Prop55
280
     0
102
RTVSPost2010PropOp55
 70
     1
102
RTVSPost2010Prop56
140
1.0
102
RTVSPost2010PropOp56
 70
     1
102
RTVSPost2010Prop57
140
1.0
102
RTVSPost2010PropOp57
 70
     1
102
RTVSPropertyOp0
 70
     1
102
RTVSPropertyOp1
 70
     1
102
RTVSPropertyOp2
 70
     1
102
RTVSPropertyOp3
 70
     1
102
RTVSPropertyOp4
 70
     1
102
RTVSPropertyOp5
 70
     1
102
RTVSPropertyOp6
 70
     1
102
RTVSPropertyOp7
 70
     1
102
RTVSPropertyOp8
 70
     1
102
RTVSPropertyOp9
 70
     1
102
RTVSPropertyOp10
 70
     1
102
RTVSPropertyOp11
 70
     1
102
RTVSPropertyOp12
 70
     1
102
RTVSPropertyOp13
 70
     1
102
RTVSPropertyOp14
 70
     1
102
RTVSPropertyOp15
 70
     1
102
RTVSPropertyOp16
 70
     1
102
RTVSPropertyOp17
 70
     1
102
RTVSPropertyOp18
 70
     1
102
RTVSPropertyOp19
 70
     1
102
RTVSPropertyOp20
 70
     1
102
RTVSPropertyOp21
 70
     1
102
RTVSPropertyOp22
 70
     1
102
RTVSPropertyOp23
 70
     1
102
RTVSPropertyOp24
 70
     1
102
RTVSPropertyOp25
 70
     1
102
RTVSPropertyOp26
 70
     1
102
RTVSPropertyOp27
 70
     1
102
RTVSPropertyOp28
 70
     1
102
RTVSPropertyOp29
 70
     1
102
RTVSPropertyOp30
 70
     1
102
RTVSPropertyOp31
 70
     1
102
RTVSPropertyOp32
 70
     1
102
RTVSPropertyOp33
 70
     1
102
RTVSPropertyOp34
 70
     1
102
RTVSPropertyOp35
 70
     1
102
RTVSPropertyOp36
 70
     1
102
RTVSPropertyOp37
 70
     1
102
RTVSPropertyOp38
 70
     1
102
RTVSPropertyOp39
 70
     1
102
RTVSPropertyOp40
 70
     1
102
RTVSPropertyOp41
 70
     1
102
RTVSPropertyOp42
 70
     1
102
RTVSPropertyOp43
 70
     1
102
RTVSPropertyOp44
 70
     1
102
RTVSPropertyOp45
 70
     1
102
RTVSPropertyOp46
 70
     1
102
RTVSPropertyOp47
 70
     1
102
RTVSPropertyOp48
 70
     1
102
RTVSPropertyOp49
 70
     1
102
RTVSPropertyOp50
 70
     1
102
RTVSPropertyOp51
 70
     0
102
RTVSPropertyOp52
 70
     0
102
RTVSPropertyOp53
 70
     1
102
RTVSPropertyOp54
 70
     1
102
RTVSPropertyOp55
 70
     1
102
RTVSPropertyOp56
 70
     1
102
RTVSPropertyOp57
 70
     1
102
RTVSPropertyOp58
 70
     1
102
RTVSPropertyOp59
 70
     1
102
RTVSPropertyOp60
 70
     1
102
RTVSPropertyOp61
 70
     1
102
RTVSPropertyOp62
 70
     1
  0
XRECORD
  5
9B55A
102
{ACAD_REACTORS
330
9B559
102
}
330
9B559
100
AcDbXrecord
280
     1
102
RTVSPost2010Prop28
280
     0
102
RTVSPost2010PropOp28
 70
     1
102
RTVSPost2010Prop29
280
     1
102
RTVSPost2010PropOp29
 70
     1
102
RTVSPost2010Prop30
280
     1
102
RTVSPost2010PropOp30
 70
     1
102
RTVSPost2010Prop31
280
     0
102
RTVSPost2010PropOp31
 70
     1
102
RTVSPost2010Prop32
280
     0
102
RTVSPost2010PropOp32
 70
     1
102
RTVSPost2010Prop33
280
     0
102
RTVSPost2010PropOp33
 70
     1
102
RTVSPost2010Prop34
280
     0
102
RTVSPost2010PropOp34
 70
     1
102
RTVSPost2010Prop35
280
     0
102
RTVSPost2010PropOp35
 70
     1
102
RTVSPost2010Prop36
280
     0
102
RTVSPost2010PropOp36
 70
     1
102
RTVSPost2010Prop37
 90
       50
102
RTVSPost2010PropOp37
 70
     1
102
RTVSPost2010Prop38
140
0.0
102
RTVSPost2010PropOp38
 70
     1
102
RTVSPost2010Prop39
140
1.0
102
RTVSPost2010PropOp39
 70
     1
102
RTVSPost2010Prop40
 90
        0
102
RTVSPost2010PropOp40
 70
     1
102
RTVSPost2010Prop41ColorIndex
 90
       18
102
RTVSPost2010Prop41ColorRGB
 90
        0
102
RTVSPost2010PropOp41
 70
     1
102
RTVSPost2010Prop42
 90
       50
102
RTVSPost2010PropOp42
 70
     1
102
RTVSPost2010Prop43
 90
        3
102
RTVSPost2010PropOp43
 70
     1
102
RTVSPost2010Prop44ColorIndex
 90
        5
102
RTVSPost2010Prop44ColorRGB
 90
      255
102
RTVSPost2010PropOp44
 70
     1
102
RTVSPost2010Prop45
280
     0
102
RTVSPost2010PropOp45
 70
     1
102
RTVSPost2010Prop46
 90
       50
102
RTVSPost2010PropOp46
 70
     1
102
RTVSPost2010Prop47
 90
       50
102
RTVSPost2010PropOp47
 70
     1
102
RTVSPost2010Prop48
 90
       50
102
RTVSPost2010PropOp48
 70
     1
102
RTVSPost2010Prop49
280
     0
102
RTVSPost2010PropOp49
 70
     1
102
RTVSPost2010Prop50
 90
       50
102
RTVSPost2010PropOp50
 70
     1
102
RTVSPost2010Prop51ColorIndex
 90
      256
102
RTVSPost2010Prop51ColorRGB
 90
-16777216
102
RTVSPost2010PropOp51
 70
     0
102
RTVSPost2010Prop52
140
1.0
102
RTVSPost2010PropOp52
 70
     0
102
RTVSPost2010Prop53
 90
        2
102
RTVSPost2010PropOp53
 70
     1
102
RTVSPost2010Prop54
  1
strokes_ogs.tif
102
RTVSPost2010PropOp54
 70
     1
102
RTVSPost2010Prop55
280
     0
102
RTVSPost2010PropOp55
 70
     1
102
RTVSPost2010Prop56
140
1.0
102
RTVSPost2010PropOp56
 70
     1
102
RTVSPost2010Prop57
140
1.0
102
RTVSPost2010PropOp57
 70
     1
102
RTVSPropertyOp0
 70
     1
102
RTVSPropertyOp1
 70
     1
102
RTVSPropertyOp2
 70
     1
102
RTVSPropertyOp3
 70
     1
102
RTVSPropertyOp4
 70
     1
102
RTVSPropertyOp5
 70
     1
102
RTVSPropertyOp6
 70
     1
102
RTVSPropertyOp7
 70
     1
102
RTVSPropertyOp8
 70
     1
102
RTVSPropertyOp9
 70
     1
102
RTVSPropertyOp10
 70
     1
102
RTVSPropertyOp11
 70
     1
102
RTVSPropertyOp12
 70
     1
102
RTVSPropertyOp13
 70
     1
102
RTVSPropertyOp14
 70
     1
102
RTVSPropertyOp15
 70
     1
102
RTVSPropertyOp16
 70
     1
102
RTVSPropertyOp17
 70
     1
102
RTVSPropertyOp18
 70
     1
102
RTVSPropertyOp19
 70
     1
102
RTVSPropertyOp20
 70
     1
102
RTVSPropertyOp21
 70
     1
102
RTVSPropertyOp22
 70
     1
102
RTVSPropertyOp23
 70
     1
102
RTVSPropertyOp24
 70
     1
102
RTVSPropertyOp25
 70
     1
102
RTVSPropertyOp26
 70
     1
102
RTVSPropertyOp27
 70
     1
102
RTVSPropertyOp28
 70
     1
102
RTVSPropertyOp29
 70
     1
102
RTVSPropertyOp30
 70
     1
102
RTVSPropertyOp31
 70
     1
102
RTVSPropertyOp32
 70
     1
102
RTVSPropertyOp33
 70
     1
102
RTVSPropertyOp34
 70
     1
102
RTVSPropertyOp35
 70
     1
102
RTVSPropertyOp36
 70
     1
102
RTVSPropertyOp37
 70
     1
102
RTVSPropertyOp38
 70
     1
102
RTVSPropertyOp39
 70
     1
102
RTVSPropertyOp40
 70
     1
102
RTVSPropertyOp41
 70
     1
102
RTVSPropertyOp42
 70
     1
102
RTVSPropertyOp43
 70
     1
102
RTVSPropertyOp44
 70
     1
102
RTVSPropertyOp45
 70
     1
102
RTVSPropertyOp46
 70
     1
102
RTVSPropertyOp47
 70
     1
102
RTVSPropertyOp48
 70
     1
102
RTVSPropertyOp49
 70
     1
102
RTVSPropertyOp50
 70
     1
102
RTVSPropertyOp51
 70
     0
102
RTVSPropertyOp52
 70
     0
102
RTVSPropertyOp53
 70
     1
102
RTVSPropertyOp54
 70
     1
102
RTVSPropertyOp55
 70
     1
102
RTVSPropertyOp56
 70
     1
102
RTVSPropertyOp57
 70
     1
102
RTVSPropertyOp58
 70
     1
102
RTVSPropertyOp59
 70
     1
102
RTVSPropertyOp60
 70
     1
102
RTVSPropertyOp61
 70
     1
102
RTVSPropertyOp62
 70
     1
  0
XRECORD
  5
9B55C
102
{ACAD_REACTORS
330
9B55B
102
}
330
9B55B
100
AcDbXrecord
280
     1
102
RTVSPost2010Prop28
280
     0
102
RTVSPost2010PropOp28
 70
     1
102
RTVSPost2010Prop29
280
     1
102
RTVSPost2010PropOp29
 70
     1
102
RTVSPost2010Prop30
280
     1
102
RTVSPost2010PropOp30
 70
     1
102
RTVSPost2010Prop31
280
     0
102
RTVSPost2010PropOp31
 70
     1
102
RTVSPost2010Prop32
280
     0
102
RTVSPost2010PropOp32
 70
     1
102
RTVSPost2010Prop33
280
     0
102
RTVSPost2010PropOp33
 70
     1
102
RTVSPost2010Prop34
280
     0
102
RTVSPost2010PropOp34
 70
     1
102
RTVSPost2010Prop35
280
     0
102
RTVSPost2010PropOp35
 70
     1
102
RTVSPost2010Prop36
280
     0
102
RTVSPost2010PropOp36
 70
     1
102
RTVSPost2010Prop37
 90
       50
102
RTVSPost2010PropOp37
 70
     1
102
RTVSPost2010Prop38
140
0.0
102
RTVSPost2010PropOp38
 70
     1
102
RTVSPost2010Prop39
140
1.0
102
RTVSPost2010PropOp39
 70
     1
102
RTVSPost2010Prop40
 90
        0
102
RTVSPost2010PropOp40
 70
     1
102
RTVSPost2010Prop41ColorIndex
 90
       18
102
RTVSPost2010Prop41ColorRGB
 90
        0
102
RTVSPost2010PropOp41
 70
     1
102
RTVSPost2010Prop42
 90
       50
102
RTVSPost2010PropOp42
 70
     1
102
RTVSPost2010Prop43
 90
        3
102
RTVSPost2010PropOp43
 70
     1
102
RTVSPost2010Prop44ColorIndex
 90
        5
102
RTVSPost2010Prop44ColorRGB
 90
      255
102
RTVSPost2010PropOp44
 70
     1
102
RTVSPost2010Prop45
280
     0
102
RTVSPost2010PropOp45
 70
     1
102
RTVSPost2010Prop46
 90
       50
102
RTVSPost2010PropOp46
 70
     1
102
RTVSPost2010Prop47
 90
       50
102
RTVSPost2010PropOp47
 70
     1
102
RTVSPost2010Prop48
 90
       50
102
RTVSPost2010PropOp48
 70
     1
102
RTVSPost2010Prop49
280
     0
102
RTVSPost2010PropOp49
 70
     1
102
RTVSPost2010Prop50
 90
       50
102
RTVSPost2010PropOp50
 70
     1
102
RTVSPost2010Prop51ColorIndex
 90
      256
102
RTVSPost2010Prop51ColorRGB
 90
-16777216
102
RTVSPost2010PropOp51
 70
     0
102
RTVSPost2010Prop52
140
1.0
102
RTVSPost2010PropOp52
 70
     0
102
RTVSPost2010Prop53
 90
        2
102
RTVSPost2010PropOp53
 70
     1
102
RTVSPost2010Prop54
  1
strokes_ogs.tif
102
RTVSPost2010PropOp54
 70
     1
102
RTVSPost2010Prop55
280
     0
102
RTVSPost2010PropOp55
 70
     1
102
RTVSPost2010Prop56
140
1.0
102
RTVSPost2010PropOp56
 70
     1
102
RTVSPost2010Prop57
140
1.0
102
RTVSPost2010PropOp57
 70
     1
102
RTVSPropertyOp0
 70
     1
102
RTVSPropertyOp1
 70
     1
102
RTVSPropertyOp2
 70
     1
102
RTVSPropertyOp3
 70
     1
102
RTVSPropertyOp4
 70
     1
102
RTVSPropertyOp5
 70
     1
102
RTVSPropertyOp6
 70
     1
102
RTVSPropertyOp7
 70
     1
102
RTVSPropertyOp8
 70
     1
102
RTVSPropertyOp9
 70
     1
102
RTVSPropertyOp10
 70
     1
102
RTVSPropertyOp11
 70
     1
102
RTVSPropertyOp12
 70
     1
102
RTVSPropertyOp13
 70
     1
102
RTVSPropertyOp14
 70
     1
102
RTVSPropertyOp15
 70
     1
102
RTVSPropertyOp16
 70
     1
102
RTVSPropertyOp17
 70
     1
102
RTVSPropertyOp18
 70
     1
102
RTVSPropertyOp19
 70
     1
102
RTVSPropertyOp20
 70
     1
102
RTVSPropertyOp21
 70
     1
102
RTVSPropertyOp22
 70
     1
102
RTVSPropertyOp23
 70
     1
102
RTVSPropertyOp24
 70
     1
102
RTVSPropertyOp25
 70
     1
102
RTVSPropertyOp26
 70
     1
102
RTVSPropertyOp27
 70
     1
102
RTVSPropertyOp28
 70
     1
102
RTVSPropertyOp29
 70
     1
102
RTVSPropertyOp30
 70
     1
102
RTVSPropertyOp31
 70
     1
102
RTVSPropertyOp32
 70
     1
102
RTVSPropertyOp33
 70
     1
102
RTVSPropertyOp34
 70
     1
102
RTVSPropertyOp35
 70
     1
102
RTVSPropertyOp36
 70
     1
102
RTVSPropertyOp37
 70
     1
102
RTVSPropertyOp38
 70
     1
102
RTVSPropertyOp39
 70
     1
102
RTVSPropertyOp40
 70
     1
102
RTVSPropertyOp41
 70
     1
102
RTVSPropertyOp42
 70
     1
102
RTVSPropertyOp43
 70
     1
102
RTVSPropertyOp44
 70
     1
102
RTVSPropertyOp45
 70
     1
102
RTVSPropertyOp46
 70
     1
102
RTVSPropertyOp47
 70
     1
102
RTVSPropertyOp48
 70
     1
102
RTVSPropertyOp49
 70
     1
102
RTVSPropertyOp50
 70
     1
102
RTVSPropertyOp51
 70
     0
102
RTVSPropertyOp52
 70
     0
102
RTVSPropertyOp53
 70
     1
102
RTVSPropertyOp54
 70
     1
102
RTVSPropertyOp55
 70
     1
102
RTVSPropertyOp56
 70
     1
102
RTVSPropertyOp57
 70
     1
102
RTVSPropertyOp58
 70
     1
102
RTVSPropertyOp59
 70
     1
102
RTVSPropertyOp60
 70
     1
102
RTVSPropertyOp61
 70
     1
102
RTVSPropertyOp62
 70
     1
  0
XRECORD
  5
9B54D
102
{ACAD_REACTORS
330
9B54C
102
}
330
9B54C
100
AcDbXrecord
280
     1
102
RTVSPost2010Prop28
280
     0
102
RTVSPost2010PropOp28
 70
     1
102
RTVSPost2010Prop29
280
     1
102
RTVSPost2010PropOp29
 70
     1
102
RTVSPost2010Prop30
280
     1
102
RTVSPost2010PropOp30
 70
     1
102
RTVSPost2010Prop31
280
     0
102
RTVSPost2010PropOp31
 70
     1
102
RTVSPost2010Prop32
280
     0
102
RTVSPost2010PropOp32
 70
     1
102
RTVSPost2010Prop33
280
     0
102
RTVSPost2010PropOp33
 70
     1
102
RTVSPost2010Prop34
280
     0
102
RTVSPost2010PropOp34
 70
     1
102
RTVSPost2010Prop35
280
     0
102
RTVSPost2010PropOp35
 70
     1
102
RTVSPost2010Prop36
280
     0
102
RTVSPost2010PropOp36
 70
     1
102
RTVSPost2010Prop37
 90
       50
102
RTVSPost2010PropOp37
 70
     1
102
RTVSPost2010Prop38
140
0.0
102
RTVSPost2010PropOp38
 70
     1
102
RTVSPost2010Prop39
140
1.0
102
RTVSPost2010PropOp39
 70
     1
102
RTVSPost2010Prop40
 90
        0
102
RTVSPost2010PropOp40
 70
     1
102
RTVSPost2010Prop41ColorIndex
 90
       18
102
RTVSPost2010Prop41ColorRGB
 90
        0
102
RTVSPost2010PropOp41
 70
     1
102
RTVSPost2010Prop42
 90
       50
102
RTVSPost2010PropOp42
 70
     1
102
RTVSPost2010Prop43
 90
        3
102
RTVSPost2010PropOp43
 70
     1
102
RTVSPost2010Prop44ColorIndex
 90
        5
102
RTVSPost2010Prop44ColorRGB
 90
      255
102
RTVSPost2010PropOp44
 70
     1
102
RTVSPost2010Prop45
280
     0
102
RTVSPost2010PropOp45
 70
     1
102
RTVSPost2010Prop46
 90
       50
102
RTVSPost2010PropOp46
 70
     1
102
RTVSPost2010Prop47
 90
       50
102
RTVSPost2010PropOp47
 70
     1
102
RTVSPost2010Prop48
 90
       50
102
RTVSPost2010PropOp48
 70
     1
102
RTVSPost2010Prop49
280
     0
102
RTVSPost2010PropOp49
 70
     1
102
RTVSPost2010Prop50
 90
       50
102
RTVSPost2010PropOp50
 70
     1
102
RTVSPost2010Prop51ColorIndex
 90
      256
102
RTVSPost2010Prop51ColorRGB
 90
-16777216
102
RTVSPost2010PropOp51
 70
     0
102
RTVSPost2010Prop52
140
1.0
102
RTVSPost2010PropOp52
 70
     0
102
RTVSPost2010Prop53
 90
        2
102
RTVSPost2010PropOp53
 70
     1
102
RTVSPost2010Prop54
  1
strokes_ogs.tif
102
RTVSPost2010PropOp54
 70
     1
102
RTVSPost2010Prop55
280
     0
102
RTVSPost2010PropOp55
 70
     1
102
RTVSPost2010Prop56
140
1.0
102
RTVSPost2010PropOp56
 70
     1
102
RTVSPost2010Prop57
140
1.0
102
RTVSPost2010PropOp57
 70
     1
102
RTVSPropertyOp0
 70
     1
102
RTVSPropertyOp1
 70
     1
102
RTVSPropertyOp2
 70
     1
102
RTVSPropertyOp3
 70
     1
102
RTVSPropertyOp4
 70
     1
102
RTVSPropertyOp5
 70
     1
102
RTVSPropertyOp6
 70
     1
102
RTVSPropertyOp7
 70
     1
102
RTVSPropertyOp8
 70
     1
102
RTVSPropertyOp9
 70
     1
102
RTVSPropertyOp10
 70
     1
102
RTVSPropertyOp11
 70
     1
102
RTVSPropertyOp12
 70
     1
102
RTVSPropertyOp13
 70
     1
102
RTVSPropertyOp14
 70
     1
102
RTVSPropertyOp15
 70
     1
102
RTVSPropertyOp16
 70
     1
102
RTVSPropertyOp17
 70
     1
102
RTVSPropertyOp18
 70
     1
102
RTVSPropertyOp19
 70
     1
102
RTVSPropertyOp20
 70
     1
102
RTVSPropertyOp21
 70
     1
102
RTVSPropertyOp22
 70
     1
102
RTVSPropertyOp23
 70
     1
102
RTVSPropertyOp24
 70
     1
102
RTVSPropertyOp25
 70
     1
102
RTVSPropertyOp26
 70
     1
102
RTVSPropertyOp27
 70
     1
102
RTVSPropertyOp28
 70
     1
102
RTVSPropertyOp29
 70
     1
102
RTVSPropertyOp30
 70
     1
102
RTVSPropertyOp31
 70
     1
102
RTVSPropertyOp32
 70
     1
102
RTVSPropertyOp33
 70
     1
102
RTVSPropertyOp34
 70
     1
102
RTVSPropertyOp35
 70
     1
102
RTVSPropertyOp36
 70
     1
102
RTVSPropertyOp37
 70
     1
102
RTVSPropertyOp38
 70
     1
102
RTVSPropertyOp39
 70
     1
102
RTVSPropertyOp40
 70
     1
102
RTVSPropertyOp41
 70
     1
102
RTVSPropertyOp42
 70
     1
102
RTVSPropertyOp43
 70
     1
102
RTVSPropertyOp44
 70
     1
102
RTVSPropertyOp45
 70
     1
102
RTVSPropertyOp46
 70
     1
102
RTVSPropertyOp47
 70
     1
102
RTVSPropertyOp48
 70
     1
102
RTVSPropertyOp49
 70
     1
102
RTVSPropertyOp50
 70
     1
102
RTVSPropertyOp51
 70
     0
102
RTVSPropertyOp52
 70
     0
102
RTVSPropertyOp53
 70
     1
102
RTVSPropertyOp54
 70
     1
102
RTVSPropertyOp55
 70
     1
102
RTVSPropertyOp56
 70
     1
102
RTVSPropertyOp57
 70
     1
102
RTVSPropertyOp58
 70
     1
102
RTVSPropertyOp59
 70
     1
102
RTVSPropertyOp60
 70
     1
102
RTVSPropertyOp61
 70
     1
102
RTVSPropertyOp62
 70
     1
  0
XRECORD
  5
9B556
102
{ACAD_REACTORS
330
9B555
102
}
330
9B555
100
AcDbXrecord
280
     1
102
RTVSPost2010Prop28
280
     0
102
RTVSPost2010PropOp28
 70
     1
102
RTVSPost2010Prop29
280
     1
102
RTVSPost2010PropOp29
 70
     1
102
RTVSPost2010Prop30
280
     1
102
RTVSPost2010PropOp30
 70
     1
102
RTVSPost2010Prop31
280
     0
102
RTVSPost2010PropOp31
 70
     1
102
RTVSPost2010Prop32
280
     0
102
RTVSPost2010PropOp32
 70
     1
102
RTVSPost2010Prop33
280
     0
102
RTVSPost2010PropOp33
 70
     1
102
RTVSPost2010Prop34
280
     0
102
RTVSPost2010PropOp34
 70
     1
102
RTVSPost2010Prop35
280
     0
102
RTVSPost2010PropOp35
 70
     1
102
RTVSPost2010Prop36
280
     0
102
RTVSPost2010PropOp36
 70
     1
102
RTVSPost2010Prop37
 90
       50
102
RTVSPost2010PropOp37
 70
     1
102
RTVSPost2010Prop38
140
0.0
102
RTVSPost2010PropOp38
 70
     1
102
RTVSPost2010Prop39
140
1.0
102
RTVSPost2010PropOp39
 70
     1
102
RTVSPost2010Prop40
 90
        0
102
RTVSPost2010PropOp40
 70
     1
102
RTVSPost2010Prop41ColorIndex
 90
       18
102
RTVSPost2010Prop41ColorRGB
 90
        0
102
RTVSPost2010PropOp41
 70
     1
102
RTVSPost2010Prop42
 90
       50
102
RTVSPost2010PropOp42
 70
     1
102
RTVSPost2010Prop43
 90
        3
102
RTVSPost2010PropOp43
 70
     1
102
RTVSPost2010Prop44ColorIndex
 90
        5
102
RTVSPost2010Prop44ColorRGB
 90
      255
102
RTVSPost2010PropOp44
 70
     1
102
RTVSPost2010Prop45
280
     0
102
RTVSPost2010PropOp45
 70
     1
102
RTVSPost2010Prop46
 90
       50
102
RTVSPost2010PropOp46
 70
     1
102
RTVSPost2010Prop47
 90
       50
102
RTVSPost2010PropOp47
 70
     1
102
RTVSPost2010Prop48
 90
       50
102
RTVSPost2010PropOp48
 70
     1
102
RTVSPost2010Prop49
280
     0
102
RTVSPost2010PropOp49
 70
     1
102
RTVSPost2010Prop50
 90
       50
102
RTVSPost2010PropOp50
 70
     1
102
RTVSPost2010Prop51ColorIndex
 90
      256
102
RTVSPost2010Prop51ColorRGB
 90
-16777216
102
RTVSPost2010PropOp51
 70
     0
102
RTVSPost2010Prop52
140
1.0
102
RTVSPost2010PropOp52
 70
     0
102
RTVSPost2010Prop53
 90
        2
102
RTVSPost2010PropOp53
 70
     1
102
RTVSPost2010Prop54
  1
strokes_ogs.tif
102
RTVSPost2010PropOp54
 70
     1
102
RTVSPost2010Prop55
280
     0
102
RTVSPost2010PropOp55
 70
     1
102
RTVSPost2010Prop56
140
1.0
102
RTVSPost2010PropOp56
 70
     1
102
RTVSPost2010Prop57
140
1.0
102
RTVSPost2010PropOp57
 70
     1
102
RTVSPropertyOp0
 70
     1
102
RTVSPropertyOp1
 70
     1
102
RTVSPropertyOp2
 70
     1
102
RTVSPropertyOp3
 70
     1
102
RTVSPropertyOp4
 70
     1
102
RTVSPropertyOp5
 70
     1
102
RTVSPropertyOp6
 70
     1
102
RTVSPropertyOp7
 70
     1
102
RTVSPropertyOp8
 70
     1
102
RTVSPropertyOp9
 70
     1
102
RTVSPropertyOp10
 70
     1
102
RTVSPropertyOp11
 70
     1
102
RTVSPropertyOp12
 70
     1
102
RTVSPropertyOp13
 70
     1
102
RTVSPropertyOp14
 70
     1
102
RTVSPropertyOp15
 70
     1
102
RTVSPropertyOp16
 70
     1
102
RTVSPropertyOp17
 70
     1
102
RTVSPropertyOp18
 70
     1
102
RTVSPropertyOp19
 70
     1
102
RTVSPropertyOp20
 70
     1
102
RTVSPropertyOp21
 70
     1
102
RTVSPropertyOp22
 70
     1
102
RTVSPropertyOp23
 70
     1
102
RTVSPropertyOp24
 70
     1
102
RTVSPropertyOp25
 70
     1
102
RTVSPropertyOp26
 70
     1
102
RTVSPropertyOp27
 70
     1
102
RTVSPropertyOp28
 70
     1
102
RTVSPropertyOp29
 70
     1
102
RTVSPropertyOp30
 70
     1
102
RTVSPropertyOp31
 70
     1
102
RTVSPropertyOp32
 70
     1
102
RTVSPropertyOp33
 70
     1
102
RTVSPropertyOp34
 70
     1
102
RTVSPropertyOp35
 70
     1
102
RTVSPropertyOp36
 70
     1
102
RTVSPropertyOp37
 70
     1
102
RTVSPropertyOp38
 70
     1
102
RTVSPropertyOp39
 70
     1
102
RTVSPropertyOp40
 70
     1
102
RTVSPropertyOp41
 70
     1
102
RTVSPropertyOp42
 70
     1
102
RTVSPropertyOp43
 70
     1
102
RTVSPropertyOp44
 70
     1
102
RTVSPropertyOp45
 70
     1
102
RTVSPropertyOp46
 70
     1
102
RTVSPropertyOp47
 70
     1
102
RTVSPropertyOp48
 70
     1
102
RTVSPropertyOp49
 70
     1
102
RTVSPropertyOp50
 70
     1
102
RTVSPropertyOp51
 70
     0
102
RTVSPropertyOp52
 70
     0
102
RTVSPropertyOp53
 70
     1
102
RTVSPropertyOp54
 70
     1
102
RTVSPropertyOp55
 70
     1
102
RTVSPropertyOp56
 70
     1
102
RTVSPropertyOp57
 70
     1
102
RTVSPropertyOp58
 70
     1
102
RTVSPropertyOp59
 70
     1
102
RTVSPropertyOp60
 70
     1
102
RTVSPropertyOp61
 70
     1
102
RTVSPropertyOp62
 70
     1
  0
XRECORD
  5
9B55E
102
{ACAD_REACTORS
330
9B55D
102
}
330
9B55D
100
AcDbXrecord
280
     1
102
RTVSPost2010Prop28
280
     0
102
RTVSPost2010PropOp28
 70
     1
102
RTVSPost2010Prop29
280
     1
102
RTVSPost2010PropOp29
 70
     1
102
RTVSPost2010Prop30
280
     1
102
RTVSPost2010PropOp30
 70
     1
102
RTVSPost2010Prop31
280
     0
102
RTVSPost2010PropOp31
 70
     1
102
RTVSPost2010Prop32
280
     0
102
RTVSPost2010PropOp32
 70
     1
102
RTVSPost2010Prop33
280
     0
102
RTVSPost2010PropOp33
 70
     1
102
RTVSPost2010Prop34
280
     0
102
RTVSPost2010PropOp34
 70
     1
102
RTVSPost2010Prop35
280
     0
102
RTVSPost2010PropOp35
 70
     1
102
RTVSPost2010Prop36
280
     0
102
RTVSPost2010PropOp36
 70
     1
102
RTVSPost2010Prop37
 90
       50
102
RTVSPost2010PropOp37
 70
     1
102
RTVSPost2010Prop38
140
0.0
102
RTVSPost2010PropOp38
 70
     1
102
RTVSPost2010Prop39
140
1.0
102
RTVSPost2010PropOp39
 70
     1
102
RTVSPost2010Prop40
 90
        0
102
RTVSPost2010PropOp40
 70
     1
102
RTVSPost2010Prop41ColorIndex
 90
       18
102
RTVSPost2010Prop41ColorRGB
 90
        0
102
RTVSPost2010PropOp41
 70
     1
102
RTVSPost2010Prop42
 90
       50
102
RTVSPost2010PropOp42
 70
     1
102
RTVSPost2010Prop43
 90
        3
102
RTVSPost2010PropOp43
 70
     1
102
RTVSPost2010Prop44ColorIndex
 90
        5
102
RTVSPost2010Prop44ColorRGB
 90
      255
102
RTVSPost2010PropOp44
 70
     1
102
RTVSPost2010Prop45
280
     0
102
RTVSPost2010PropOp45
 70
     1
102
RTVSPost2010Prop46
 90
       50
102
RTVSPost2010PropOp46
 70
     1
102
RTVSPost2010Prop47
 90
       50
102
RTVSPost2010PropOp47
 70
     1
102
RTVSPost2010Prop48
 90
       50
102
RTVSPost2010PropOp48
 70
     1
102
RTVSPost2010Prop49
280
     0
102
RTVSPost2010PropOp49
 70
     1
102
RTVSPost2010Prop50
 90
       50
102
RTVSPost2010PropOp50
 70
     1
102
RTVSPost2010Prop51ColorIndex
 90
      256
102
RTVSPost2010Prop51ColorRGB
 90
-16777216
102
RTVSPost2010PropOp51
 70
     0
102
RTVSPost2010Prop52
140
1.0
102
RTVSPost2010PropOp52
 70
     0
102
RTVSPost2010Prop53
 90
        2
102
RTVSPost2010PropOp53
 70
     1
102
RTVSPost2010Prop54
  1
strokes_ogs.tif
102
RTVSPost2010PropOp54
 70
     1
102
RTVSPost2010Prop55
280
     0
102
RTVSPost2010PropOp55
 70
     1
102
RTVSPost2010Prop56
140
1.0
102
RTVSPost2010PropOp56
 70
     1
102
RTVSPost2010Prop57
140
1.0
102
RTVSPost2010PropOp57
 70
     1
102
RTVSPropertyOp0
 70
     1
102
RTVSPropertyOp1
 70
     1
102
RTVSPropertyOp2
 70
     1
102
RTVSPropertyOp3
 70
     1
102
RTVSPropertyOp4
 70
     1
102
RTVSPropertyOp5
 70
     1
102
RTVSPropertyOp6
 70
     1
102
RTVSPropertyOp7
 70
     1
102
RTVSPropertyOp8
 70
     1
102
RTVSPropertyOp9
 70
     1
102
RTVSPropertyOp10
 70
     1
102
RTVSPropertyOp11
 70
     1
102
RTVSPropertyOp12
 70
     1
102
RTVSPropertyOp13
 70
     1
102
RTVSPropertyOp14
 70
     1
102
RTVSPropertyOp15
 70
     1
102
RTVSPropertyOp16
 70
     1
102
RTVSPropertyOp17
 70
     1
102
RTVSPropertyOp18
 70
     1
102
RTVSPropertyOp19
 70
     1
102
RTVSPropertyOp20
 70
     1
102
RTVSPropertyOp21
 70
     1
102
RTVSPropertyOp22
 70
     1
102
RTVSPropertyOp23
 70
     1
102
RTVSPropertyOp24
 70
     1
102
RTVSPropertyOp25
 70
     1
102
RTVSPropertyOp26
 70
     1
102
RTVSPropertyOp27
 70
     1
102
RTVSPropertyOp28
 70
     1
102
RTVSPropertyOp29
 70
     1
102
RTVSPropertyOp30
 70
     1
102
RTVSPropertyOp31
 70
     1
102
RTVSPropertyOp32
 70
     1
102
RTVSPropertyOp33
 70
     1
102
RTVSPropertyOp34
 70
     1
102
RTVSPropertyOp35
 70
     1
102
RTVSPropertyOp36
 70
     1
102
RTVSPropertyOp37
 70
     1
102
RTVSPropertyOp38
 70
     1
102
RTVSPropertyOp39
 70
     1
102
RTVSPropertyOp40
 70
     1
102
RTVSPropertyOp41
 70
     1
102
RTVSPropertyOp42
 70
     1
102
RTVSPropertyOp43
 70
     1
102
RTVSPropertyOp44
 70
     1
102
RTVSPropertyOp45
 70
     1
102
RTVSPropertyOp46
 70
     1
102
RTVSPropertyOp47
 70
     1
102
RTVSPropertyOp48
 70
     1
102
RTVSPropertyOp49
 70
     1
102
RTVSPropertyOp50
 70
     1
102
RTVSPropertyOp51
 70
     0
102
RTVSPropertyOp52
 70
     0
102
RTVSPropertyOp53
 70
     1
102
RTVSPropertyOp54
 70
     1
102
RTVSPropertyOp55
 70
     1
102
RTVSPropertyOp56
 70
     1
102
RTVSPropertyOp57
 70
     1
102
RTVSPropertyOp58
 70
     1
102
RTVSPropertyOp59
 70
     1
102
RTVSPropertyOp60
 70
     1
102
RTVSPropertyOp61
 70
     1
102
RTVSPropertyOp62
 70
     1
  0
ENDSEC
  0
EOF
