  0
SECTION
  2
HEADER
  9
$ACADVER
  1
AC1009
  9
$INSBASE
 10
0.0
 20
0.0
 30
0.0
  9
$EXTMIN
 10
-525.196868
 20
-791.903047
 30
-0.001526
  9
$EXTMAX
 10
749.337265
 20
456.582826
 30
0.0
  9
$LIMMIN
 10
-4267.152221
 20
-2696.08321
  9
$LIMMAX
 10
7190.717423
 20
5141.155364
  9
$ORTHOMODE
 70
     0
  9
$REGENMODE
 70
     1
  9
$FILLMODE
 70
     1
  9
$QTEXTMODE
 70
     0
  9
$MIRRTEXT
 70
     0
  9
$DRAGMODE
 70
     2
  9
$LTSCALE
 40
20.0
  9
$OSMODE
 70
  2084
  9
$ATTMODE
 70
     1
  9
$TEXTSIZE
 40
64.0
  9
$TRACEWID
 40
0.05
  9
$TEXTSTYLE
  7
STANDARD
  9
$CLAYER
  8
SIZE
  9
$CELTYPE
  6
CONTINUOUS
  9
$CECOLOR
 62
     7
  9
$DIMSCALE
 40
1.0
  9
$DIMASZ
 40
10.0
  9
$DIMEXO
 40
20.0
  9
$DIMDLI
 40
200.0
  9
$DIMRND
 40
0.0
  9
$DIMDLE
 40
0.0
  9
$DIMEXE
 40
30.0
  9
$DIMTP
 40
0.0
  9
$DIMTM
 40
0.0
  9
$DIMTXT
 40
64.0
  9
$DIMCEN
 40
0.0
  9
$DIMTSZ
 40
0.0
  9
$DIMTOL
 70
     0
  9
$DIMLIM
 70
     0
  9
$DIMTIH
 70
     0
  9
$DIMTOH
 70
     0
  9
$DIMSE1
 70
     0
  9
$DIMSE2
 70
     0
  9
$DIMTAD
 70
     1
  9
$DIMZIN
 70
     8
  9
$DIMBLK
  1

  9
$DIMASO
 70
     1
  9
$DIMSHO
 70
     0
  9
$DIMPOST
  1

  9
$DIMAPOST
  1

  9
$DIMALT
 70
     0
  9
$DIMALTD
 70
     2
  9
$DIMALTF
 40
25.4
  9
$DIMLFAC
 40
1.0
  9
$DIMTOFL
 70
     1
  9
$DIMTVP
 40
0.0
  9
$DIMTIX
 70
     1
  9
$DIMSOXD
 70
     0
  9
$DIMSAH
 70
     1
  9
$DIMBLK1
  1
_DOTBLANK
  9
$DIMBLK2
  1
_DOTBLANK
  9
$DIMSTYLE
  2
STANDARD
  9
$DIMCLRD
 70
     0
  9
$DIMCLRE
 70
     0
  9
$DIMCLRT
 70
     0
  9
$DIMTFAC
 40
1.0
  9
$DIMGAP
 40
0.09
  9
$LUNITS
 70
     2
  9
$LUPREC
 70
     4
  9
$SKETCHINC
 40
0.1
  9
$FILLETRAD
 40
10.0
  9
$AUNITS
 70
     1
  9
$AUPREC
 70
     3
  9
$MENU
  1
ACAD
  9
$ELEVATION
 40
0.0
  9
$PELEVATION
 40
0.0
  9
$THICKNESS
 40
0.0
  9
$LIMCHECK
 70
     0
  9
$BLIPMODE
 70
     0
  9
$CHAMFERA
 40
0.0
  9
$CHAMFERB
 40
0.0
  9
$SKPOLY
 70
     0
  9
$TDCREATE
 40
2450330.439931
  9
$TDUPDATE
 40
2453902.783119
  9
$TDINDWG
 40
2.250053
  9
$TDUSRTIMER
 40
2.250053
  9
$USRTIMER
 70
     1
  9
$ANGBASE
 50
0.0
  9
$ANGDIR
 70
     0
  9
$PDMODE
 70
     3
  9
$PDSIZE
 40
-2.0
  9
$PLINEWID
 40
0.0
  9
$COORDS
 70
     2
  9
$SPLFRAME
 70
     0
  9
$SPLINETYPE
 70
     6
  9
$SPLINESEGS
 70
     8
  9
$ATTDIA
 70
     0
  9
$ATTREQ
 70
     1
  9
$HANDLING
 70
     1
  9
$HANDSEED
  5
2BD
  9
$SURFTAB1
 70
     6
  9
$SURFTAB2
 70
     6
  9
$SURFTYPE
 70
     6
  9
$SURFU
 70
     6
  9
$SURFV
 70
     6
  9
$UCSNAME
  2

  9
$UCSORG
 10
0.0
 20
0.0
 30
0.0
  9
$UCSXDIR
 10
1.0
 20
0.0
 30
0.0
  9
$UCSYDIR
 10
0.0
 20
1.0
 30
0.0
  9
$PUCSNAME
  2

  9
$PUCSORG
 10
0.0
 20
0.0
 30
0.0
  9
$PUCSXDIR
 10
1.0
 20
0.0
 30
0.0
  9
$PUCSYDIR
 10
0.0
 20
1.0
 30
0.0
  9
$USERI1
 70
     0
  9
$USERI2
 70
     0
  9
$USERI3
 70
     0
  9
$USERI4
 70
     0
  9
$USERI5
 70
     0
  9
$USERR1
 40
20.0
  9
$USERR2
 40
0.0
  9
$USERR3
 40
0.0
  9
$USERR4
 40
0.0
  9
$USERR5
 40
0.0
  9
$WORLDVIEW
 70
     1
  9
$SHADEDGE
 70
     3
  9
$SHADEDIF
 70
    70
  9
$TILEMODE
 70
     1
  9
$MAXACTVP
 70
    48
  9
$PLIMCHECK
 70
     0
  9
$PEXTMIN
 10
1.000000E+020
 20
1.000000E+020
 30
1.000000E+020
  9
$PEXTMAX
 10
-1.000000E+020
 20
-1.000000E+020
 30
-1.000000E+020
  9
$PLIMMIN
 10
0.0
 20
0.0
  9
$PLIMMAX
 10
12.0
 20
9.0
  9
$UNITMODE
 70
     0
  9
$VISRETAIN
 70
     1
  9
$PLINEGEN
 70
     0
  9
$PSLTSCALE
 70
     1
  0
ENDSEC
  0
SECTION
  2
TABLES
  0
TABLE
  2
VPORT
 70
     3
  0
VPORT
  2
*ACTIVE
 70
     0
 10
0.0
 20
0.0
 11
1.0
 21
1.0
 12
1645.853864
 22
1222.536077
 13
0.0
 23
0.0
 14
50.0
 24
50.0
 15
100.0
 25
100.0
 16
0.0
 26
0.0
 36
1.0
 17
0.0
 27
0.0
 37
0.0
 40
7837.238574
 41
1.508951
 42
50.0
 43
0.0
 44
0.0
 50
0.0
 51
0.0
 71
     0
 72
  1000
 73
     1
 74
     0
 75
     0
 76
     0
 77
     0
 78
     0
  0
ENDTAB
  0
TABLE
  2
LTYPE
 70
     2
  0
LTYPE
  2
CONTINUOUS
 70
     0
  3
実線
 72
    65
 73
     0
 40
0.0
  0
LTYPE
  2
DASHDOT
 70
     0
  3
____ _ ____ _ ____ _ ____ _ ____ _ ____ _ ____
 72
    65
 73
     4
 40
5.5
 49
4.0
 49
-0.6
 49
0.3
 49
-0.6
  0
ENDTAB
  0
TABLE
  2
LAYER
 70
    12
  0
LAYER
  2
0
 70
     0
 62
     7
  6
CONTINUOUS
  0
LAYER
  2
SIZE
 70
     0
 62
    30
  6
CONTINUOUS
  0
LAYER
  2
OUTLINE
 70
     0
 62
     3
  6
CONTINUOUS
  0
LAYER
  2
DETAIL
 70
     0
 62
     5
  6
CONTINUOUS
  0
LAYER
  2
BASIS
 70
     0
 62
     6
  6
DASHDOT
  0
LAYER
  2
NOTE
 70
     0
 62
     4
  6
CONTINUOUS
  0
LAYER
  2
ARRANGE
 70
     0
 62
     1
  6
CONTINUOUS
  0
LAYER
  2
FIX
 70
     0
 62
    11
  6
CONTINUOUS
  0
LAYER
  2
SERVICESPACE
 70
     0
 62
     2
  6
DASHDOT
  0
LAYER
  2
ETC
 70
     0
 62
    61
  6
CONTINUOUS
  0
LAYER
  2
SYMBOLLINE
 70
     0
 62
    15
  6
CONTINUOUS
  0
LAYER
  2
DEFPOINTS
 70
     0
 62
     7
  6
CONTINUOUS
  0
ENDTAB
  0
TABLE
  2
STYLE
 70
     3
  0
STYLE
  2
STANDARD
 70
     0
 40
0.0
 41
0.9
 50
0.0
 71
     0
 42
64.0
  3
SIMPLEX
  4
BIGFONT
  0
STYLE
  2
STANDARD1
 70
     0
 40
0.0
 41
1.0
 50
0.0
 71
     0
 42
64.0
  3
MONOTXT
  4
BIGFONT
  0
STYLE
  2
ZU_SHPTB00001
 70
     0
 40
0.0
 41
1.0
 50
0.0
 71
     0
 42
0.0
  3
monotxt
  4
bigfont
  0
ENDTAB
  0
TABLE
  2
VIEW
 70
     1
  0
VIEW
  2
ALL
 70
     0
 40
9000.0
 10
241.506647
 20
0.0
 41
12483.01
 11
0.0
 21
0.0
 31
1.0
 12
0.0
 22
0.0
 32
0.0
 42
50.0
 43
0.0
 44
0.0
 50
0.0
 71
     0
  0
ENDTAB
  0
TABLE
  2
UCS
 70
     0
  0
ENDTAB
  0
TABLE
  2
APPID
 70
     1
  0
APPID
  2
ACAD
 70
     0
  0
ENDTAB
  0
TABLE
  2
DIMSTYLE
 70
     1
  0
DIMSTYLE
  2
STANDARD
 70
     0
  3

  4

  5

  6

  7

 40
1.0
 41
0.18
 42
0.0625
 43
0.38
 44
0.18
 45
0.0
 46
0.0
 47
0.0
 48
0.0
140
0.18
141
0.09
142
0.0
143
25.4
144
1.0
145
0.0
146
1.0
147
0.09
 71
     0
 72
     0
 73
     1
 74
     1
 75
     0
 76
     0
 77
     0
 78
     0
170
     0
171
     2
172
     0
173
     0
174
     0
175
     0
176
     0
177
     0
178
     0
  0
ENDTAB
  0
ENDSEC
  0
SECTION
  2
BLOCKS
  0
BLOCK
  8
0
  2
$MODEL_SPACE
 70
     0
 10
0.0
 20
0.0
 30
0.0
  3
$MODEL_SPACE
  1

  0
ENDBLK
  5
115
  8
0
  0
BLOCK
 67
     1
  8
0
  2
$PAPER_SPACE
 70
     0
 10
0.0
 20
0.0
 30
0.0
  3
$PAPER_SPACE
  1

  0
ENDBLK
  5
112
 67
     1
  8
0
  0
BLOCK
  8
0
  2
_DOTBLANK
 70
     0
 10
0.0
 20
0.0
 30
0.0
  3
_DOTBLANK
  1

  0
CIRCLE
  5
33
  8
0
  6
CONTINUOUS
 62
     7
 10
0.0
 20
0.0
 30
0.0
 40
0.5
  0
LINE
  5
34
  8
0
  6
CONTINUOUS
 62
     7
 10
-0.5
 20
0.0
 30
0.0
 11
-1.0
 21
0.0
 31
0.0
  0
ENDBLK
  5
35
  8
0
  0
BLOCK
  8
0
 62
     7
  2
A$C396A0B92
 70
     0
 10
0.0
 20
0.0
 30
0.0
  3
A$C396A0B92
  1

  0
LINE
  5
135
  8
NOTE
  6
CONTINUOUS
 62
     4
 10
435.072021
 20
284.897495
 30
0.0
 11
149.306957
 21
284.897495
 31
0.0
  0
TEXT
  5
136
  8
NOTE
  6
CONTINUOUS
 62
     4
 10
157.009253
 20
298.360954
 30
0.0
 40
60.0
  1
D VP20
 41
0.73
  0
LINE
  5
137
  8
NOTE
  6
CONTINUOUS
 62
     4
 10
422.161326
 20
872.541788
 30
0.0
 11
132.172745
 21
872.541788
 31
0.0
  0
TEXT
  5
138
  8
NOTE
  6
CONTINUOUS
 62
     4
 10
145.456746
 20
886.005247
 30
0.0
 40
60.0
  1
RL %%C6.35
 41
0.73
  0
LINE
  5
139
  8
NOTE
  6
CONTINUOUS
 62
     4
 10
380.803824
 20
754.488288
 30
0.0
 11
89.623548
 21
754.488288
 31
0.0
  0
TEXT
  5
13A
  8
NOTE
  6
CONTINUOUS
 62
     4
 10
95.10289
 20
769.459113
 30
0.0
 40
60.0
  1
RG %%C12.7
 41
0.73
  0
LINE
  5
13B
  8
SIZE
  6
CONTINUOUS
 62
    30
 10
504.568114
 20
658.747649
 30
0.0
 11
53.999998
 21
658.747649
 31
0.0
  0
LINE
  5
13C
  8
SIZE
  6
CONTINUOUS
 62
    30
 10
504.568114
 20
564.747649
 30
0.0
 11
53.999998
 21
564.747649
 31
0.0
  0
CIRCLE
  5
13D
  8
SIZE
  6
CONTINUOUS
 62
    30
 10
198.782372
 20
550.745528
 30
0.0
 40
5.0
  0
CIRCLE
  5
13E
  8
SIZE
  6
CONTINUOUS
 62
    30
 10
198.782372
 20
635.745952
 30
0.0
 40
5.0
  0
LINE
  5
13F
  8
SIZE
  6
CONTINUOUS
 62
    30
 10
504.568114
 20
550.745528
 30
0.0
 11
168.782372
 21
550.745528
 31
0.0
  0
LINE
  5
140
  8
SIZE
  6
CONTINUOUS
 62
    30
 10
382.655049
 20
635.745952
 30
0.0
 11
168.782372
 21
635.745952
 31
0.0
  0
TEXT
  5
141
  8
ETC
  6
CONTINUOUS
 62
    61
 10
83.231398
 20
1188.153445
 30
0.0
 40
60.0
  1
MDK-P50A-C_5
 50
0.000003
 41
0.8
  0
TEXT
  5
142
  8
SIZE
  6
CONTINUOUS
 62
    30
 10
178.782372
 20
424.349242
 30
0.0
 40
64.0
  1
85
 50
90.0
 41
0.9
 72
     1
 11
178.782372
 21
470.977813
 31
0.0
  0
TEXT
  5
143
  8
SIZE
  6
CONTINUOUS
 62
    30
 10
63.999998
 20
563.747649
 30
0.0
 40
64.0
  1
94
 50
90.0
 41
0.9
 72
     1
 11
63.999998
 21
611.747649
 31
0.0
  0
LINE
  5
144
  8
SIZE
  6
CONTINUOUS
 62
    30
 10
83.999998
 20
564.747649
 30
0.0
 11
83.999998
 21
658.747649
 31
0.0
  0
CIRCLE
  5
145
  8
SIZE
  6
CONTINUOUS
 62
    30
 10
83.999998
 20
564.747649
 30
0.0
 40
5.0
  0
LINE
  5
146
  8
SIZE
  6
CONTINUOUS
 62
    30
 10
83.999998
 20
559.747649
 30
0.0
 11
83.999998
 21
554.747649
 31
0.0
  0
LINE
  5
147
  8
SIZE
  6
CONTINUOUS
 62
    30
 10
83.999998
 20
554.747649
 30
0.0
 11
83.999998
 21
544.747649
 31
0.0
  0
CIRCLE
  5
148
  8
SIZE
  6
CONTINUOUS
 62
    30
 10
83.999998
 20
658.747649
 30
0.0
 40
5.0
  0
POINT
  5
149
  8
DEFPOINTS
  6
CONTINUOUS
 62
     7
 10
83.999998
 20
658.747649
 30
0.0
  0
LINE
  5
14A
  8
SIZE
  6
CONTINUOUS
 62
    30
 10
83.999998
 20
663.747649
 30
0.0
 11
83.999998
 21
668.747649
 31
0.0
  0
LINE
  5
14B
  8
SIZE
  6
CONTINUOUS
 62
    30
 10
83.999998
 20
668.747649
 30
0.0
 11
83.999998
 21
678.747649
 31
0.0
  0
LINE
  5
14C
  8
OUTLINE
  6
CONTINUOUS
 62
     3
 10
524.568114
 20
1032.745639
 30
0.0
 11
524.568114
 21
550.745528
 31
0.0
  0
CIRCLE
  5
14D
  8
ARRANGE
  6
CONTINUOUS
 62
     1
 10
524.568114
 20
791.745639
 30
0.0
 40
50.0
  0
LINE
  5
14E
  8
SIZE
  6
CONTINUOUS
 62
    30
 10
999.796182
 20
903.405239
 30
0.0
 11
647.032004
 21
660.102838
 31
0.0
  0
LINE
  5
14F
  8
OUTLINE
  6
CONTINUOUS
 62
     3
 10
791.53691
 20
991.319319
 30
0.0
 11
791.53691
 21
593.071861
 31
0.0
  0
LINE
  5
150
  8
NOTE
  6
CONTINUOUS
 62
     4
 10
422.161326
 20
872.541788
 30
0.0
 11
453.840064
 21
635.745954
 31
0.0
  0
TEXT
  5
151
  8
SIZE
  6
CONTINUOUS
 62
    30
 10
1027.154468
 20
694.613989
 30
0.0
 40
64.0
  1
482
 50
90.0
 41
0.9
 72
     1
 11
1027.154468
 21
768.671132
 31
0.0
  0
LINE
  5
152
  8
SIZE
  6
CONTINUOUS
 62
    30
 10
1047.154468
 20
560.745528
 30
0.0
 11
1047.154468
 21
1022.745639
 31
0.0
  0
LINE
  5
153
  8
ARRANGE
  6
CONTINUOUS
 62
     1
 10
474.604351
 20
841.342234
 30
0.0
 11
574.531877
 21
742.149044
 31
0.0
  0
LINE
  5
154
  8
ARRANGE
  6
CONTINUOUS
 62
     1
 10
474.530764
 20
742.223286
 30
0.0
 11
574.605464
 21
841.267992
 31
0.0
  0
LINE
  5
155
  8
DETAIL
  6
CONTINUOUS
 62
     5
 10
524.568114
 20
1032.745639
 30
0.0
 11
524.568114
 21
550.745528
 31
0.0
  0
LINE
  5
156
  8
DETAIL
  6
CONTINUOUS
 62
     5
 10
791.53691
 20
991.319319
 30
0.0
 11
791.53691
 21
593.071861
 31
0.0
  0
LINE
  5
157
  8
NOTE
  6
CONTINUOUS
 62
     4
 10
1273.204912
 20
201.691438
 30
0.0
 11
892.980515
 21
201.691438
 31
0.0
  0
TEXT
  5
158
  8
NOTE
  6
CONTINUOUS
 62
     4
 10
912.390823
 20
216.791111
 30
0.0
 40
50.0
  1
左配管・左配線穴 
 41
0.73
  7
ZU_SHPTB00001
  0
TEXT
  5
159
  8
NOTE
  6
CONTINUOUS
 62
     4
 10
900.903932
 20
138.245464
 30
0.0
 40
50.0
  1
（ノックアウト穴）
 41
0.73
  7
ZU_SHPTB00001
  0
LINE
  5
15A
  8
SIZE
  6
CONTINUOUS
 62
    30
 10
794.568255
 20
552.863972
 30
0.0
 11
794.568255
 21
-0.000004
 31
0.0
  0
LINE
  5
15B
  8
SIZE
  6
CONTINUOUS
 62
    30
 10
524.568114
 20
530.745528
 30
0.0
 11
524.568114
 21
-0.000004
 31
0.0
  0
LINE
  5
15C
  8
SIZE
  6
CONTINUOUS
 62
    30
 10
640.568114
 20
554.747649
 30
0.0
 11
640.568114
 21
142.251023
 31
0.0
  0
LINE
  5
15D
  8
SIZE
  6
CONTINUOUS
 62
    30
 10
524.568114
 20
530.745528
 30
0.0
 11
524.568114
 21
142.251023
 31
0.0
  0
TEXT
  5
15E
  8
SIZE
  6
CONTINUOUS
 62
    30
 10
589.407929
 20
49.999996
 30
0.0
 40
64.0
  1
270
 41
0.9
 72
     1
 11
663.465072
 21
49.999996
 31
0.0
  0
LINE
  5
15F
  8
SIZE
  6
CONTINUOUS
 62
    30
 10
534.568114
 20
29.999996
 30
0.0
 11
784.568255
 21
29.999996
 31
0.0
  0
CIRCLE
  5
160
  8
SIZE
  6
CONTINUOUS
 62
    30
 10
640.568114
 20
172.251023
 30
0.0
 40
5.0
  0
LINE
  5
161
  8
SIZE
  6
CONTINUOUS
 62
    30
 10
524.568114
 20
172.251023
 30
0.0
 11
351.139543
 21
172.251023
 31
0.0
  0
LINE
  5
162
  8
SIZE
  6
CONTINUOUS
 62
    30
 10
529.568114
 20
29.999996
 30
0.0
 11
534.568114
 21
29.999996
 31
0.0
  0
LINE
  5
163
  8
SIZE
  6
CONTINUOUS
 62
    30
 10
529.568114
 20
172.251023
 30
0.0
 11
534.568114
 21
172.251023
 31
0.0
  0
CIRCLE
  5
164
  8
SIZE
  6
CONTINUOUS
 62
    30
 10
524.568114
 20
29.999996
 30
0.0
 40
5.0
  0
CIRCLE
  5
165
  8
SIZE
  6
CONTINUOUS
 62
    30
 10
524.568114
 20
172.251023
 30
0.0
 40
5.0
  0
POINT
  5
166
  8
DEFPOINTS
  6
CONTINUOUS
 62
     7
 10
640.568114
 20
172.251023
 30
0.0
  0
LINE
  5
167
  8
SIZE
  6
CONTINUOUS
 62
    30
 10
635.568114
 20
172.251023
 30
0.0
 11
630.568114
 21
172.251023
 31
0.0
  0
LINE
  5
168
  8
SIZE
  6
CONTINUOUS
 62
    30
 10
630.568114
 20
172.251023
 30
0.0
 11
534.568114
 21
172.251023
 31
0.0
  0
POINT
  5
169
  8
DEFPOINTS
  6
CONTINUOUS
 62
     7
 10
794.568255
 20
29.999996
 30
0.0
  0
LINE
  5
16A
  8
SIZE
  6
CONTINUOUS
 62
    30
 10
789.568255
 20
29.999996
 30
0.0
 11
784.568255
 21
29.999996
 31
0.0
  0
CIRCLE
  5
16B
  8
SIZE
  6
CONTINUOUS
 62
    30
 10
794.568255
 20
29.999996
 30
0.0
 40
5.0
  0
LINE
  5
16C
  8
SIZE
  6
CONTINUOUS
 62
    30
 10
642.600102
 20
565.790458
 30
0.0
 11
646.610765
 21
562.804728
 31
0.0
  0
LINE
  5
16D
  8
SIZE
  6
CONTINUOUS
 62
    30
 10
642.916032
 20
657.264041
 30
0.0
 11
647.032004
 21
660.102838
 31
0.0
  0
CIRCLE
  5
16E
  8
SIZE
  6
CONTINUOUS
 62
    30
 10
638.800059
 20
654.425244
 30
0.0
 40
5.0
  0
LINE
  5
16F
  8
OUTLINE
  6
CONTINUOUS
 62
     3
 10
773.046263
 20
550.745528
 30
0.0
 11
524.568114
 21
550.745528
 31
0.0
  0
LINE
  5
170
  8
NOTE
  6
CONTINUOUS
 62
     4
 10
581.209526
 20
609.015324
 30
0.0
 11
892.980515
 21
201.691438
 31
0.0
  0
LINE
  5
171
  8
DETAIL
  6
CONTINUOUS
 62
     5
 10
773.046263
 20
550.745528
 30
0.0
 11
524.568114
 21
550.745528
 31
0.0
  0
LINE
  5
172
  8
NOTE
  6
CONTINUOUS
 62
     4
 10
435.072021
 20
284.897495
 30
0.0
 11
484.152054
 21
579.745952
 31
0.0
  0
LINE
  5
173
  8
SIZE
  6
CONTINUOUS
 62
    30
 10
198.782372
 20
550.745528
 30
0.0
 11
198.782372
 21
404.349241
 31
0.0
  0
TEXT
  5
174
  8
SIZE
  6
CONTINUOUS
 62
    30
 10
324.167381
 20
420.231242
 30
0.0
 40
64.0
  1
29
 50
90.0
 41
0.9
 72
     1
 11
324.167381
 21
465.488385
 31
0.0
  0
LINE
  5
175
  8
SIZE
  6
CONTINUOUS
 62
    30
 10
344.167381
 20
540.745528
 30
0.0
 11
344.167381
 21
400.231242
 31
0.0
  0
TEXT
  5
176
  8
SIZE
  6
CONTINUOUS
 62
    30
 10
371.139542
 20
192.251023
 30
0.0
 40
64.0
  1
116
 41
0.9
 72
     1
 11
432.853828
 21
192.251023
 31
0.0
  0
LINE
  5
177
  8
NOTE
  6
CONTINUOUS
 62
     4
 10
423.527855
 20
635.745954
 30
0.0
 11
405.97413
 21
661.012839
 31
0.0
  0
LINE
  5
178
  8
NOTE
  6
CONTINUOUS
 62
     4
 10
380.803824
 20
754.488288
 30
0.0
 11
423.527855
 21
635.745954
 31
0.0
  0
LINE
  5
179
  8
SIZE
  6
CONTINUOUS
 62
    30
 10
450.006436
 20
579.745952
 30
0.0
 11
314.167381
 21
579.745952
 31
0.0
  0
LINE
  5
17A
  8
SIZE
  6
CONTINUOUS
 62
    30
 10
504.568114
 20
550.745528
 30
0.0
 11
314.167381
 21
550.745528
 31
0.0
  0
LINE
  5
17B
  8
NOTE
  6
CONTINUOUS
 62
     4
 10
402.655049
 20
635.745952
 30
0.0
 11
474.844844
 21
635.745952
 31
0.0
  0
LINE
  5
17C
  8
DETAIL
  6
CONTINUOUS
 62
     5
 10
423.528222
 20
650.982126
 30
0.0
 11
409.887774
 21
643.106988
 31
0.0
  0
LINE
  5
17D
  8
DETAIL
  6
CONTINUOUS
 62
     5
 10
409.887603
 20
627.356156
 30
0.0
 11
423.528151
 21
619.4812
 31
0.0
  0
ARC
  5
17E
  8
DETAIL
  6
CONTINUOUS
 62
     5
 10
423.527858
 20
635.231719
 30
0.0
 40
13.135216
 50
37.979758
 51
322.019646
  0
LINE
  5
17F
  8
DETAIL
  6
CONTINUOUS
 62
     5
 10
409.887603
 20
627.356156
 30
0.0
 11
423.528151
 21
619.4812
 31
0.0
  0
LINE
  5
180
  8
DETAIL
  6
CONTINUOUS
 62
     5
 10
423.528222
 20
650.982126
 30
0.0
 11
409.887774
 21
643.106988
 31
0.0
  0
ARC
  5
181
  8
DETAIL
  6
CONTINUOUS
 62
     5
 10
423.088667
 20
635.745528
 30
0.0
 40
8.08321
 50
90.0
 51
270.0
  0
LINE
  5
182
  8
DETAIL
  6
CONTINUOUS
 62
     5
 10
409.887471
 20
643.106927
 30
0.0
 11
409.887471
 21
627.356288
 31
0.0
  0
LINE
  5
183
  8
DETAIL
  6
CONTINUOUS
 62
     5
 10
409.887471
 20
643.106927
 30
0.0
 11
409.887471
 21
627.356288
 31
0.0
  0
POINT
  5
184
  8
DEFPOINTS
  6
CONTINUOUS
 62
     7
 10
198.782372
 20
550.745528
 30
0.0
  0
LINE
  5
185
  8
SIZE
  6
CONTINUOUS
 62
    30
 10
198.782372
 20
555.745528
 30
0.0
 11
198.782372
 21
560.745528
 31
0.0
  0
LINE
  5
186
  8
SIZE
  6
CONTINUOUS
 62
    30
 10
198.782372
 20
630.745952
 30
0.0
 11
198.782372
 21
625.745952
 31
0.0
  0
LINE
  5
187
  8
SIZE
  6
CONTINUOUS
 62
    30
 10
198.782372
 20
625.745952
 30
0.0
 11
198.782372
 21
560.745528
 31
0.0
  0
POINT
  5
188
  8
DEFPOINTS
  6
CONTINUOUS
 62
     7
 10
402.655049
 20
635.745952
 30
0.0
  0
POINT
  5
189
  8
DEFPOINTS
  6
CONTINUOUS
 62
     7
 10
344.167381
 20
579.745952
 30
0.0
  0
LINE
  5
18A
  8
SIZE
  6
CONTINUOUS
 62
    30
 10
344.167381
 20
545.745528
 30
0.0
 11
344.167381
 21
540.745528
 31
0.0
  0
CIRCLE
  5
18B
  8
SIZE
  6
CONTINUOUS
 62
    30
 10
344.167381
 20
550.745528
 30
0.0
 40
5.0
  0
LINE
  5
18C
  8
SIZE
  6
CONTINUOUS
 62
    30
 10
344.167381
 20
584.745952
 30
0.0
 11
344.167381
 21
589.745952
 31
0.0
  0
CIRCLE
  5
18D
  8
SIZE
  6
CONTINUOUS
 62
    30
 10
344.167381
 20
579.745952
 30
0.0
 40
5.0
  0
LINE
  5
18E
  8
SIZE
  6
CONTINUOUS
 62
    30
 10
344.167381
 20
579.745952
 30
0.0
 11
344.167381
 21
550.745528
 31
0.0
  0
LINE
  5
18F
  8
SIZE
  6
CONTINUOUS
 62
    30
 10
344.167381
 20
589.745952
 30
0.0
 11
344.167381
 21
599.745952
 31
0.0
  0
LINE
  5
190
  8
NOTE
  6
CONTINUOUS
 62
     4
 10
423.527855
 20
635.745954
 30
0.0
 11
420.959326
 21
666.40458
 31
0.0
  0
LINE
  5
191
  8
NOTE
  6
CONTINUOUS
 62
     4
 10
453.840064
 20
635.745954
 30
0.0
 11
442.006991
 21
664.145374
 31
0.0
  0
LINE
  5
192
  8
NOTE
  6
CONTINUOUS
 62
     4
 10
453.840064
 20
635.745954
 30
0.0
 11
457.792033
 21
666.25711
 31
0.0
  0
LINE
  5
193
  8
NOTE
  6
CONTINUOUS
 62
     4
 10
423.527858
 20
656.750729
 30
0.0
 11
423.527858
 21
607.54433
 31
0.0
  0
LINE
  5
194
  8
NOTE
  6
CONTINUOUS
 62
     4
 10
453.840067
 20
656.750729
 30
0.0
 11
453.840067
 21
613.962641
 31
0.0
  0
LINE
  5
195
  8
DETAIL
  6
CONTINUOUS
 62
     5
 10
640.568114
 20
648.747649
 30
0.0
 11
640.568114
 21
574.747649
 31
0.0
  0
LINE
  5
196
  8
DETAIL
  6
CONTINUOUS
 62
     5
 10
630.568114
 20
564.747649
 30
0.0
 11
524.568114
 21
564.747649
 31
0.0
  0
LINE
  5
197
  8
NOTE
  6
CONTINUOUS
 62
     4
 10
484.152054
 20
579.745952
 30
0.0
 11
487.127188
 21
549.124108
 31
0.0
  0
LINE
  5
198
  8
NOTE
  6
CONTINUOUS
 62
     4
 10
484.152054
 20
579.745952
 30
0.0
 11
471.417673
 21
551.739091
 31
0.0
  0
POINT
  5
199
  8
DEFPOINTS
  6
CONTINUOUS
 62
     7
 10
524.568114
 20
550.745528
 30
0.0
  0
POINT
  5
19A
  8
DEFPOINTS
  6
CONTINUOUS
 62
     7
 10
524.568114
 20
550.745528
 30
0.0
  0
POINT
  5
19B
  8
DEFPOINTS
  6
CONTINUOUS
 62
     7
 10
524.568114
 20
564.747649
 30
0.0
  0
POINT
  5
19C
  8
DEFPOINTS
  6
CONTINUOUS
 62
     7
 10
524.568114
 20
550.745528
 30
0.0
  0
POINT
  5
19D
  8
DEFPOINTS
  6
CONTINUOUS
 62
     7
 10
470.006436
 20
579.745952
 30
0.0
  0
POINT
  5
19E
  8
DEFPOINTS
  6
CONTINUOUS
 62
     7
 10
524.568114
 20
550.745528
 30
0.0
  0
LINE
  5
19F
  8
NOTE
  6
CONTINUOUS
 62
     4
 10
467.122943
 20
579.745952
 30
0.0
 11
503.065007
 21
579.745952
 31
0.0
  0
LINE
  5
1A0
  8
NOTE
  6
CONTINUOUS
 62
     4
 10
484.152054
 20
595.64603
 30
0.0
 11
484.152054
 21
563.554889
 31
0.0
  0
LINE
  5
1A1
  8
DETAIL
  6
CONTINUOUS
 62
     5
 10
524.568114
 20
627.148418
 30
0.0
 11
462.067835
 21
627.148418
 31
0.0
  0
LINE
  5
1A2
  8
DETAIL
  6
CONTINUOUS
 62
     5
 10
453.839976
 20
622.398208
 30
0.0
 11
445.61241
 21
627.148418
 31
0.0
  0
LINE
  5
1A3
  8
DETAIL
  6
CONTINUOUS
 62
     5
 10
462.067633
 20
627.148418
 30
0.0
 11
453.840148
 21
622.39838
 31
0.0
  0
LINE
  5
1A4
  8
DETAIL
  6
CONTINUOUS
 62
     5
 10
445.612299
 20
627.148418
 30
0.0
 11
436.808794
 21
627.148418
 31
0.0
  0
LINE
  5
1A5
  8
DETAIL
  6
CONTINUOUS
 62
     5
 10
423.52803
 20
619.48119
 30
0.0
 11
437.168355
 21
627.35654
 31
0.0
  0
LINE
  5
1A6
  8
DETAIL
  6
CONTINUOUS
 62
     5
 10
524.568114
 20
569.641354
 30
0.0
 11
484.152054
 21
569.641354
 31
0.0
  0
LINE
  5
1A7
  8
DETAIL
  6
CONTINUOUS
 62
     5
 10
524.568114
 20
589.849379
 30
0.0
 11
489.149549
 21
589.849379
 31
0.0
  0
ARC
  5
1A8
  8
DETAIL
  6
CONTINUOUS
 62
     5
 10
484.152054
 20
579.745528
 30
0.0
 40
10.104012
 50
89.675828
 51
92.607182
  0
ARC
  5
1A9
  8
DETAIL
  6
CONTINUOUS
 62
     5
 10
484.152054
 20
579.745528
 30
0.0
 40
10.104012
 50
92.607182
 51
267.392818
  0
LINE
  5
1AA
  8
DETAIL
  6
CONTINUOUS
 62
     5
 10
445.612299
 20
627.148418
 30
0.0
 11
462.067835
 21
627.148418
 31
0.0
  0
LINE
  5
1AB
  8
DETAIL
  6
CONTINUOUS
 62
     5
 10
437.168355
 20
627.35654
 30
0.0
 11
434.040497
 21
627.35654
 31
0.0
  0
LINE
  5
1AC
  8
DETAIL
  6
CONTINUOUS
 62
     5
 10
524.568114
 20
627.148418
 30
0.0
 11
462.067835
 21
627.148418
 31
0.0
  0
LINE
  5
1AD
  8
DETAIL
  6
CONTINUOUS
 62
     5
 10
423.52803
 20
619.48119
 30
0.0
 11
437.168355
 21
627.35654
 31
0.0
  0
LINE
  5
1AE
  8
DETAIL
  6
CONTINUOUS
 62
     5
 10
445.612299
 20
627.148418
 30
0.0
 11
436.808794
 21
627.148418
 31
0.0
  0
LINE
  5
1AF
  8
DETAIL
  6
CONTINUOUS
 62
     5
 10
524.568114
 20
569.641354
 30
0.0
 11
484.152054
 21
569.641354
 31
0.0
  0
LINE
  5
1B0
  8
DETAIL
  6
CONTINUOUS
 62
     5
 10
524.568114
 20
589.849379
 30
0.0
 11
484.152054
 21
589.849379
 31
0.0
  0
LINE
  5
1B1
  8
DETAIL
  6
CONTINUOUS
 62
     5
 10
423.088667
 20
627.436594
 30
0.0
 11
435.698161
 21
627.436594
 31
0.0
  0
LINE
  5
1B2
  8
DETAIL
  6
CONTINUOUS
 62
     5
 10
489.149549
 20
589.849379
 30
0.0
 11
484.152054
 21
589.849379
 31
0.0
  0
ARC
  5
1B3
  8
DETAIL
  6
CONTINUOUS
 62
     5
 10
484.152054
 20
579.745528
 30
0.0
 40
14.145617
 50
45.583765
 51
314.414363
  0
POINT
  5
1B4
  8
DEFPOINTS
  6
CONTINUOUS
 62
     7
 10
630.568114
 20
574.747649
 30
0.0
  0
POINT
  5
1B5
  8
DEFPOINTS
  6
CONTINUOUS
 62
     7
 10
638.589439
 20
568.776189
 30
0.0
  0
CIRCLE
  5
1B6
  8
SIZE
  6
CONTINUOUS
 62
    30
 10
638.589439
 20
568.776189
 30
0.0
 40
5.0
  0
LINE
  5
1B7
  8
SIZE
  6
CONTINUOUS
 62
    30
 10
630.568114
 20
574.747649
 30
0.0
 11
638.589439
 21
568.776189
 31
0.0
  0
SOLID
  5
1B8
  8
NOTE
  6
CONTINUOUS
 62
     4
 10
578.00548
 20
609.015324
 30
0.0
 11
578.943924
 21
606.749721
 31
0.0
 12
578.943924
 22
611.280926
 32
0.0
 13
578.943924
 23
611.280926
 33
0.0
  0
SOLID
  5
1B9
  8
NOTE
  6
CONTINUOUS
 62
     4
 10
581.209526
 20
605.811278
 30
0.0
 11
578.943924
 21
611.280926
 31
0.0
 12
578.943924
 22
606.749721
 32
0.0
 13
578.943924
 23
606.749721
 33
0.0
  0
SOLID
  5
1BA
  8
NOTE
  6
CONTINUOUS
 62
     4
 10
578.943924
 20
611.280926
 30
0.0
 11
581.209526
 21
605.811278
 31
0.0
 12
581.209526
 22
612.219369
 32
0.0
 13
581.209526
 23
612.219369
 33
0.0
  0
SOLID
  5
1BB
  8
NOTE
  6
CONTINUOUS
 62
     4
 10
583.475128
 20
606.749721
 30
0.0
 11
581.209526
 21
612.219369
 31
0.0
 12
581.209526
 22
605.811278
 32
0.0
 13
581.209526
 23
605.811278
 33
0.0
  0
SOLID
  5
1BC
  8
NOTE
  6
CONTINUOUS
 62
     4
 10
581.209526
 20
612.219369
 30
0.0
 11
583.475128
 21
606.749721
 31
0.0
 12
583.475128
 22
611.280926
 32
0.0
 13
583.475128
 23
611.280926
 33
0.0
  0
SOLID
  5
1BD
  8
NOTE
  6
CONTINUOUS
 62
     4
 10
584.413571
 20
609.015324
 30
0.0
 11
583.475128
 21
611.280926
 31
0.0
 12
583.475128
 22
606.749721
 32
0.0
 13
583.475128
 23
606.749721
 33
0.0
  0
CIRCLE
  5
1BE
  8
NOTE
  6
CONTINUOUS
 62
     4
 10
581.209526
 20
609.015324
 30
0.0
 40
3.204046
  0
POINT
  5
1BF
  8
DEFPOINTS
  6
CONTINUOUS
 62
     7
 10
640.568114
 20
574.747649
 30
0.0
  0
ARC
  5
1C0
  8
DETAIL
  6
CONTINUOUS
 62
     5
 10
630.568114
 20
574.747649
 30
0.0
 40
10.0
 50
270.0
 51
0.0
  0
LINE
  5
1C1
  8
DETAIL
  6
CONTINUOUS
 62
     5
 10
630.568114
 20
658.747649
 30
0.0
 11
524.568114
 21
658.747649
 31
0.0
  0
POINT
  5
1C2
  8
DEFPOINTS
  6
CONTINUOUS
 62
     7
 10
524.568114
 20
658.747649
 30
0.0
  0
LINE
  5
1C3
  8
DETAIL
  6
CONTINUOUS
 62
     5
 10
524.568114
 20
643.314908
 30
0.0
 11
462.068371
 21
643.314908
 31
0.0
  0
LINE
  5
1C4
  8
DETAIL
  6
CONTINUOUS
 62
     5
 10
453.839946
 20
648.06534
 30
0.0
 11
445.611743
 21
643.314908
 31
0.0
  0
LINE
  5
1C5
  8
DETAIL
  6
CONTINUOUS
 62
     5
 10
453.839885
 20
648.065542
 30
0.0
 11
462.068229
 21
643.314908
 31
0.0
  0
LINE
  5
1C6
  8
DETAIL
  6
CONTINUOUS
 62
     5
 10
445.611652
 20
643.314908
 30
0.0
 11
436.808471
 21
643.314908
 31
0.0
  0
LINE
  5
1C7
  8
DETAIL
  6
CONTINUOUS
 62
     5
 10
423.52804
 20
650.982167
 30
0.0
 11
437.168729
 21
643.106574
 31
0.0
  0
LINE
  5
1C8
  8
DETAIL
  6
CONTINUOUS
 62
     5
 10
462.068371
 20
643.314908
 30
0.0
 11
445.611652
 21
643.314908
 31
0.0
  0
LINE
  5
1C9
  8
DETAIL
  6
CONTINUOUS
 62
     5
 10
437.168467
 20
643.106725
 30
0.0
 11
434.040618
 21
643.106725
 31
0.0
  0
LINE
  5
1CA
  8
DETAIL
  6
CONTINUOUS
 62
     5
 10
524.568114
 20
643.314908
 30
0.0
 11
462.068371
 21
643.314908
 31
0.0
  0
LINE
  5
1CB
  8
DETAIL
  6
CONTINUOUS
 62
     5
 10
423.52804
 20
650.982167
 30
0.0
 11
437.168729
 21
643.106574
 31
0.0
  0
LINE
  5
1CC
  8
DETAIL
  6
CONTINUOUS
 62
     5
 10
445.611652
 20
643.314908
 30
0.0
 11
436.808471
 21
643.314908
 31
0.0
  0
LINE
  5
1CD
  8
DETAIL
  6
CONTINUOUS
 62
     5
 10
423.088667
 20
643.493527
 30
0.0
 11
435.698161
 21
643.493527
 31
0.0
  0
POINT
  5
1CE
  8
DEFPOINTS
  6
CONTINUOUS
 62
     7
 10
630.568114
 20
648.747649
 30
0.0
  0
POINT
  5
1CF
  8
DEFPOINTS
  6
CONTINUOUS
 62
     7
 10
638.800059
 20
654.425244
 30
0.0
  0
LINE
  5
1D0
  8
SIZE
  6
CONTINUOUS
 62
    30
 10
630.568114
 20
648.747649
 30
0.0
 11
638.800059
 21
654.425244
 31
0.0
  0
ARC
  5
1D1
  8
DETAIL
  6
CONTINUOUS
 62
     5
 10
630.568114
 20
648.747649
 30
0.0
 40
10.0
 50
0.0
 51
90.0
  0
TEXT
  5
1D2
  8
SIZE
  6
CONTINUOUS
 62
    30
 10
833.854124
 20
448.345299
 30
0.0
 40
64.0
  1
R10
 50
323.33423
 41
0.9
 72
     1
 11
889.957566
 21
406.579199
 31
0.0
  0
LINE
  5
1D3
  8
SIZE
  6
CONTINUOUS
 62
    30
 10
950.160737
 20
336.827527
 30
0.0
 11
646.610765
 21
562.804728
 31
0.0
  0
LINE
  5
1D4
  8
SIZE
  6
CONTINUOUS
 62
    30
 10
790.126568
 20
550.745528
 30
0.0
 11
1077.154468
 21
550.745528
 31
0.0
  0
LINE
  5
1D5
  8
OUTLINE
  6
CONTINUOUS
 62
     3
 10
770.126568
 20
550.745528
 30
0.0
 11
774.552288
 21
550.745528
 31
0.0
  0
LINE
  5
1D6
  8
OUTLINE
  6
CONTINUOUS
 62
     3
 10
794.568114
 20
593.071861
 30
0.0
 11
791.53691
 21
593.071861
 31
0.0
  0
ARC
  5
1D7
  8
OUTLINE
  6
CONTINUOUS
 62
     3
 10
772.339428
 20
572.863937
 30
0.0
 40
22.228827
 50
275.713206
 51
0.000091
  0
LINE
  5
1D8
  8
OUTLINE
  6
CONTINUOUS
 62
     3
 10
794.568114
 20
572.863937
 30
0.0
 11
794.568114
 21
593.071861
 31
0.0
  0
POINT
  5
1D9
  8
DEFPOINTS
  6
CONTINUOUS
 62
     7
 10
770.126568
 20
550.745528
 30
0.0
  0
POINT
  5
1DA
  8
DEFPOINTS
  6
CONTINUOUS
 62
     7
 10
794.568255
 20
572.863972
 30
0.0
  0
LINE
  5
1DB
  8
DETAIL
  6
CONTINUOUS
 62
     5
 10
770.126568
 20
550.745528
 30
0.0
 11
774.552288
 21
550.745528
 31
0.0
  0
LINE
  5
1DC
  8
DETAIL
  6
CONTINUOUS
 62
     5
 10
794.568114
 20
593.071861
 30
0.0
 11
771.13697
 21
593.071861
 31
0.0
  0
ARC
  5
1DD
  8
DETAIL
  6
CONTINUOUS
 62
     5
 10
772.339428
 20
572.863937
 30
0.0
 40
22.228827
 50
275.713206
 51
0.000091
  0
LINE
  5
1DE
  8
DETAIL
  6
CONTINUOUS
 62
     5
 10
794.568114
 20
572.863937
 30
0.0
 11
794.568114
 21
593.071861
 31
0.0
  0
LINE
  5
1DF
  8
DETAIL
  6
CONTINUOUS
 62
     5
 10
770.126568
 20
550.745528
 30
0.0
 11
770.126568
 21
592.06146
 31
0.0
  0
ARC
  5
1E0
  8
DETAIL
  6
CONTINUOUS
 62
     5
 10
771.13697
 20
592.06146
 30
0.0
 40
1.010401
 50
90.0
 51
180.0
  0
LINE
  5
1E1
  8
SIZE
  6
CONTINUOUS
 62
    30
 10
1047.154468
 20
555.745528
 30
0.0
 11
1047.154468
 21
560.745528
 31
0.0
  0
CIRCLE
  5
1E2
  8
SIZE
  6
CONTINUOUS
 62
    30
 10
1047.154468
 20
550.745528
 30
0.0
 40
5.0
  0
LINE
  5
1E3
  8
BASIS
  6
DASHDOT
 62
     6
 10
505.116451
 20
791.745639
 30
0.0
 11
814.019777
 21
791.745639
 31
0.0
  0
LINE
  5
1E4
  8
OUTLINE
  6
CONTINUOUS
 62
     3
 10
524.568114
 20
1032.745639
 30
0.0
 11
778.964813
 21
1032.745639
 31
0.0
  0
LINE
  5
1E5
  8
OUTLINE
  6
CONTINUOUS
 62
     3
 10
773.046263
 20
1032.745639
 30
0.0
 11
524.568114
 21
1032.745639
 31
0.0
  0
LINE
  5
1E6
  8
DETAIL
  6
CONTINUOUS
 62
     5
 10
524.568114
 20
1032.745639
 30
0.0
 11
778.964813
 21
1032.745639
 31
0.0
  0
LINE
  5
1E7
  8
DETAIL
  6
CONTINUOUS
 62
     5
 10
773.046263
 20
1032.745639
 30
0.0
 11
524.568114
 21
1032.745639
 31
0.0
  0
TEXT
  5
1E8
  8
SIZE
  6
CONTINUOUS
 62
    30
 10
856.82395
 20
829.092503
 30
0.0
 40
64.0
  1
R10
 50
34.594133
 41
0.9
 72
     1
 11
914.400527
 21
868.803221
 31
0.0
  0
LINE
  5
1E9
  8
SIZE
  6
CONTINUOUS
 62
    30
 10
790.126568
 20
1032.745639
 30
0.0
 11
1077.154468
 21
1032.745639
 31
0.0
  0
ARC
  5
1EA
  8
OUTLINE
  6
CONTINUOUS
 62
     3
 10
791.53691
 20
994.350533
 30
0.0
 40
3.031204
 50
270.0
 51
359.999981
  0
LINE
  5
1EB
  8
OUTLINE
  6
CONTINUOUS
 62
     3
 10
794.568114
 20
1011.527132
 30
0.0
 11
794.568114
 21
994.350533
 31
0.0
  0
ARC
  5
1EC
  8
OUTLINE
  6
CONTINUOUS
 62
     3
 10
772.339428
 20
1011.527132
 30
0.0
 40
22.228827
 50
359.999981
 51
72.659256
  0
POINT
  5
1ED
  8
DEFPOINTS
  6
CONTINUOUS
 62
     7
 10
770.126568
 20
1032.745639
 30
0.0
  0
ARC
  5
1EE
  8
DETAIL
  6
CONTINUOUS
 62
     5
 10
791.53691
 20
994.350533
 30
0.0
 40
3.031204
 50
270.0
 51
359.999981
  0
LINE
  5
1EF
  8
DETAIL
  6
CONTINUOUS
 62
     5
 10
794.568114
 20
1011.527132
 30
0.0
 11
794.568114
 21
994.350533
 31
0.0
  0
ARC
  5
1F0
  8
DETAIL
  6
CONTINUOUS
 62
     5
 10
772.339428
 20
1011.527132
 30
0.0
 40
22.228827
 50
359.999981
 51
72.659256
  0
LINE
  5
1F1
  8
DETAIL
  6
CONTINUOUS
 62
     5
 10
771.13697
 20
991.319319
 30
0.0
 11
791.53691
 21
991.319319
 31
0.0
  0
LINE
  5
1F2
  8
DETAIL
  6
CONTINUOUS
 62
     5
 10
770.126568
 20
992.32972
 30
0.0
 11
770.126568
 21
1032.745639
 31
0.0
  0
ARC
  5
1F3
  8
DETAIL
  6
CONTINUOUS
 62
     5
 10
771.13697
 20
992.32972
 30
0.0
 40
1.010401
 50
180.0
 51
270.0
  0
POINT
  5
1F4
  8
DEFPOINTS
  6
CONTINUOUS
 62
     7
 10
1047.154468
 20
1032.745639
 30
0.0
  0
LINE
  5
1F5
  8
SIZE
  6
CONTINUOUS
 62
    30
 10
1047.154468
 20
1027.745639
 30
0.0
 11
1047.154468
 21
1022.745639
 31
0.0
  0
CIRCLE
  5
1F6
  8
SIZE
  6
CONTINUOUS
 62
    30
 10
1047.154468
 20
1032.745639
 30
0.0
 40
5.0
  0
ENDBLK
  5
1F8
  8
0
 62
     7
  0
ENDSEC
  0
SECTION
  2
ENTITIES
  0
LINE
  5
1FA
  8
NOTE
  6
CONTINUOUS
 62
     4
 10
-89.496093
 20
-506.848144
 30
0.0
 11
-375.261157
 21
-506.848144
 31
0.0
  0
TEXT
  5
1FB
  8
NOTE
  6
CONTINUOUS
 62
     4
 10
-367.558861
 20
-493.384685
 30
0.0
 40
60.0
  1
D VP20
 41
0.73
  0
LINE
  5
1FC
  8
NOTE
  6
CONTINUOUS
 62
     4
 10
-102.406788
 20
80.796149
 30
0.0
 11
-392.395369
 21
80.796149
 31
0.0
  0
TEXT
  5
1FD
  8
NOTE
  6
CONTINUOUS
 62
     4
 10
-379.111368
 20
94.259608
 30
0.0
 40
60.0
  1
RL %%C6.35
 41
0.73
  0
LINE
  5
1FE
  8
NOTE
  6
CONTINUOUS
 62
     4
 10
-143.76429
 20
-37.257351
 30
0.0
 11
-434.944566
 21
-37.257351
 31
0.0
  0
TEXT
  5
1FF
  8
NOTE
  6
CONTINUOUS
 62
     4
 10
-429.465224
 20
-22.286526
 30
0.0
 40
60.0
  1
RG %%C12.7
 41
0.73
  0
LINE
  5
200
  8
SIZE
  6
CONTINUOUS
 62
    30
 10
-20.0
 20
-132.99799
 30
0.0
 11
-470.568116
 21
-132.99799
 31
0.0
  0
LINE
  5
201
  8
SIZE
  6
CONTINUOUS
 62
    30
 10
-20.0
 20
-226.99799
 30
0.0
 11
-470.568116
 21
-226.99799
 31
0.0
  0
CIRCLE
  5
202
  8
SIZE
  6
CONTINUOUS
 62
    30
 10
-325.785742
 20
-241.000111
 30
0.0
 40
5.0
  0
CIRCLE
  5
203
  8
SIZE
  6
CONTINUOUS
 62
    30
 10
-325.785742
 20
-155.999687
 30
0.0
 40
5.0
  0
LINE
  5
204
  8
SIZE
  6
CONTINUOUS
 62
    30
 10
-20.0
 20
-241.000111
 30
0.0
 11
-355.785742
 21
-241.000111
 31
0.0
  0
LINE
  5
205
  8
SIZE
  6
CONTINUOUS
 62
    30
 10
-141.913065
 20
-155.999687
 30
0.0
 11
-355.785742
 21
-155.999687
 31
0.0
  0
TEXT
  5
206
  8
ETC
  6
CONTINUOUS
 62
    61
 10
-441.336716
 20
396.407806
 30
0.0
 40
60.0
  1
MDK-P50A-C_5
 50
0.000003
 41
0.8
  0
TEXT
  5
207
  8
SIZE
  6
CONTINUOUS
 62
    30
 10
-345.785742
 20
-367.396397
 30
0.0
 40
64.0
  1
85
 50
90.0
 41
0.9
 72
     1
 11
-345.785742
 21
-320.767826
 31
0.0
  0
TEXT
  5
208
  8
SIZE
  6
CONTINUOUS
 62
    30
 10
-460.568116
 20
-227.99799
 30
0.0
 40
64.0
  1
94
 50
90.0
 41
0.9
 72
     1
 11
-460.568116
 21
-179.99799
 31
0.0
  0
LINE
  5
209
  8
SIZE
  6
CONTINUOUS
 62
    30
 10
-440.568116
 20
-226.99799
 30
0.0
 11
-440.568116
 21
-132.99799
 31
0.0
  0
CIRCLE
  5
20A
  8
SIZE
  6
CONTINUOUS
 62
    30
 10
-440.568116
 20
-226.99799
 30
0.0
 40
5.0
  0
LINE
  5
20B
  8
SIZE
  6
CONTINUOUS
 62
    30
 10
-440.568116
 20
-231.99799
 30
0.0
 11
-440.568116
 21
-236.99799
 31
0.0
  0
LINE
  5
20C
  8
SIZE
  6
CONTINUOUS
 62
    30
 10
-440.568116
 20
-236.99799
 30
0.0
 11
-440.568116
 21
-246.99799
 31
0.0
  0
CIRCLE
  5
20D
  8
SIZE
  6
CONTINUOUS
 62
    30
 10
-440.568116
 20
-132.99799
 30
0.0
 40
5.0
  0
POINT
  5
20E
  8
DEFPOINTS
  6
CONTINUOUS
 62
     7
 10
-440.568116
 20
-132.99799
 30
0.0
  0
LINE
  5
20F
  8
SIZE
  6
CONTINUOUS
 62
    30
 10
-440.568116
 20
-127.99799
 30
0.0
 11
-440.568116
 21
-122.99799
 31
0.0
  0
LINE
  5
210
  8
SIZE
  6
CONTINUOUS
 62
    30
 10
-440.568116
 20
-122.99799
 30
0.0
 11
-440.568116
 21
-112.99799
 31
0.0
  0
LINE
  5
211
  8
OUTLINE
  6
CONTINUOUS
 62
     3
 10
0.0
 20
241.0
 30
0.0
 11
0.0
 21
-241.000111
 31
0.0
  0
CIRCLE
  5
212
  8
ARRANGE
  6
CONTINUOUS
 62
     1
 10
0.0
 20
0.0
 30
0.0
 40
50.0
  0
LINE
  5
213
  8
SIZE
  6
CONTINUOUS
 62
    30
 10
475.228068
 20
111.6596
 30
0.0
 11
122.46389
 21
-131.642801
 31
0.0
  0
LINE
  5
214
  8
OUTLINE
  6
CONTINUOUS
 62
     3
 10
266.968796
 20
199.57368
 30
0.0
 11
266.968796
 21
-198.673778
 31
0.0
  0
LINE
  5
215
  8
NOTE
  6
CONTINUOUS
 62
     4
 10
-102.406788
 20
80.796149
 30
0.0
 11
-70.72805
 21
-155.999685
 31
0.0
  0
TEXT
  5
216
  8
SIZE
  6
CONTINUOUS
 62
    30
 10
502.586354
 20
-97.13165
 30
0.0
 40
64.0
  1
482
 50
90.0
 41
0.9
 72
     1
 11
502.586354
 21
-23.074507
 31
0.0
  0
LINE
  5
217
  8
SIZE
  6
CONTINUOUS
 62
    30
 10
522.586354
 20
-231.000111
 30
0.0
 11
522.586354
 21
231.0
 31
0.0
  0
LINE
  5
218
  8
ARRANGE
  6
CONTINUOUS
 62
     1
 10
-49.963763
 20
49.596595
 30
0.0
 11
49.963763
 21
-49.596595
 31
0.0
  0
LINE
  5
219
  8
ARRANGE
  6
CONTINUOUS
 62
     1
 10
-50.03735
 20
-49.522353
 30
0.0
 11
50.03735
 21
49.522353
 31
0.0
  0
LINE
  5
21A
  8
DETAIL
  6
CONTINUOUS
 62
     5
 10
0.0
 20
241.0
 30
0.0
 11
0.0
 21
-241.000111
 31
0.0
  0
LINE
  5
21B
  8
DETAIL
  6
CONTINUOUS
 62
     5
 10
266.968796
 20
199.57368
 30
0.0
 11
266.968796
 21
-198.673778
 31
0.0
  0
LINE
  5
21C
  8
NOTE
  6
CONTINUOUS
 62
     4
 10
748.636798
 20
-590.054201
 30
0.0
 11
368.412401
 21
-590.054201
 31
0.0
  0
TEXT
  5
21D
  8
NOTE
  6
CONTINUOUS
 62
     4
 10
387.822709
 20
-574.954528
 30
0.0
 40
50.0
  1
左配管・左配線穴 
 41
0.73
  7
ZU_SHPTB00001
  0
TEXT
  5
21E
  8
NOTE
  6
CONTINUOUS
 62
     4
 10
376.335818
 20
-653.500175
 30
0.0
 40
50.0
  1
（ノックアウト穴）
 41
0.73
  7
ZU_SHPTB00001
  0
LINE
  5
21F
  8
SIZE
  6
CONTINUOUS
 62
    30
 10
270.000141
 20
-238.881667
 30
0.0
 11
270.000141
 21
-791.745643
 31
0.0
  0
LINE
  5
220
  8
SIZE
  6
CONTINUOUS
 62
    30
 10
0.0
 20
-261.000111
 30
0.0
 11
0.0
 21
-791.745643
 31
0.0
  0
LINE
  5
221
  8
SIZE
  6
CONTINUOUS
 62
    30
 10
116.0
 20
-236.99799
 30
0.0
 11
116.0
 21
-649.494616
 31
0.0
  0
LINE
  5
222
  8
SIZE
  6
CONTINUOUS
 62
    30
 10
0.0
 20
-261.000111
 30
0.0
 11
0.0
 21
-649.494616
 31
0.0
  0
TEXT
  5
223
  8
SIZE
  6
CONTINUOUS
 62
    30
 10
64.839815
 20
-741.745643
 30
0.0
 40
64.0
  1
270
 41
0.9
 72
     1
 11
138.896958
 21
-741.745643
 31
0.0
  0
LINE
  5
224
  8
SIZE
  6
CONTINUOUS
 62
    30
 10
10.0
 20
-761.745643
 30
0.0
 11
260.000141
 21
-761.745643
 31
0.0
  0
CIRCLE
  5
225
  8
SIZE
  6
CONTINUOUS
 62
    30
 10
116.0
 20
-619.494616
 30
0.0
 40
5.0
  0
LINE
  5
226
  8
SIZE
  6
CONTINUOUS
 62
    30
 10
0.0
 20
-619.494616
 30
0.0
 11
-173.428571
 21
-619.494616
 31
0.0
  0
LINE
  5
227
  8
SIZE
  6
CONTINUOUS
 62
    30
 10
5.0
 20
-761.745643
 30
0.0
 11
10.0
 21
-761.745643
 31
0.0
  0
LINE
  5
228
  8
SIZE
  6
CONTINUOUS
 62
    30
 10
5.0
 20
-619.494616
 30
0.0
 11
10.0
 21
-619.494616
 31
0.0
  0
CIRCLE
  5
229
  8
SIZE
  6
CONTINUOUS
 62
    30
 10
0.0
 20
-761.745643
 30
0.0
 40
5.0
  0
CIRCLE
  5
22A
  8
SIZE
  6
CONTINUOUS
 62
    30
 10
0.0
 20
-619.494616
 30
0.0
 40
5.0
  0
POINT
  5
22B
  8
DEFPOINTS
  6
CONTINUOUS
 62
     7
 10
116.0
 20
-619.494616
 30
0.0
  0
LINE
  5
22C
  8
SIZE
  6
CONTINUOUS
 62
    30
 10
111.0
 20
-619.494616
 30
0.0
 11
106.0
 21
-619.494616
 31
0.0
  0
LINE
  5
22D
  8
SIZE
  6
CONTINUOUS
 62
    30
 10
106.0
 20
-619.494616
 30
0.0
 11
10.0
 21
-619.494616
 31
0.0
  0
POINT
  5
22E
  8
DEFPOINTS
  6
CONTINUOUS
 62
     7
 10
270.000141
 20
-761.745643
 30
0.0
  0
LINE
  5
22F
  8
SIZE
  6
CONTINUOUS
 62
    30
 10
265.000141
 20
-761.745643
 30
0.0
 11
260.000141
 21
-761.745643
 31
0.0
  0
CIRCLE
  5
230
  8
SIZE
  6
CONTINUOUS
 62
    30
 10
270.000141
 20
-761.745643
 30
0.0
 40
5.0
  0
LINE
  5
231
  8
SIZE
  6
CONTINUOUS
 62
    30
 10
118.031988
 20
-225.955181
 30
0.0
 11
122.042651
 21
-228.940911
 31
0.0
  0
LINE
  5
232
  8
SIZE
  6
CONTINUOUS
 62
    30
 10
118.347918
 20
-134.481598
 30
0.0
 11
122.46389
 21
-131.642801
 31
0.0
  0
CIRCLE
  5
233
  8
SIZE
  6
CONTINUOUS
 62
    30
 10
114.231945
 20
-137.320395
 30
0.0
 40
5.0
  0
LINE
  5
234
  8
OUTLINE
  6
CONTINUOUS
 62
     3
 10
248.478149
 20
-241.000111
 30
0.0
 11
0.0
 21
-241.000111
 31
0.0
  0
LINE
  5
235
  8
NOTE
  6
CONTINUOUS
 62
     4
 10
56.641412
 20
-182.730315
 30
0.0
 11
368.412401
 21
-590.054201
 31
0.0
  0
LINE
  5
236
  8
DETAIL
  6
CONTINUOUS
 62
     5
 10
248.478149
 20
-241.000111
 30
0.0
 11
0.0
 21
-241.000111
 31
0.0
  0
LINE
  5
237
  8
NOTE
  6
CONTINUOUS
 62
     4
 10
-89.496093
 20
-506.848144
 30
0.0
 11
-40.41606
 21
-211.999687
 31
0.0
  0
LINE
  5
238
  8
SIZE
  6
CONTINUOUS
 62
    30
 10
-325.785742
 20
-241.000111
 30
0.0
 11
-325.785742
 21
-387.396398
 31
0.0
  0
TEXT
  5
239
  8
SIZE
  6
CONTINUOUS
 62
    30
 10
-200.400733
 20
-371.514397
 30
0.0
 40
64.0
  1
29
 50
90.0
 41
0.9
 72
     1
 11
-200.400733
 21
-326.257254
 31
0.0
  0
LINE
  5
23A
  8
SIZE
  6
CONTINUOUS
 62
    30
 10
-180.400733
 20
-251.000111
 30
0.0
 11
-180.400733
 21
-391.514397
 31
0.0
  0
TEXT
  5
23B
  8
SIZE
  6
CONTINUOUS
 62
    30
 10
-153.428572
 20
-599.494616
 30
0.0
 40
64.0
  1
116
 41
0.9
 72
     1
 11
-91.714286
 21
-599.494616
 31
0.0
  0
LINE
  5
23C
  8
NOTE
  6
CONTINUOUS
 62
     4
 10
-101.040259
 20
-155.999685
 30
0.0
 11
-118.593984
 21
-130.7328
 31
0.0
  0
LINE
  5
23D
  8
NOTE
  6
CONTINUOUS
 62
     4
 10
-143.76429
 20
-37.257351
 30
0.0
 11
-101.040259
 21
-155.999685
 31
0.0
  0
LINE
  5
23E
  8
SIZE
  6
CONTINUOUS
 62
    30
 10
-74.561678
 20
-211.999687
 30
0.0
 11
-210.400733
 21
-211.999687
 31
0.0
  0
LINE
  5
23F
  8
SIZE
  6
CONTINUOUS
 62
    30
 10
-20.0
 20
-241.000111
 30
0.0
 11
-210.400733
 21
-241.000111
 31
0.0
  0
LINE
  5
240
  8
NOTE
  6
CONTINUOUS
 62
     4
 10
-121.913065
 20
-155.999687
 30
0.0
 11
-49.72327
 21
-155.999687
 31
0.0
  0
LINE
  5
241
  8
DETAIL
  6
CONTINUOUS
 62
     5
 10
-101.039892
 20
-140.763513
 30
0.0
 11
-114.68034
 21
-148.638651
 31
0.0
  0
LINE
  5
242
  8
DETAIL
  6
CONTINUOUS
 62
     5
 10
-114.680511
 20
-164.389483
 30
0.0
 11
-101.039963
 21
-172.264439
 31
0.0
  0
ARC
  5
243
  8
DETAIL
  6
CONTINUOUS
 62
     5
 10
-101.040256
 20
-156.51392
 30
0.0
 40
13.135216
 50
37.979758
 51
322.019646
  0
LINE
  5
244
  8
DETAIL
  6
CONTINUOUS
 62
     5
 10
-114.680511
 20
-164.389483
 30
0.0
 11
-101.039963
 21
-172.264439
 31
0.0
  0
LINE
  5
245
  8
DETAIL
  6
CONTINUOUS
 62
     5
 10
-101.039892
 20
-140.763513
 30
0.0
 11
-114.68034
 21
-148.638651
 31
0.0
  0
ARC
  5
246
  8
DETAIL
  6
CONTINUOUS
 62
     5
 10
-101.479447
 20
-156.000111
 30
0.0
 40
8.08321
 50
90.0
 51
270.0
  0
LINE
  5
247
  8
DETAIL
  6
CONTINUOUS
 62
     5
 10
-114.680643
 20
-148.638712
 30
0.0
 11
-114.680643
 21
-164.389351
 31
0.0
  0
LINE
  5
248
  8
DETAIL
  6
CONTINUOUS
 62
     5
 10
-114.680643
 20
-148.638712
 30
0.0
 11
-114.680643
 21
-164.389351
 31
0.0
  0
POINT
  5
249
  8
DEFPOINTS
  6
CONTINUOUS
 62
     7
 10
-325.785742
 20
-241.000111
 30
0.0
  0
LINE
  5
24A
  8
SIZE
  6
CONTINUOUS
 62
    30
 10
-325.785742
 20
-236.000111
 30
0.0
 11
-325.785742
 21
-231.000111
 31
0.0
  0
LINE
  5
24B
  8
SIZE
  6
CONTINUOUS
 62
    30
 10
-325.785742
 20
-160.999687
 30
0.0
 11
-325.785742
 21
-165.999687
 31
0.0
  0
LINE
  5
24C
  8
SIZE
  6
CONTINUOUS
 62
    30
 10
-325.785742
 20
-165.999687
 30
0.0
 11
-325.785742
 21
-231.000111
 31
0.0
  0
POINT
  5
24D
  8
DEFPOINTS
  6
CONTINUOUS
 62
     7
 10
-121.913065
 20
-155.999687
 30
0.0
  0
POINT
  5
24E
  8
DEFPOINTS
  6
CONTINUOUS
 62
     7
 10
-180.400733
 20
-211.999687
 30
0.0
  0
LINE
  5
24F
  8
SIZE
  6
CONTINUOUS
 62
    30
 10
-180.400733
 20
-246.000111
 30
0.0
 11
-180.400733
 21
-251.000111
 31
0.0
  0
CIRCLE
  5
250
  8
SIZE
  6
CONTINUOUS
 62
    30
 10
-180.400733
 20
-241.000111
 30
0.0
 40
5.0
  0
LINE
  5
251
  8
SIZE
  6
CONTINUOUS
 62
    30
 10
-180.400733
 20
-206.999687
 30
0.0
 11
-180.400733
 21
-201.999687
 31
0.0
  0
CIRCLE
  5
252
  8
SIZE
  6
CONTINUOUS
 62
    30
 10
-180.400733
 20
-211.999687
 30
0.0
 40
5.0
  0
LINE
  5
253
  8
SIZE
  6
CONTINUOUS
 62
    30
 10
-180.400733
 20
-211.999687
 30
0.0
 11
-180.400733
 21
-241.000111
 31
0.0
  0
LINE
  5
254
  8
SIZE
  6
CONTINUOUS
 62
    30
 10
-180.400733
 20
-201.999687
 30
0.0
 11
-180.400733
 21
-191.999687
 31
0.0
  0
LINE
  5
255
  8
NOTE
  6
CONTINUOUS
 62
     4
 10
-101.040259
 20
-155.999685
 30
0.0
 11
-103.608788
 21
-125.341059
 31
0.0
  0
LINE
  5
256
  8
NOTE
  6
CONTINUOUS
 62
     4
 10
-70.72805
 20
-155.999685
 30
0.0
 11
-82.561123
 21
-127.600265
 31
0.0
  0
LINE
  5
257
  8
NOTE
  6
CONTINUOUS
 62
     4
 10
-70.72805
 20
-155.999685
 30
0.0
 11
-66.776081
 21
-125.488529
 31
0.0
  0
LINE
  5
258
  8
NOTE
  6
CONTINUOUS
 62
     4
 10
-101.040256
 20
-134.99491
 30
0.0
 11
-101.040256
 21
-184.201309
 31
0.0
  0
LINE
  5
259
  8
NOTE
  6
CONTINUOUS
 62
     4
 10
-70.728047
 20
-134.99491
 30
0.0
 11
-70.728047
 21
-177.782998
 31
0.0
  0
LINE
  5
25A
  8
DETAIL
  6
CONTINUOUS
 62
     5
 10
116.0
 20
-142.99799
 30
0.0
 11
116.0
 21
-216.99799
 31
0.0
  0
LINE
  5
25B
  8
DETAIL
  6
CONTINUOUS
 62
     5
 10
106.0
 20
-226.99799
 30
0.0
 11
0.0
 21
-226.99799
 31
0.0
  0
LINE
  5
25C
  8
NOTE
  6
CONTINUOUS
 62
     4
 10
-40.41606
 20
-211.999687
 30
0.0
 11
-37.440926
 21
-242.621531
 31
0.0
  0
LINE
  5
25D
  8
NOTE
  6
CONTINUOUS
 62
     4
 10
-40.41606
 20
-211.999687
 30
0.0
 11
-53.150441
 21
-240.006548
 31
0.0
  0
POINT
  5
25E
  8
DEFPOINTS
  6
CONTINUOUS
 62
     7
 10
0.0
 20
-241.000111
 30
0.0
  0
POINT
  5
25F
  8
DEFPOINTS
  6
CONTINUOUS
 62
     7
 10
0.0
 20
-241.000111
 30
0.0
  0
POINT
  5
260
  8
DEFPOINTS
  6
CONTINUOUS
 62
     7
 10
0.0
 20
-226.99799
 30
0.0
  0
POINT
  5
261
  8
DEFPOINTS
  6
CONTINUOUS
 62
     7
 10
0.0
 20
-241.000111
 30
0.0
  0
POINT
  5
262
  8
DEFPOINTS
  6
CONTINUOUS
 62
     7
 10
-54.561678
 20
-211.999687
 30
0.0
  0
POINT
  5
263
  8
DEFPOINTS
  6
CONTINUOUS
 62
     7
 10
0.0
 20
-241.000111
 30
0.0
  0
LINE
  5
264
  8
NOTE
  6
CONTINUOUS
 62
     4
 10
-57.445171
 20
-211.999687
 30
0.0
 11
-21.503107
 21
-211.999687
 31
0.0
  0
LINE
  5
265
  8
NOTE
  6
CONTINUOUS
 62
     4
 10
-40.41606
 20
-196.099609
 30
0.0
 11
-40.41606
 21
-228.19075
 31
0.0
  0
LINE
  5
266
  8
DETAIL
  6
CONTINUOUS
 62
     5
 10
0.0
 20
-164.597221
 30
0.0
 11
-62.500279
 21
-164.597221
 31
0.0
  0
LINE
  5
267
  8
DETAIL
  6
CONTINUOUS
 62
     5
 10
-70.728138
 20
-169.347431
 30
0.0
 11
-78.955704
 21
-164.597221
 31
0.0
  0
LINE
  5
268
  8
DETAIL
  6
CONTINUOUS
 62
     5
 10
-62.500481
 20
-164.597221
 30
0.0
 11
-70.727966
 21
-169.347259
 31
0.0
  0
LINE
  5
269
  8
DETAIL
  6
CONTINUOUS
 62
     5
 10
-78.955815
 20
-164.597221
 30
0.0
 11
-87.75932
 21
-164.597221
 31
0.0
  0
LINE
  5
26A
  8
DETAIL
  6
CONTINUOUS
 62
     5
 10
-101.040084
 20
-172.264449
 30
0.0
 11
-87.399759
 21
-164.389099
 31
0.0
  0
LINE
  5
26B
  8
DETAIL
  6
CONTINUOUS
 62
     5
 10
0.0
 20
-222.104285
 30
0.0
 11
-40.41606
 21
-222.104285
 31
0.0
  0
LINE
  5
26C
  8
DETAIL
  6
CONTINUOUS
 62
     5
 10
0.0
 20
-201.89626
 30
0.0
 11
-35.418565
 21
-201.89626
 31
0.0
  0
ARC
  5
26D
  8
DETAIL
  6
CONTINUOUS
 62
     5
 10
-40.41606
 20
-212.000111
 30
0.0
 40
10.104012
 50
89.675828
 51
92.607182
  0
ARC
  5
26E
  8
DETAIL
  6
CONTINUOUS
 62
     5
 10
-40.41606
 20
-212.000111
 30
0.0
 40
10.104012
 50
92.607182
 51
267.392818
  0
LINE
  5
26F
  8
DETAIL
  6
CONTINUOUS
 62
     5
 10
-78.955815
 20
-164.597221
 30
0.0
 11
-62.500279
 21
-164.597221
 31
0.0
  0
LINE
  5
270
  8
DETAIL
  6
CONTINUOUS
 62
     5
 10
-87.399759
 20
-164.389099
 30
0.0
 11
-90.527617
 21
-164.389099
 31
0.0
  0
LINE
  5
271
  8
DETAIL
  6
CONTINUOUS
 62
     5
 10
0.0
 20
-164.597221
 30
0.0
 11
-62.500279
 21
-164.597221
 31
0.0
  0
LINE
  5
272
  8
DETAIL
  6
CONTINUOUS
 62
     5
 10
-101.040084
 20
-172.264449
 30
0.0
 11
-87.399759
 21
-164.389099
 31
0.0
  0
LINE
  5
273
  8
DETAIL
  6
CONTINUOUS
 62
     5
 10
-78.955815
 20
-164.597221
 30
0.0
 11
-87.75932
 21
-164.597221
 31
0.0
  0
LINE
  5
274
  8
DETAIL
  6
CONTINUOUS
 62
     5
 10
0.0
 20
-222.104285
 30
0.0
 11
-40.41606
 21
-222.104285
 31
0.0
  0
LINE
  5
275
  8
DETAIL
  6
CONTINUOUS
 62
     5
 10
0.0
 20
-201.89626
 30
0.0
 11
-40.41606
 21
-201.89626
 31
0.0
  0
LINE
  5
276
  8
DETAIL
  6
CONTINUOUS
 62
     5
 10
-101.479447
 20
-164.309045
 30
0.0
 11
-88.869953
 21
-164.309045
 31
0.0
  0
LINE
  5
277
  8
DETAIL
  6
CONTINUOUS
 62
     5
 10
-35.418565
 20
-201.89626
 30
0.0
 11
-40.41606
 21
-201.89626
 31
0.0
  0
ARC
  5
278
  8
DETAIL
  6
CONTINUOUS
 62
     5
 10
-40.41606
 20
-212.000111
 30
0.0
 40
14.145617
 50
45.583765
 51
314.414363
  0
POINT
  5
279
  8
DEFPOINTS
  6
CONTINUOUS
 62
     7
 10
106.0
 20
-216.99799
 30
0.0
  0
POINT
  5
27A
  8
DEFPOINTS
  6
CONTINUOUS
 62
     7
 10
114.021325
 20
-222.96945
 30
0.0
  0
CIRCLE
  5
27B
  8
SIZE
  6
CONTINUOUS
 62
    30
 10
114.021325
 20
-222.96945
 30
0.0
 40
5.0
  0
LINE
  5
27C
  8
SIZE
  6
CONTINUOUS
 62
    30
 10
106.0
 20
-216.99799
 30
0.0
 11
114.021325
 21
-222.96945
 31
0.0
  0
SOLID
  5
27D
  8
NOTE
  6
CONTINUOUS
 62
     4
 10
53.437366
 20
-182.730315
 30
0.0
 11
54.37581
 21
-184.995918
 31
0.0
 12
54.37581
 22
-180.464713
 32
0.0
 13
54.37581
 23
-180.464713
 33
0.0
  0
SOLID
  5
27E
  8
NOTE
  6
CONTINUOUS
 62
     4
 10
56.641412
 20
-185.934361
 30
0.0
 11
54.37581
 21
-180.464713
 31
0.0
 12
54.37581
 22
-184.995918
 32
0.0
 13
54.37581
 23
-184.995918
 33
0.0
  0
SOLID
  5
27F
  8
NOTE
  6
CONTINUOUS
 62
     4
 10
54.37581
 20
-180.464713
 30
0.0
 11
56.641412
 21
-185.934361
 31
0.0
 12
56.641412
 22
-179.52627
 32
0.0
 13
56.641412
 23
-179.52627
 33
0.0
  0
SOLID
  5
280
  8
NOTE
  6
CONTINUOUS
 62
     4
 10
58.907014
 20
-184.995918
 30
0.0
 11
56.641412
 21
-179.52627
 31
0.0
 12
56.641412
 22
-185.934361
 32
0.0
 13
56.641412
 23
-185.934361
 33
0.0
  0
SOLID
  5
281
  8
NOTE
  6
CONTINUOUS
 62
     4
 10
56.641412
 20
-179.52627
 30
0.0
 11
58.907014
 21
-184.995918
 31
0.0
 12
58.907014
 22
-180.464713
 32
0.0
 13
58.907014
 23
-180.464713
 33
0.0
  0
SOLID
  5
282
  8
NOTE
  6
CONTINUOUS
 62
     4
 10
59.845457
 20
-182.730315
 30
0.0
 11
58.907014
 21
-180.464713
 31
0.0
 12
58.907014
 22
-184.995918
 32
0.0
 13
58.907014
 23
-184.995918
 33
0.0
  0
CIRCLE
  5
283
  8
NOTE
  6
CONTINUOUS
 62
     4
 10
56.641412
 20
-182.730315
 30
0.0
 40
3.204046
  0
POINT
  5
284
  8
DEFPOINTS
  6
CONTINUOUS
 62
     7
 10
116.0
 20
-216.99799
 30
0.0
  0
ARC
  5
285
  8
DETAIL
  6
CONTINUOUS
 62
     5
 10
106.0
 20
-216.99799
 30
0.0
 40
10.0
 50
270.0
 51
0.0
  0
LINE
  5
286
  8
DETAIL
  6
CONTINUOUS
 62
     5
 10
106.0
 20
-132.99799
 30
0.0
 11
0.0
 21
-132.99799
 31
0.0
  0
POINT
  5
287
  8
DEFPOINTS
  6
CONTINUOUS
 62
     7
 10
0.0
 20
-132.99799
 30
0.0
  0
LINE
  5
288
  8
DETAIL
  6
CONTINUOUS
 62
     5
 10
0.0
 20
-148.430731
 30
0.0
 11
-62.499743
 21
-148.430731
 31
0.0
  0
LINE
  5
289
  8
DETAIL
  6
CONTINUOUS
 62
     5
 10
-70.728168
 20
-143.680299
 30
0.0
 11
-78.956371
 21
-148.430731
 31
0.0
  0
LINE
  5
28A
  8
DETAIL
  6
CONTINUOUS
 62
     5
 10
-70.728229
 20
-143.680097
 30
0.0
 11
-62.499885
 21
-148.430731
 31
0.0
  0
LINE
  5
28B
  8
DETAIL
  6
CONTINUOUS
 62
     5
 10
-78.956462
 20
-148.430731
 30
0.0
 11
-87.759643
 21
-148.430731
 31
0.0
  0
LINE
  5
28C
  8
DETAIL
  6
CONTINUOUS
 62
     5
 10
-101.040074
 20
-140.763472
 30
0.0
 11
-87.399385
 21
-148.639065
 31
0.0
  0
LINE
  5
28D
  8
DETAIL
  6
CONTINUOUS
 62
     5
 10
-62.499743
 20
-148.430731
 30
0.0
 11
-78.956462
 21
-148.430731
 31
0.0
  0
LINE
  5
28E
  8
DETAIL
  6
CONTINUOUS
 62
     5
 10
-87.399647
 20
-148.638914
 30
0.0
 11
-90.527496
 21
-148.638914
 31
0.0
  0
LINE
  5
28F
  8
DETAIL
  6
CONTINUOUS
 62
     5
 10
0.0
 20
-148.430731
 30
0.0
 11
-62.499743
 21
-148.430731
 31
0.0
  0
LINE
  5
290
  8
DETAIL
  6
CONTINUOUS
 62
     5
 10
-101.040074
 20
-140.763472
 30
0.0
 11
-87.399385
 21
-148.639065
 31
0.0
  0
LINE
  5
291
  8
DETAIL
  6
CONTINUOUS
 62
     5
 10
-78.956462
 20
-148.430731
 30
0.0
 11
-87.759643
 21
-148.430731
 31
0.0
  0
LINE
  5
292
  8
DETAIL
  6
CONTINUOUS
 62
     5
 10
-101.479447
 20
-148.252112
 30
0.0
 11
-88.869953
 21
-148.252112
 31
0.0
  0
POINT
  5
293
  8
DEFPOINTS
  6
CONTINUOUS
 62
     7
 10
106.0
 20
-142.99799
 30
0.0
  0
POINT
  5
294
  8
DEFPOINTS
  6
CONTINUOUS
 62
     7
 10
114.231945
 20
-137.320395
 30
0.0
  0
LINE
  5
295
  8
SIZE
  6
CONTINUOUS
 62
    30
 10
106.0
 20
-142.99799
 30
0.0
 11
114.231945
 21
-137.320395
 31
0.0
  0
ARC
  5
296
  8
DETAIL
  6
CONTINUOUS
 62
     5
 10
106.0
 20
-142.99799
 30
0.0
 40
10.0
 50
0.0
 51
90.0
  0
TEXT
  5
297
  8
SIZE
  6
CONTINUOUS
 62
    30
 10
309.28601
 20
-343.40034
 30
0.0
 40
64.0
  1
R10
 50
323.33423
 41
0.9
 72
     1
 11
365.389452
 21
-385.16644
 31
0.0
  0
LINE
  5
298
  8
SIZE
  6
CONTINUOUS
 62
    30
 10
425.592623
 20
-454.918112
 30
0.0
 11
122.042651
 21
-228.940911
 31
0.0
  0
LINE
  5
299
  8
SIZE
  6
CONTINUOUS
 62
    30
 10
265.558454
 20
-241.000111
 30
0.0
 11
552.586354
 21
-241.000111
 31
0.0
  0
LINE
  5
29A
  8
OUTLINE
  6
CONTINUOUS
 62
     3
 10
245.558454
 20
-241.000111
 30
0.0
 11
249.984174
 21
-241.000111
 31
0.0
  0
LINE
  5
29B
  8
OUTLINE
  6
CONTINUOUS
 62
     3
 10
270.0
 20
-198.673778
 30
0.0
 11
266.968796
 21
-198.673778
 31
0.0
  0
ARC
  5
29C
  8
OUTLINE
  6
CONTINUOUS
 62
     3
 10
247.771314
 20
-218.881702
 30
0.0
 40
22.228827
 50
275.713206
 51
0.000091
  0
LINE
  5
29D
  8
OUTLINE
  6
CONTINUOUS
 62
     3
 10
270.0
 20
-218.881702
 30
0.0
 11
270.0
 21
-198.673778
 31
0.0
  0
POINT
  5
29E
  8
DEFPOINTS
  6
CONTINUOUS
 62
     7
 10
245.558454
 20
-241.000111
 30
0.0
  0
POINT
  5
29F
  8
DEFPOINTS
  6
CONTINUOUS
 62
     7
 10
270.000141
 20
-218.881667
 30
0.0
  0
LINE
  5
2A0
  8
DETAIL
  6
CONTINUOUS
 62
     5
 10
245.558454
 20
-241.000111
 30
0.0
 11
249.984174
 21
-241.000111
 31
0.0
  0
LINE
  5
2A1
  8
DETAIL
  6
CONTINUOUS
 62
     5
 10
270.0
 20
-198.673778
 30
0.0
 11
246.568856
 21
-198.673778
 31
0.0
  0
ARC
  5
2A2
  8
DETAIL
  6
CONTINUOUS
 62
     5
 10
247.771314
 20
-218.881702
 30
0.0
 40
22.228827
 50
275.713206
 51
0.000091
  0
LINE
  5
2A3
  8
DETAIL
  6
CONTINUOUS
 62
     5
 10
270.0
 20
-218.881702
 30
0.0
 11
270.0
 21
-198.673778
 31
0.0
  0
LINE
  5
2A4
  8
DETAIL
  6
CONTINUOUS
 62
     5
 10
245.558454
 20
-241.000111
 30
0.0
 11
245.558454
 21
-199.684179
 31
0.0
  0
ARC
  5
2A5
  8
DETAIL
  6
CONTINUOUS
 62
     5
 10
246.568856
 20
-199.684179
 30
0.0
 40
1.010401
 50
90.0
 51
180.0
  0
LINE
  5
2A6
  8
SIZE
  6
CONTINUOUS
 62
    30
 10
522.586354
 20
-236.000111
 30
0.0
 11
522.586354
 21
-231.000111
 31
0.0
  0
CIRCLE
  5
2A7
  8
SIZE
  6
CONTINUOUS
 62
    30
 10
522.586354
 20
-241.000111
 30
0.0
 40
5.0
  0
LINE
  5
2A8
  8
BASIS
  6
DASHDOT
 62
     6
 10
-19.451663
 20
0.0
 30
0.0
 11
289.451663
 21
0.0
 31
0.0
  0
LINE
  5
2A9
  8
OUTLINE
  6
CONTINUOUS
 62
     3
 10
0.0
 20
241.0
 30
0.0
 11
254.396699
 21
241.0
 31
0.0
  0
LINE
  5
2AA
  8
OUTLINE
  6
CONTINUOUS
 62
     3
 10
248.478149
 20
241.0
 30
0.0
 11
0.0
 21
241.0
 31
0.0
  0
LINE
  5
2AB
  8
DETAIL
  6
CONTINUOUS
 62
     5
 10
0.0
 20
241.0
 30
0.0
 11
254.396699
 21
241.0
 31
0.0
  0
LINE
  5
2AC
  8
DETAIL
  6
CONTINUOUS
 62
     5
 10
248.478149
 20
241.0
 30
0.0
 11
0.0
 21
241.0
 31
0.0
  0
TEXT
  5
2AD
  8
SIZE
  6
CONTINUOUS
 62
    30
 10
332.255837
 20
37.346864
 30
0.0
 40
64.0
  1
R10
 50
34.594133
 41
0.9
 72
     1
 11
389.832413
 21
77.057582
 31
0.0
  0
LINE
  5
2AE
  8
SIZE
  6
CONTINUOUS
 62
    30
 10
265.558454
 20
241.0
 30
0.0
 11
552.586354
 21
241.0
 31
0.0
  0
ARC
  5
2AF
  8
OUTLINE
  6
CONTINUOUS
 62
     3
 10
266.968796
 20
202.604894
 30
0.0
 40
3.031204
 50
270.0
 51
359.999981
  0
LINE
  5
2B0
  8
OUTLINE
  6
CONTINUOUS
 62
     3
 10
270.0
 20
219.781493
 30
0.0
 11
270.0
 21
202.604894
 31
0.0
  0
ARC
  5
2B1
  8
OUTLINE
  6
CONTINUOUS
 62
     3
 10
247.771314
 20
219.781493
 30
0.0
 40
22.228827
 50
359.999981
 51
72.659256
  0
POINT
  5
2B2
  8
DEFPOINTS
  6
CONTINUOUS
 62
     7
 10
245.558454
 20
241.0
 30
0.0
  0
ARC
  5
2B3
  8
DETAIL
  6
CONTINUOUS
 62
     5
 10
266.968796
 20
202.604894
 30
0.0
 40
3.031204
 50
270.0
 51
359.999981
  0
LINE
  5
2B4
  8
DETAIL
  6
CONTINUOUS
 62
     5
 10
270.0
 20
219.781493
 30
0.0
 11
270.0
 21
202.604894
 31
0.0
  0
ARC
  5
2B5
  8
DETAIL
  6
CONTINUOUS
 62
     5
 10
247.771314
 20
219.781493
 30
0.0
 40
22.228827
 50
359.999981
 51
72.659256
  0
LINE
  5
2B6
  8
DETAIL
  6
CONTINUOUS
 62
     5
 10
246.568856
 20
199.57368
 30
0.0
 11
266.968796
 21
199.57368
 31
0.0
  0
LINE
  5
2B7
  8
DETAIL
  6
CONTINUOUS
 62
     5
 10
245.558454
 20
200.584081
 30
0.0
 11
245.558454
 21
241.0
 31
0.0
  0
ARC
  5
2B8
  8
DETAIL
  6
CONTINUOUS
 62
     5
 10
246.568856
 20
200.584081
 30
0.0
 40
1.010401
 50
180.0
 51
270.0
  0
POINT
  5
2B9
  8
DEFPOINTS
  6
CONTINUOUS
 62
     7
 10
522.586354
 20
241.0
 30
0.0
  0
LINE
  5
2BA
  8
SIZE
  6
CONTINUOUS
 62
    30
 10
522.586354
 20
236.0
 30
0.0
 11
522.586354
 21
231.0
 31
0.0
  0
CIRCLE
  5
2BB
  8
SIZE
  6
CONTINUOUS
 62
    30
 10
522.586354
 20
241.0
 30
0.0
 40
5.0
  0
ENDSEC
  0
EOF
