  0
SECTION
  2
HEADER
  9
$ACADVER
  1
AC1006
  9
$DWGCODEPAGE
  3
ansi_932
  9
$INSBASE
 10
0.0
 20
0.0
 30
0.0
  9
$EXTMIN
 10
-798.1868798400601
 20
-729.7919566241935
  9
$EXTMAX
 10
1294.446798753687
 20
884.2848403213002
  9
$LIMMIN
 10
-990.4049222370346
 20
-912.1903174692721
  9
$LIMMAX
 10
1435.39928375463
 20
1228.891293801392
  9
$ORTHOMODE
 70
     0
  9
$REGENMODE
 70
     1
  9
$FILLMODE
 70
     1
  9
$QTEXTMODE
 70
     0
  9
$MIRRTEXT
 70
     1
  9
$DRAGMODE
 70
     2
  9
$LTSCALE
 40
1.0
  9
$OSMODE
 70
    37
  9
$ATTMODE
 70
     1
  9
$TEXTSIZE
 40
0.2
  9
$TRACEWID
 40
0.05
  9
$TEXTSTYLE
  7
STANDARD1
  9
$CLAYER
  8
SIZE
  9
$CELTYPE
  6
CONTINUOUS
  9
$CECOLOR
 62
     7
  9
$DIMSCALE
 40
1.0
  9
$DIMASZ
 40
0.18
  9
$DIMEXO
 40
0.0625
  9
$DIMDLI
 40
0.38
  9
$DIMRND
 40
0.0
  9
$DIMDLE
 40
0.0
  9
$DIMEXE
 40
0.18
  9
$DIMTP
 40
0.0
  9
$DIMTM
 40
0.0
  9
$DIMTXT
 40
0.18
  9
$DIMCEN
 40
0.09
  9
$DIMTSZ
 40
0.0
  9
$DIMTOL
 70
     0
  9
$DIMLIM
 70
     0
  9
$DIMTIH
 70
     1
  9
$DIMTOH
 70
     1
  9
$DIMSE1
 70
     0
  9
$DIMSE2
 70
     0
  9
$DIMTAD
 70
     0
  9
$DIMZIN
 70
     0
  9
$DIMBLK
  1

  9
$DIMASO
 70
     1
  9
$DIMSHO
 70
     1
  9
$DIMPOST
  1

  9
$DIMAPOST
  1

  9
$DIMALT
 70
     0
  9
$DIMALTD
 70
     2
  9
$DIMALTF
 40
25.4
  9
$DIMLFAC
 40
1.0
  9
$DIMTOFL
 70
     0
  9
$DIMTVP
 40
0.0
  9
$DIMTIX
 70
     0
  9
$DIMSOXD
 70
     0
  9
$DIMSAH
 70
     0
  9
$DIMBLK1
  1

  9
$DIMBLK2
  1

  9
$LUNITS
 70
     2
  9
$LUPREC
 70
     4
  9
$SKETCHINC
 40
0.1
  9
$FILLETRAD
 40
0.5
  9
$AUNITS
 70
     1
  9
$AUPREC
 70
     3
  9
$MENU
  1
.
  9
$ELEVATION
 40
0.0
  9
$THICKNESS
 40
0.0
  9
$LIMCHECK
 70
     0
  9
$CHAMFERA
 40
0.0
  9
$CHAMFERB
 40
0.0
  9
$SKPOLY
 70
     0
  9
$TDCREATE
 40
2458018.430330695
  9
$TDUPDATE
 40
2458537.442711713
  9
$TDINDWG
 40
0.0826851968
  9
$TDUSRTIMER
 40
0.0826851968
  9
$USRTIMER
 70
     1
  9
$ANGBASE
 50
0.0
  9
$ANGDIR
 70
     0
  9
$PDMODE
 70
     0
  9
$PDSIZE
 40
0.0
  9
$PLINEWID
 40
0.0
  9
$COORDS
 70
     1
  9
$SPLFRAME
 70
     0
  9
$SPLINETYPE
 70
     6
  9
$SPLINESEGS
 70
     8
  9
$ATTDIA
 70
     0
  9
$ATTREQ
 70
     1
  9
$HANDLING
 70
     1
  9
$HANDSEED
  5
CAD
  9
$SURFTAB1
 70
     6
  9
$SURFTAB2
 70
     6
  9
$SURFTYPE
 70
     6
  9
$SURFU
 70
     6
  9
$SURFV
 70
     6
  9
$UCSNAME
  2

  9
$UCSORG
 10
0.0
 20
0.0
 30
0.0
  9
$UCSXDIR
 10
1.0
 20
0.0
 30
0.0
  9
$UCSYDIR
 10
0.0
 20
1.0
 30
0.0
  9
$USERI1
 70
     0
  9
$USERI2
 70
     0
  9
$USERI3
 70
     0
  9
$USERI4
 70
     0
  9
$USERI5
 70
     0
  9
$USERR1
 40
0.0
  9
$USERR2
 40
0.0
  9
$USERR3
 40
0.0
  9
$USERR4
 40
0.0
  9
$USERR5
 40
0.0
  9
$WORLDVIEW
 70
     1
  0
ENDSEC
  0
SECTION
  2
TABLES
  0
TABLE
  2
VPORT
 70
     1
  0
VPORT
  2
*ACTIVE
 70
     0
 10
0.0
 20
0.0
 11
1.0
 21
1.0
 12
248.1299594568135
 22
77.24644184855333
 13
0.0
 23
0.0
 14
0.5
 24
0.5
 15
0.5
 25
0.5
 16
0.0
 26
0.0
 36
1.0
 17
0.0
 27
0.0
 37
0.0
 40
1626.63095069328
 41
1.968274111675126
 42
50.0
 43
0.0
 44
0.0
 50
0.0
 51
0.0
 71
     0
 72
 20000
 73
     1
 74
     3
 75
     0
 76
     0
 77
     0
 78
     0
  0
ENDTAB
  0
TABLE
  2
LTYPE
 70
     3
  0
LTYPE
  2
CONTINUOUS
 70
     0
  3
Solid line
 72
    65
 73
     0
 40
0.0
  0
LTYPE
  2
DASHDOT
 70
     0
  3

 72
    65
 73
     4
 40
5.5
 49
4.0
 49
-0.6
 49
0.3
 49
-0.6
  0
LTYPE
  2
DASHED
 70
     0
  3

 72
    65
 73
     2
 40
0.75
 49
0.5
 49
-0.25
  0
ENDTAB
  0
TABLE
  2
LAYER
 70
    13
  0
LAYER
  2
0
 70
     0
 62
     7
  6
CONTINUOUS
  0
LAYER
  2
OUTLINE
 70
     0
 62
     3
  6
CONTINUOUS
  0
LAYER
  2
DETAIL
 70
     0
 62
     5
  6
CONTINUOUS
  0
LAYER
  2
BASIS
 70
     0
 62
     6
  6
DASHDOT
  0
LAYER
  2
SIZE
 70
     0
 62
    30
  6
CONTINUOUS
  0
LAYER
  2
NOTE
 70
     0
 62
     4
  6
CONTINUOUS
  0
LAYER
  2
ARRANGE
 70
     0
 62
     1
  6
CONTINUOUS
  0
LAYER
  2
FIX
 70
     0
 62
    11
  6
CONTINUOUS
  0
LAYER
  2
SERVICESPACE
 70
     0
 62
     2
  6
DASHDOT
  0
LAYER
  2
ETC
 70
     0
 62
    61
  6
CONTINUOUS
  0
LAYER
  2
SYMBOLLINE
 70
     0
 62
    15
  6
CONTINUOUS
  0
LAYER
  2
DEFPOINTS
 70
     0
 62
     7
  6
CONTINUOUS
  0
LAYER
  2
SERVICE_SPACE
 70
     0
 62
     2
  6
CONTINUOUS
  0
ENDTAB
  0
TABLE
  2
STYLE
 70
     2
  0
STYLE
  2
STANDARD
 70
     0
 40
0.0
 41
0.9
 50
0.0
 71
     0
 42
64.0
  3
SIMPLEX
  4
BIGFONT
  0
STYLE
  2
STANDARD1
 70
     0
 40
0.0
 41
1.0
 50
0.0
 71
     0
 42
0.2
  3
txt.shx
  4
BIGFONT
  0
ENDTAB
  0
TABLE
  2
VIEW
 70
     0
  0
ENDTAB
  0
TABLE
  2
UCS
 70
     0
  0
ENDTAB
  0
ENDSEC
  0
SECTION
  2
BLOCKS
  0
ENDSEC
  0
SECTION
  2
ENTITIES
  0
TEXT
  5
7D0
  8
NOTE
  6
CONTINUOUS
 62
     4
 10
47.6870583185617
 20
-364.4957410948837
 30
0.0
 40
43.3295867768595
  1
ｻ-ﾋﾞｽｽﾍﾟ-ｽ
 50
0.0000026998693284
 41
0.9000000000000001
  0
TEXT
  5
7D1
  8
NOTE
  6
CONTINUOUS
 62
     4
 10
125.3337105522825
 20
208.2646043950558
 30
0.0
 40
43.3295867768595
  1
ｻ-ﾋﾞｽｽﾍﾟ-ｽ
 50
0.0000026998693284
 41
0.9000000000000001
  0
LINE
  5
7D2
  8
NOTE
  6
CONTINUOUS
 62
     4
 10
-479.6521860739693
 20
-10.39906697558601
 30
0.0
 11
-479.6521860739693
 21
14.65154031186264
 31
0.0
  0
LINE
  5
7D3
  8
NOTE
  6
CONTINUOUS
 62
     4
 10
-439.5343990913688
 20
-25.5498408041478
 30
0.0
 11
-479.6521860739693
 21
14.65154031186264
 31
0.0
  0
TEXT
  5
7D4
  8
NOTE
  6
CONTINUOUS
 62
     4
 10
-587.9921159855792
 20
-50.56371025264473
 30
0.0
 40
42.74934005266032
  1
OA
 41
0.9
  0
LINE
  5
7D5
  8
NOTE
  6
CONTINUOUS
 62
     4
 10
-479.6521860739693
 20
-65.7512219201546
 30
0.0
 11
-439.5343990913688
 21
-25.5498408041478
 31
0.0
  0
LINE
  5
7D6
  8
NOTE
  6
CONTINUOUS
 62
     4
 10
-479.6521860739693
 20
-10.39906697558601
 30
0.0
 11
-520.4206388924058
 21
-10.39906697558601
 31
0.0
  0
LINE
  5
7D7
  8
NOTE
  6
CONTINUOUS
 62
     4
 10
-479.6521860739693
 20
-40.70061463270596
 30
0.0
 11
-520.4206388924058
 21
-40.70061463270596
 31
0.0
  0
LINE
  5
7D8
  8
NOTE
  6
CONTINUOUS
 62
     4
 10
-520.4206388924058
 20
-10.39906697558601
 30
0.0
 11
-520.4206388924058
 21
-40.70061463270596
 31
0.0
  0
LINE
  5
7D9
  8
NOTE
  6
CONTINUOUS
 62
     4
 10
-479.6521860739693
 20
-65.7512219201546
 30
0.0
 11
-479.6521860739693
 21
-40.70061463270596
 31
0.0
  0
LINE
  5
7DA
  8
NOTE
  6
CONTINUOUS
 62
     4
 10
-108.9681928361269
 20
-273.5956572996785
 30
0.0
 11
-68.7668117201165
 21
-233.4778703170796
 31
0.0
  0
LINE
  5
7DB
  8
NOTE
  6
CONTINUOUS
 62
     4
 10
-149.1695739521337
 20
-233.4778703170796
 30
0.0
 11
-108.9681928361269
 21
-273.5956572996785
 31
0.0
  0
TEXT
  5
7DC
  8
NOTE
  6
CONTINUOUS
 62
     4
 10
-131.7929254043055
 20
-340.1215304978568
 30
0.0
 40
42.74934005266032
  1
EA
 41
0.9
  0
LINE
  5
7DD
  8
NOTE
  6
CONTINUOUS
 62
     4
 10
-93.81741900756514
 20
-192.7094174986434
 30
0.0
 11
-124.1189666646851
 21
-192.7094174986434
 31
0.0
  0
LINE
  5
7DE
  8
NOTE
  6
CONTINUOUS
 62
     4
 10
-124.1189666646851
 20
-233.4778703170796
 30
0.0
 11
-124.1189666646851
 21
-192.7094174986434
 31
0.0
  0
LINE
  5
7DF
  8
NOTE
  6
CONTINUOUS
 62
     4
 10
-149.1695739521337
 20
-233.4778703170796
 30
0.0
 11
-124.1189666646851
 21
-233.4778703170796
 31
0.0
  0
LINE
  5
7E0
  8
NOTE
  6
CONTINUOUS
 62
     4
 10
-93.81741900756514
 20
-233.4778703170796
 30
0.0
 11
-68.7668117201165
 21
-233.4778703170796
 31
0.0
  0
LINE
  5
7E1
  8
NOTE
  6
CONTINUOUS
 62
     4
 10
-93.81741900756514
 20
-233.4778703170796
 30
0.0
 11
-93.81741900756514
 21
-192.7094174986434
 31
0.0
  0
TEXT
  5
7E2
  8
NOTE
  6
CONTINUOUS
 62
     4
 10
-509.7632792253541
 20
24.29609474364761
 30
0.0
 40
43.3295867768595
  1
ｻ-ﾋﾞｽｽﾍﾟ-ｽ
 50
90.00000250446874
 41
0.9000000000000001
  0
TEXT
  5
7E3
  8
NOTE
  6
CONTINUOUS
 62
     4
 10
-110.3576783042307
 20
265.8564947435048
 30
0.0
 40
42.74934005266032
  1
OA
 41
0.9
  0
LINE
  5
7E4
  8
NOTE
  6
CONTINUOUS
 62
     4
 10
-75.45567589020266
 20
252.761996835759
 30
0.0
 11
-105.7572235473225
 21
252.761996835759
 31
0.0
  0
LINE
  5
7E5
  8
NOTE
  6
CONTINUOUS
 62
     4
 10
-90.60644971876444
 20
171.8757570347239
 30
0.0
 11
-50.40506860275399
 21
211.9935440173227
 31
0.0
  0
LINE
  5
7E6
  8
NOTE
  6
CONTINUOUS
 62
     4
 10
-105.7572235473225
 20
211.9935440173227
 30
0.0
 11
-105.7572235473225
 21
252.761996835759
 31
0.0
  0
LINE
  5
7E7
  8
NOTE
  6
CONTINUOUS
 62
     4
 10
-130.8078308347711
 20
211.9935440173227
 30
0.0
 11
-105.7572235473225
 21
211.9935440173227
 31
0.0
  0
LINE
  5
7E8
  8
NOTE
  6
CONTINUOUS
 62
     4
 10
-130.8078308347711
 20
211.9935440173227
 30
0.0
 11
-90.60644971876444
 21
171.8757570347239
 31
0.0
  0
LINE
  5
7E9
  8
NOTE
  6
CONTINUOUS
 62
     4
 10
-75.45567589020266
 20
211.9935440173227
 30
0.0
 11
-75.45567589020266
 21
252.761996835759
 31
0.0
  0
LINE
  5
7EA
  8
NOTE
  6
CONTINUOUS
 62
     4
 10
-75.45567589020266
 20
211.9935440173227
 30
0.0
 11
-50.40506860275399
 21
211.9935440173227
 31
0.0
  0
TEXT
  5
7EB
  8
NOTE
  6
CONTINUOUS
 62
     4
 10
499.0001246041428
 20
-452.4380442615875
 30
0.0
 40
55.46187107438017
  1
AH 2-φ10×21
 41
0.9
  0
LINE
  5
7EC
  8
NOTE
  6
CONTINUOUS
 62
     4
 10
1080.792128114575
 20
-476.2914561906759
 30
0.0
 11
459.8946740771425
 21
-476.2914561906759
 31
0.0
  0
TEXT
  5
7ED
  8
NOTE
  6
CONTINUOUS
 62
     4
 10
517.1737456602842
 20
-163.4173853473643
 30
0.0
 40
43.3295867768595
  1
ｻ-ﾋﾞｽｽﾍﾟ-ｽ
 50
0.0000026998693284
 41
0.9000000000000001
  0
LINE
  5
7EE
  8
NOTE
  6
CONTINUOUS
 62
     4
 10
249.9999999999908
 20
-165.7558351316597
 30
0.0
 11
459.8946740771425
 21
-476.2914561906759
 31
0.0
  0
LINE
  5
7EF
  8
NOTE
  6
CONTINUOUS
 62
     4
 10
249.9999999999908
 20
-165.7558351316597
 30
0.0
 11
263.1783758053042
 21
-203.5226230504196
 31
0.0
  0
LINE
  5
7F0
  8
NOTE
  6
CONTINUOUS
 62
     4
 10
280.296203945585
 20
-191.8736444705493
 30
0.0
 11
249.9999999999908
 21
-165.7558351316597
 31
0.0
  0
LINE
  5
7F1
  8
DETAIL
  6
CONTINUOUS
 62
     5
 10
-339.000000347849
 20
-114.2558274992878
 30
0.0
 11
338.999999652151
 21
-114.2558274992878
 31
0.0
  0
LINE
  5
7F2
  8
DETAIL
  6
CONTINUOUS
 62
     5
 10
-339.000000347849
 20
-50.25583131398523
 30
0.0
 11
338.999999652151
 21
-50.25583131398523
 31
0.0
  0
LINE
  5
7F3
  8
DETAIL
  6
CONTINUOUS
 62
     5
 10
338.999999652151
 20
33.74416868601477
 30
0.0
 11
-339.000000347849
 21
33.74416868601477
 31
0.0
  0
LINE
  5
7F4
  8
DETAIL
  6
CONTINUOUS
 62
     5
 10
-339.000000347849
 20
102.7441725007119
 30
0.0
 11
338.999999652151
 21
102.7441725007119
 31
0.0
  0
LINE
  5
7F5
  8
DETAIL
  6
CONTINUOUS
 62
     5
 10
-339.000000347849
 20
23.74417059336341
 30
0.0
 11
338.999999652151
 21
23.74417059336341
 31
0.0
  0
LINE
  5
7F6
  8
DETAIL
  6
CONTINUOUS
 62
     5
 10
338.999999652151
 20
-40.25583131398523
 30
0.0
 11
-339.000000347849
 21
-40.25583131398523
 31
0.0
  0
LINE
  5
7F7
  8
DETAIL
  6
CONTINUOUS
 62
     5
 10
-379.7499698302709
 20
-149.2558351286824
 30
0.0
 11
379.7499691345728
 21
-149.2558351286824
 31
0.0
  0
LINE
  5
7F8
  8
DETAIL
  6
CONTINUOUS
 62
     5
 10
270.4686275818385
 20
147.7441648713175
 30
0.0
 11
-387.9390567443333
 21
147.7441648713175
 31
0.0
  0
LINE
  5
7F9
  8
DETAIL
  6
CONTINUOUS
 62
     5
 10
-368.000000347849
 20
98.74417250071204
 30
0.0
 11
-368.000000347849
 21
-110.2558274992878
 31
0.0
  0
LINE
  5
7FA
  8
DETAIL
  6
CONTINUOUS
 62
     5
 10
-358.000000347849
 20
-110.2558274992878
 30
0.0
 11
-358.000000347849
 21
98.74417250071204
 31
0.0
  0
LINE
  5
7FB
  8
DETAIL
  6
CONTINUOUS
 62
     5
 10
-407.7999881408248
 20
-65.15696580495202
 30
0.0
 11
-407.7999881408248
 21
69.84303419504796
 31
0.0
  0
LINE
  5
7FC
  8
DETAIL
  6
CONTINUOUS
 62
     5
 10
-343.000000347849
 20
37.74416868601477
 30
0.0
 11
-343.000000347849
 21
98.74417250071204
 31
0.0
  0
LINE
  5
7FD
  8
DETAIL
  6
CONTINUOUS
 62
     5
 10
-343.000000347849
 20
-110.2558274992878
 30
0.0
 11
-343.000000347849
 21
-54.25583131398523
 31
0.0
  0
ARC
  5
7FE
  8
DETAIL
  6
CONTINUOUS
 62
     5
 10
-339.0000024493056
 20
-110.2558296007435
 30
0.0
 40
3.999997898545058
 50
179.9999698991812
 51
270.0000301011493
  0
LINE
  5
7FF
  8
DETAIL
  6
CONTINUOUS
 62
     5
 10
-403.0000003478486
 20
-107.8999925383503
 30
0.0
 11
-403.0000003478486
 21
-126.0094285735067
 31
0.0
  0
LINE
  5
800
  8
DETAIL
  6
CONTINUOUS
 62
     5
 10
-403.0000003478486
 20
-130.7558351286825
 30
0.0
 11
-403.0000003478486
 21
-126.0094285735067
 31
0.0
  0
LINE
  5
801
  8
DETAIL
  6
CONTINUOUS
 62
     5
 10
-403.0000003478486
 20
-107.8999925383503
 30
0.0
 11
-403.0000003478486
 21
-94.30973680104579
 31
0.0
  0
LINE
  5
802
  8
DETAIL
  6
CONTINUOUS
 62
     5
 10
-406.1890872619111
 20
-90.2093797453817
 30
0.0
 11
-403.6443790099583
 21
-92.7541032561239
 31
0.0
  0
LINE
  5
803
  8
DETAIL
  6
CONTINUOUS
 62
     5
 10
-379.7499698302709
 20
-149.2558351286824
 30
0.0
 11
-384.5000003478488
 21
-149.2558351286824
 31
0.0
  0
LINE
  5
804
  8
DETAIL
  6
CONTINUOUS
 62
     5
 10
-387.4215701720677
 20
-149.0237031706746
 30
0.0
 11
-384.5000003478488
 21
-149.2558351286824
 31
0.0
  0
LINE
  5
805
  8
DETAIL
  6
CONTINUOUS
 62
     5
 10
-384.5000003478488
 20
-149.2558351286824
 30
0.0
 11
-387.4215701720677
 21
-149.0237031706746
 31
0.0
  0
ARC
  5
806
  8
DETAIL
  6
CONTINUOUS
 62
     5
 10
-364.0000024493057
 20
-110.2558296007435
 30
0.0
 40
3.999997898544377
 50
179.9999698991812
 51
270.0000301011493
  0
ARC
  5
807
  8
DETAIL
  6
CONTINUOUS
 62
     5
 10
-362.0000004602261
 20
-110.2558273869108
 30
0.0
 40
4.000000112377053
 50
270.0000016096843
 51
359.9999982924527
  0
LINE
  5
808
  8
DETAIL
  6
CONTINUOUS
 62
     5
 10
-364.000000347849
 20
-114.2558274992878
 30
0.0
 11
-362.000000347849
 21
-114.2558274992878
 31
0.0
  0
ARC
  5
809
  8
DETAIL
  6
CONTINUOUS
 62
     5
 10
-339.0000023675746
 20
-54.25582929426032
 30
0.0
 40
3.999997980275507
 50
89.99997106955905
 51
180.0000289276856
  0
ARC
  5
80A
  8
DETAIL
  6
CONTINUOUS
 62
     5
 10
-339.0000005419568
 20
-36.2558315080914
 30
0.0
 40
3.999999805893598
 50
179.9999973001307
 51
270.0000027803924
  0
ARC
  5
80B
  8
DETAIL
  6
CONTINUOUS
 62
     5
 10
-339.0000005419568
 20
37.7441684919086
 30
0.0
 40
3.999999805893598
 50
179.9999973001307
 51
270.0000027803924
  0
ARC
  5
80C
  8
DETAIL
  6
CONTINUOUS
 62
     5
 10
-339.0000014139003
 20
19.74417165941398
 30
0.0
 40
3.999998933949683
 50
89.99998472993734
 51
180.0000152727673
  0
LINE
  5
80D
  8
DETAIL
  6
CONTINUOUS
 62
     5
 10
-425.2999881408177
 20
26.54416983042396
 30
0.0
 11
-425.2999881408177
 21
-28.05582864369714
 31
0.0
  0
LINE
  5
80E
  8
DETAIL
  6
CONTINUOUS
 62
     5
 10
-343.000000347849
 20
-36.25583131398523
 30
0.0
 11
-343.000000347849
 21
19.74417059336341
 31
0.0
  0
LINE
  5
80F
  8
DETAIL
  6
CONTINUOUS
 62
     5
 10
-407.7999881408248
 20
-86.32029588307701
 30
0.0
 11
-407.7999881408248
 21
-65.15696580495202
 31
0.0
  0
LINE
  5
810
  8
DETAIL
  6
CONTINUOUS
 62
     5
 10
-410.590057720903
 20
-46.39432771291099
 30
0.0
 11
-410.037567486528
 21
-47.36033876027426
 31
0.0
  0
LINE
  5
811
  8
DETAIL
  6
CONTINUOUS
 62
     5
 10
-410.590057720903
 20
-46.39432771291099
 30
0.0
 11
-410.037567486528
 21
-47.36033876027426
 31
0.0
  0
ARC
  5
812
  8
DETAIL
  6
CONTINUOUS
 62
     5
 10
-339.0000004602261
 20
98.7441726130874
 30
0.0
 40
3.999999887624996
 50
89.99999839031564
 51
180.0000014787793
  0
LINE
  5
813
  8
DETAIL
  6
CONTINUOUS
 62
     5
 10
-403.0000003478486
 20
132.6874784699503
 30
0.0
 11
-403.0000003478486
 21
101.2690443268839
 31
0.0
  0
LINE
  5
814
  8
DETAIL
  6
CONTINUOUS
 62
     5
 10
-407.7999881408248
 20
69.84303419504796
 30
0.0
 11
-407.7999881408248
 21
84.80864088450107
 31
0.0
  0
LINE
  5
815
  8
DETAIL
  6
CONTINUOUS
 62
     5
 10
-403.0000003478486
 20
92.79808180246985
 30
0.0
 11
-403.012482037302
 21
92.56411116038001
 31
0.0
  0
LINE
  5
816
  8
DETAIL
  6
CONTINUOUS
 62
     5
 10
-403.012482037302
 20
92.56411116038001
 30
0.0
 11
-403.0491641662083
 21
92.33541242991127
 31
0.0
  0
LINE
  5
817
  8
DETAIL
  6
CONTINUOUS
 62
     5
 10
-403.0491641662083
 20
92.33541242991127
 30
0.0
 11
-403.1860660216771
 21
91.91245405588782
 31
0.0
  0
LINE
  5
818
  8
DETAIL
  6
CONTINUOUS
 62
     5
 10
-403.1860660216771
 20
91.91245405588782
 30
0.0
 11
-403.3912967345749
 21
91.5458235016886
 31
0.0
  0
LINE
  5
819
  8
DETAIL
  6
CONTINUOUS
 62
     5
 10
-403.3912967345749
 20
91.5458235016886
 30
0.0
 11
-403.6443790099583
 21
91.24244825754796
 31
0.0
  0
LINE
  5
81A
  8
DETAIL
  6
CONTINUOUS
 62
     5
 10
-407.7999881408248
 20
84.80864088450107
 30
0.0
 11
-407.693085064653
 21
85.88595716868079
 31
0.0
  0
LINE
  5
81B
  8
DETAIL
  6
CONTINUOUS
 62
     5
 10
-407.693085064653
 20
85.88595716868079
 30
0.0
 11
-407.3784793517551
 21
86.92006819163002
 31
0.0
  0
LINE
  5
81C
  8
DETAIL
  6
CONTINUOUS
 62
     5
 10
-407.3784793517551
 20
86.92006819163002
 30
0.0
 11
-406.869873394724
 21
87.86930220041907
 31
0.0
  0
LINE
  5
81D
  8
DETAIL
  6
CONTINUOUS
 62
     5
 10
-406.869873394724
 20
87.86930220041907
 30
0.0
 11
-406.1890872619111
 21
88.69772474680579
 31
0.0
  0
LINE
  5
81E
  8
DETAIL
  6
CONTINUOUS
 62
     5
 10
-406.1890872619111
 20
88.69772474680579
 30
0.0
 11
-403.6443790099583
 21
91.24244825754796
 31
0.0
  0
LINE
  5
81F
  8
DETAIL
  6
CONTINUOUS
 62
     5
 10
-403.0000003478486
 20
101.2690443268839
 30
0.0
 11
-403.0000003478486
 21
92.79808180246985
 31
0.0
  0
LINE
  5
820
  8
DETAIL
  6
CONTINUOUS
 62
     5
 10
-403.0000003478486
 20
92.79808180246985
 30
0.0
 11
-403.012482037302
 21
92.56411116038001
 31
0.0
  0
LINE
  5
821
  8
DETAIL
  6
CONTINUOUS
 62
     5
 10
-403.012482037302
 20
92.56411116038001
 30
0.0
 11
-403.0491641662083
 21
92.33541242991127
 31
0.0
  0
LINE
  5
822
  8
DETAIL
  6
CONTINUOUS
 62
     5
 10
-403.0491641662083
 20
92.33541242991127
 30
0.0
 11
-403.1860660216771
 21
91.91245405588782
 31
0.0
  0
LINE
  5
823
  8
DETAIL
  6
CONTINUOUS
 62
     5
 10
-407.3784793517551
 20
86.92006819163002
 30
0.0
 11
-407.6905826232396
 21
85.89306776438391
 31
0.0
  0
LINE
  5
824
  8
DETAIL
  6
CONTINUOUS
 62
     5
 10
-407.6905826232396
 20
85.89306776438391
 30
0.0
 11
-407.7999881408248
 21
84.80864088450107
 31
0.0
  0
ARC
  5
825
  8
DETAIL
  6
CONTINUOUS
 62
     5
 10
-364.0000004602261
 20
98.7441726130874
 30
0.0
 40
3.999999887624996
 50
89.99999839031564
 51
180.0000014787793
  0
ARC
  5
826
  8
DETAIL
  6
CONTINUOUS
 62
     5
 10
-362.0000024493057
 20
98.74417039925633
 30
0.0
 40
4.000002101456272
 50
0.0000300887082355
 51
89.9999698988514
  0
LINE
  5
827
  8
DETAIL
  6
CONTINUOUS
 62
     5
 10
-364.000000347849
 20
102.7704939118447
 30
0.0
 11
-364.000000347849
 21
102.7441725007119
 31
0.0
  0
LINE
  5
828
  8
DETAIL
  6
CONTINUOUS
 62
     5
 10
-362.000000347849
 20
102.7441725007119
 30
0.0
 11
-364.000000347849
 21
102.7441725007119
 31
0.0
  0
LINE
  5
829
  8
DETAIL
  6
CONTINUOUS
 62
     5
 10
-387.9390567443333
 20
147.7441648713175
 30
0.0
 11
-392.5000003478488
 21
147.7441648713175
 31
0.0
  0
LINE
  5
82A
  8
DETAIL
  6
CONTINUOUS
 62
     5
 10
-403.0000003478486
 20
137.2441648713175
 30
0.0
 11
-403.0000003478486
 21
132.6874784699503
 31
0.0
  0
LINE
  5
82B
  8
DETAIL
  6
CONTINUOUS
 62
     5
 10
367.999999652151
 20
-110.2558274992878
 30
0.0
 11
367.999999652151
 21
98.74417250071204
 31
0.0
  0
LINE
  5
82C
  8
DETAIL
  6
CONTINUOUS
 62
     5
 10
357.999999652151
 20
98.74417250071204
 30
0.0
 11
357.999999652151
 21
-110.2558274992878
 31
0.0
  0
LINE
  5
82D
  8
DETAIL
  6
CONTINUOUS
 62
     5
 10
402.9999996521508
 20
132.6874784699503
 30
0.0
 11
402.9999996521508
 21
-126.0094285735067
 31
0.0
  0
LINE
  5
82E
  8
DETAIL
  6
CONTINUOUS
 62
     5
 10
342.999999652151
 20
37.74416868601477
 30
0.0
 11
342.999999652151
 21
98.74417250071204
 31
0.0
  0
LINE
  5
82F
  8
BASIS
  6
DASHDOT
 62
     6
 10
250.0
 20
-143.7181616154011
 30
0.0
 11
250.0
 21
-187.7935086479701
 31
0.0
  0
LINE
  5
830
  8
BASIS
  6
DASHDOT
 62
     6
 10
227.2297570742229
 20
-165.7558351316856
 30
0.0
 11
272.770242925777
 21
-165.7558351316856
 31
0.0
  0
LINE
  5
831
  8
DETAIL
  6
CONTINUOUS
 62
     5
 10
342.999999652151
 20
-110.2558274992878
 30
0.0
 11
342.999999652151
 21
-54.25583131398523
 31
0.0
  0
LINE
  5
832
  8
DETAIL
  6
CONTINUOUS
 62
     5
 10
397.5848995544947
 20
-143.8338838347371
 30
0.0
 11
400.2591244080104
 21
-140.4460969695028
 31
0.0
  0
ARC
  5
833
  8
DETAIL
  6
CONTINUOUS
 62
     5
 10
338.9999995397738
 20
-110.2558273869108
 30
0.0
 40
4.000000112377053
 50
270.0000016096843
 51
359.9999982924527
  0
LINE
  5
834
  8
DETAIL
  6
CONTINUOUS
 62
     5
 10
379.7499691345728
 20
-149.2558351286824
 30
0.0
 11
384.499999652151
 21
-149.2558351286824
 31
0.0
  0
LINE
  5
835
  8
DETAIL
  6
CONTINUOUS
 62
     5
 10
384.499999652151
 20
-149.2558351286824
 30
0.0
 11
387.4244686462916
 21
-149.02329118337
 31
0.0
  0
LINE
  5
836
  8
DETAIL
  6
CONTINUOUS
 62
     5
 10
390.2582393982447
 20
-148.3368898161825
 30
0.0
 11
394.1949154236354
 21
-146.51206071462
 31
0.0
  0
LINE
  5
837
  8
DETAIL
  6
CONTINUOUS
 62
     5
 10
394.1949154236354
 20
-146.51206071462
 30
0.0
 11
397.5848995544947
 21
-143.8338838347371
 31
0.0
  0
LINE
  5
838
  8
DETAIL
  6
CONTINUOUS
 62
     5
 10
387.4244686462916
 20
-149.02329118337
 30
0.0
 11
390.2582393982447
 21
-148.3368898161825
 31
0.0
  0
LINE
  5
839
  8
DETAIL
  6
CONTINUOUS
 62
     5
 10
384.499999652151
 20
-149.2558351286824
 30
0.0
 11
387.4244686462916
 21
-149.02329118337
 31
0.0
  0
LINE
  5
83A
  8
DETAIL
  6
CONTINUOUS
 62
     5
 10
387.4244686462916
 20
-149.02329118337
 30
0.0
 11
390.2582393982447
 21
-148.3368898161825
 31
0.0
  0
ARC
  5
83B
  8
DETAIL
  6
CONTINUOUS
 62
     5
 10
361.9999975507306
 20
-110.2558296007064
 30
0.0
 40
3.999997898582348
 50
179.9999698991812
 51
270.0000301006282
  0
ARC
  5
83C
  8
DETAIL
  6
CONTINUOUS
 62
     5
 10
363.9999995397301
 20
-110.2558273868735
 30
0.0
 40
4.000000112414343
 50
270.0000016102053
 51
359.9999982924527
  0
LINE
  5
83D
  8
DETAIL
  6
CONTINUOUS
 62
     5
 10
361.999999652151
 20
-114.2558274992878
 30
0.0
 11
363.999999652151
 21
-114.2558274992878
 31
0.0
  0
LINE
  5
83E
  8
DETAIL
  6
CONTINUOUS
 62
     5
 10
402.9999996521508
 20
-130.7558351286825
 30
0.0
 11
402.9999996521508
 21
-126.0094285735067
 31
0.0
  0
LINE
  5
83F
  8
DETAIL
  6
CONTINUOUS
 62
     5
 10
400.2591244080104
 20
-140.4460969695028
 30
0.0
 11
402.0820003845728
 21
-136.5112519987995
 31
0.0
  0
LINE
  5
840
  8
DETAIL
  6
CONTINUOUS
 62
     5
 10
402.2157284119166
 20
-135.95883805837
 30
0.0
 11
402.7676998474635
 21
-133.678824020284
 31
0.0
  0
LINE
  5
841
  8
DETAIL
  6
CONTINUOUS
 62
     5
 10
402.0820003845728
 20
-136.5112519987995
 30
0.0
 11
402.2157284119166
 21
-135.95883805837
 31
0.0
  0
LINE
  5
842
  8
DETAIL
  6
CONTINUOUS
 62
     5
 10
402.7676998474635
 20
-133.678824020284
 30
0.0
 11
402.9999996521508
 21
-130.7558351286825
 31
0.0
  0
LINE
  5
843
  8
DETAIL
  6
CONTINUOUS
 62
     5
 10
402.9999996521508
 20
-130.7558351286825
 30
0.0
 11
402.7676998474635
 21
-133.678824020284
 31
0.0
  0
LINE
  5
844
  8
DETAIL
  6
CONTINUOUS
 62
     5
 10
402.7676998474635
 20
-133.678824020284
 30
0.0
 11
402.2157284119166
 21
-135.95883805837
 31
0.0
  0
LINE
  5
845
  8
DETAIL
  6
CONTINUOUS
 62
     5
 10
342.999999652151
 20
-36.25583131398523
 30
0.0
 11
342.999999652151
 21
19.74417059336341
 31
0.0
  0
ARC
  5
846
  8
DETAIL
  6
CONTINUOUS
 62
     5
 10
338.9999994580429
 20
-54.25583150809322
 30
0.0
 40
4.00000019410749
 50
0.0000029575586669
 51
89.99999721960788
  0
ARC
  5
847
  8
DETAIL
  6
CONTINUOUS
 62
     5
 10
338.9999976324252
 20
-36.25582929426034
 30
0.0
 40
4.000002019725511
 50
270.000028930441
 51
359.9999710723144
  0
ARC
  5
848
  8
DETAIL
  6
CONTINUOUS
 62
     5
 10
338.9999976324252
 20
37.74417070573966
 30
0.0
 40
4.000002019725853
 50
270.000028930441
 51
359.9999710723144
  0
ARC
  5
849
  8
DETAIL
  6
CONTINUOUS
 62
     5
 10
338.9999985043687
 20
19.74416944558109
 30
0.0
 40
4.000001147781967
 50
0.0000164669897468
 51
89.99998355922925
  0
CIRCLE
  5
84A
  8
DETAIL
  6
DASHED
 62
     5
 10
-0.0000130272819661
 20
100.7441648713179
 30
0.0
 40
21.0
  0
LINE
  5
84B
  8
BASIS
  6
DASHDOT
 62
     6
 10
-0.0000130272819661
 20
123.8441648713183
 30
0.0
 11
-0.0000130272819661
 21
77.6441648713176
 31
0.0
  0
LINE
  5
84C
  8
BASIS
  6
DASHDOT
 62
     6
 10
23.09998697272385
 20
100.7441648713179
 30
0.0
 11
-23.10001302728051
 21
100.7441648713179
 31
0.0
  0
LINE
  5
84D
  8
DETAIL
  6
CONTINUOUS
 62
     5
 10
387.9390560486354
 20
147.7441648713175
 30
0.0
 11
298.1313778259791
 21
147.7441648713175
 31
0.0
  0
LINE
  5
84E
  8
BASIS
  6
DASHDOT
 62
     6
 10
250.0
 20
179.7542894916232
 30
0.0
 11
250.0
 21
148.7340402450054
 31
0.0
  0
LINE
  5
84F
  8
DETAIL
  6
CONTINUOUS
 62
     5
 10
275.874023089651
 20
151.2441648713174
 30
0.0
 11
292.7259823181667
 21
151.2441648713174
 31
0.0
  0
LINE
  5
850
  8
DETAIL
  6
CONTINUOUS
 62
     5
 10
271.0343014099635
 20
147.9784788361612
 30
0.0
 11
273.187011370901
 21
150.1311735383097
 31
0.0
  0
LINE
  5
851
  8
DETAIL
  6
CONTINUOUS
 62
     5
 10
271.0343014099635
 20
147.9784788361612
 30
0.0
 11
270.4686275818385
 21
147.7441648713175
 31
0.0
  0
LINE
  5
852
  8
DETAIL
  6
CONTINUOUS
 62
     5
 10
298.1313778259791
 20
147.7441648713175
 30
0.0
 11
297.8252254822292
 21
147.8050626984658
 31
0.0
  0
LINE
  5
853
  8
DETAIL
  6
CONTINUOUS
 62
     5
 10
297.8252254822292
 20
147.8050626984658
 30
0.0
 11
297.565673480276
 21
147.9784788361612
 31
0.0
  0
LINE
  5
854
  8
DETAIL
  6
CONTINUOUS
 62
     5
 10
295.4129940369167
 20
150.1311735383097
 30
0.0
 11
297.565673480276
 21
147.9784788361612
 31
0.0
  0
ARC
  5
855
  8
DETAIL
  6
CONTINUOUS
 62
     5
 10
338.9999975506944
 20
98.7441703992554
 30
0.0
 40
4.000002101456613
 50
0.0000300887082355
 51
89.9999698988514
  0
ARC
  5
856
  8
DETAIL
  6
CONTINUOUS
 62
     5
 10
363.9999975507306
 20
98.74417039929361
 30
0.0
 40
4.000002101419154
 50
0.0000301129245036
 51
89.99996989937252
  0
ARC
  5
857
  8
DETAIL
  6
CONTINUOUS
 62
     5
 10
361.9999995397374
 20
98.74417261312472
 30
0.0
 40
3.999999887588048
 50
89.99999838979454
 51
180.0000014787793
  0
LINE
  5
858
  8
DETAIL
  6
CONTINUOUS
 62
     5
 10
363.999999652151
 20
102.7441725007119
 30
0.0
 11
361.999999652151
 21
102.7441725007119
 31
0.0
  0
LINE
  5
859
  8
DETAIL
  6
CONTINUOUS
 62
     5
 10
387.9390560486354
 20
147.7441648713175
 30
0.0
 11
392.499999652151
 21
147.7441648713175
 31
0.0
  0
LINE
  5
85A
  8
DETAIL
  6
CONTINUOUS
 62
     5
 10
402.9999996521508
 20
137.2441648713175
 30
0.0
 11
402.9999996521508
 21
132.6874784699503
 31
0.0
  0
LINE
  5
85B
  8
DETAIL
  6
CONTINUOUS
 62
     5
 10
406.6423946716822
 20
-2.626516652959222
 30
0.0
 11
406.5794063904323
 21
-2.543204856770866
 31
0.0
  0
LINE
  5
85C
  8
DETAIL
  6
CONTINUOUS
 62
     5
 10
406.718749652151
 20
-2.692735744374857
 30
0.0
 11
406.6423946716822
 21
-2.626516652959222
 31
0.0
  0
LINE
  5
85D
  8
DETAIL
  6
CONTINUOUS
 62
     5
 10
406.8495479919951
 20
-2.754755092519386
 30
0.0
 11
406.718749652151
 21
-2.692735744374857
 31
0.0
  0
LINE
  5
85E
  8
DETAIL
  6
CONTINUOUS
 62
     5
 10
406.9894100525421
 20
-2.772330833333369
 30
0.0
 11
406.8495479919951
 21
-2.754755092519386
 31
0.0
  0
LINE
  5
85F
  8
DETAIL
  6
CONTINUOUS
 62
     5
 10
406.3404842712921
 20
1.760170506579041
 30
0.0
 11
406.462157855276
 21
1.490791844469441
 31
0.0
  0
LINE
  5
860
  8
DETAIL
  6
CONTINUOUS
 62
     5
 10
406.2134395935571
 20
1.919045018297791
 30
0.0
 11
406.3404842712921
 21
1.760170506579041
 31
0.0
  0
LINE
  5
861
  8
DETAIL
  6
CONTINUOUS
 62
     5
 10
406.056884417776
 20
2.048927830797792
 30
0.0
 11
406.2134395935571
 21
1.919045018297791
 31
0.0
  0
LINE
  5
862
  8
DETAIL
  6
CONTINUOUS
 62
     5
 10
405.789703021292
 20
2.175453709703815
 30
0.0
 11
406.056884417776
 21
2.048927830797792
 31
0.0
  0
LINE
  5
863
  8
DETAIL
  6
CONTINUOUS
 62
     5
 10
405.5179745056671
 20
2.218147801500917
 30
0.0
 11
405.789703021292
 21
2.175453709703815
 31
0.0
  0
LINE
  5
864
  8
DETAIL
  6
CONTINUOUS
 62
     5
 10
405.8666073181671
 20
16.60244600687635
 30
0.0
 11
405.8360592224643
 21
16.60879366312636
 31
0.0
  0
LINE
  5
865
  8
DETAIL
  6
CONTINUOUS
 62
     5
 10
406.3994747498072
 20
16.10880319986975
 30
0.0
 11
406.372222552542
 21
16.14487306986464
 31
0.0
  0
LINE
  5
866
  8
DETAIL
  6
CONTINUOUS
 62
     5
 10
406.1792293884796
 20
16.40036718760146
 30
0.0
 11
406.1657406189483
 21
16.41819708262099
 31
0.0
  0
LINE
  5
867
  8
DETAIL
  6
CONTINUOUS
 62
     5
 10
405.9328914978546
 20
16.56135218058264
 30
0.0
 11
405.8697506287144
 21
16.6001629105631
 31
0.0
  0
LINE
  5
868
  8
DETAIL
  6
CONTINUOUS
 62
     5
 10
406.1657406189483
 20
16.41819708262099
 30
0.0
 11
406.138183245901
 21
16.4351305237831
 31
0.0
  0
LINE
  5
869
  8
DETAIL
  6
CONTINUOUS
 62
     5
 10
405.8697506287144
 20
16.6001629105631
 30
0.0
 11
405.8666073181671
 21
16.60244600687635
 31
0.0
  0
LINE
  5
86A
  8
DETAIL
  6
CONTINUOUS
 62
     5
 10
462.122954974417
 20
17.63617842112219
 30
0.0
 11
462.0775753357452
 21
15.12757151041663
 31
0.0
  0
LINE
  5
86B
  8
DETAIL
  6
CONTINUOUS
 62
     5
 10
450.161224017386
 20
15.07538645182265
 30
0.0
 11
450.1812130310573
 21
15.06440012369788
 31
0.0
  0
LINE
  5
86C
  8
DETAIL
  6
CONTINUOUS
 62
     5
 10
452.6521908142613
 20
14.89911692057265
 30
0.0
 11
452.4942623474641
 21
14.98114817057265
 31
0.0
  0
LINE
  5
86D
  8
DETAIL
  6
CONTINUOUS
 62
     5
 10
461.1411129334014
 20
18.6540006867472
 30
0.0
 11
406.499999652151
 21
19.63697187815345
 31
0.0
  0
LINE
  5
86E
  8
DETAIL
  6
CONTINUOUS
 62
     5
 10
459.5335079529323
 20
18.68293135080946
 30
0.0
 11
459.7850338318393
 21
18.67839567576064
 31
0.0
  0
LINE
  5
86F
  8
DETAIL
  6
CONTINUOUS
 62
     5
 10
457.7940059998073
 20
18.71421568308509
 30
0.0
 11
459.5335079529323
 21
18.68293135080946
 31
0.0
  0
LINE
  5
870
  8
DETAIL
  6
CONTINUOUS
 62
     5
 10
452.4942623474641
 20
14.98114817057265
 30
0.0
 11
465.1608578064482
 21
14.5252765885414
 31
0.0
  0
LINE
  5
871
  8
DETAIL
  6
CONTINUOUS
 62
     5
 10
467.0889889099643
 20
12.52664987955703
 30
0.0
 11
467.0889889099643
 21
-41.41428239430748
 31
0.0
  0
LINE
  5
872
  8
DETAIL
  6
CONTINUOUS
 62
     5
 10
406.5243526794951
 20
15.60663645182265
 30
0.0
 11
406.499999652151
 21
15.67182199869787
 31
0.0
  0
LINE
  5
873
  8
DETAIL
  6
CONTINUOUS
 62
     5
 10
406.499999652151
 20
19.63697187815345
 30
0.0
 11
406.499999652151
 21
20.61832563791907
 31
0.0
  0
LINE
  5
874
  8
DETAIL
  6
CONTINUOUS
 62
     5
 10
406.499999652151
 20
14.68042795572913
 30
0.0
 11
406.499999652151
 21
15.67182199869787
 31
0.0
  0
LINE
  5
875
  8
DETAIL
  6
CONTINUOUS
 62
     5
 10
406.499999652151
 20
7.191475319010152
 30
0.0
 11
406.499999652151
 21
14.68042795572913
 31
0.0
  0
LINE
  5
876
  8
DETAIL
  6
CONTINUOUS
 62
     5
 10
403.6530147888702
 20
17.54169599924719
 30
0.0
 11
403.7000118591822
 21
14.8504413834635
 31
0.0
  0
LINE
  5
877
  8
DETAIL
  6
CONTINUOUS
 62
     5
 10
402.9999996521508
 20
17.83646528635657
 30
0.0
 11
403.1013790466822
 21
17.83646528635657
 31
0.0
  0
LINE
  5
878
  8
DETAIL
  6
CONTINUOUS
 62
     5
 10
403.1013790466822
 20
17.83646528635657
 30
0.0
 11
403.3410030701201
 21
17.83646528635657
 31
0.0
  0
LINE
  5
879
  8
DETAIL
  6
CONTINUOUS
 62
     5
 10
403.6698604919951
 20
14.8509601822914
 30
0.0
 11
402.9999996521508
 21
14.86264746103919
 31
0.0
  0
LINE
  5
87A
  8
DETAIL
  6
CONTINUOUS
 62
     5
 10
404.1765743591822
 20
14.84211008463515
 30
0.0
 11
404.499999652151
 21
14.83646433268225
 31
0.0
  0
LINE
  5
87B
  8
DETAIL
  6
CONTINUOUS
 62
     5
 10
403.7000118591822
 20
14.8504413834635
 30
0.0
 11
404.1765743591822
 21
14.84211008463515
 31
0.0
  0
LINE
  5
87C
  8
DETAIL
  6
CONTINUOUS
 62
     5
 10
404.499999652151
 20
16.70844309244787
 30
0.0
 11
405.5359493591821
 21
16.67118112955703
 31
0.0
  0
LINE
  5
87D
  8
DETAIL
  6
CONTINUOUS
 62
     5
 10
403.3530575134795
 20
17.83646528635657
 30
0.0
 11
404.499999652151
 21
17.83646528635657
 31
0.0
  0
LINE
  5
87E
  8
DETAIL
  6
CONTINUOUS
 62
     5
 10
404.499999652151
 20
21.63648359690345
 30
0.0
 11
405.4476620056671
 21
21.61942427073157
 31
0.0
  0
LINE
  5
87F
  8
DETAIL
  6
CONTINUOUS
 62
     5
 10
406.4629513123072
 20
15.9415058365885
 30
0.0
 11
406.499999652151
 21
15.67182199869787
 31
0.0
  0
LINE
  5
880
  8
DETAIL
  6
CONTINUOUS
 62
     5
 10
406.3439327576201
 20
16.20825998697912
 30
0.0
 11
406.4629513123072
 21
15.9415058365885
 31
0.0
  0
LINE
  5
881
  8
DETAIL
  6
CONTINUOUS
 62
     5
 10
406.2196956970733
 20
16.3660969010414
 30
0.0
 11
406.3439327576201
 21
16.20825998697912
 31
0.0
  0
LINE
  5
882
  8
DETAIL
  6
CONTINUOUS
 62
     5
 10
406.0664669373072
 20
16.49588816080703
 30
0.0
 11
406.2196956970733
 21
16.3660969010414
 31
0.0
  0
LINE
  5
883
  8
DETAIL
  6
CONTINUOUS
 62
     5
 10
405.8041683533232
 20
16.62442819986975
 30
0.0
 11
406.0664669373072
 21
16.49588816080703
 31
0.0
  0
LINE
  5
884
  8
DETAIL
  6
CONTINUOUS
 62
     5
 10
405.5359493591821
 20
16.67118112955703
 30
0.0
 11
405.8041683533232
 21
16.62442819986975
 31
0.0
  0
LINE
  5
885
  8
DETAIL
  6
CONTINUOUS
 62
     5
 10
405.6736446716822
 20
21.60312788401282
 30
0.0
 11
405.5179745056671
 21
21.61817305002822
 31
0.0
  0
LINE
  5
886
  8
DETAIL
  6
CONTINUOUS
 62
     5
 10
405.999999652151
 20
21.48435346995032
 30
0.0
 11
405.6736446716822
 21
21.60312788401282
 31
0.0
  0
LINE
  5
887
  8
DETAIL
  6
CONTINUOUS
 62
     5
 10
406.2660518982451
 20
21.26111738596595
 30
0.0
 11
405.999999652151
 21
21.48435346995032
 31
0.0
  0
LINE
  5
888
  8
DETAIL
  6
CONTINUOUS
 62
     5
 10
406.439696917776
 20
20.96033613596594
 30
0.0
 11
406.2660518982451
 21
21.26111738596595
 31
0.0
  0
LINE
  5
889
  8
DETAIL
  6
CONTINUOUS
 62
     5
 10
406.499999652151
 20
20.61832563791907
 30
0.0
 11
406.439696917776
 21
20.96033613596594
 31
0.0
  0
LINE
  5
88A
  8
DETAIL
  6
CONTINUOUS
 62
     5
 10
404.499999652151
 20
18.67804853830946
 30
0.0
 11
404.499999652151
 21
19.67295210276281
 31
0.0
  0
LINE
  5
88B
  8
DETAIL
  6
CONTINUOUS
 62
     5
 10
404.499999652151
 20
17.20353071604383
 30
0.0
 11
404.499999652151
 21
18.67804853830946
 31
0.0
  0
LINE
  5
88C
  8
DETAIL
  6
CONTINUOUS
 62
     5
 10
404.499999652151
 20
21.63648359690345
 30
0.0
 11
404.499999652151
 21
19.67295210276281
 31
0.0
  0
LINE
  5
88D
  8
DETAIL
  6
CONTINUOUS
 62
     5
 10
404.499999652151
 20
14.72577707682265
 30
0.0
 11
404.499999652151
 21
16.70844309244787
 31
0.0
  0
LINE
  5
88E
  8
DETAIL
  6
CONTINUOUS
 62
     5
 10
405.8129574158233
 20
16.62011568461074
 30
0.0
 11
405.9927059509796
 21
16.58698313151015
 31
0.0
  0
LINE
  5
88F
  8
DETAIL
  6
CONTINUOUS
 62
     5
 10
403.640227923636
 20
17.62326948557532
 30
0.0
 11
403.6530147888702
 21
17.54169599924719
 31
0.0
  0
LINE
  5
890
  8
DETAIL
  6
CONTINUOUS
 62
     5
 10
403.602294574026
 20
17.70343916330946
 30
0.0
 11
403.640227923636
 21
17.62326948557532
 31
0.0
  0
LINE
  5
891
  8
DETAIL
  6
CONTINUOUS
 62
     5
 10
403.5633541443393
 20
17.75043623362219
 30
0.0
 11
403.602294574026
 21
17.70343916330946
 31
0.0
  0
LINE
  5
892
  8
DETAIL
  6
CONTINUOUS
 62
     5
 10
403.5156551697296
 20
17.78858320627821
 30
0.0
 11
403.5633541443393
 21
17.75043623362219
 31
0.0
  0
LINE
  5
893
  8
DETAIL
  6
CONTINUOUS
 62
     5
 10
403.434814105276
 20
17.82511274729384
 30
0.0
 11
403.5156551697296
 21
17.78858320627821
 31
0.0
  0
LINE
  5
894
  8
DETAIL
  6
CONTINUOUS
 62
     5
 10
403.3530575134795
 20
17.83646528635657
 30
0.0
 11
403.434814105276
 21
17.82511274729384
 31
0.0
  0
LINE
  5
895
  8
DETAIL
  6
CONTINUOUS
 62
     5
 10
403.3410030701201
 20
17.83646528635657
 30
0.0
 11
403.4178463318394
 21
17.82511274729384
 31
0.0
  0
LINE
  5
896
  8
DETAIL
  6
CONTINUOUS
 62
     5
 10
404.499999652151
 20
17.20353071604383
 30
0.0
 11
404.499999652151
 21
16.70844309244787
 31
0.0
  0
LINE
  5
897
  8
DETAIL
  6
CONTINUOUS
 62
     5
 10
404.499999652151
 20
7.213997291666629
 30
0.0
 11
404.499999652151
 21
14.72577707682265
 31
0.0
  0
LINE
  5
898
  8
DETAIL
  6
CONTINUOUS
 62
     5
 10
406.499999652151
 20
7.191475319010152
 30
0.0
 11
406.499999652151
 21
1.218330892068507
 31
0.0
  0
LINE
  5
899
  8
DETAIL
  6
CONTINUOUS
 62
     5
 10
406.499999652151
 20
-2.763755393880244
 30
0.0
 11
406.499999652151
 21
1.218330892068507
 31
0.0
  0
LINE
  5
89A
  8
DETAIL
  6
CONTINUOUS
 62
     5
 10
406.854400286917
 20
-2.750968528645866
 30
0.0
 11
406.9894100525421
 21
-2.772330833333369
 31
0.0
  0
LINE
  5
89B
  8
DETAIL
  6
CONTINUOUS
 62
     5
 10
406.5188289978546
 20
-2.408561302083366
 30
0.0
 11
406.5794063904323
 21
-2.543204856770866
 31
0.0
  0
LINE
  5
89C
  8
DETAIL
  6
CONTINUOUS
 62
     5
 10
406.7206722595733
 20
-2.687614036458597
 30
0.0
 11
406.854400286917
 21
-2.750968528645866
 31
0.0
  0
LINE
  5
89D
  8
DETAIL
  6
CONTINUOUS
 62
     5
 10
406.6426693298863
 20
-2.622642112630241
 30
0.0
 11
406.7206722595733
 21
-2.687614036458597
 31
0.0
  0
LINE
  5
89E
  8
DETAIL
  6
CONTINUOUS
 62
     5
 10
406.5794063904323
 20
-2.543204856770866
 30
0.0
 11
406.6426693298863
 21
-2.622642112630241
 31
0.0
  0
LINE
  5
89F
  8
DETAIL
  6
CONTINUOUS
 62
     5
 10
406.499999652151
 20
-2.272513938802116
 30
0.0
 11
406.5188289978546
 21
-2.408561302083366
 31
0.0
  0
LINE
  5
8A0
  8
DETAIL
  6
CONTINUOUS
 62
     5
 10
406.9894100525421
 20
-2.772330833333369
 30
0.0
 11
406.854400286917
 21
-2.750968528645866
 31
0.0
  0
LINE
  5
8A1
  8
DETAIL
  6
CONTINUOUS
 62
     5
 10
406.9999996521509
 20
-2.772513938802119
 30
0.0
 11
407.1326900818394
 21
-2.774894309895869
 31
0.0
  0
LINE
  5
8A2
  8
DETAIL
  6
CONTINUOUS
 62
     5
 10
417.4683834412141
 20
-2.960837913411494
 30
0.0
 11
406.9894100525421
 21
-2.772330833333369
 31
0.0
  0
LINE
  5
8A3
  8
DETAIL
  6
CONTINUOUS
 62
     5
 10
404.5981136658232
 20
2.234718846422792
 30
0.0
 11
405.5179745056671
 21
2.218147801500917
 31
0.0
  0
LINE
  5
8A4
  8
DETAIL
  6
CONTINUOUS
 62
     5
 10
405.789703021292
 20
2.175453709703815
 30
0.0
 11
405.5179745056671
 21
2.218147801500917
 31
0.0
  0
LINE
  5
8A5
  8
DETAIL
  6
CONTINUOUS
 62
     5
 10
406.056884417776
 20
2.048927830797792
 30
0.0
 11
405.789703021292
 21
2.175453709703815
 31
0.0
  0
LINE
  5
8A6
  8
DETAIL
  6
CONTINUOUS
 62
     5
 10
406.2134395935571
 20
1.919045018297791
 30
0.0
 11
406.056884417776
 21
2.048927830797792
 31
0.0
  0
LINE
  5
8A7
  8
DETAIL
  6
CONTINUOUS
 62
     5
 10
406.3404842712921
 20
1.760170506579041
 30
0.0
 11
406.2134395935571
 21
1.919045018297791
 31
0.0
  0
LINE
  5
8A8
  8
DETAIL
  6
CONTINUOUS
 62
     5
 10
406.462157855276
 20
1.490791844469441
 30
0.0
 11
406.3404842712921
 21
1.760170506579041
 31
0.0
  0
LINE
  5
8A9
  8
DETAIL
  6
CONTINUOUS
 62
     5
 10
406.499999652151
 20
1.218330892068507
 30
0.0
 11
406.462157855276
 21
1.490791844469441
 31
0.0
  0
LINE
  5
8AA
  8
DETAIL
  6
CONTINUOUS
 62
     5
 10
404.499999652151
 20
2.236458348375917
 30
0.0
 11
404.499999652151
 21
-2.563529563802116
 31
0.0
  0
LINE
  5
8AB
  8
DETAIL
  6
CONTINUOUS
 62
     5
 10
404.499999652151
 20
2.236458348375917
 30
0.0
 11
404.5981136658232
 21
2.234718846422792
 31
0.0
  0
LINE
  5
8AC
  8
DETAIL
  6
CONTINUOUS
 62
     5
 10
404.6612850525421
 20
0.7852864733759188
 30
0.0
 11
404.6876217224641
 21
-2.744437766927347
 31
0.0
  0
LINE
  5
8AD
  8
DETAIL
  6
CONTINUOUS
 62
     5
 10
404.6321102478546
 20
1.862282322985066
 30
0.0
 11
404.6612850525421
 21
0.7852864733759188
 31
0.0
  0
LINE
  5
8AE
  8
DETAIL
  6
CONTINUOUS
 62
     5
 10
404.5981136658232
 20
2.234718846422792
 30
0.0
 11
404.6321102478546
 21
1.862282322985066
 31
0.0
  0
LINE
  5
8AF
  8
DETAIL
  6
CONTINUOUS
 62
     5
 10
404.499999652151
 20
7.213997291666629
 30
0.0
 11
404.499999652151
 21
2.236458348375917
 31
0.0
  0
LINE
  5
8B0
  8
DETAIL
  6
CONTINUOUS
 62
     5
 10
402.9999996521508
 20
-2.590517831700679
 30
0.0
 11
404.499999652151
 21
-2.563529563802116
 31
0.0
  0
LINE
  5
8B1
  8
DETAIL
  6
CONTINUOUS
 62
     5
 10
404.567870745901
 20
-4.173484397786494
 30
0.0
 11
404.5960079529321
 21
-8.062675071614844
 31
0.0
  0
LINE
  5
8B2
  8
DETAIL
  6
CONTINUOUS
 62
     5
 10
404.5367428162141
 20
-2.981589866536494
 30
0.0
 11
404.567870745901
 21
-4.173484397786494
 31
0.0
  0
LINE
  5
8B3
  8
DETAIL
  6
CONTINUOUS
 62
     5
 10
404.499999652151
 20
-2.563529563802116
 30
0.0
 11
404.5367428162141
 21
-2.981589866536494
 31
0.0
  0
LINE
  5
8B4
  8
DETAIL
  6
CONTINUOUS
 62
     5
 10
403.3410030701201
 20
17.83646528635657
 30
0.0
 11
403.3530575134795
 21
17.83646528635657
 31
0.0
  0
LINE
  5
8B5
  8
DETAIL
  6
CONTINUOUS
 62
     5
 10
405.4476620056671
 20
21.61942427073157
 30
0.0
 11
405.5179745056671
 21
21.61817305002822
 31
0.0
  0
LINE
  5
8B6
  8
DETAIL
  6
CONTINUOUS
 62
     5
 10
403.7000118591822
 20
14.8504413834635
 30
0.0
 11
403.6698604919951
 21
14.8509601822914
 31
0.0
  0
LINE
  5
8B7
  8
DETAIL
  6
CONTINUOUS
 62
     5
 10
406.499999652151
 20
-94.72778947438583
 30
0.0
 11
406.499999652151
 21
-90.74570329274522
 31
0.0
  0
LINE
  5
8B8
  8
DETAIL
  6
CONTINUOUS
 62
     5
 10
404.5367428162141
 20
-90.52855546559654
 30
0.0
 11
404.499999652151
 21
-90.94663102712023
 31
0.0
  0
LINE
  5
8B9
  8
DETAIL
  6
CONTINUOUS
 62
     5
 10
404.567870745901
 20
-89.33667619313584
 30
0.0
 11
404.5367428162141
 21
-90.52855546559654
 31
0.0
  0
LINE
  5
8BA
  8
DETAIL
  6
CONTINUOUS
 62
     5
 10
404.5960079529321
 20
-85.44745500172935
 30
0.0
 11
404.567870745901
 21
-89.33667619313584
 31
0.0
  0
LINE
  5
8BB
  8
DETAIL
  6
CONTINUOUS
 62
     5
 10
404.499999652151
 20
-90.94663102712023
 30
0.0
 11
402.9999996521508
 21
-90.91964585866296
 31
0.0
  0
LINE
  5
8BC
  8
DETAIL
  6
CONTINUOUS
 62
     5
 10
403.7051388123073
 20
-91.65115983571374
 30
0.0
 11
403.717681536917
 21
-90.93255479420984
 31
0.0
  0
LINE
  5
8BD
  8
DETAIL
  6
CONTINUOUS
 62
     5
 10
402.9999996521508
 20
-91.94591386403405
 30
0.0
 11
404.499999652151
 21
-91.94591386403405
 31
0.0
  0
LINE
  5
8BE
  8
DETAIL
  6
CONTINUOUS
 62
     5
 10
404.6321102478546
 20
-95.37174089040124
 30
0.0
 11
404.5981136658232
 21
-95.74414689626083
 31
0.0
  0
LINE
  5
8BF
  8
DETAIL
  6
CONTINUOUS
 62
     5
 10
404.6612850525421
 20
-94.29474504079187
 30
0.0
 11
404.6321102478546
 21
-95.37174089040124
 31
0.0
  0
LINE
  5
8C0
  8
DETAIL
  6
CONTINUOUS
 62
     5
 10
404.6876217224641
 20
-90.76502091969836
 30
0.0
 11
404.6612850525421
 21
-94.29474504079187
 31
0.0
  0
LINE
  5
8C1
  8
DETAIL
  6
CONTINUOUS
 62
     5
 10
404.5981136658232
 20
-95.74414689626083
 30
0.0
 11
404.499999652151
 21
-95.74591691579185
 31
0.0
  0
LINE
  5
8C2
  8
DETAIL
  6
CONTINUOUS
 62
     5
 10
404.499999652151
 20
-90.94663102712023
 30
0.0
 11
404.499999652151
 21
-95.74591691579185
 31
0.0
  0
LINE
  5
8C3
  8
DETAIL
  6
CONTINUOUS
 62
     5
 10
404.5981136658232
 20
-95.74414689626083
 30
0.0
 11
405.5179745056671
 21
-95.72760636891685
 31
0.0
  0
LINE
  5
8C4
  8
DETAIL
  6
CONTINUOUS
 62
     5
 10
404.5960079529321
 20
-85.44745500172935
 30
0.0
 11
404.5960079529321
 21
-8.062675071614844
 31
0.0
  0
LINE
  5
8C5
  8
DETAIL
  6
CONTINUOUS
 62
     5
 10
406.499999652151
 20
-90.74570329274522
 30
0.0
 11
406.499999652151
 21
-2.763755393880244
 31
0.0
  0
LINE
  5
8C6
  8
DETAIL
  6
CONTINUOUS
 62
     5
 10
452.4942623474641
 20
14.98114817057265
 30
0.0
 11
405.5359493591821
 21
16.67118112955703
 31
0.0
  0
LINE
  5
8C7
  8
DETAIL
  6
CONTINUOUS
 62
     5
 10
404.6876217224641
 20
-2.744437766927347
 30
0.0
 11
404.6876217224641
 21
-90.76502091969836
 31
0.0
  0
ARC
  5
8C8
  8
DETAIL
  6
CONTINUOUS
 62
     5
 10
461.122992756962
 20
17.65404306708526
 30
0.0
 40
1.000121783540919
 50
358.9765013899562
 51
88.96185998536977
  0
ARC
  5
8C9
  8
DETAIL
  6
CONTINUOUS
 62
     5
 10
465.1296820119551
 20
12.56582606256781
 30
0.0
 40
1.959698521176219
 50
358.8545281568611
 51
89.08847367074583
  0
LINE
  5
8CA
  8
DETAIL
  6
CONTINUOUS
 62
     5
 10
404.1786800720733
 20
115.3654951325472
 30
0.0
 11
411.6011959412142
 21
107.9429640046181
 31
0.0
  0
LINE
  5
8CB
  8
DETAIL
  6
CONTINUOUS
 62
     5
 10
403.2999874451201
 20
130.7441648713175
 30
0.0
 11
402.9999996521508
 21
130.7441648713175
 31
0.0
  0
LINE
  5
8CC
  8
DETAIL
  6
CONTINUOUS
 62
     5
 10
403.2999874451201
 20
131.7441648713175
 30
0.0
 11
403.2999874451201
 21
130.7441648713175
 31
0.0
  0
LINE
  5
8CD
  8
DETAIL
  6
CONTINUOUS
 62
     5
 10
402.9999996521508
 20
131.7441648713175
 30
0.0
 11
403.2999874451201
 21
131.7441648713175
 31
0.0
  0
LINE
  5
8CE
  8
DETAIL
  6
CONTINUOUS
 62
     5
 10
403.2999874451201
 20
130.7441648713175
 30
0.0
 11
403.2999874451201
 21
125.7441725007124
 31
0.0
  0
LINE
  5
8CF
  8
DETAIL
  6
CONTINUOUS
 62
     5
 10
413.2999874451201
 20
103.7368025055943
 30
0.0
 11
413.2999874451201
 21
63.25156538401284
 31
0.0
  0
LINE
  5
8D0
  8
DETAIL
  6
CONTINUOUS
 62
     5
 10
404.1786495544951
 20
51.62284223948158
 30
0.0
 11
411.6011959412142
 21
59.0453886262003
 31
0.0
  0
LINE
  5
8D1
  8
DETAIL
  6
CONTINUOUS
 62
     5
 10
403.2999874451201
 20
32.74417440806067
 30
0.0
 11
402.9999996521508
 21
32.74417440806067
 31
0.0
  0
LINE
  5
8D2
  8
DETAIL
  6
CONTINUOUS
 62
     5
 10
402.9999996521508
 20
44.74417250071158
 30
0.0
 11
403.2999874451201
 21
44.74417250071158
 31
0.0
  0
LINE
  5
8D3
  8
DETAIL
  6
CONTINUOUS
 62
     5
 10
403.2999874451201
 20
39.74417250071158
 30
0.0
 11
403.2999874451201
 21
37.74417250071158
 31
0.0
  0
LINE
  5
8D4
  8
DETAIL
  6
CONTINUOUS
 62
     5
 10
403.2999874451201
 20
39.74417250071158
 30
0.0
 11
403.2999874451201
 21
44.74417250071158
 31
0.0
  0
LINE
  5
8D5
  8
DETAIL
  6
CONTINUOUS
 62
     5
 10
403.2999874451201
 20
32.74417440806067
 30
0.0
 11
403.2999874451201
 21
37.74417250071158
 31
0.0
  0
LINE
  5
8D6
  8
DETAIL
  6
CONTINUOUS
 62
     5
 10
403.2999874451201
 20
49.74417250071158
 30
0.0
 11
403.2999874451201
 21
44.74417250071158
 31
0.0
  0
LINE
  5
8D7
  8
DETAIL
  6
CONTINUOUS
 62
     5
 10
403.2999874451201
 20
125.7441725007124
 30
0.0
 11
403.2999874451201
 21
49.74417250071158
 31
0.0
  0
LINE
  5
8D8
  8
DETAIL
  6
CONTINUOUS
 62
     5
 10
-332.7579349181613
 20
-150.9687837459747
 30
0.0
 11
-332.7579349181613
 21
-150.9756196834747
 31
0.0
  0
LINE
  5
8D9
  8
DETAIL
  6
CONTINUOUS
 62
     5
 10
143.8420864441425
 20
-150.9687837459747
 30
0.0
 11
143.8420864441425
 21
-150.9756196834747
 31
0.0
  0
LINE
  5
8DA
  8
DETAIL
  6
CONTINUOUS
 62
     5
 10
-329.6967471740271
 20
-170.9558290340604
 30
0.0
 11
-332.8079227111301
 21
-170.9558290340606
 31
0.0
  0
LINE
  5
8DB
  8
DETAIL
  6
CONTINUOUS
 62
     5
 10
143.8920894959009
 20
-170.9558290340606
 30
0.0
 11
140.7809139587893
 21
-170.9558290340612
 31
0.0
  0
LINE
  5
8DC
  8
DETAIL
  6
CONTINUOUS
 62
     5
 10
-335.5849307677708
 20
-169.0391115047643
 30
0.0
 11
-343.7130682896076
 21
-149.2558351286821
 31
0.0
  0
LINE
  5
8DD
  8
DETAIL
  6
CONTINUOUS
 62
     5
 10
146.6691128113306
 20
-169.0391115047643
 30
0.0
 11
154.7972068898975
 21
-149.2558351286821
 31
0.0
  0
LINE
  5
8DE
  8
DETAIL
  6
CONTINUOUS
 62
     5
 10
-329.6967471740271
 20
-170.9558290340604
 30
0.0
 11
-329.6967471740277
 21
-172.2058366634553
 31
0.0
  0
LINE
  5
8DF
  8
DETAIL
  6
CONTINUOUS
 62
     5
 10
404.4999891865518
 20
115.0441853575396
 30
0.0
 11
404.4999891865518
 21
136.826440261943
 31
0.0
  0
LINE
  5
8E0
  8
DETAIL
  6
CONTINUOUS
 62
     5
 10
323.4207760193393
 20
148.2874540558878
 30
0.0
 11
322.6076961853546
 21
147.7441648713179
 31
0.0
  0
LINE
  5
8E1
  8
DETAIL
  6
CONTINUOUS
 62
     5
 10
299.5792232849643
 20
148.2874540558878
 30
0.0
 11
300.3923031189483
 21
147.7441648713179
 31
0.0
  0
LINE
  5
8E2
  8
DETAIL
  6
CONTINUOUS
 62
     5
 10
403.999999652151
 20
51.40556471262611
 30
0.0
 11
403.999999652151
 21
27.6868147126261
 31
0.0
  0
LINE
  5
8E3
  8
DETAIL
  6
CONTINUOUS
 62
     5
 10
403.999999652151
 20
25.56549208079063
 30
0.0
 11
403.999999652151
 21
27.6868147126261
 31
0.0
  0
LINE
  5
8E4
  8
DETAIL
  6
CONTINUOUS
 62
     5
 10
403.999999652151
 20
25.56549208079063
 30
0.0
 11
403.999999652151
 21
18.82285063181601
 31
0.0
  0
LINE
  5
8E5
  8
DETAIL
  6
CONTINUOUS
 62
     5
 10
403.999999652151
 20
17.84958021555623
 30
0.0
 11
403.999999652151
 21
18.82285063181601
 31
0.0
  0
LINE
  5
8E6
  8
DETAIL
  6
CONTINUOUS
 62
     5
 10
403.999999652151
 20
17.83646528635703
 30
0.0
 11
403.999999652151
 21
17.84958021555623
 31
0.0
  0
LINE
  5
8E7
  8
DETAIL
  6
CONTINUOUS
 62
     5
 10
403.999999652151
 20
14.84519140635168
 30
0.0
 11
403.999999652151
 21
-2.572526050465936
 31
0.0
  0
LINE
  5
8E8
  8
DETAIL
  6
CONTINUOUS
 62
     5
 10
391.999999652151
 20
148.7441648713179
 30
0.0
 11
325.7168880798863
 21
148.7441648713179
 31
0.0
  0
LINE
  5
8E9
  8
DETAIL
  6
CONTINUOUS
 62
     5
 10
-404.5000003478503
 20
137.2441648713179
 30
0.0
 11
-404.5000003478503
 21
90.88681166086874
 31
0.0
  0
LINE
  5
8EA
  8
DETAIL
  6
CONTINUOUS
 62
     5
 10
404.499999652151
 20
-91.94591386403405
 30
0.0
 11
404.4999891865518
 21
-113.0558305510453
 31
0.0
  0
LINE
  5
8EB
  8
DETAIL
  6
CONTINUOUS
 62
     5
 10
404.4999891865518
 20
-116.0345445403034
 30
0.0
 11
404.4999891865518
 21
-113.0558305510453
 31
0.0
  0
LINE
  5
8EC
  8
DETAIL
  6
CONTINUOUS
 62
     5
 10
392.455077777151
 20
-147.3185640105179
 30
0.0
 11
392.9031978943393
 21
-147.1592927702836
 31
0.0
  0
LINE
  5
8ED
  8
DETAIL
  6
CONTINUOUS
 62
     5
 10
388.1046139099643
 20
-148.8647065886429
 30
0.0
 11
388.1590572693393
 21
-148.8453584441117
 31
0.0
  0
LINE
  5
8EE
  8
DETAIL
  6
CONTINUOUS
 62
     5
 10
388.0604244568393
 20
-148.8692537077836
 30
0.0
 11
388.1046139099643
 21
-148.8647065886429
 31
0.0
  0
LINE
  5
8EF
  8
DETAIL
  6
CONTINUOUS
 62
     5
 10
392.9031978943393
 20
-147.1592927702836
 30
0.0
 11
393.1031795837921
 21
-147.0181184538773
 31
0.0
  0
LINE
  5
8F0
  8
DETAIL
  6
CONTINUOUS
 62
     5
 10
402.5923763611363
 20
-134.8513398894242
 30
0.0
 11
402.5095821716822
 21
-134.7450776823928
 31
0.0
  0
LINE
  5
8F1
  8
DETAIL
  6
CONTINUOUS
 62
     5
 10
402.8136288025421
 20
-135.1352754362992
 30
0.0
 11
402.5923763611363
 21
-134.8513398894242
 31
0.0
  0
LINE
  5
8F2
  8
DETAIL
  6
CONTINUOUS
 62
     5
 10
403.055328021292
 20
-135.7725435027053
 30
0.0
 11
402.8136288025421
 21
-135.1352754362992
 31
0.0
  0
LINE
  5
8F3
  8
DETAIL
  6
CONTINUOUS
 62
     5
 10
403.0874325134796
 20
-136.2848115691117
 30
0.0
 11
403.055328021292
 21
-135.7725435027053
 31
0.0
  0
LINE
  5
8F4
  8
DETAIL
  6
CONTINUOUS
 62
     5
 10
402.989165911917
 20
-136.7851777800492
 30
0.0
 11
403.0874325134796
 21
-136.2848115691117
 31
0.0
  0
LINE
  5
8F5
  8
DETAIL
  6
CONTINUOUS
 62
     5
 10
404.4999891865518
 20
-113.0558305510453
 30
0.0
 11
402.9999996521508
 21
-113.0558305510453
 31
0.0
  0
LINE
  5
8F6
  8
DETAIL
  6
CONTINUOUS
 62
     5
 10
182.1852718689483
 20
-150.2558351286824
 30
0.0
 11
384.2999874451202
 21
-150.2558351286824
 31
0.0
  0
LINE
  5
8F7
  8
DETAIL
  6
CONTINUOUS
 62
     5
 10
179.0651089050814
 20
-149.5219789275105
 30
0.0
 11
178.6952053406285
 21
-149.2558351286824
 31
0.0
  0
LINE
  5
8F8
  8
DETAIL
  6
CONTINUOUS
 62
     5
 10
-343.3022092707415
 20
-150.2558351286821
 30
0.0
 11
-353.2573856017546
 21
-150.2558351286824
 31
0.0
  0
LINE
  5
8F9
  8
DETAIL
  6
CONTINUOUS
 62
     5
 10
-403.5432742736295
 20
-122.2115922697952
 30
0.0
 11
-403.0000003478486
 21
-121.3985429533895
 31
0.0
  0
LINE
  5
8FA
  8
DETAIL
  6
CONTINUOUS
 62
     5
 10
-404.0000003478485
 20
-124.5076890715534
 30
0.0
 11
-404.0000003478485
 21
-130.2558351286824
 31
0.0
  0
LINE
  5
8FB
  8
DETAIL
  6
CONTINUOUS
 62
     5
 10
-384.0000003478488
 20
-150.2558351286824
 30
0.0
 11
-358.2426150939427
 21
-150.2558351286824
 31
0.0
  0
LINE
  5
8FC
  8
DETAIL
  6
CONTINUOUS
 62
     5
 10
-355.3786624572235
 20
-150.2558351286824
 30
0.0
 11
-356.1213382384735
 21
-150.2558351286824
 31
0.0
  0
LINE
  5
8FD
  8
DETAIL
  6
CONTINUOUS
 62
     5
 10
-358.2426150939427
 20
-150.2558351286824
 30
0.0
 11
-356.1213382384735
 21
-150.2558351286824
 31
0.0
  0
LINE
  5
8FE
  8
DETAIL
  6
CONTINUOUS
 62
     5
 10
-355.3786624572235
 20
-150.2558351286824
 30
0.0
 11
-353.2573856017546
 21
-150.2558351286824
 31
0.0
  0
LINE
  5
8FF
  8
DETAIL
  6
CONTINUOUS
 62
     5
 10
-346.7781375548796
 20
148.7441648713179
 30
0.0
 11
-392.5000003478488
 21
148.7441648713179
 31
0.0
  0
LINE
  5
900
  8
DETAIL
  6
CONTINUOUS
 62
     5
 10
297.2831264832066
 20
148.7441648713179
 30
0.0
 11
296.7999874451202
 21
148.7441648713179
 31
0.0
  0
ARC
  5
901
  8
DETAIL
  6
CONTINUOUS
 62
     5
 10
391.6266108995291
 20
135.8383200348339
 30
0.0
 40
12.91124510277801
 50
4.389238312282094
 51
88.3427947752423
  0
ARC
  5
902
  8
DETAIL
  6
CONTINUOUS
 62
     5
 10
325.7168476600189
 20
142.7441649137127
 30
0.0
 40
5.999999957741187
 50
89.99961401869997
 51
112.4997009015426
  0
ARC
  5
903
  8
DETAIL
  6
CONTINUOUS
 62
     5
 10
297.2831514759727
 20
142.7441640664397
 30
0.0
 40
6.000000804929717
 50
67.50030070973712
 51
90.00023866331917
  0
ARC
  5
904
  8
DETAIL
  6
CONTINUOUS
 62
     5
 10
-392.1273072564758
 20
136.3443981672766
 30
0.0
 40
12.40536635714581
 50
91.7215900044175
 51
175.8406595253149
  0
ARC
  5
905
  8
DETAIL
  6
CONTINUOUS
 62
     5
 10
384.29998997568
 20
-130.5558348672343
 30
0.0
 40
19.70000026144822
 50
269.9999926400843
 51
341.5661062797001
  0
ARC
  5
906
  8
DETAIL
  6
CONTINUOUS
 62
     5
 10
182.1852772818219
 20
-143.2558291283409
 30
0.0
 40
7.000006000343437
 50
243.5294372598806
 51
269.9999556950673
  0
ARC
  5
907
  8
DETAIL
  6
CONTINUOUS
 62
     5
 10
-398.0000042263719
 20
-124.507699985263
 30
0.0
 40
5.999996121486927
 50
157.4999110525395
 51
179.9998957836451
  0
ARC
  5
908
  8
DETAIL
  6
CONTINUOUS
 62
     5
 10
-383.9999986346064
 20
-130.2558334154405
 30
0.0
 40
20.00000171324242
 50
180.0000049783131
 51
269.9999950919218
  0
LINE
  5
909
  8
DETAIL
  6
CONTINUOUS
 62
     5
 10
244.9999996521509
 20
158.7441648713178
 30
0.0
 11
244.9999996521509
 21
169.2441648713179
 31
0.0
  0
LINE
  5
90A
  8
DETAIL
  6
CONTINUOUS
 62
     5
 10
245.1648556091821
 20
157.4708189240518
 30
0.0
 11
245.2570644714874
 21
157.2440885773725
 31
0.0
  0
LINE
  5
90B
  8
DETAIL
  6
CONTINUOUS
 62
     5
 10
244.9999996521509
 20
158.7441648713178
 30
0.0
 11
245.1648556091821
 21
157.4708189240518
 31
0.0
  0
LINE
  5
90C
  8
DETAIL
  6
CONTINUOUS
 62
     5
 10
229.9999996521509
 20
158.5653623810835
 30
0.0
 11
229.9999996521509
 21
157.2440885773725
 31
0.0
  0
LINE
  5
90D
  8
DETAIL
  6
CONTINUOUS
 62
     5
 10
229.9999996521509
 20
169.2441648713179
 30
0.0
 11
229.9999996521509
 21
158.5653623810835
 31
0.0
  0
LINE
  5
90E
  8
DETAIL
  6
CONTINUOUS
 62
     5
 10
254.9999996521509
 20
-171.2558351286825
 30
0.0
 11
254.9999996521509
 21
-160.2558351286825
 31
0.0
  0
LINE
  5
90F
  8
DETAIL
  6
CONTINUOUS
 62
     5
 10
269.999999652151
 20
-171.5401063689164
 30
0.0
 11
269.999999652151
 21
-154.3269105681356
 31
0.0
  0
LINE
  5
910
  8
DETAIL
  6
CONTINUOUS
 62
     5
 10
269.999999652151
 20
-151.2693238982132
 30
0.0
 11
269.999999652151
 21
-150.2558351286824
 31
0.0
  0
LINE
  5
911
  8
DETAIL
  6
CONTINUOUS
 62
     5
 10
269.999999652151
 20
-154.3269105681356
 30
0.0
 11
269.999999652151
 21
-151.2693238982132
 31
0.0
  0
LINE
  5
912
  8
DETAIL
  6
CONTINUOUS
 62
     5
 10
256.9322964050816
 20
-150.3920961150105
 30
0.0
 11
256.6780392029321
 21
-150.2558351286824
 31
0.0
  0
LINE
  5
913
  8
DETAIL
  6
CONTINUOUS
 62
     5
 10
244.9999996521509
 20
-160.2558351286825
 30
0.0
 11
244.9999996521509
 21
-171.2558351286825
 31
0.0
  0
LINE
  5
914
  8
DETAIL
  6
CONTINUOUS
 62
     5
 10
229.9999996521509
 20
-154.3269105681356
 30
0.0
 11
229.9999996521509
 21
-171.5401063689164
 31
0.0
  0
LINE
  5
915
  8
DETAIL
  6
CONTINUOUS
 62
     5
 10
229.9999996521509
 20
-151.2693086394242
 30
0.0
 11
229.9999996521509
 21
-150.2558351286824
 31
0.0
  0
LINE
  5
916
  8
DETAIL
  6
CONTINUOUS
 62
     5
 10
229.9999996521509
 20
-154.3269105681356
 30
0.0
 11
229.9999996521509
 21
-151.2693086394242
 31
0.0
  0
ARC
  5
917
  8
DETAIL
  6
CONTINUOUS
 62
     5
 10
249.999999652151
 20
-160.2558351286825
 30
0.0
 40
5.0
 50
0.0
 51
180.0
  0
ARC
  5
918
  8
DETAIL
  6
CONTINUOUS
 62
     5
 10
249.999999652151
 20
-171.2558351286825
 30
0.0
 40
5.0
 50
180.0
 51
0.0
  0
LINE
  5
919
  8
DETAIL
  6
CONTINUOUS
 62
     5
 10
-245.0000003478489
 20
169.2441648713179
 30
0.0
 11
-245.0000003478489
 21
158.7441648713178
 31
0.0
  0
LINE
  5
91A
  8
DETAIL
  6
CONTINUOUS
 62
     5
 10
-245.2574771544886
 20
157.2440885773725
 30
0.0
 11
-245.1635440490207
 21
157.4758238068648
 31
0.0
  0
LINE
  5
91B
  8
DETAIL
  6
CONTINUOUS
 62
     5
 10
-230.0000003478488
 20
157.2440885773725
 30
0.0
 11
-230.0000003478488
 21
158.5653623810835
 31
0.0
  0
LINE
  5
91C
  8
DETAIL
  6
CONTINUOUS
 62
     5
 10
-230.0000003478488
 20
158.5653623810835
 30
0.0
 11
-230.0000003478488
 21
169.2441648713179
 31
0.0
  0
LINE
  5
91D
  8
DETAIL
  6
CONTINUOUS
 62
     5
 10
-255.0000003478488
 20
158.7441648713178
 30
0.0
 11
-255.0000003478488
 21
169.2441648713179
 31
0.0
  0
LINE
  5
91E
  8
DETAIL
  6
CONTINUOUS
 62
     5
 10
-254.8351443908176
 20
157.4708189240518
 30
0.0
 11
-254.742920269724
 21
157.2440885773725
 31
0.0
  0
LINE
  5
91F
  8
DETAIL
  6
CONTINUOUS
 62
     5
 10
-245.1635440490207
 20
157.4758238068648
 30
0.0
 11
-245.0000003478489
 21
158.7441648713178
 31
0.0
  0
LINE
  5
920
  8
DETAIL
  6
CONTINUOUS
 62
     5
 10
-255.0000003478488
 20
158.7441648713178
 30
0.0
 11
-254.8351443908176
 21
157.4708189240518
 31
0.0
  0
LINE
  5
921
  8
DETAIL
  6
CONTINUOUS
 62
     5
 10
-270.0000003478488
 20
158.5653623810835
 30
0.0
 11
-270.0000003478488
 21
157.2440885773725
 31
0.0
  0
LINE
  5
922
  8
DETAIL
  6
CONTINUOUS
 62
     5
 10
-270.0000003478488
 20
169.2441648713179
 30
0.0
 11
-270.0000003478488
 21
158.5653623810835
 31
0.0
  0
ARC
  5
923
  8
DETAIL
  6
CONTINUOUS
 62
     5
 10
-250.0000003478489
 20
-171.2558351286825
 30
0.0
 40
5.0
 50
206.1039737295089
 51
333.8960262704911
  0
LINE
  5
924
  8
DETAIL
  6
CONTINUOUS
 62
     5
 10
262.8330837585966
 20
185.7352537385053
 30
0.0
 11
262.7804256775415
 21
185.6339658967083
 31
0.0
  0
LINE
  5
925
  8
DETAIL
  6
CONTINUOUS
 62
     5
 10
262.886748919729
 20
185.7968534699503
 30
0.0
 11
262.8330837585966
 21
185.7352537385053
 31
0.0
  0
LINE
  5
926
  8
DETAIL
  6
CONTINUOUS
 62
     5
 10
262.8953243591818
 20
185.8066953888953
 30
0.0
 11
262.886748919729
 21
185.7968534699503
 31
0.0
  0
LINE
  5
927
  8
DETAIL
  6
CONTINUOUS
 62
     5
 10
263.239501605276
 20
185.9440092316683
 30
0.0
 11
263.0990749695338
 21
185.9238828888953
 31
0.0
  0
LINE
  5
928
  8
DETAIL
  6
CONTINUOUS
 62
     5
 10
284.0382229187525
 20
157.5716184845983
 30
0.0
 11
284.0094295837916
 21
157.7005094758094
 31
0.0
  0
LINE
  5
929
  8
DETAIL
  6
CONTINUOUS
 62
     5
 10
284.1050564148466
 20
157.4474272004182
 30
0.0
 11
284.0382229187525
 21
157.5716184845983
 31
0.0
  0
LINE
  5
92A
  8
DETAIL
  6
CONTINUOUS
 62
     5
 10
284.1697384216818
 20
157.3754514924113
 30
0.0
 11
284.1050564148466
 21
157.4474272004182
 31
0.0
  0
LINE
  5
92B
  8
DETAIL
  6
CONTINUOUS
 62
     5
 10
284.247069964651
 20
157.3172849885053
 30
0.0
 11
284.1697384216818
 21
157.3754514924113
 31
0.0
  0
LINE
  5
92C
  8
DETAIL
  6
CONTINUOUS
 62
     5
 10
284.3766170837916
 20
157.2615293732704
 30
0.0
 11
284.247069964651
 21
157.3172849885053
 31
0.0
  0
LINE
  5
92D
  8
DETAIL
  6
CONTINUOUS
 62
     5
 10
274.2329555847677
 20
185.7352537385053
 30
0.0
 11
274.1707149841818
 21
185.8066953888953
 31
0.0
  0
LINE
  5
92E
  8
DETAIL
  6
CONTINUOUS
 62
     5
 10
274.2765804626979
 20
185.6513303986614
 30
0.0
 11
274.2329555847677
 21
185.7352537385053
 31
0.0
  0
LINE
  5
92F
  8
DETAIL
  6
CONTINUOUS
 62
     5
 10
273.9669643738311
 20
185.9238828888953
 30
0.0
 11
273.8265377380889
 21
185.9440092316683
 31
0.0
  0
LINE
  5
930
  8
DETAIL
  6
CONTINUOUS
 62
     5
 10
274.3511349060568
 20
184.9876341095982
 30
0.0
 11
274.325851092581
 21
185.4701780549114
 31
0.0
  0
LINE
  5
931
  8
DETAIL
  6
CONTINUOUS
 62
     5
 10
274.9275966980499
 20
173.9881071320593
 30
0.0
 11
274.8039242126978
 21
176.3481077424114
 31
0.0
  0
LINE
  5
932
  8
DETAIL
  6
CONTINUOUS
 62
     5
 10
274.8039242126978
 20
176.3481077424114
 30
0.0
 11
274.3511349060568
 21
184.9876341095982
 31
0.0
  0
LINE
  5
933
  8
DETAIL
  6
CONTINUOUS
 62
     5
 10
273.9669643738311
 20
185.9238828888953
 30
0.0
 11
273.8265377380889
 21
185.9440092316683
 31
0.0
  0
LINE
  5
934
  8
DETAIL
  6
CONTINUOUS
 62
     5
 10
274.0960995056665
 20
185.8651212922164
 30
0.0
 11
273.9669643738311
 21
185.9238828888953
 31
0.0
  0
LINE
  5
935
  8
DETAIL
  6
CONTINUOUS
 62
     5
 10
274.1707149841818
 20
185.8066953888953
 30
0.0
 11
274.0960995056665
 21
185.8651212922164
 31
0.0
  0
LINE
  5
936
  8
DETAIL
  6
CONTINUOUS
 62
     5
 10
274.2329555847677
 20
185.7352537385053
 30
0.0
 11
274.1707149841818
 21
185.8066953888953
 31
0.0
  0
LINE
  5
937
  8
DETAIL
  6
CONTINUOUS
 62
     5
 10
274.2765804626979
 20
185.6513303986614
 30
0.0
 11
274.2329555847677
 21
185.7352537385053
 31
0.0
  0
LINE
  5
938
  8
DETAIL
  6
CONTINUOUS
 62
     5
 10
274.2984005310568
 20
185.6093687287392
 30
0.0
 11
274.2765804626979
 21
185.6513303986614
 31
0.0
  0
LINE
  5
939
  8
DETAIL
  6
CONTINUOUS
 62
     5
 10
274.325851092581
 20
185.4701780549114
 30
0.0
 11
274.2984005310568
 21
185.6093687287392
 31
0.0
  0
LINE
  5
93A
  8
DETAIL
  6
CONTINUOUS
 62
     5
 10
262.7676388123068
 20
185.6093687287392
 30
0.0
 11
262.7401882507838
 21
185.4701780549114
 31
0.0
  0
LINE
  5
93B
  8
DETAIL
  6
CONTINUOUS
 62
     5
 10
262.8330837585966
 20
185.7352537385053
 30
0.0
 11
262.7804256775415
 21
185.6339658967083
 31
0.0
  0
LINE
  5
93C
  8
DETAIL
  6
CONTINUOUS
 62
     5
 10
262.9699398376978
 20
185.8651212922164
 30
0.0
 11
262.8953243591818
 21
185.8066953888953
 31
0.0
  0
LINE
  5
93D
  8
DETAIL
  6
CONTINUOUS
 62
     5
 10
263.239501605276
 20
185.9440092316683
 30
0.0
 11
263.0990749695338
 21
185.9238828888953
 31
0.0
  0
LINE
  5
93E
  8
DETAIL
  6
CONTINUOUS
 62
     5
 10
262.7804256775415
 20
185.6339658967083
 30
0.0
 11
262.7676388123068
 21
185.6093687287392
 31
0.0
  0
LINE
  5
93F
  8
DETAIL
  6
CONTINUOUS
 62
     5
 10
262.8953243591818
 20
185.8066953888953
 30
0.0
 11
262.8330837585966
 21
185.7352537385053
 31
0.0
  0
LINE
  5
940
  8
DETAIL
  6
CONTINUOUS
 62
     5
 10
263.0990749695338
 20
185.9238828888953
 30
0.0
 11
262.9699398376978
 21
185.8651212922164
 31
0.0
  0
LINE
  5
941
  8
DETAIL
  6
CONTINUOUS
 62
     5
 10
262.7401882507838
 20
185.4701780549114
 30
0.0
 11
262.7149044373068
 21
184.9876341095982
 31
0.0
  0
LINE
  5
942
  8
DETAIL
  6
CONTINUOUS
 62
     5
 10
262.2621303894557
 20
176.3481077424114
 30
0.0
 11
262.138442645315
 21
173.9881071320593
 31
0.0
  0
LINE
  5
943
  8
DETAIL
  6
CONTINUOUS
 62
     5
 10
262.7149044373068
 20
184.9876341095982
 30
0.0
 11
262.2621303894557
 21
176.3481077424114
 31
0.0
  0
LINE
  5
944
  8
DETAIL
  6
CONTINUOUS
 62
     5
 10
273.8265377380889
 20
185.9440092316683
 30
0.0
 11
263.239501605276
 21
185.9440092316683
 31
0.0
  0
LINE
  5
945
  8
DETAIL
  6
CONTINUOUS
 62
     5
 10
253.4090877869165
 20
164.3440946808872
 30
0.0
 11
253.5325771667998
 21
164.3440946808872
 31
0.0
  0
LINE
  5
946
  8
DETAIL
  6
CONTINUOUS
 62
     5
 10
283.5156704285176
 20
163.3442625275674
 30
0.0
 11
283.5331722595729
 21
164.3440946808872
 31
0.0
  0
LINE
  5
947
  8
DETAIL
  6
CONTINUOUS
 62
     5
 10
283.4281917908228
 20
164.3440946808872
 30
0.0
 11
284.0094295837916
 21
157.7005094758094
 31
0.0
  0
LINE
  5
948
  8
DETAIL
  6
CONTINUOUS
 62
     5
 10
276.1475521423859
 20
157.7005094758094
 30
0.0
 11
276.7287899353541
 21
164.3440946808872
 31
0.0
  0
LINE
  5
949
  8
DETAIL
  6
CONTINUOUS
 62
     5
 10
275.6078487732447
 20
157.2440885773723
 30
0.0
 11
276.1076198914088
 21
157.2440885773723
 31
0.0
  0
LINE
  5
94A
  8
DETAIL
  6
CONTINUOUS
 62
     5
 10
276.1251674988311
 20
157.4445280304973
 30
0.0
 11
276.1475521423859
 21
157.7005094758094
 31
0.0
  0
LINE
  5
94B
  8
DETAIL
  6
CONTINUOUS
 62
     5
 10
276.1076198914088
 20
157.2440885773723
 30
0.0
 11
276.1251674988311
 21
157.4445280304973
 31
0.0
  0
LINE
  5
94C
  8
DETAIL
  6
CONTINUOUS
 62
     5
 10
276.1918484070339
 20
152.4185880890913
 30
0.0
 11
276.1076198914088
 21
157.2440885773723
 31
0.0
  0
LINE
  5
94D
  8
DETAIL
  6
CONTINUOUS
 62
     5
 10
284.0382229187525
 20
157.5716184845983
 30
0.0
 11
284.0094295837916
 21
157.7005094758094
 31
0.0
  0
LINE
  5
94E
  8
DETAIL
  6
CONTINUOUS
 62
     5
 10
284.5075374939479
 20
157.2440885773723
 30
0.0
 11
284.3766170837916
 21
157.2615293732704
 31
0.0
  0
LINE
  5
94F
  8
DETAIL
  6
CONTINUOUS
 62
     5
 10
284.1050564148466
 20
157.4474272004182
 30
0.0
 11
284.0382229187525
 21
157.5716184845983
 31
0.0
  0
LINE
  5
950
  8
DETAIL
  6
CONTINUOUS
 62
     5
 10
284.1697384216818
 20
157.3754514924113
 30
0.0
 11
284.1050564148466
 21
157.4474272004182
 31
0.0
  0
LINE
  5
951
  8
DETAIL
  6
CONTINUOUS
 62
     5
 10
284.247069964651
 20
157.3172849885053
 30
0.0
 11
284.1697384216818
 21
157.3754514924113
 31
0.0
  0
LINE
  5
952
  8
DETAIL
  6
CONTINUOUS
 62
     5
 10
284.3766170837916
 20
157.2615293732704
 30
0.0
 11
284.247069964651
 21
157.3172849885053
 31
0.0
  0
LINE
  5
953
  8
DETAIL
  6
CONTINUOUS
 62
     5
 10
291.5138546326197
 20
157.2440885773723
 30
0.0
 11
276.1076198914088
 21
157.2440885773723
 31
0.0
  0
LINE
  5
954
  8
DETAIL
  6
CONTINUOUS
 62
     5
 10
293.6593471863312
 20
151.1129087678014
 30
0.0
 11
293.6137539246118
 21
152.4185880890913
 31
0.0
  0
LINE
  5
955
  8
DETAIL
  6
CONTINUOUS
 62
     5
 10
276.1918484070339
 20
152.4185880890913
 30
0.0
 11
276.2123562195338
 21
151.2441648713174
 31
0.0
  0
LINE
  5
956
  8
DETAIL
  6
CONTINUOUS
 62
     5
 10
293.6137539246118
 20
152.4185880890913
 30
0.0
 11
293.5126491882838
 21
155.3138975373333
 31
0.0
  0
LINE
  5
957
  8
DETAIL
  6
CONTINUOUS
 62
     5
 10
253.4090877869165
 20
164.3440946808872
 30
0.0
 11
253.5164791443385
 21
158.1917356720983
 31
0.0
  0
LINE
  5
958
  8
DETAIL
  6
CONTINUOUS
 62
     5
 10
260.3372494080109
 20
164.3440946808872
 30
0.0
 11
260.918487200979
 21
157.7005094758094
 31
0.0
  0
LINE
  5
959
  8
DETAIL
  6
CONTINUOUS
 62
     5
 10
253.9051205017608
 20
164.3440946808872
 30
0.0
 11
253.5330196716818
 21
157.2440885773723
 31
0.0
  0
LINE
  5
95A
  8
DETAIL
  6
CONTINUOUS
 62
     5
 10
262.0051113464869
 20
157.2440885773723
 30
0.0
 11
261.4581905701196
 21
157.2440885773723
 31
0.0
  0
LINE
  5
95B
  8
DETAIL
  6
CONTINUOUS
 62
     5
 10
275.6078487732447
 20
157.2440885773723
 30
0.0
 11
275.0609279968776
 21
157.2440885773723
 31
0.0
  0
LINE
  5
95C
  8
DETAIL
  6
CONTINUOUS
 62
     5
 10
260.9584194519557
 20
157.2440885773723
 30
0.0
 11
261.4581905701196
 21
157.2440885773723
 31
0.0
  0
LINE
  5
95D
  8
DETAIL
  6
CONTINUOUS
 62
     5
 10
261.1101681091818
 20
153.2441648713174
 30
0.0
 11
261.3967892029318
 21
153.2441648713174
 31
0.0
  0
LINE
  5
95E
  8
DETAIL
  6
CONTINUOUS
 62
     5
 10
260.8885952332057
 20
153.2441648713174
 30
0.0
 11
261.1101681091818
 21
153.2441648713174
 31
0.0
  0
LINE
  5
95F
  8
DETAIL
  6
CONTINUOUS
 62
     5
 10
260.9584194519557
 20
157.2440885773723
 30
0.0
 11
260.8741909363307
 21
152.4186186066683
 31
0.0
  0
LINE
  5
960
  8
DETAIL
  6
CONTINUOUS
 62
     5
 10
253.5164791443385
 20
158.1917356720983
 30
0.0
 11
253.569366107229
 21
157.9374937287392
 31
0.0
  0
LINE
  5
961
  8
DETAIL
  6
CONTINUOUS
 62
     5
 10
253.5330196716818
 20
157.2440885773723
 30
0.0
 11
253.6476436951196
 21
157.5465482941683
 31
0.0
  0
LINE
  5
962
  8
DETAIL
  6
CONTINUOUS
 62
     5
 10
253.5330196716818
 20
157.2440885773723
 30
0.0
 11
253.6460720398467
 21
157.2614988556925
 31
0.0
  0
LINE
  5
963
  8
DETAIL
  6
CONTINUOUS
 62
     5
 10
260.9409023621119
 20
157.4442991486613
 30
0.0
 11
260.918487200979
 21
157.7005094758094
 31
0.0
  0
LINE
  5
964
  8
DETAIL
  6
CONTINUOUS
 62
     5
 10
260.9584194519557
 20
157.2440885773723
 30
0.0
 11
260.9409023621119
 21
157.4442991486613
 31
0.0
  0
LINE
  5
965
  8
DETAIL
  6
CONTINUOUS
 62
     5
 10
262.2147518494165
 20
153.2441648713174
 30
0.0
 11
261.3967892029318
 21
153.2441648713174
 31
0.0
  0
LINE
  5
966
  8
DETAIL
  6
CONTINUOUS
 62
     5
 10
276.1774441101588
 20
153.2441648713174
 30
0.0
 11
274.8512874939478
 21
153.2441648713174
 31
0.0
  0
LINE
  5
967
  8
DETAIL
  6
CONTINUOUS
 62
     5
 10
260.8741909363307
 20
152.4186186066683
 30
0.0
 11
260.7926021912135
 21
147.7441648713175
 31
0.0
  0
LINE
  5
968
  8
DETAIL
  6
CONTINUOUS
 62
     5
 10
-346.6498111388641
 20
152.4185880890913
 30
0.0
 11
-346.5655826232392
 21
154.8304380646763
 31
0.0
  0
LINE
  5
969
  8
DETAIL
  6
CONTINUOUS
 62
     5
 10
-345.9392398498021
 20
156.6829771271763
 30
0.0
 11
-346.1988834044892
 21
156.3760771027622
 31
0.0
  0
LINE
  5
96A
  8
DETAIL
  6
CONTINUOUS
 62
     5
 10
-346.8130496642552
 20
147.7441648713175
 30
0.0
 11
-346.7754214904271
 21
148.8211454621373
 31
0.0
  0
LINE
  5
96B
  8
DETAIL
  6
CONTINUOUS
 62
     5
 10
-346.7754214904271
 20
148.8211454621373
 30
0.0
 11
-346.6498111388641
 21
152.4185880890913
 31
0.0
  0
LINE
  5
96C
  8
DETAIL
  6
CONTINUOUS
 62
     5
 10
-344.5498965880834
 20
157.2440885773723
 30
0.0
 11
260.9584194519557
 21
157.2440885773723
 31
0.0
  0
LINE
  5
96D
  8
DETAIL
  6
CONTINUOUS
 62
     5
 10
265.1940761902368
 20
168.4571623078413
 30
0.0
 11
271.8719631531275
 21
168.4571623078413
 31
0.0
  0
LINE
  5
96E
  8
DETAIL
  6
CONTINUOUS
 62
     5
 10
283.4861904480499
 20
167.0271848908483
 30
0.0
 11
283.5330044128927
 21
164.3440946808872
 31
0.0
  0
LINE
  5
96F
  8
DETAIL
  6
CONTINUOUS
 62
     5
 10
280.533462176565
 20
164.3440946808872
 30
0.0
 11
283.5330044128927
 21
164.3440946808872
 31
0.0
  0
LINE
  5
970
  8
DETAIL
  6
CONTINUOUS
 62
     5
 10
280.533462176565
 20
164.3440946808872
 30
0.0
 11
275.4330288269561
 21
164.3440946808872
 31
0.0
  0
LINE
  5
971
  8
DETAIL
  6
CONTINUOUS
 62
     5
 10
273.8716579773468
 20
166.4920591584264
 30
0.0
 11
274.0334011414088
 21
157.2440885773723
 31
0.0
  0
LINE
  5
972
  8
DETAIL
  6
CONTINUOUS
 62
     5
 10
275.086684832815
 20
157.7353605500284
 30
0.0
 11
275.4330288269561
 21
164.3440946808872
 31
0.0
  0
LINE
  5
973
  8
DETAIL
  6
CONTINUOUS
 62
     5
 10
261.6330105164088
 20
164.3440946808872
 30
0.0
 11
261.9793545105498
 21
157.7353605500284
 31
0.0
  0
LINE
  5
974
  8
DETAIL
  6
CONTINUOUS
 62
     5
 10
263.0329433777368
 20
157.2440885773723
 30
0.0
 11
263.1943813660177
 21
166.4920591584264
 31
0.0
  0
LINE
  5
975
  8
DETAIL
  6
CONTINUOUS
 62
     5
 10
253.5798488953151
 20
167.0271848908483
 30
0.0
 11
253.5325771667998
 21
164.3440946808872
 31
0.0
  0
LINE
  5
976
  8
DETAIL
  6
CONTINUOUS
 62
     5
 10
253.5325771667998
 20
164.3440946808872
 30
0.0
 11
256.5325771667999
 21
164.3440946808872
 31
0.0
  0
LINE
  5
977
  8
DETAIL
  6
CONTINUOUS
 62
     5
 10
261.6330105164088
 20
164.3440946808872
 30
0.0
 11
256.5325771667999
 21
164.3440946808872
 31
0.0
  0
LINE
  5
978
  8
DETAIL
  6
CONTINUOUS
 62
     5
 10
274.7363430359401
 20
151.0509275666304
 30
0.0
 11
274.808028826956
 21
152.4185880890913
 31
0.0
  0
LINE
  5
979
  8
DETAIL
  6
CONTINUOUS
 62
     5
 10
262.0051113464869
 20
157.2440885773723
 30
0.0
 11
275.0609279968776
 21
157.2440885773723
 31
0.0
  0
LINE
  5
97A
  8
DETAIL
  6
CONTINUOUS
 62
     5
 10
275.0609279968776
 20
157.2440885773723
 30
0.0
 11
274.808028826956
 21
152.4185880890913
 31
0.0
  0
LINE
  5
97B
  8
DETAIL
  6
CONTINUOUS
 62
     5
 10
275.0609279968776
 20
157.2440885773723
 30
0.0
 11
275.086684832815
 21
157.7353605500284
 31
0.0
  0
LINE
  5
97C
  8
DETAIL
  6
CONTINUOUS
 62
     5
 10
262.2580105164088
 20
152.4185880890913
 30
0.0
 11
262.5029903748066
 21
147.7441648713175
 31
0.0
  0
LINE
  5
97D
  8
DETAIL
  6
CONTINUOUS
 62
     5
 10
262.2580105164088
 20
152.4185880890913
 30
0.0
 11
262.0051113464869
 21
157.2440885773723
 31
0.0
  0
LINE
  5
97E
  8
DETAIL
  6
CONTINUOUS
 62
     5
 10
261.9793545105498
 20
157.7353605500284
 30
0.0
 11
262.0051113464869
 21
157.2440885773723
 31
0.0
  0
LINE
  5
97F
  8
BASIS
  6
DASHDOT
 62
     6
 10
-250.0
 20
179.7542894916232
 30
0.0
 11
-250.0
 21
148.7340402450054
 31
0.0
  0
LINE
  5
980
  8
BASIS
  6
DASHDOT
 62
     6
 10
-250.0
 20
-143.7181616154011
 30
0.0
 11
-250.0
 21
-187.7935086479701
 31
0.0
  0
LINE
  5
981
  8
BASIS
  6
DASHDOT
 62
     6
 10
-272.770242925777
 20
-165.7558351316856
 30
0.0
 11
-227.2297570742229
 21
-165.7558351316856
 31
0.0
  0
LINE
  5
982
  8
BASIS
  6
DASHDOT
 62
     6
 10
0.0
 20
188.6378957901378
 30
0.0
 11
0.0
 21
-188.6378957901378
 31
0.0
  0
LINE
  5
983
  8
BASIS
  6
CONTINUOUS
 62
     6
 10
-229.075092757739
 20
164.3186734577254
 30
0.0
 11
-270.9249072422608
 21
164.3186734577254
 31
0.0
  0
LINE
  5
984
  8
BASIS
  6
DASHDOT
 62
     6
 10
-470.25727121675
 20
-0.7558294066365931
 30
0.0
 11
470.25727121675
 21
-0.7558294066365931
 31
0.0
  0
LINE
  5
985
  8
SERVICE_SPACE
  6
CONTINUOUS
 62
     2
 10
-504.5000003478492
 20
157.2440885773725
 30
0.0
 11
786.4555355408238
 21
157.2440885773723
 31
0.0
  0
LINE
  5
986
  8
SERVICE_SPACE
  6
CONTINUOUS
 62
     2
 10
-404.500000347849
 20
257.2440885773724
 30
0.0
 11
436.4555355408238
 21
257.2440885773724
 31
0.0
  0
LINE
  5
987
  8
SERVICE_SPACE
  6
CONTINUOUS
 62
     2
 10
436.4555355408238
 20
257.2440885773724
 30
0.0
 11
436.455535540822
 21
-373.4558351286815
 31
0.0
  0
LINE
  5
988
  8
SERVICE_SPACE
  6
CONTINUOUS
 62
     2
 10
786.4555355408238
 20
157.2440885773723
 30
0.0
 11
786.4555355408238
 21
-173.4558351286815
 31
0.0
  0
LINE
  5
989
  8
SERVICE_SPACE
  6
CONTINUOUS
 62
     2
 10
-504.500000347849
 20
-173.4558351286815
 30
0.0
 11
786.4555355408238
 21
-173.4558351286815
 31
0.0
  0
LINE
  5
98A
  8
SERVICE_SPACE
  6
CONTINUOUS
 62
     2
 10
-404.500000347849
 20
-373.4558351286815
 30
0.0
 11
436.4555355408229
 21
-170.7819337526002
 31
0.0
  0
LINE
  5
98B
  8
SERVICE_SPACE
  6
CONTINUOUS
 62
     2
 10
436.4555355408229
 20
-170.7819337526002
 30
0.0
 11
786.4555355408238
 21
157.2440885773723
 31
0.0
  0
LINE
  5
98C
  8
SERVICE_SPACE
  6
CONTINUOUS
 62
     2
 10
786.4555355408238
 20
-173.4558351286815
 30
0.0
 11
436.4555355408238
 21
157.2440885773723
 31
0.0
  0
LINE
  5
98D
  8
SERVICE_SPACE
  6
CONTINUOUS
 62
     2
 10
436.4555355408238
 20
157.2440885773723
 30
0.0
 11
-404.500000347849
 21
257.2440885773724
 31
0.0
  0
LINE
  5
98E
  8
SERVICE_SPACE
  6
CONTINUOUS
 62
     2
 10
436.4555355408238
 20
257.2440885773724
 30
0.0
 11
-404.500000347849
 21
157.2440885773723
 31
0.0
  0
LINE
  5
98F
  8
SERVICE_SPACE
  6
CONTINUOUS
 62
     2
 10
-404.500000347849
 20
157.2440885773723
 30
0.0
 11
-504.500000347849
 21
-173.4558351286815
 31
0.0
  0
LINE
  5
990
  8
SERVICE_SPACE
  6
CONTINUOUS
 62
     2
 10
-504.5000003478492
 20
157.2440885773725
 30
0.0
 11
-404.5000003478524
 21
-173.4558351286815
 31
0.0
  0
LINE
  5
991
  8
SERVICE_SPACE
  6
CONTINUOUS
 62
     2
 10
-404.5000003478483
 20
-173.4558351286824
 30
0.0
 11
436.455535540822
 21
-373.4558351286815
 31
0.0
  0
LINE
  5
992
  8
NOTE
  6
CONTINUOUS
 62
     4
 10
230.0
 20
-165.7558351316856
 30
0.0
 11
270.0
 21
-165.7558351316856
 31
0.0
  0
CIRCLE
  5
993
  8
FIX
  6
CONTINUOUS
 62
    11
 10
250.0
 20
-165.7558351316856
 30
0.0
 40
5.0
  0
LINE
  5
994
  8
NOTE
  6
CONTINUOUS
 62
     4
 10
250.0
 20
-185.7558351316856
 30
0.0
 11
250.0
 21
-145.7558351316855
 31
0.0
  0
LINE
  5
995
  8
NOTE
  6
CONTINUOUS
 62
     4
 10
230.0
 20
164.2186734577254
 30
0.0
 11
270.0
 21
164.2186734577254
 31
0.0
  0
CIRCLE
  5
996
  8
FIX
  6
CONTINUOUS
 62
    11
 10
250.0
 20
164.2186734577254
 30
0.0
 40
5.0
  0
LINE
  5
997
  8
NOTE
  6
CONTINUOUS
 62
     4
 10
250.0
 20
144.3186734577257
 30
0.0
 11
250.0
 21
184.3186734577257
 31
0.0
  0
LINE
  5
998
  8
NOTE
  6
CONTINUOUS
 62
     4
 10
-270.0
 20
-165.7558351316856
 30
0.0
 11
-230.0
 21
-165.7558351316856
 31
0.0
  0
CIRCLE
  5
999
  8
FIX
  6
CONTINUOUS
 62
    11
 10
-250.0
 20
-165.7558351316856
 30
0.0
 40
5.0
  0
LINE
  5
99A
  8
NOTE
  6
CONTINUOUS
 62
     4
 10
-250.0
 20
-185.7558351316856
 30
0.0
 11
-250.0
 21
-145.7558351316855
 31
0.0
  0
LINE
  5
99B
  8
NOTE
  6
CONTINUOUS
 62
     4
 10
-270.0
 20
164.3186734577257
 30
0.0
 11
-230.0
 21
164.3186734577257
 31
0.0
  0
CIRCLE
  5
99C
  8
FIX
  6
CONTINUOUS
 62
    11
 10
-250.0
 20
164.3186734577257
 30
0.0
 40
5.0
  0
LINE
  5
99D
  8
NOTE
  6
CONTINUOUS
 62
     4
 10
-250.0
 20
144.3186734577257
 30
0.0
 11
-250.0
 21
184.3186734577257
 31
0.0
  0
LINE
  5
99E
  8
NOTE
  6
CONTINUOUS
 62
     4
 10
-0.0000130272783281
 20
100.7441648713179
 30
0.0
 11
27.18235016720427
 21
130.0889952568444
 31
0.0
  0
LINE
  5
99F
  8
NOTE
  6
CONTINUOUS
 62
     4
 10
-0.0000130272783281
 20
100.7441648713179
 30
0.0
 11
193.1636501751782
 21
466.9690391060288
 31
0.0
  0
LINE
  5
9A0
  8
NOTE
  6
CONTINUOUS
 62
     4
 10
8.868189407836322
 20
139.7487170303534
 30
0.0
 11
-0.0000130272783281
 21
100.7441648713179
 31
0.0
  0
TEXT
  5
9A1
  8
NOTE
  6
CONTINUOUS
 62
     4
 10
210.7727706944824
 20
489.4034934310981
 30
0.0
 40
55.46187107438017
  1
Dφ42
 41
0.9
  0
LINE
  5
9A2
  8
NOTE
  6
CONTINUOUS
 62
     4
 10
439.9668102203269
 20
466.9690391060288
 30
0.0
 11
193.1636501751782
 21
466.9690391060288
 31
0.0
  0
LINE
  5
9A3
  8
NOTE
  6
CONTINUOUS
 62
     4
 10
-20.00002384072649
 20
100.7441648713179
 30
0.0
 11
19.9999761592735
 21
100.7441648713179
 31
0.0
  0
LINE
  5
9A4
  8
NOTE
  6
CONTINUOUS
 62
     4
 10
-0.0000238407264987
 20
80.74416487131796
 30
0.0
 11
-0.0000238407264987
 21
120.7441648713179
 31
0.0
  0
LINE
  5
9A5
  8
NOTE
  6
CONTINUOUS
 62
     4
 10
-250.0000000000385
 20
164.3186734576777
 30
0.0
 11
-59.51551865168994
 21
592.6835225363501
 31
0.0
  0
LINE
  5
9A6
  8
NOTE
  6
CONTINUOUS
 62
     4
 10
500.8890361416757
 20
592.6835225363501
 30
0.0
 11
-59.51551865168994
 21
592.6835225363501
 31
0.0
  0
TEXT
  5
9A7
  8
NOTE
  6
CONTINUOUS
 62
     4
 10
-30.56876384649195
 20
616.5369344654383
 30
0.0
 40
55.46187107438017
  1
AH 2-U cut
 41
0.9
  0
LINE
  5
9A8
  8
NOTE
  6
CONTINUOUS
 62
     4
 10
-250.0000000000385
 20
164.3186734576777
 30
0.0
 11
-224.9396985794251
 21
195.4952857058797
 31
0.0
  0
LINE
  5
9A9
  8
NOTE
  6
CONTINUOUS
 62
     4
 10
-243.8854498355963
 20
203.8485635974458
 30
0.0
 11
-250.0000000000385
 21
164.3186734576777
 31
0.0
  0
TEXT
  5
9AA
  8
NOTE
  6
CONTINUOUS
 62
     4
 10
789.4911974485957
 20
298.4299405211189
 30
0.0
 40
55.46187107438017
  1
RLφ6.35
 41
0.9
  0
LINE
  5
9AB
  8
NOTE
  6
CONTINUOUS
 62
     4
 10
1148.319427003704
 20
280.7262361960491
 30
0.0
 11
780.5029448377009
 21
280.7262361960491
 31
0.0
  0
LINE
  5
9AC
  8
NOTE
  6
CONTINUOUS
 62
     4
 10
433.4999895866958
 20
-13.15583514544047
 30
0.0
 11
780.5029448377009
 21
280.7262361960491
 31
0.0
  0
LINE
  5
9AD
  8
NOTE
  6
CONTINUOUS
 62
     4
 10
433.4999895866958
 20
-13.15583514544047
 30
0.0
 11
469.6746905171536
 21
3.914345760793394
 31
0.0
  0
LINE
  5
9AE
  8
NOTE
  6
CONTINUOUS
 62
     4
 10
456.293103526611
 20
19.71472451738739
 30
0.0
 11
433.4999895866958
 21
-13.15583514544047
 31
0.0
  0
LINE
  5
9AF
  8
NOTE
  6
CONTINUOUS
 62
     4
 10
453.4999895949095
 20
-13.1558351415642
 30
0.0
 11
413.4999895949095
 21
-13.1558351415642
 31
0.0
  0
LINE
  5
9B0
  8
NOTE
  6
CONTINUOUS
 62
     4
 10
433.4999895949095
 20
-33.15583514156443
 30
0.0
 11
433.4999895949095
 21
6.844164858435562
 31
0.0
  0
LINE
  5
9B1
  8
NOTE
  6
CONTINUOUS
 62
     4
 10
451.4999891947653
 20
4.244164872190619
 30
0.0
 11
411.4999891947654
 21
4.244164872190619
 31
0.0
  0
LINE
  5
9B2
  8
NOTE
  6
CONTINUOUS
 62
     4
 10
431.4999891947654
 20
-15.7558351278096
 30
0.0
 11
431.4999891947654
 21
24.24416487219039
 31
0.0
  0
LINE
  5
9B3
  8
NOTE
  6
CONTINUOUS
 62
     4
 10
1114.936854616784
 20
389.9599754830679
 30
0.0
 11
756.2216796559137
 21
389.9599754830679
 31
0.0
  0
TEXT
  5
9B4
  8
NOTE
  6
CONTINUOUS
 62
     4
 10
767.1070971166783
 20
408.1111898081366
 30
0.0
 40
55.46187107438017
  1
RGφ12.7
 41
0.9
  0
LINE
  5
9B5
  8
NOTE
  6
CONTINUOUS
 62
     4
 10
431.499989083265
 20
4.244164842333275
 30
0.0
 11
756.2216796559137
 21
389.9599754830679
 31
0.0
  0
LINE
  5
9B6
  8
NOTE
  6
CONTINUOUS
 62
     4
 10
448.4634999698104
 20
40.46900485616246
 30
0.0
 11
431.499989083265
 21
4.244164842333275
 31
0.0
  0
LINE
  5
9B7
  8
NOTE
  6
CONTINUOUS
 62
     4
 10
431.499989083265
 20
4.244164842333275
 30
0.0
 11
464.3032460811014
 21
27.13404020052397
 31
0.0
  0
TEXT
  5
9B8
  8
ETC
  6
CONTINUOUS
 62
    61
 10
657.3420977679542
 20
828.0531508621995
 30
0.0
 40
55.46187107438017
  1
MDU-P50_63B_1
 41
0.9
  0
LINE
  5
9B9
  8
BASIS
  6
CONTINUOUS
 62
     6
 10
-94.45407035118843
 20
-195.471653928037
 30
0.0
 11
-94.45407035118843
 21
-130.3500314298461
 31
0.0
  0
LINE
  5
9BA
  8
SERVICE_SPACE
  6
CONTINUOUS
 62
     2
 10
-404.500000347849
 20
257.2440885773724
 30
0.0
 11
-404.5000003478483
 21
-373.4558351286815
 31
0.0
  0
ARC
  5
9BB
  8
DETAIL
  6
CONTINUOUS
 62
     5
 10
402.4294731702728
 20
-115.7569786099238
 30
0.0
 40
2.089037917169696
 50
285.8491100852072
 51
352.3646552773528
  0
LINE
  5
9BC
  8
SERVICE_SPACE
  6
CONTINUOUS
 62
     2
 10
-504.5000003478492
 20
157.2440885773725
 30
0.0
 11
-504.500000347849
 21
-173.4558351286815
 31
0.0
  0
LINE
  5
9BD
  8
SIZE
  6
CONTINUOUS
 62
    30
 10
384.2999874451202
 20
-150.2558351286824
 30
0.0
 11
401.6793194509299
 21
-150.2558351286824
 31
0.0
  0
LINE
  5
9BE
  8
SERVICE_SPACE
  6
CONTINUOUS
 62
     2
 10
-404.5000003478483
 20
-373.4558351286815
 30
0.0
 11
436.455535540822
 21
-373.4558351286815
 31
0.0
  0
LINE
  5
9BF
  8
BASIS
  6
CONTINUOUS
 62
     6
 10
270.9249072422608
 20
164.2186734577254
 30
0.0
 11
229.075092757739
 21
164.2186734577254
 31
0.0
  0
ARC
  5
9C0
  8
DETAIL
  6
CONTINUOUS
 62
     5
 10
143.528417863145
 20
-167.4588312805305
 30
0.0
 40
3.515856985809667
 50
275.937154590287
 51
333.2901695477707
  0
ARC
  5
9C1
  8
DETAIL
  6
CONTINUOUS
 62
     5
 10
-332.4442508938377
 20
-167.4588560158541
 30
0.0
 40
3.51583240225681
 50
206.7095807822032
 51
264.0628007229381
  0
LINE
  5
9C2
  8
DETAIL
  6
CONTINUOUS
 62
     5
 10
-328.5079196593786
 20
-173.4558423846731
 30
0.0
 11
139.5920864441436
 21
-173.4558423846731
 31
0.0
  0
ARC
  5
9C3
  8
DETAIL
  6
CONTINUOUS
 62
     5
 10
-328.5079196593786
 20
-172.2670148700246
 30
0.0
 40
1.188827514648437
 50
177.0502011791496
 51
270.0000000001315
  0
LINE
  5
9C4
  8
DETAIL
  6
CONTINUOUS
 62
     5
 10
140.7809139587893
 20
-172.2058366634553
 30
0.0
 11
140.7809139587893
 21
-170.9558290340612
 31
0.0
  0
ARC
  5
9C5
  8
DETAIL
  6
CONTINUOUS
 62
     5
 10
139.5920864441409
 20
-172.2670148700246
 30
0.0
 40
1.188827514648437
 50
270.0
 51
2.949798821093092
  0
ARC
  5
9C6
  8
DETAIL
  6
CONTINUOUS
 62
     5
 10
385.6151321320238
 20
72.41696408161673
 30
0.0
 40
164.4938713631906
 50
277.2942122346324
 51
287.0099633513003
  0
ARC
  5
9C7
  8
DETAIL
  6
CONTINUOUS
 62
     5
 10
421.3922065760741
 20
-40.87961825376323
 30
0.0
 40
45.69991008102816
 50
285.6703184898761
 51
359.3296551886265
  0
ARC
  5
9C8
  8
DETAIL
  6
CONTINUOUS
 62
     5
 10
417.7495059976626
 20
-73.5872736010578
 30
0.0
 40
15.0464207023556
 50
285.0299282960196
 51
347.3098028601013
  0
ARC
  5
9C9
  8
DETAIL
  6
CONTINUOUS
 62
     5
 10
319.9019687185641
 20
-46.76879960406264
 30
0.0
 40
116.4887938559427
 50
345.0130644904625
 51
15.24803361044292
  0
ARC
  5
9CA
  8
DETAIL
  6
CONTINUOUS
 62
     5
 10
416.8365648944964
 20
-18.63326493748283
 30
0.0
 40
15.68515742671444
 50
8.326495990325247
 51
87.6914268664784
  0
ARC
  5
9CB
  8
DETAIL
  6
CONTINUOUS
 62
     5
 10
462.5826799585666
 20
15.12349386669555
 30
0.0
 40
0.5051210816965447
 50
179.5374686948765
 51
267.3707923387347
  0
ARC
  5
9CC
  8
DETAIL
  6
CONTINUOUS
 62
     5
 10
407.1132660731391
 20
103.6842353041214
 30
0.0
 40
6.1869446938854
 50
0.4868178355135644
 51
43.49894049879678
  0
ARC
  5
9CD
  8
DETAIL
  6
CONTINUOUS
 62
     5
 10
406.2686580893815
 20
117.4738511783386
 30
0.0
 40
2.968698928597492
 50
179.7498918216752
 51
225.2508082316253
  0
ARC
  5
9CE
  8
DETAIL
  6
CONTINUOUS
 62
     5
 10
407.4951036479347
 20
63.14990050051964
 30
0.0
 40
5.805773992101272
 50
315.0110285836862
 51
1.003357431362782
  0
ARC
  5
9CF
  8
DETAIL
  6
CONTINUOUS
 62
     5
 10
406.5048139492896
 20
49.41669870269791
 30
0.0
 40
3.205949172476326
 50
136.5169052864125
 51
178.4836560611722
  0
ARC
  5
9D0
  8
DETAIL
  6
CONTINUOUS
 62
     5
 10
392.3959408145657
 20
137.1401060337318
 30
0.0
 40
10.60456939590936
 50
0.5622319659080774
 51
89.43776803409315
  0
ARC
  5
9D1
  8
DETAIL
  6
CONTINUOUS
 62
     5
 10
405.4866738646341
 20
-94.71467927437286
 30
0.0
 40
1.013410592499622
 50
271.7699438947443
 51
359.2587603794576
  0
ARC
  5
9D2
  8
DETAIL
  6
CONTINUOUS
 62
     5
 10
403.405187175289
 20
-91.64591640049338
 30
0.0
 40
0.2999974635936347
 50
269.9989231411788
 51
358.9985181774766
  0
ARC
  5
9D3
  8
DETAIL
  6
CONTINUOUS
 62
     5
 10
237.4999996521505
 20
169.1209844743627
 30
0.0
 40
7.501011492471342
 50
0.9409443148979185
 51
179.0590556851017
  0
ARC
  5
9D4
  8
DETAIL
  6
CONTINUOUS
 62
     5
 10
262.3649144601608
 20
169.5221674820298
 30
0.0
 40
7.202670526118134
 50
90.66081734434192
 51
178.5644249847803
  0
ARC
  5
9D5
  8
DETAIL
  6
CONTINUOUS
 62
     5
 10
268.5533823460746
 20
155.2230032216547
 30
0.0
 40
19.72109283228771
 50
46.85270921476073
 51
132.7586450779064
  0
ARC
  5
9D6
  8
DETAIL
  6
CONTINUOUS
 62
     5
 10
280.158976551002
 20
166.8621652614852
 30
0.0
 40
3.331303617922288
 50
2.839368740570658
 51
55.61844046834369
  0
ARC
  5
9D7
  8
DETAIL
  6
CONTINUOUS
 62
     5
 10
256.8768749674481
 20
166.8813688024424
 30
0.0
 40
3.300248968178226
 50
121.2558771571403
 51
177.467655560901
  0
ARC
  5
9D8
  8
DETAIL
  6
CONTINUOUS
 62
     5
 10
271.8807092590644
 20
166.4591244724927
 30
0.0
 40
1.991221105845656
 50
0.947712208942454
 51
90.25166294552042
  0
ARC
  5
9D9
  8
DETAIL
  6
CONTINUOUS
 62
     5
 10
265.2539508041621
 20
166.3962344396539
 30
0.0
 40
2.061797431191148
 50
91.66410384806382
 51
177.3361444879686
  0
ARC
  5
9DA
  8
DETAIL
  6
CONTINUOUS
 62
     5
 10
275.8703171377788
 20
147.4530905109146
 30
0.0
 40
3.791076171772621
 50
89.9439907230679
 51
135.0558140524201
  0
ARC
  5
9DB
  8
DETAIL
  6
CONTINUOUS
 62
     5
 10
292.6209515457026
 20
147.1905755713242
 30
0.0
 40
4.054949774804183
 50
46.48442891863346
 51
88.51576630587167
  0
ARC
  5
9DC
  8
DETAIL
  6
CONTINUOUS
 62
     5
 10
291.490359381677
 20
155.2197445295474
 30
0.0
 40
2.024480390317838
 50
2.665630435208045
 51
89.33503483402777
  0
ARC
  5
9DD
  8
DETAIL
  6
CONTINUOUS
 62
     5
 10
-262.5000003478493
 20
169.1209844743634
 30
0.0
 40
7.501011492471334
 50
0.9409443148924956
 51
179.0590556851071
  0
ARC
  5
9DE
  8
DETAIL
  6
CONTINUOUS
 62
     5
 10
-237.5000003478493
 20
169.1209844743634
 30
0.0
 40
7.501011492471334
 50
0.9409443148924956
 51
179.0590556851071
  0
ARC
  5
9DF
  8
DETAIL
  6
CONTINUOUS
 62
     5
 10
-344.4907642768531
 20
155.1462116717403
 30
0.0
 40
2.098710113717118
 50
91.61455375652939
 51
188.6536316495859
  0
ARC
  5
9E0
  8
DETAIL
  6
CONTINUOUS
 62
     5
 10
-392.4159537097348
 20
137.1601182332031
 30
0.0
 40
10.58438033496311
 50
90.45496931338336
 51
179.5450306866157
  0
ARC
  5
9E1
  8
DETAIL
  6
CONTINUOUS
 62
     5
 10
-383.8232460245857
 20
-130.1787298294675
 30
0.0
 40
19.18543606231491
 50
181.7237391099054
 51
259.1898698942235
  0
ARC
  5
9E2
  8
DETAIL
  6
CONTINUOUS
 62
     5
 10
240.2473970948399
 20
-171.3866966290722
 30
0.0
 40
10.24854569666868
 50
180.8576884148504
 51
257.1073694664794
  0
ARC
  5
9E3
  8
DETAIL
  6
CONTINUOUS
 62
     5
 10
259.740424783344
 20
-171.377124273868
 30
0.0
 40
10.26086934192022
 50
282.9135964632727
 51
359.0898842406637
  0
ARC
  5
9E4
  8
DETAIL
  6
CONTINUOUS
 62
     5
 10
249.9996201713065
 20
-143.748301420418
 30
0.0
 40
39.50753538735514
 50
252.258389972353
 51
287.733983364444
  0
ARC
  5
9E5
  8
DETAIL
  6
CONTINUOUS
 62
     5
 10
-250.0003798286933
 20
-143.748301420418
 30
0.0
 40
39.50753538735514
 50
252.258389972353
 51
287.733983364444
  0
ARC
  5
9E6
  8
DETAIL
  6
CONTINUOUS
 62
     5
 10
-240.2746194580903
 20
-171.3530088264192
 30
0.0
 40
10.28774115494605
 50
282.9652485717522
 51
348.2055125049067
  0
ARC
  5
9E7
  8
DETAIL
  6
CONTINUOUS
 62
     5
 10
-259.75260290516
 20
-171.3866966290722
 30
0.0
 40
10.24854569666852
 50
191.6478845668534
 51
257.107369466479
  0
ARC
  5
9E8
  8
DETAIL
  6
CONTINUOUS
 62
     5
 10
-402.1425454915396
 20
-86.2550898139218
 30
0.0
 40
5.657818410077021
 50
180.6603455610382
 51
224.3393928281155
  0
ARC
  5
9E9
  8
DETAIL
  6
CONTINUOUS
 62
     5
 10
-405.2410950760235
 20
-94.3267741229485
 30
0.0
 40
2.241159488075279
 50
0.4355674136004859
 51
44.56532224314684
  0
ARC
  5
9EA
  8
DETAIL
  6
CONTINUOUS
 62
     5
 10
-426.8713080808898
 20
-56.34449010074989
 30
0.0
 40
19.07324514743232
 50
1.780011637202806
 51
53.83167370380342
  0
ARC
  5
9EB
  8
DETAIL
  6
CONTINUOUS
 62
     5
 10
-410.998223328444
 20
-27.39469990052654
 30
0.0
 40
14.31703768115121
 50
182.6467320194176
 51
251.1875688953885
  0
ARC
  5
9EC
  8
DETAIL
  6
CONTINUOUS
 62
     5
 10
-426.6107709344796
 20
54.72518430353219
 30
0.0
 40
18.80261780816719
 50
302.0624331009067
 51
358.6802087564716
  0
ARC
  5
9ED
  8
DETAIL
  6
CONTINUOUS
 62
     5
 10
-411.7959165173223
 20
26.17578064744455
 30
0.0
 40
13.50909549165426
 50
110.9654263489602
 51
178.4373667132546
  0
LINE
  5
9EE
  8
SIZE
  6
CONTINUOUS
 62
    30
 10
-524.5000003478488
 20
-173.4558351286815
 30
0.0
 11
-765.539806306029
 21
-173.4558351286815
 31
0.0
  0
LINE
  5
9EF
  8
SIZE
  6
CONTINUOUS
 62
    30
 10
-524.5000003478493
 20
157.2440885773725
 30
0.0
 11
-765.539806306029
 21
157.2440885773726
 31
0.0
  0
LINE
  5
9F0
  8
SIZE
  6
CONTINUOUS
 62
    30
 10
-745.539806306029
 20
-163.4558351286815
 30
0.0
 11
-745.539806306029
 21
147.2440885773727
 31
0.0
  0
LINE
  5
9F1
  8
SIZE
  6
CONTINUOUS
 62
    30
 10
411.9999996521777
 20
148.7441648713181
 30
0.0
 11
728.5638406682847
 21
148.7441648713179
 31
0.0
  0
LINE
  5
9F2
  8
SIZE
  6
CONTINUOUS
 62
    30
 10
404.2999874451202
 20
-150.2558351286824
 30
0.0
 11
728.5638406682847
 21
-150.2558351286825
 31
0.0
  0
LINE
  5
9F3
  8
SIZE
  6
CONTINUOUS
 62
    30
 10
708.5638406682845
 20
138.7441648713179
 30
0.0
 11
708.5638406682845
 21
-140.2558351286825
 31
0.0
  0
LINE
  5
9F4
  8
SIZE
  6
CONTINUOUS
 62
    30
 10
-403.9999986346065
 20
-150.2558351286824
 30
0.0
 11
-659.4918347660366
 21
-150.2558351286824
 31
0.0
  0
LINE
  5
9F5
  8
SIZE
  6
CONTINUOUS
 62
    30
 10
-412.5000003478467
 20
148.7441648713179
 30
0.0
 11
-659.4918347660366
 21
148.7441648713179
 31
0.0
  0
LINE
  5
9F6
  8
SIZE
  6
CONTINUOUS
 62
    30
 10
-639.4918347660365
 20
-140.2558351286824
 30
0.0
 11
-639.4918347660365
 21
138.7441648713179
 31
0.0
  0
LINE
  5
9F7
  8
SIZE
  6
CONTINUOUS
 62
    30
 10
290.0
 20
164.2186734577254
 30
0.0
 11
895.6299443340522
 21
164.2186734577253
 31
0.0
  0
LINE
  5
9F8
  8
SIZE
  6
CONTINUOUS
 62
    30
 10
290.0
 20
-165.7558351316856
 30
0.0
 11
895.6299443340522
 21
-165.7558351316857
 31
0.0
  0
LINE
  5
9F9
  8
SIZE
  6
CONTINUOUS
 62
    30
 10
875.6299443340521
 20
154.2186734577254
 30
0.0
 11
875.6299443340521
 21
-155.7558351316857
 31
0.0
  0
LINE
  5
9FA
  8
SIZE
  6
CONTINUOUS
 62
    30
 10
257.4970241882843
 20
176.6219953766888
 30
0.0
 11
1026.605047812343
 21
176.6219953766884
 31
0.0
  0
LINE
  5
9FB
  8
SIZE
  6
CONTINUOUS
 62
    30
 10
270.0111385681675
 20
-183.2558351286824
 30
0.0
 11
1026.605047812343
 21
-183.2558351286826
 31
0.0
  0
LINE
  5
9FC
  8
SIZE
  6
CONTINUOUS
 62
    30
 10
1006.605047812342
 20
166.6219953766885
 30
0.0
 11
1006.605047812342
 21
-173.2558351286826
 31
0.0
  0
LINE
  5
9FD
  8
SIZE
  6
CONTINUOUS
 62
    30
 10
436.4555355408223
 20
-390.7819337526001
 30
0.0
 11
436.4555355408223
 21
-730.5080833820546
 31
0.0
  0
LINE
  5
9FE
  8
SIZE
  6
CONTINUOUS
 62
    30
 10
786.4555355408238
 20
-190.7819337526002
 30
0.0
 11
786.4555355408238
 21
-730.5080833820546
 31
0.0
  0
LINE
  5
9FF
  8
SIZE
  6
CONTINUOUS
 62
    30
 10
446.4555355408221
 20
-710.5080833820546
 30
0.0
 11
776.4555355408238
 21
-710.5080833820546
 31
0.0
  0
LINE
  5
A00
  8
SIZE
  6
CONTINUOUS
 62
    30
 10
292.7702429257768
 20
-165.7558351316856
 30
0.0
 11
895.6299443340524
 21
-165.7558351316857
 31
0.0
  0
LINE
  5
A01
  8
SIZE
  6
CONTINUOUS
 62
    30
 10
270.0111385681675
 20
-183.2558351286824
 30
0.0
 11
895.6299443340524
 21
-183.2558351286826
 31
0.0
  0
LINE
  5
A02
  8
SIZE
  6
CONTINUOUS
 62
    30
 10
875.6299443340527
 20
-155.7558351316857
 30
0.0
 11
875.6299443340527
 21
-145.7558351316857
 31
0.0
  0
LINE
  5
A03
  8
SIZE
  6
CONTINUOUS
 62
    30
 10
875.6299443340527
 20
-193.2558351286826
 30
0.0
 11
875.6299443340523
 21
-351.8272637001113
 31
0.0
  0
LINE
  5
A04
  8
SIZE
  6
CONTINUOUS
 62
    30
 10
875.6299443340527
 20
-165.7558351316857
 30
0.0
 11
875.6299443340527
 21
-183.2558351286826
 31
0.0
  0
LINE
  5
A05
  8
SIZE
  6
CONTINUOUS
 62
    30
 10
-404.500000347849
 20
-190.7819337526002
 30
0.0
 11
-404.500000347849
 21
-730.5080833820546
 31
0.0
  0
LINE
  5
A06
  8
SIZE
  6
CONTINUOUS
 62
    30
 10
-504.500000347849
 20
-190.7819337526002
 30
0.0
 11
-504.500000347849
 21
-730.5080833820546
 31
0.0
  0
LINE
  5
A07
  8
SIZE
  6
CONTINUOUS
 62
    30
 10
-414.5000003478489
 20
-710.5080833820546
 30
0.0
 11
-494.5000003478488
 21
-710.5080833820546
 31
0.0
  0
LINE
  5
A08
  8
SIZE
  6
CONTINUOUS
 62
    30
 10
-504.500000347849
 20
-710.5080833820546
 30
0.0
 11
-762.5000003478493
 21
-710.5080833820546
 31
0.0
  0
LINE
  5
A09
  8
SIZE
  6
CONTINUOUS
 62
    30
 10
-424.5000003478485
 20
-373.4558351286814
 30
0.0
 11
-765.5398063060296
 21
-373.4558351286812
 31
0.0
  0
LINE
  5
A0A
  8
SIZE
  6
CONTINUOUS
 62
    30
 10
-524.5000003478488
 20
-173.4558351286815
 30
0.0
 11
-765.5398063060295
 21
-173.4558351286815
 31
0.0
  0
LINE
  5
A0B
  8
SIZE
  6
CONTINUOUS
 62
    30
 10
-745.5398063060296
 20
-363.4558351286812
 30
0.0
 11
-745.5398063060295
 21
-183.4558351286815
 31
0.0
  0
LINE
  5
A0C
  8
SIZE
  6
CONTINUOUS
 62
    30
 10
-403.9999986346065
 20
-150.2558351286824
 30
0.0
 11
-659.4918347660367
 21
-150.2558351286824
 31
0.0
  0
LINE
  5
A0D
  8
SIZE
  6
CONTINUOUS
 62
    30
 10
-424.5000003478485
 20
-173.4558351286815
 30
0.0
 11
-659.4918347660367
 21
-173.4558351286815
 31
0.0
  0
LINE
  5
A0E
  8
SIZE
  6
CONTINUOUS
 62
    30
 10
-639.4918347660367
 20
-140.2558351286824
 30
0.0
 11
-639.4918347660367
 21
-130.2558351286824
 31
0.0
  0
LINE
  5
A0F
  8
SIZE
  6
CONTINUOUS
 62
    30
 10
-639.4918347660367
 20
-183.4558351286815
 30
0.0
 11
-639.4918347660367
 21
-350.5986922715385
 31
0.0
  0
LINE
  5
A10
  8
SIZE
  6
CONTINUOUS
 62
    30
 10
-639.4918347660367
 20
-150.2558351286824
 30
0.0
 11
-639.4918347660367
 21
-173.4558351286815
 31
0.0
  0
LINE
  5
A11
  8
SIZE
  6
CONTINUOUS
 62
    30
 10
-404.500000347849
 20
-190.7819337526002
 30
0.0
 11
-404.500000347849
 21
-629.1359774035128
 31
0.0
  0
LINE
  5
A12
  8
SIZE
  6
CONTINUOUS
 62
    30
 10
404.4999891865518
 20
-134.5451875456744
 30
0.0
 11
404.4999891865518
 21
-629.1359774035128
 31
0.0
  0
LINE
  5
A13
  8
SIZE
  6
CONTINUOUS
 62
    30
 10
-394.5000003478488
 20
-609.1359774035126
 30
0.0
 11
394.4999891865516
 21
-609.1359774035126
 31
0.0
  0
LINE
  5
A14
  8
SIZE
  6
CONTINUOUS
 62
    30
 10
-404.5000003478483
 20
-390.7819337526001
 30
0.0
 11
-404.5000003478483
 21
-730.5080833820546
 31
0.0
  0
LINE
  5
A15
  8
SIZE
  6
CONTINUOUS
 62
    30
 10
436.4555355408223
 20
-390.7819337526001
 30
0.0
 11
436.4555355408223
 21
-730.5080833820546
 31
0.0
  0
LINE
  5
A16
  8
SIZE
  6
CONTINUOUS
 62
    30
 10
-394.5000003478485
 20
-710.5080833820546
 30
0.0
 11
426.4555355408224
 21
-710.5080833820546
 31
0.0
  0
LINE
  5
A17
  8
SIZE
  6
CONTINUOUS
 62
    30
 10
-94.45407035118843
 20
-215.471653928037
 30
0.0
 11
-94.45407035118843
 21
-310.6781351898779
 31
0.0
  0
LINE
  5
A18
  8
SIZE
  6
CONTINUOUS
 62
    30
 10
-404.500000347849
 20
-190.7819337526002
 30
0.0
 11
-404.500000347849
 21
-310.6781351898779
 31
0.0
  0
LINE
  5
A19
  8
SIZE
  6
CONTINUOUS
 62
    30
 10
-104.4540703511884
 20
-290.6781351898779
 30
0.0
 11
-394.5000003478488
 21
-290.6781351898779
 31
0.0
  0
LINE
  5
A1A
  8
SIZE
  6
CONTINUOUS
 62
    30
 10
-404.500000347849
 20
-190.7819337526002
 30
0.0
 11
-404.500000347849
 21
-504.8227898680443
 31
0.0
  0
LINE
  5
A1B
  8
SIZE
  6
CONTINUOUS
 62
    30
 10
-0.0000000000000012
 20
-208.6378957901379
 30
0.0
 11
-0.0000000000000194
 21
-504.8227898680443
 31
0.0
  0
LINE
  5
A1C
  8
SIZE
  6
CONTINUOUS
 62
    30
 10
-394.5000003478488
 20
-484.8227898680443
 30
0.0
 11
-10.0
 21
-484.8227898680443
 31
0.0
  0
LINE
  5
A1D
  8
SIZE
  6
CONTINUOUS
 62
    30
 10
404.4999891865518
 20
-134.5451875456744
 30
0.0
 11
404.4999891865518
 21
-629.1359774035128
 31
0.0
  0
LINE
  5
A1E
  8
SIZE
  6
CONTINUOUS
 62
    30
 10
436.4555355408223
 20
-390.7819337526001
 30
0.0
 11
436.4555355408223
 21
-629.1359774035128
 31
0.0
  0
LINE
  5
A1F
  8
SIZE
  6
CONTINUOUS
 62
    30
 10
394.4999891865516
 20
-609.1359774035126
 30
0.0
 11
384.4999891865516
 21
-609.1359774035126
 31
0.0
  0
LINE
  5
A20
  8
SIZE
  6
CONTINUOUS
 62
    30
 10
446.4555355408221
 20
-609.1359774035126
 30
0.0
 11
549.3126783979653
 21
-609.1359774035126
 31
0.0
  0
LINE
  5
A21
  8
SIZE
  6
CONTINUOUS
 62
    30
 10
404.4999891865518
 20
-609.1359774035126
 30
0.0
 11
436.4555355408223
 21
-609.1359774035126
 31
0.0
  0
LINE
  5
A22
  8
SIZE
  6
CONTINUOUS
 62
    30
 10
404.2999874451202
 20
-150.2558351286824
 30
0.0
 11
728.563840668285
 21
-150.2558351286825
 31
0.0
  0
LINE
  5
A23
  8
SIZE
  6
CONTINUOUS
 62
    30
 10
292.7702429257768
 20
-165.7558351316856
 30
0.0
 11
728.563840668285
 21
-165.7558351316857
 31
0.0
  0
LINE
  5
A24
  8
SIZE
  6
CONTINUOUS
 62
    30
 10
708.563840668285
 20
-140.2558351286825
 30
0.0
 11
708.563840668285
 21
-130.2558351286825
 31
0.0
  0
LINE
  5
A25
  8
SIZE
  6
CONTINUOUS
 62
    30
 10
708.563840668285
 20
-175.7558351316857
 30
0.0
 11
708.563840668285
 21
-334.3272637031143
 31
0.0
  0
LINE
  5
A26
  8
SIZE
  6
CONTINUOUS
 62
    30
 10
708.563840668285
 20
-150.2558351286825
 30
0.0
 11
708.563840668285
 21
-165.7558351316857
 31
0.0
  0
LINE
  5
A27
  8
SIZE
  6
CONTINUOUS
 62
    30
 10
-412.5000003478467
 20
148.7441648713179
 30
0.0
 11
-659.4918347660366
 21
148.7441648713179
 31
0.0
  0
LINE
  5
A28
  8
SIZE
  6
CONTINUOUS
 62
    30
 10
-424.5000003478471
 20
157.2440885773725
 30
0.0
 11
-659.4918347660366
 21
157.2440885773726
 31
0.0
  0
LINE
  5
A29
  8
SIZE
  6
CONTINUOUS
 62
    30
 10
-639.4918347660365
 20
138.7441648713179
 30
0.0
 11
-639.4918347660365
 21
128.7441648713179
 31
0.0
  0
LINE
  5
A2A
  8
SIZE
  6
CONTINUOUS
 62
    30
 10
-639.4918347660365
 20
167.2440885773727
 30
0.0
 11
-639.4918347660365
 21
291.529802863087
 31
0.0
  0
LINE
  5
A2B
  8
SIZE
  6
CONTINUOUS
 62
    30
 10
-639.4918347660365
 20
148.7441648713179
 30
0.0
 11
-639.4918347660365
 21
157.2440885773726
 31
0.0
  0
LINE
  5
A2C
  8
SIZE
  6
CONTINUOUS
 62
    30
 10
-424.5000003478471
 20
157.2440885773725
 30
0.0
 11
-765.5398063060292
 21
157.2440885773726
 31
0.0
  0
LINE
  5
A2D
  8
SIZE
  6
CONTINUOUS
 62
    30
 10
-424.5000003478486
 20
257.2440885773724
 30
0.0
 11
-765.539806306029
 21
257.2440885773724
 31
0.0
  0
LINE
  5
A2E
  8
SIZE
  6
CONTINUOUS
 62
    30
 10
-745.539806306029
 20
167.2440885773727
 30
0.0
 11
-745.539806306029
 21
247.2440885773724
 31
0.0
  0
LINE
  5
A2F
  8
SIZE
  6
CONTINUOUS
 62
    30
 10
-745.539806306029
 20
257.2440885773724
 30
0.0
 11
-745.539806306029
 21
515.2440885773725
 31
0.0
  0
LINE
  5
A30
  8
SIZE
  6
CONTINUOUS
 62
    30
 10
-250.0
 20
204.3186734577257
 30
0.0
 11
-250.0
 21
371.5948909567824
 31
0.0
  0
LINE
  5
A31
  8
SIZE
  6
CONTINUOUS
 62
    30
 10
250.0
 20
204.3186734577257
 30
0.0
 11
250.0
 21
371.5948909567824
 31
0.0
  0
LINE
  5
A32
  8
SIZE
  6
CONTINUOUS
 62
    30
 10
-240.0
 20
351.5948909567823
 30
0.0
 11
240.0
 21
351.5948909567823
 31
0.0
  0
LINE
  5
A33
  8
SIZE
  6
CONTINUOUS
 62
    30
 10
-404.500000347849
 20
177.2440885773724
 30
0.0
 11
-404.500000347849
 21
371.5948909567824
 31
0.0
  0
LINE
  5
A34
  8
SIZE
  6
CONTINUOUS
 62
    30
 10
-250.0
 20
204.3186734577257
 30
0.0
 11
-250.0
 21
371.5948909567824
 31
0.0
  0
LINE
  5
A35
  8
SIZE
  6
CONTINUOUS
 62
    30
 10
-394.5000003478488
 20
351.5948909567823
 30
0.0
 11
-260.0
 21
351.5948909567823
 31
0.0
  0
LINE
  5
A36
  8
SIZE
  6
CONTINUOUS
 62
    30
 10
-326.7781375548796
 20
148.7441648713179
 30
0.0
 11
-92.68905009095396
 21
148.7441648713178
 31
0.0
  0
LINE
  5
A37
  8
SIZE
  6
CONTINUOUS
 62
    30
 10
-43.10001302728051
 20
100.7441648713179
 30
0.0
 11
-132.6890500909539
 21
100.7441648713179
 31
0.0
  0
LINE
  5
A38
  8
SIZE
  6
CONTINUOUS
 62
    30
 10
-112.6890500909538
 20
138.7441648713178
 30
0.0
 11
-112.6890500909538
 21
110.7441648713178
 31
0.0
  0
LINE
  5
A39
  8
SIZE
  6
CONTINUOUS
 62
    30
 10
-112.6890500909538
 20
100.7441648713179
 30
0.0
 11
-112.689050090954
 21
-2.112977985824843
 31
0.0
  0
LINE
  5
A3A
  8
SIZE
  6
CONTINUOUS
 62
    30
 10
404.4999891865518
 20
156.8264402619444
 30
0.0
 11
404.4999891865518
 21
329.6766364250533
 31
0.0
  0
LINE
  5
A3B
  8
SIZE
  6
CONTINUOUS
 62
    30
 10
431.4999891947654
 20
44.24416487219039
 30
0.0
 11
431.4999891947654
 21
329.6766364250533
 31
0.0
  0
LINE
  5
A3C
  8
SIZE
  6
CONTINUOUS
 62
    30
 10
394.4999891865519
 20
309.6766364250532
 30
0.0
 11
384.4999891865518
 21
309.6766364250532
 31
0.0
  0
LINE
  5
A3D
  8
SIZE
  6
CONTINUOUS
 62
    30
 10
441.4999891947655
 20
309.6766364250532
 30
0.0
 11
544.3571320519083
 21
309.6766364250532
 31
0.0
  0
LINE
  5
A3E
  8
SIZE
  6
CONTINUOUS
 62
    30
 10
404.4999891865518
 20
309.6766364250532
 30
0.0
 11
431.4999891947654
 21
309.6766364250532
 31
0.0
  0
LINE
  5
A3F
  8
SIZE
  6
CONTINUOUS
 62
    30
 10
404.4999891865518
 20
156.8264402619444
 30
0.0
 11
404.4999891865518
 21
406.8940891294142
 31
0.0
  0
LINE
  5
A40
  8
SIZE
  6
CONTINUOUS
 62
    30
 10
433.4999895949095
 20
26.84416485843556
 30
0.0
 11
433.4999895949095
 21
406.8940891294142
 31
0.0
  0
LINE
  5
A41
  8
SIZE
  6
CONTINUOUS
 62
    30
 10
394.4999891865519
 20
386.8940891294142
 30
0.0
 11
384.4999891865518
 21
386.8940891294142
 31
0.0
  0
LINE
  5
A42
  8
SIZE
  6
CONTINUOUS
 62
    30
 10
443.4999895949093
 20
386.8940891294142
 30
0.0
 11
544.214275309195
 21
386.8940891294142
 31
0.0
  0
LINE
  5
A43
  8
SIZE
  6
CONTINUOUS
 62
    30
 10
404.4999891865518
 20
386.8940891294142
 30
0.0
 11
433.4999895949095
 21
386.8940891294142
 31
0.0
  0
LINE
  5
A44
  8
SIZE
  6
CONTINUOUS
 62
    30
 10
411.9999996521777
 20
148.7441648713181
 30
0.0
 11
728.563840668285
 21
148.7441648713179
 31
0.0
  0
LINE
  5
A45
  8
SIZE
  6
CONTINUOUS
 62
    30
 10
290.0
 20
164.2186734577254
 30
0.0
 11
728.563840668285
 21
164.2186734577253
 31
0.0
  0
LINE
  5
A46
  8
SIZE
  6
CONTINUOUS
 62
    30
 10
708.563840668285
 20
138.7441648713179
 30
0.0
 11
708.563840668285
 21
128.7441648713179
 31
0.0
  0
LINE
  5
A47
  8
SIZE
  6
CONTINUOUS
 62
    30
 10
708.563840668285
 20
174.2186734577253
 30
0.0
 11
708.5638406682853
 21
332.790102029154
 31
0.0
  0
LINE
  5
A48
  8
SIZE
  6
CONTINUOUS
 62
    30
 10
708.563840668285
 20
148.7441648713179
 30
0.0
 11
708.563840668285
 21
164.2186734577253
 31
0.0
  0
LINE
  5
A49
  8
SIZE
  6
CONTINUOUS
 62
    30
 10
411.9999996521777
 20
148.7441648713181
 30
0.0
 11
570.0885805609996
 21
148.7441648713181
 31
0.0
  0
LINE
  5
A4A
  8
SIZE
  6
CONTINUOUS
 62
    30
 10
471.4999891947655
 20
4.244164872190617
 30
0.0
 11
570.0885805609996
 21
4.244164872190588
 31
0.0
  0
LINE
  5
A4B
  8
SIZE
  6
CONTINUOUS
 62
    30
 10
550.0885805609994
 20
138.744164871318
 30
0.0
 11
550.0885805609994
 21
14.24416487219059
 31
0.0
  0
LINE
  5
A4C
  8
SIZE
  6
CONTINUOUS
 62
    30
 10
473.4999895949091
 20
-13.1558351415642
 30
0.0
 11
644.5468250017237
 21
-13.15583514156426
 31
0.0
  0
LINE
  5
A4D
  8
SIZE
  6
CONTINUOUS
 62
    30
 10
411.9999996521483
 20
148.7441648713188
 30
0.0
 11
644.5468250017237
 21
148.7441648713187
 31
0.0
  0
LINE
  5
A4E
  8
SIZE
  6
CONTINUOUS
 62
    30
 10
624.5468250017237
 20
-3.155835141564258
 30
0.0
 11
624.5468250017237
 21
138.7441648713186
 31
0.0
  0
TEXT
  5
A4F
  8
SIZE
  6
CONTINUOUS
 62
    30
 10
-752.5000003478488
 20
-701.2762596905941
 30
0.0
 40
43.32958677685951
  1
100以上
 41
0.9
  0
TEXT
  5
A50
  8
SIZE
  6
CONTINUOUS
 62
    30
 10
-648.7236584574968
 20
-340.5986922715385
 30
0.0
 40
43.32958677685951
  1
23.2
 50
90.0
 41
0.9
  0
TEXT
  5
A51
  8
SIZE
  6
CONTINUOUS
 62
    30
 10
-754.7716299974898
 20
-391.7415494143958
 30
0.0
 40
43.32958677685951
  1
500以上
 50
90.0
 41
0.9
  0
CIRCLE
  5
A52
  8
SIZE
  6
CONTINUOUS
 62
    30
 10
-745.5398063060296
 20
-373.4558351286812
 30
0.0
 40
5.0
  0
LINE
  5
A53
  8
SIZE
  6
CONTINUOUS
 62
    30
 10
-745.5398063060296
 20
-373.4558351286812
 30
0.0
 11
-745.5398063060296
 21
-363.4558351286812
 31
0.0
  0
CIRCLE
  5
A54
  8
SIZE
  6
CONTINUOUS
 62
    30
 10
-745.5398063060295
 20
-173.4558351286815
 30
0.0
 40
5.0
  0
LINE
  5
A55
  8
SIZE
  6
CONTINUOUS
 62
    30
 10
-745.5398063060295
 20
-173.4558351286815
 30
0.0
 11
-745.5398063060295
 21
-183.4558351286815
 31
0.0
  0
CIRCLE
  5
A56
  8
SIZE
  6
CONTINUOUS
 62
    30
 10
-745.539806306029
 20
-173.4558351286815
 30
0.0
 40
5.0
  0
LINE
  5
A57
  8
SIZE
  6
CONTINUOUS
 62
    30
 10
-745.539806306029
 20
-173.4558351286815
 30
0.0
 11
-745.539806306029
 21
-163.4558351286815
 31
0.0
  0
CIRCLE
  5
A58
  8
SIZE
  6
CONTINUOUS
 62
    30
 10
-639.4918347660367
 20
-173.4558351286815
 30
0.0
 40
5.0
  0
LINE
  5
A59
  8
SIZE
  6
CONTINUOUS
 62
    30
 10
-639.4918347660367
 20
-173.4558351286815
 30
0.0
 11
-639.4918347660367
 21
-183.4558351286815
 31
0.0
  0
CIRCLE
  5
A5A
  8
SIZE
  6
CONTINUOUS
 62
    30
 10
-639.4918347660367
 20
-150.2558351286824
 30
0.0
 40
5.0
  0
LINE
  5
A5B
  8
SIZE
  6
CONTINUOUS
 62
    30
 10
-639.4918347660367
 20
-150.2558351286824
 30
0.0
 11
-639.4918347660367
 21
-140.2558351286824
 31
0.0
  0
CIRCLE
  5
A5C
  8
SIZE
  6
CONTINUOUS
 62
    30
 10
-639.4918347660365
 20
-150.2558351286824
 30
0.0
 40
5.0
  0
LINE
  5
A5D
  8
SIZE
  6
CONTINUOUS
 62
    30
 10
-639.4918347660365
 20
-150.2558351286824
 30
0.0
 11
-639.4918347660365
 21
-140.2558351286824
 31
0.0
  0
TEXT
  5
A5E
  8
SIZE
  6
CONTINUOUS
 62
    30
 10
-56.78571986636288
 20
-599.9041537120528
 30
0.0
 40
43.32958677685951
  1
809
 41
0.9
  0
CIRCLE
  5
A5F
  8
SIZE
  6
CONTINUOUS
 62
    30
 10
-504.500000347849
 20
-710.5080833820546
 30
0.0
 40
5.0
  0
LINE
  5
A60
  8
SIZE
  6
CONTINUOUS
 62
    30
 10
-504.500000347849
 20
-710.5080833820546
 30
0.0
 11
-494.5000003478488
 21
-710.5080833820546
 31
0.0
  0
CIRCLE
  5
A61
  8
SIZE
  6
CONTINUOUS
 62
    30
 10
-404.5000003478483
 20
-710.5080833820546
 30
0.0
 40
5.0
  0
LINE
  5
A62
  8
SIZE
  6
CONTINUOUS
 62
    30
 10
-404.5000003478483
 20
-710.5080833820546
 30
0.0
 11
-394.5000003478485
 21
-710.5080833820546
 31
0.0
  0
CIRCLE
  5
A63
  8
SIZE
  6
CONTINUOUS
 62
    30
 10
-404.500000347849
 20
-710.5080833820546
 30
0.0
 40
5.0
  0
LINE
  5
A64
  8
SIZE
  6
CONTINUOUS
 62
    30
 10
-404.500000347849
 20
-710.5080833820546
 30
0.0
 11
-414.5000003478489
 21
-710.5080833820546
 31
0.0
  0
CIRCLE
  5
A65
  8
SIZE
  6
CONTINUOUS
 62
    30
 10
-404.500000347849
 20
-609.1359774035126
 30
0.0
 40
5.0
  0
LINE
  5
A66
  8
SIZE
  6
CONTINUOUS
 62
    30
 10
-404.500000347849
 20
-609.1359774035126
 30
0.0
 11
-394.5000003478488
 21
-609.1359774035126
 31
0.0
  0
TEXT
  5
A67
  8
SIZE
  6
CONTINUOUS
 62
    30
 10
-32.23651811779877
 20
-701.2762596905941
 30
0.0
 40
43.32958677685951
  1
841
 41
0.9
  0
TEXT
  5
A68
  8
SIZE
  6
CONTINUOUS
 62
    30
 10
-292.2500001739243
 20
-475.5909661765839
 30
0.0
 40
43.32958677685951
  1
404.5
 41
0.9
  0
TEXT
  5
A69
  8
SIZE
  6
CONTINUOUS
 62
    30
 10
-303.0484639209471
 20
-281.446311498418
 30
0.0
 40
43.32958677685951
  1
310
 41
0.9
  0
CIRCLE
  5
A6A
  8
SIZE
  6
CONTINUOUS
 62
    30
 10
-404.500000347849
 20
-484.8227898680443
 30
0.0
 40
5.0
  0
LINE
  5
A6B
  8
SIZE
  6
CONTINUOUS
 62
    30
 10
-404.500000347849
 20
-484.8227898680443
 30
0.0
 11
-394.5000003478488
 21
-484.8227898680443
 31
0.0
  0
CIRCLE
  5
A6C
  8
SIZE
  6
CONTINUOUS
 62
    30
 10
-404.500000347849
 20
-290.6781351898779
 30
0.0
 40
5.0
  0
LINE
  5
A6D
  8
SIZE
  6
CONTINUOUS
 62
    30
 10
-404.500000347849
 20
-290.6781351898779
 30
0.0
 11
-394.5000003478488
 21
-290.6781351898779
 31
0.0
  0
CIRCLE
  5
A6E
  8
SIZE
  6
CONTINUOUS
 62
    30
 10
-0.0000000000000181
 20
-484.8227898680443
 30
0.0
 40
5.0
  0
LINE
  5
A6F
  8
SIZE
  6
CONTINUOUS
 62
    30
 10
-0.0000000000000181
 20
-484.8227898680443
 30
0.0
 11
-10.0
 21
-484.8227898680443
 31
0.0
  0
CIRCLE
  5
A70
  8
SIZE
  6
CONTINUOUS
 62
    30
 10
-94.45407035118843
 20
-290.6781351898779
 30
0.0
 40
5.0
  0
LINE
  5
A71
  8
SIZE
  6
CONTINUOUS
 62
    30
 10
-94.45407035118843
 20
-290.6781351898779
 30
0.0
 11
-104.4540703511884
 21
-290.6781351898779
 31
0.0
  0
TEXT
  5
A72
  8
SIZE
  6
CONTINUOUS
 62
    30
 10
466.4555355408221
 20
-599.9041537120528
 30
0.0
 40
43.32958677685951
  1
32
 41
0.9
  0
CIRCLE
  5
A73
  8
SIZE
  6
CONTINUOUS
 62
    30
 10
436.4555355408223
 20
-609.1359774035126
 30
0.0
 40
5.0
  0
LINE
  5
A74
  8
SIZE
  6
CONTINUOUS
 62
    30
 10
436.4555355408223
 20
-609.1359774035126
 30
0.0
 11
446.4555355408221
 21
-609.1359774035126
 31
0.0
  0
CIRCLE
  5
A75
  8
SIZE
  6
CONTINUOUS
 62
    30
 10
436.4555355408223
 20
-710.5080833820546
 30
0.0
 40
5.0
  0
LINE
  5
A76
  8
SIZE
  6
CONTINUOUS
 62
    30
 10
436.4555355408223
 20
-710.5080833820546
 30
0.0
 11
426.4555355408224
 21
-710.5080833820546
 31
0.0
  0
CIRCLE
  5
A77
  8
SIZE
  6
CONTINUOUS
 62
    30
 10
436.4555355408223
 20
-710.5080833820546
 30
0.0
 40
5.0
  0
LINE
  5
A78
  8
SIZE
  6
CONTINUOUS
 62
    30
 10
436.4555355408223
 20
-710.5080833820546
 30
0.0
 11
446.4555355408221
 21
-710.5080833820546
 31
0.0
  0
CIRCLE
  5
A79
  8
SIZE
  6
CONTINUOUS
 62
    30
 10
404.4999891865518
 20
-609.1359774035126
 30
0.0
 40
5.0
  0
LINE
  5
A7A
  8
SIZE
  6
CONTINUOUS
 62
    30
 10
404.4999891865518
 20
-609.1359774035126
 30
0.0
 11
394.4999891865516
 21
-609.1359774035126
 31
0.0
  0
CIRCLE
  5
A7B
  8
SIZE
  6
CONTINUOUS
 62
    30
 10
404.4999891865518
 20
-609.1359774035126
 30
0.0
 40
5.0
  0
LINE
  5
A7C
  8
SIZE
  6
CONTINUOUS
 62
    30
 10
404.4999891865518
 20
-609.1359774035126
 30
0.0
 11
394.4999891865516
 21
-609.1359774035126
 31
0.0
  0
TEXT
  5
A7D
  8
SIZE
  6
CONTINUOUS
 62
    30
 10
493.1698212551087
 20
-701.2762596905941
 30
0.0
 40
43.32958677685951
  1
350以上
 41
0.9
  0
TEXT
  5
A7E
  8
SIZE
  6
CONTINUOUS
 62
    30
 10
699.3320169768249
 20
-324.3272637031141
 30
0.0
 40
43.32958677685951
  1
15
 50
90.0
 41
0.9
  0
CIRCLE
  5
A7F
  8
SIZE
  6
CONTINUOUS
 62
    30
 10
708.563840668285
 20
-165.7558351316857
 30
0.0
 40
5.0
  0
LINE
  5
A80
  8
SIZE
  6
CONTINUOUS
 62
    30
 10
708.563840668285
 20
-165.7558351316857
 30
0.0
 11
708.563840668285
 21
-175.7558351316857
 31
0.0
  0
CIRCLE
  5
A81
  8
SIZE
  6
CONTINUOUS
 62
    30
 10
708.563840668285
 20
-150.2558351286825
 30
0.0
 40
5.0
  0
LINE
  5
A82
  8
SIZE
  6
CONTINUOUS
 62
    30
 10
708.563840668285
 20
-150.2558351286825
 30
0.0
 11
708.563840668285
 21
-140.2558351286825
 31
0.0
  0
CIRCLE
  5
A83
  8
SIZE
  6
CONTINUOUS
 62
    30
 10
708.5638406682845
 20
-150.2558351286825
 30
0.0
 40
5.0
  0
LINE
  5
A84
  8
SIZE
  6
CONTINUOUS
 62
    30
 10
708.5638406682845
 20
-150.2558351286825
 30
0.0
 11
708.5638406682845
 21
-140.2558351286825
 31
0.0
  0
CIRCLE
  5
A85
  8
SIZE
  6
CONTINUOUS
 62
    30
 10
786.4555355408238
 20
-710.5080833820546
 30
0.0
 40
5.0
  0
LINE
  5
A86
  8
SIZE
  6
CONTINUOUS
 62
    30
 10
786.4555355408238
 20
-710.5080833820546
 30
0.0
 11
776.4555355408238
 21
-710.5080833820546
 31
0.0
  0
TEXT
  5
A87
  8
SIZE
  6
CONTINUOUS
 62
    30
 10
866.3981206425926
 20
-341.8272637001112
 30
0.0
 40
43.32958677685951
  1
17.5
 50
90.0
 41
0.9
  0
CIRCLE
  5
A88
  8
SIZE
  6
CONTINUOUS
 62
    30
 10
875.6299443340527
 20
-183.2558351286826
 30
0.0
 40
5.0
  0
LINE
  5
A89
  8
SIZE
  6
CONTINUOUS
 62
    30
 10
875.6299443340527
 20
-183.2558351286826
 30
0.0
 11
875.6299443340527
 21
-193.2558351286826
 31
0.0
  0
CIRCLE
  5
A8A
  8
SIZE
  6
CONTINUOUS
 62
    30
 10
875.6299443340527
 20
-165.7558351316857
 30
0.0
 40
5.0
  0
LINE
  5
A8B
  8
SIZE
  6
CONTINUOUS
 62
    30
 10
875.6299443340527
 20
-165.7558351316857
 30
0.0
 11
875.6299443340527
 21
-155.7558351316857
 31
0.0
  0
CIRCLE
  5
A8C
  8
SIZE
  6
CONTINUOUS
 62
    30
 10
875.6299443340521
 20
-165.7558351316857
 30
0.0
 40
5.0
  0
LINE
  5
A8D
  8
SIZE
  6
CONTINUOUS
 62
    30
 10
875.6299443340521
 20
-165.7558351316857
 30
0.0
 11
875.6299443340521
 21
-155.7558351316857
 31
0.0
  0
CIRCLE
  5
A8E
  8
SIZE
  6
CONTINUOUS
 62
    30
 10
1006.605047812342
 20
-183.2558351286826
 30
0.0
 40
5.0
  0
LINE
  5
A8F
  8
SIZE
  6
CONTINUOUS
 62
    30
 10
1006.605047812342
 20
-183.2558351286826
 30
0.0
 11
1006.605047812342
 21
-173.2558351286826
 31
0.0
  0
TEXT
  5
A90
  8
SIZE
  6
CONTINUOUS
 62
    30
 10
-754.7716299974892
 20
277.2440885773724
 30
0.0
 40
43.32958677685951
  1
100以上
 50
90.0
 41
0.9
  0
TEXT
  5
A91
  8
SIZE
  6
CONTINUOUS
 62
    30
 10
-753.9134080460644
 20
-52.22080674321657
 30
0.0
 40
43.32958677685951
  1
330
 50
90.0
 41
0.9
  0
TEXT
  5
A92
  8
SIZE
  6
CONTINUOUS
 62
    30
 10
-648.7236584574966
 20
-57.54154941439661
 30
0.0
 40
43.32958677685951
  1
300
 50
90.0
 41
0.9
  0
CIRCLE
  5
A93
  8
SIZE
  6
CONTINUOUS
 62
    30
 10
-745.539806306029
 20
257.2440885773724
 30
0.0
 40
5.0
  0
LINE
  5
A94
  8
SIZE
  6
CONTINUOUS
 62
    30
 10
-745.539806306029
 20
257.2440885773724
 30
0.0
 11
-745.539806306029
 21
247.2440885773724
 31
0.0
  0
TEXT
  5
A95
  8
SIZE
  6
CONTINUOUS
 62
    30
 10
-648.7236584574968
 20
187.2440885773725
 30
0.0
 40
43.32958677685951
  1
8.5
 50
90.0
 41
0.9
  0
CIRCLE
  5
A96
  8
SIZE
  6
CONTINUOUS
 62
    30
 10
-745.539806306029
 20
157.2440885773726
 30
0.0
 40
5.0
  0
LINE
  5
A97
  8
SIZE
  6
CONTINUOUS
 62
    30
 10
-745.539806306029
 20
157.2440885773726
 30
0.0
 11
-745.539806306029
 21
167.2440885773727
 31
0.0
  0
CIRCLE
  5
A98
  8
SIZE
  6
CONTINUOUS
 62
    30
 10
-745.539806306029
 20
157.2440885773726
 30
0.0
 40
5.0
  0
LINE
  5
A99
  8
SIZE
  6
CONTINUOUS
 62
    30
 10
-745.539806306029
 20
157.2440885773726
 30
0.0
 11
-745.539806306029
 21
147.2440885773727
 31
0.0
  0
CIRCLE
  5
A9A
  8
SIZE
  6
CONTINUOUS
 62
    30
 10
-639.4918347660365
 20
157.2440885773726
 30
0.0
 40
5.0
  0
LINE
  5
A9B
  8
SIZE
  6
CONTINUOUS
 62
    30
 10
-639.4918347660365
 20
157.2440885773726
 30
0.0
 11
-639.4918347660365
 21
167.2440885773727
 31
0.0
  0
CIRCLE
  5
A9C
  8
SIZE
  6
CONTINUOUS
 62
    30
 10
-639.4918347660365
 20
148.7441648713179
 30
0.0
 40
5.0
  0
LINE
  5
A9D
  8
SIZE
  6
CONTINUOUS
 62
    30
 10
-639.4918347660365
 20
148.7441648713179
 30
0.0
 11
-639.4918347660365
 21
138.7441648713179
 31
0.0
  0
CIRCLE
  5
A9E
  8
SIZE
  6
CONTINUOUS
 62
    30
 10
-639.4918347660365
 20
148.7441648713179
 30
0.0
 40
5.0
  0
LINE
  5
A9F
  8
SIZE
  6
CONTINUOUS
 62
    30
 10
-639.4918347660365
 20
148.7441648713179
 30
0.0
 11
-639.4918347660365
 21
138.7441648713179
 31
0.0
  0
TEXT
  5
AA0
  8
SIZE
  6
CONTINUOUS
 62
    30
 10
-412.9642858882101
 20
360.8267146482423
 30
0.0
 40
43.32958677685951
  1
154.5
 41
0.9
  0
TEXT
  5
AA1
  8
SIZE
  6
CONTINUOUS
 62
    30
 10
-57.85714285714284
 20
360.8267146482423
 30
0.0
 40
43.32958677685951
  1
500
 41
0.9
  0
CIRCLE
  5
AA2
  8
SIZE
  6
CONTINUOUS
 62
    30
 10
-250.0
 20
351.5948909567823
 30
0.0
 40
5.0
  0
LINE
  5
AA3
  8
SIZE
  6
CONTINUOUS
 62
    30
 10
-250.0
 20
351.5948909567823
 30
0.0
 11
-260.0
 21
351.5948909567823
 31
0.0
  0
CIRCLE
  5
AA4
  8
SIZE
  6
CONTINUOUS
 62
    30
 10
-404.500000347849
 20
351.5948909567823
 30
0.0
 40
5.0
  0
LINE
  5
AA5
  8
SIZE
  6
CONTINUOUS
 62
    30
 10
-404.500000347849
 20
351.5948909567823
 30
0.0
 11
-394.5000003478488
 21
351.5948909567823
 31
0.0
  0
TEXT
  5
AA6
  8
SIZE
  6
CONTINUOUS
 62
    30
 10
-121.920873782414
 20
7.887022014175129
 30
0.0
 40
43.32958677685951
  1
48
 50
90.0
 41
0.9
  0
CIRCLE
  5
AA7
  8
SIZE
  6
CONTINUOUS
 62
    30
 10
-112.6890500909538
 20
100.7441648713179
 30
0.0
 40
5.0
  0
LINE
  5
AA8
  8
SIZE
  6
CONTINUOUS
 62
    30
 10
-112.6890500909538
 20
100.7441648713179
 30
0.0
 11
-112.6890500909538
 21
110.7441648713178
 31
0.0
  0
CIRCLE
  5
AA9
  8
SIZE
  6
CONTINUOUS
 62
    30
 10
-112.6890500909538
 20
148.7441648713178
 30
0.0
 40
5.0
  0
LINE
  5
AAA
  8
SIZE
  6
CONTINUOUS
 62
    30
 10
-112.6890500909538
 20
148.7441648713178
 30
0.0
 11
-112.6890500909538
 21
138.7441648713178
 31
0.0
  0
CIRCLE
  5
AAB
  8
SIZE
  6
CONTINUOUS
 62
    30
 10
-250.0
 20
351.5948909567823
 30
0.0
 40
5.0
  0
LINE
  5
AAC
  8
SIZE
  6
CONTINUOUS
 62
    30
 10
-250.0
 20
351.5948909567823
 30
0.0
 11
-240.0
 21
351.5948909567823
 31
0.0
  0
TEXT
  5
AAD
  8
SIZE
  6
CONTINUOUS
 62
    30
 10
461.4999891947656
 20
318.9084601165133
 30
0.0
 40
43.32958677685951
  1
27
 41
0.9
  0
CIRCLE
  5
AAE
  8
SIZE
  6
CONTINUOUS
 62
    30
 10
431.4999891947654
 20
309.6766364250532
 30
0.0
 40
5.0
  0
LINE
  5
AAF
  8
SIZE
  6
CONTINUOUS
 62
    30
 10
431.4999891947654
 20
309.6766364250532
 30
0.0
 11
441.4999891947655
 21
309.6766364250532
 31
0.0
  0
CIRCLE
  5
AB0
  8
SIZE
  6
CONTINUOUS
 62
    30
 10
250.0
 20
351.5948909567823
 30
0.0
 40
5.0
  0
LINE
  5
AB1
  8
SIZE
  6
CONTINUOUS
 62
    30
 10
250.0
 20
351.5948909567823
 30
0.0
 11
240.0
 21
351.5948909567823
 31
0.0
  0
CIRCLE
  5
AB2
  8
SIZE
  6
CONTINUOUS
 62
    30
 10
404.4999891865518
 20
309.6766364250532
 30
0.0
 40
5.0
  0
LINE
  5
AB3
  8
SIZE
  6
CONTINUOUS
 62
    30
 10
404.4999891865518
 20
309.6766364250532
 30
0.0
 11
394.4999891865519
 21
309.6766364250532
 31
0.0
  0
TEXT
  5
AB4
  8
SIZE
  6
CONTINUOUS
 62
    30
 10
540.8567568695395
 20
-9.220120842531253
 30
0.0
 40
43.32958677685951
  1
144.5
 50
90.0
 41
0.9
  0
TEXT
  5
AB5
  8
SIZE
  6
CONTINUOUS
 62
    30
 10
615.3150013102636
 20
14.22273629344878
 30
0.0
 40
43.32958677685951
  1
162
 50
90.0
 41
0.9
  0
CIRCLE
  5
AB6
  8
SIZE
  6
CONTINUOUS
 62
    30
 10
550.0885805609994
 20
4.244164872190595
 30
0.0
 40
5.0
  0
LINE
  5
AB7
  8
SIZE
  6
CONTINUOUS
 62
    30
 10
550.0885805609994
 20
4.244164872190595
 30
0.0
 11
550.0885805609994
 21
14.24416487219059
 31
0.0
  0
TEXT
  5
AB8
  8
SIZE
  6
CONTINUOUS
 62
    30
 10
699.3320169768245
 20
-57.54154941439602
 30
0.0
 40
43.32958677685951
  1
300
 50
90.0
 41
0.9
  0
CIRCLE
  5
AB9
  8
SIZE
  6
CONTINUOUS
 62
    30
 10
624.5468250017237
 20
-13.15583514156424
 30
0.0
 40
5.0
  0
LINE
  5
ABA
  8
SIZE
  6
CONTINUOUS
 62
    30
 10
624.5468250017237
 20
-13.15583514156424
 30
0.0
 11
624.5468250017237
 21
-3.155835141564258
 31
0.0
  0
CIRCLE
  5
ABB
  8
SIZE
  6
CONTINUOUS
 62
    30
 10
550.0885805609994
 20
148.7441648713181
 30
0.0
 40
5.0
  0
LINE
  5
ABC
  8
SIZE
  6
CONTINUOUS
 62
    30
 10
550.0885805609994
 20
148.7441648713181
 30
0.0
 11
550.0885805609994
 21
138.744164871318
 31
0.0
  0
TEXT
  5
ABD
  8
SIZE
  6
CONTINUOUS
 62
    30
 10
699.3320169768249
 20
194.2186734577255
 30
0.0
 40
43.32958677685951
  1
15
 50
90.0
 41
0.9
  0
CIRCLE
  5
ABE
  8
SIZE
  6
CONTINUOUS
 62
    30
 10
624.5468250017237
 20
148.7441648713187
 30
0.0
 40
5.0
  0
LINE
  5
ABF
  8
SIZE
  6
CONTINUOUS
 62
    30
 10
624.5468250017237
 20
148.7441648713187
 30
0.0
 11
624.5468250017237
 21
138.7441648713186
 31
0.0
  0
CIRCLE
  5
AC0
  8
SIZE
  6
CONTINUOUS
 62
    30
 10
708.563840668285
 20
164.2186734577253
 30
0.0
 40
5.0
  0
LINE
  5
AC1
  8
SIZE
  6
CONTINUOUS
 62
    30
 10
708.563840668285
 20
164.2186734577253
 30
0.0
 11
708.563840668285
 21
174.2186734577253
 31
0.0
  0
CIRCLE
  5
AC2
  8
SIZE
  6
CONTINUOUS
 62
    30
 10
708.563840668285
 20
148.7441648713179
 30
0.0
 40
5.0
  0
LINE
  5
AC3
  8
SIZE
  6
CONTINUOUS
 62
    30
 10
708.563840668285
 20
148.7441648713179
 30
0.0
 11
708.563840668285
 21
138.7441648713179
 31
0.0
  0
CIRCLE
  5
AC4
  8
SIZE
  6
CONTINUOUS
 62
    30
 10
708.5638406682845
 20
148.7441648713179
 30
0.0
 40
5.0
  0
LINE
  5
AC5
  8
SIZE
  6
CONTINUOUS
 62
    30
 10
708.5638406682845
 20
148.7441648713179
 30
0.0
 11
708.5638406682845
 21
138.7441648713179
 31
0.0
  0
CIRCLE
  5
AC6
  8
SIZE
  6
CONTINUOUS
 62
    30
 10
433.4999895949095
 20
386.8940891294142
 30
0.0
 40
5.0
  0
LINE
  5
AC7
  8
SIZE
  6
CONTINUOUS
 62
    30
 10
433.4999895949095
 20
386.8940891294142
 30
0.0
 11
443.4999895949093
 21
386.8940891294142
 31
0.0
  0
CIRCLE
  5
AC8
  8
SIZE
  6
CONTINUOUS
 62
    30
 10
404.4999891865518
 20
386.8940891294142
 30
0.0
 40
5.0
  0
LINE
  5
AC9
  8
SIZE
  6
CONTINUOUS
 62
    30
 10
404.4999891865518
 20
386.8940891294142
 30
0.0
 11
394.4999891865519
 21
386.8940891294142
 31
0.0
  0
TEXT
  5
ACA
  8
SIZE
  6
CONTINUOUS
 62
    30
 10
463.4999895949095
 20
396.1259128208742
 30
0.0
 40
43.32958677685951
  1
29
 41
0.9
  0
TEXT
  5
ACB
  8
SIZE
  6
CONTINUOUS
 62
    30
 10
997.3732241208834
 20
-61.17406273313905
 30
0.0
 40
43.32958677685951
  1
360
 50
90.0
 41
0.9
  0
TEXT
  5
ACC
  8
SIZE
  6
CONTINUOUS
 62
    30
 10
866.3981206425921
 20
-58.62572369412234
 30
0.0
 40
43.32958677685951
  1
330
 50
90.0
 41
0.9
  0
CIRCLE
  5
ACD
  8
SIZE
  6
CONTINUOUS
 62
    30
 10
875.6299443340521
 20
164.2186734577253
 30
0.0
 40
5.0
  0
LINE
  5
ACE
  8
SIZE
  6
CONTINUOUS
 62
    30
 10
875.6299443340521
 20
164.2186734577253
 30
0.0
 11
875.6299443340521
 21
154.2186734577254
 31
0.0
  0
CIRCLE
  5
ACF
  8
SIZE
  6
CONTINUOUS
 62
    30
 10
1006.605047812342
 20
176.6219953766884
 30
0.0
 40
5.0
  0
LINE
  5
AD0
  8
SIZE
  6
CONTINUOUS
 62
    30
 10
1006.605047812342
 20
176.6219953766884
 30
0.0
 11
1006.605047812342
 21
166.6219953766885
 31
0.0
  0
LINE
  5
AD1
  8
OUTLINE
  6
CONTINUOUS
 62
     3
 10
404.499999652151
 20
-91.94591386403405
 30
0.0
 11
404.4999891865518
 21
-113.0558305510453
 31
0.0
  0
LINE
  5
AD2
  8
OUTLINE
  6
CONTINUOUS
 62
     3
 10
-403.0000003478486
 20
-107.8999925383503
 30
0.0
 11
-403.0000003478486
 21
-94.30973680104579
 31
0.0
  0
LINE
  5
AD3
  8
OUTLINE
  6
CONTINUOUS
 62
     3
 10
402.9999996521508
 20
132.6874784699503
 30
0.0
 11
402.9999996521508
 21
-126.0094285735067
 31
0.0
  0
LINE
  5
AD4
  8
OUTLINE
  6
CONTINUOUS
 62
     3
 10
-328.5079196593786
 20
-173.4558423846731
 30
0.0
 11
139.5920864441436
 21
-173.4558423846731
 31
0.0
  0
LINE
  5
AD5
  8
OUTLINE
  6
CONTINUOUS
 62
     3
 10
-379.7499698302709
 20
-149.2558351286824
 30
0.0
 11
379.7499691345728
 21
-149.2558351286824
 31
0.0
  0
ARC
  5
AD6
  8
OUTLINE
  6
CONTINUOUS
 62
     3
 10
-250.0003798286933
 20
-143.748301420418
 30
0.0
 40
39.50753538735514
 50
252.258389972353
 51
287.733983364444
  0
LINE
  5
AD7
  8
OUTLINE
  6
CONTINUOUS
 62
     3
 10
-335.5849307677708
 20
-169.0391115047643
 30
0.0
 11
-343.7130682896076
 21
-149.2558351286821
 31
0.0
  0
LINE
  5
AD8
  8
OUTLINE
  6
CONTINUOUS
 62
     3
 10
-403.0000003478486
 20
-107.8999925383503
 30
0.0
 11
-403.0000003478486
 21
-126.0094285735067
 31
0.0
  0
LINE
  5
AD9
  8
OUTLINE
  6
CONTINUOUS
 62
     3
 10
-403.0000003478486
 20
-130.7558351286825
 30
0.0
 11
-403.0000003478486
 21
-126.0094285735067
 31
0.0
  0
LINE
  5
ADA
  8
OUTLINE
  6
CONTINUOUS
 62
     3
 10
-379.7499698302709
 20
-149.2558351286824
 30
0.0
 11
-384.5000003478488
 21
-149.2558351286824
 31
0.0
  0
LINE
  5
ADB
  8
OUTLINE
  6
CONTINUOUS
 62
     3
 10
-387.4215701720677
 20
-149.0237031706746
 30
0.0
 11
-384.5000003478488
 21
-149.2558351286824
 31
0.0
  0
LINE
  5
ADC
  8
OUTLINE
  6
CONTINUOUS
 62
     3
 10
-384.5000003478488
 20
-149.2558351286824
 30
0.0
 11
-387.4215701720677
 21
-149.0237031706746
 31
0.0
  0
LINE
  5
ADD
  8
OUTLINE
  6
CONTINUOUS
 62
     3
 10
-343.3022092707415
 20
-150.2558351286821
 30
0.0
 11
-353.2573856017546
 21
-150.2558351286824
 31
0.0
  0
LINE
  5
ADE
  8
OUTLINE
  6
CONTINUOUS
 62
     3
 10
-403.5432742736295
 20
-122.2115922697952
 30
0.0
 11
-403.0000003478486
 21
-121.3985429533895
 31
0.0
  0
LINE
  5
ADF
  8
OUTLINE
  6
CONTINUOUS
 62
     3
 10
-404.0000003478485
 20
-124.5076890715534
 30
0.0
 11
-404.0000003478485
 21
-130.2558351286824
 31
0.0
  0
LINE
  5
AE0
  8
OUTLINE
  6
CONTINUOUS
 62
     3
 10
-384.0000003478488
 20
-150.2558351286824
 30
0.0
 11
-358.2426150939427
 21
-150.2558351286824
 31
0.0
  0
LINE
  5
AE1
  8
OUTLINE
  6
CONTINUOUS
 62
     3
 10
-355.3786624572235
 20
-150.2558351286824
 30
0.0
 11
-356.1213382384735
 21
-150.2558351286824
 31
0.0
  0
LINE
  5
AE2
  8
OUTLINE
  6
CONTINUOUS
 62
     3
 10
-358.2426150939427
 20
-150.2558351286824
 30
0.0
 11
-356.1213382384735
 21
-150.2558351286824
 31
0.0
  0
LINE
  5
AE3
  8
OUTLINE
  6
CONTINUOUS
 62
     3
 10
-355.3786624572235
 20
-150.2558351286824
 30
0.0
 11
-353.2573856017546
 21
-150.2558351286824
 31
0.0
  0
ARC
  5
AE4
  8
OUTLINE
  6
CONTINUOUS
 62
     3
 10
-398.0000042263719
 20
-124.507699985263
 30
0.0
 40
5.999996121486927
 50
157.4999110525395
 51
179.9998957836451
  0
ARC
  5
AE5
  8
OUTLINE
  6
CONTINUOUS
 62
     3
 10
-383.9999986346064
 20
-130.2558334154405
 30
0.0
 40
20.00000171324242
 50
180.0000049783131
 51
269.9999950919218
  0
ARC
  5
AE6
  8
OUTLINE
  6
CONTINUOUS
 62
     3
 10
-383.8232460245857
 20
-130.1787298294675
 30
0.0
 40
19.18543606231491
 50
181.7237391099054
 51
259.1898698942235
  0
LINE
  5
AE7
  8
OUTLINE
  6
CONTINUOUS
 62
     3
 10
-332.7579349181613
 20
-150.9687837459747
 30
0.0
 11
-332.7579349181613
 21
-150.9756196834747
 31
0.0
  0
ARC
  5
AE8
  8
OUTLINE
  6
CONTINUOUS
 62
     3
 10
-259.75260290516
 20
-171.3866966290722
 30
0.0
 40
10.24854569666852
 50
191.6478845668534
 51
257.107369466479
  0
LINE
  5
AE9
  8
OUTLINE
  6
CONTINUOUS
 62
     3
 10
-329.6967471740271
 20
-170.9558290340604
 30
0.0
 11
-332.8079227111301
 21
-170.9558290340606
 31
0.0
  0
LINE
  5
AEA
  8
OUTLINE
  6
CONTINUOUS
 62
     3
 10
-329.6967471740271
 20
-170.9558290340604
 30
0.0
 11
-329.6967471740277
 21
-172.2058366634553
 31
0.0
  0
ARC
  5
AEB
  8
OUTLINE
  6
CONTINUOUS
 62
     3
 10
-332.4442508938377
 20
-167.4588560158541
 30
0.0
 40
3.51583240225681
 50
206.7095807822032
 51
264.0628007229381
  0
ARC
  5
AEC
  8
OUTLINE
  6
CONTINUOUS
 62
     3
 10
-328.5079196593786
 20
-172.2670148700246
 30
0.0
 40
1.188827514648437
 50
177.0502011791496
 51
270.0000000001315
  0
ARC
  5
AED
  8
OUTLINE
  6
CONTINUOUS
 62
     3
 10
-240.2746194580903
 20
-171.3530088264192
 30
0.0
 40
10.28774115494605
 50
282.9652485717522
 51
348.2055125049067
  0
ARC
  5
AEE
  8
OUTLINE
  6
CONTINUOUS
 62
     3
 10
-250.0000003478489
 20
-171.2558351286825
 30
0.0
 40
5.0
 50
206.1039737295089
 51
333.8960262704911
  0
ARC
  5
AEF
  8
OUTLINE
  6
CONTINUOUS
 62
     3
 10
249.9996201713065
 20
-143.748301420418
 30
0.0
 40
39.50753538735514
 50
252.258389972353
 51
287.733983364444
  0
LINE
  5
AF0
  8
OUTLINE
  6
CONTINUOUS
 62
     3
 10
182.1852718689483
 20
-150.2558351286824
 30
0.0
 11
384.2999874451202
 21
-150.2558351286824
 31
0.0
  0
LINE
  5
AF1
  8
OUTLINE
  6
CONTINUOUS
 62
     3
 10
143.8420864441425
 20
-150.9687837459747
 30
0.0
 11
143.8420864441425
 21
-150.9756196834747
 31
0.0
  0
LINE
  5
AF2
  8
OUTLINE
  6
CONTINUOUS
 62
     3
 10
143.8920894959009
 20
-170.9558290340606
 30
0.0
 11
140.7809139587893
 21
-170.9558290340612
 31
0.0
  0
ARC
  5
AF3
  8
OUTLINE
  6
CONTINUOUS
 62
     3
 10
143.528417863145
 20
-167.4588312805305
 30
0.0
 40
3.515856985809667
 50
275.937154590287
 51
333.2901695477707
  0
LINE
  5
AF4
  8
OUTLINE
  6
CONTINUOUS
 62
     3
 10
140.7809139587893
 20
-172.2058366634553
 30
0.0
 11
140.7809139587893
 21
-170.9558290340612
 31
0.0
  0
ARC
  5
AF5
  8
OUTLINE
  6
CONTINUOUS
 62
     3
 10
139.5920864441409
 20
-172.2670148700246
 30
0.0
 40
1.188827514648437
 50
270.0
 51
2.949798821093092
  0
LINE
  5
AF6
  8
OUTLINE
  6
CONTINUOUS
 62
     3
 10
146.6691128113306
 20
-169.0391115047643
 30
0.0
 11
154.7972068898975
 21
-149.2558351286821
 31
0.0
  0
LINE
  5
AF7
  8
OUTLINE
  6
CONTINUOUS
 62
     3
 10
256.9322964050816
 20
-150.3920961150105
 30
0.0
 11
256.6780392029321
 21
-150.2558351286824
 31
0.0
  0
LINE
  5
AF8
  8
OUTLINE
  6
CONTINUOUS
 62
     3
 10
229.9999996521509
 20
-151.2693086394242
 30
0.0
 11
229.9999996521509
 21
-150.2558351286824
 31
0.0
  0
LINE
  5
AF9
  8
OUTLINE
  6
CONTINUOUS
 62
     3
 10
229.9999996521509
 20
-154.3269105681356
 30
0.0
 11
229.9999996521509
 21
-151.2693086394242
 31
0.0
  0
ARC
  5
AFA
  8
OUTLINE
  6
CONTINUOUS
 62
     3
 10
249.999999652151
 20
-160.2558351286825
 30
0.0
 40
5.0
 50
0.0
 51
180.0
  0
LINE
  5
AFB
  8
OUTLINE
  6
CONTINUOUS
 62
     3
 10
179.0651089050814
 20
-149.5219789275105
 30
0.0
 11
178.6952053406285
 21
-149.2558351286824
 31
0.0
  0
ARC
  5
AFC
  8
OUTLINE
  6
CONTINUOUS
 62
     3
 10
182.1852772818219
 20
-143.2558291283409
 30
0.0
 40
7.000006000343437
 50
243.5294372598806
 51
269.9999556950673
  0
ARC
  5
AFD
  8
OUTLINE
  6
CONTINUOUS
 62
     3
 10
249.999999652151
 20
-171.2558351286825
 30
0.0
 40
5.0
 50
180.0
 51
0.0
  0
ARC
  5
AFE
  8
OUTLINE
  6
CONTINUOUS
 62
     3
 10
240.2473970948399
 20
-171.3866966290722
 30
0.0
 40
10.24854569666868
 50
180.8576884148504
 51
257.1073694664794
  0
LINE
  5
AFF
  8
OUTLINE
  6
CONTINUOUS
 62
     3
 10
254.9999996521509
 20
-171.2558351286825
 30
0.0
 11
254.9999996521509
 21
-160.2558351286825
 31
0.0
  0
LINE
  5
B00
  8
OUTLINE
  6
CONTINUOUS
 62
     3
 10
244.9999996521509
 20
-160.2558351286825
 30
0.0
 11
244.9999996521509
 21
-171.2558351286825
 31
0.0
  0
LINE
  5
B01
  8
OUTLINE
  6
CONTINUOUS
 62
     3
 10
229.9999996521509
 20
-154.3269105681356
 30
0.0
 11
229.9999996521509
 21
-171.5401063689164
 31
0.0
  0
LINE
  5
B02
  8
OUTLINE
  6
CONTINUOUS
 62
     3
 10
269.999999652151
 20
-151.2693238982132
 30
0.0
 11
269.999999652151
 21
-150.2558351286824
 31
0.0
  0
LINE
  5
B03
  8
OUTLINE
  6
CONTINUOUS
 62
     3
 10
269.999999652151
 20
-154.3269105681356
 30
0.0
 11
269.999999652151
 21
-151.2693238982132
 31
0.0
  0
ARC
  5
B04
  8
OUTLINE
  6
CONTINUOUS
 62
     3
 10
259.740424783344
 20
-171.377124273868
 30
0.0
 40
10.26086934192022
 50
282.9135964632727
 51
359.0898842406637
  0
LINE
  5
B05
  8
OUTLINE
  6
CONTINUOUS
 62
     3
 10
269.999999652151
 20
-171.5401063689164
 30
0.0
 11
269.999999652151
 21
-154.3269105681356
 31
0.0
  0
LINE
  5
B06
  8
OUTLINE
  6
CONTINUOUS
 62
     3
 10
397.5848995544947
 20
-143.8338838347371
 30
0.0
 11
400.2591244080104
 21
-140.4460969695028
 31
0.0
  0
LINE
  5
B07
  8
OUTLINE
  6
CONTINUOUS
 62
     3
 10
379.7499691345728
 20
-149.2558351286824
 30
0.0
 11
384.499999652151
 21
-149.2558351286824
 31
0.0
  0
LINE
  5
B08
  8
OUTLINE
  6
CONTINUOUS
 62
     3
 10
384.499999652151
 20
-149.2558351286824
 30
0.0
 11
387.4244686462916
 21
-149.02329118337
 31
0.0
  0
LINE
  5
B09
  8
OUTLINE
  6
CONTINUOUS
 62
     3
 10
390.2582393982447
 20
-148.3368898161825
 30
0.0
 11
394.1949154236354
 21
-146.51206071462
 31
0.0
  0
LINE
  5
B0A
  8
OUTLINE
  6
CONTINUOUS
 62
     3
 10
394.1949154236354
 20
-146.51206071462
 30
0.0
 11
397.5848995544947
 21
-143.8338838347371
 31
0.0
  0
LINE
  5
B0B
  8
OUTLINE
  6
CONTINUOUS
 62
     3
 10
387.4244686462916
 20
-149.02329118337
 30
0.0
 11
390.2582393982447
 21
-148.3368898161825
 31
0.0
  0
LINE
  5
B0C
  8
OUTLINE
  6
CONTINUOUS
 62
     3
 10
384.499999652151
 20
-149.2558351286824
 30
0.0
 11
387.4244686462916
 21
-149.02329118337
 31
0.0
  0
LINE
  5
B0D
  8
OUTLINE
  6
CONTINUOUS
 62
     3
 10
387.4244686462916
 20
-149.02329118337
 30
0.0
 11
390.2582393982447
 21
-148.3368898161825
 31
0.0
  0
LINE
  5
B0E
  8
OUTLINE
  6
CONTINUOUS
 62
     3
 10
402.9999996521508
 20
-130.7558351286825
 30
0.0
 11
402.9999996521508
 21
-126.0094285735067
 31
0.0
  0
LINE
  5
B0F
  8
OUTLINE
  6
CONTINUOUS
 62
     3
 10
400.2591244080104
 20
-140.4460969695028
 30
0.0
 11
402.0820003845728
 21
-136.5112519987995
 31
0.0
  0
LINE
  5
B10
  8
OUTLINE
  6
CONTINUOUS
 62
     3
 10
402.2157284119166
 20
-135.95883805837
 30
0.0
 11
402.7676998474635
 21
-133.678824020284
 31
0.0
  0
LINE
  5
B11
  8
OUTLINE
  6
CONTINUOUS
 62
     3
 10
402.0820003845728
 20
-136.5112519987995
 30
0.0
 11
402.2157284119166
 21
-135.95883805837
 31
0.0
  0
LINE
  5
B12
  8
OUTLINE
  6
CONTINUOUS
 62
     3
 10
402.7676998474635
 20
-133.678824020284
 30
0.0
 11
402.9999996521508
 21
-130.7558351286825
 31
0.0
  0
LINE
  5
B13
  8
OUTLINE
  6
CONTINUOUS
 62
     3
 10
402.9999996521508
 20
-130.7558351286825
 30
0.0
 11
402.7676998474635
 21
-133.678824020284
 31
0.0
  0
LINE
  5
B14
  8
OUTLINE
  6
CONTINUOUS
 62
     3
 10
402.7676998474635
 20
-133.678824020284
 30
0.0
 11
402.2157284119166
 21
-135.95883805837
 31
0.0
  0
LINE
  5
B15
  8
OUTLINE
  6
CONTINUOUS
 62
     3
 10
404.4999891865518
 20
-116.0345445403034
 30
0.0
 11
404.4999891865518
 21
-113.0558305510453
 31
0.0
  0
LINE
  5
B16
  8
OUTLINE
  6
CONTINUOUS
 62
     3
 10
392.455077777151
 20
-147.3185640105179
 30
0.0
 11
392.9031978943393
 21
-147.1592927702836
 31
0.0
  0
LINE
  5
B17
  8
OUTLINE
  6
CONTINUOUS
 62
     3
 10
388.1046139099643
 20
-148.8647065886429
 30
0.0
 11
388.1590572693393
 21
-148.8453584441117
 31
0.0
  0
LINE
  5
B18
  8
OUTLINE
  6
CONTINUOUS
 62
     3
 10
388.0604244568393
 20
-148.8692537077836
 30
0.0
 11
388.1046139099643
 21
-148.8647065886429
 31
0.0
  0
LINE
  5
B19
  8
OUTLINE
  6
CONTINUOUS
 62
     3
 10
392.9031978943393
 20
-147.1592927702836
 30
0.0
 11
393.1031795837921
 21
-147.0181184538773
 31
0.0
  0
LINE
  5
B1A
  8
OUTLINE
  6
CONTINUOUS
 62
     3
 10
402.5923763611363
 20
-134.8513398894242
 30
0.0
 11
402.5095821716822
 21
-134.7450776823928
 31
0.0
  0
LINE
  5
B1B
  8
OUTLINE
  6
CONTINUOUS
 62
     3
 10
402.8136288025421
 20
-135.1352754362992
 30
0.0
 11
402.5923763611363
 21
-134.8513398894242
 31
0.0
  0
LINE
  5
B1C
  8
OUTLINE
  6
CONTINUOUS
 62
     3
 10
403.055328021292
 20
-135.7725435027053
 30
0.0
 11
402.8136288025421
 21
-135.1352754362992
 31
0.0
  0
LINE
  5
B1D
  8
OUTLINE
  6
CONTINUOUS
 62
     3
 10
403.0874325134796
 20
-136.2848115691117
 30
0.0
 11
403.055328021292
 21
-135.7725435027053
 31
0.0
  0
LINE
  5
B1E
  8
OUTLINE
  6
CONTINUOUS
 62
     3
 10
402.989165911917
 20
-136.7851777800492
 30
0.0
 11
403.0874325134796
 21
-136.2848115691117
 31
0.0
  0
LINE
  5
B1F
  8
OUTLINE
  6
CONTINUOUS
 62
     3
 10
404.4999891865518
 20
-113.0558305510453
 30
0.0
 11
402.9999996521508
 21
-113.0558305510453
 31
0.0
  0
ARC
  5
B20
  8
OUTLINE
  6
CONTINUOUS
 62
     3
 10
384.29998997568
 20
-130.5558348672343
 30
0.0
 40
19.70000026144822
 50
269.9999926400843
 51
341.5661062797001
  0
ARC
  5
B21
  8
OUTLINE
  6
CONTINUOUS
 62
     3
 10
402.4294731702728
 20
-115.7569786099238
 30
0.0
 40
2.089037917169696
 50
285.8491100852072
 51
352.3646552773528
  0
LINE
  5
B22
  8
OUTLINE
  6
CONTINUOUS
 62
     3
 10
270.4686275818385
 20
147.7441648713175
 30
0.0
 11
-387.9390567443333
 21
147.7441648713175
 31
0.0
  0
LINE
  5
B23
  8
OUTLINE
  6
CONTINUOUS
 62
     3
 10
-344.5498965880834
 20
157.2440885773723
 30
0.0
 11
260.9584194519557
 21
157.2440885773723
 31
0.0
  0
ARC
  5
B24
  8
OUTLINE
  6
CONTINUOUS
 62
     3
 10
-262.5000003478493
 20
169.1209844743634
 30
0.0
 40
7.501011492471334
 50
0.9409443148924956
 51
179.0590556851071
  0
LINE
  5
B25
  8
OUTLINE
  6
CONTINUOUS
 62
     3
 10
-403.0000003478486
 20
132.6874784699503
 30
0.0
 11
-403.0000003478486
 21
101.2690443268839
 31
0.0
  0
LINE
  5
B26
  8
OUTLINE
  6
CONTINUOUS
 62
     3
 10
-404.5000003478503
 20
137.2441648713179
 30
0.0
 11
-404.5000003478503
 21
90.88681166086874
 31
0.0
  0
LINE
  5
B27
  8
OUTLINE
  6
CONTINUOUS
 62
     3
 10
-407.7999881408248
 20
-65.15696580495202
 30
0.0
 11
-407.7999881408248
 21
69.84303419504796
 31
0.0
  0
LINE
  5
B28
  8
OUTLINE
  6
CONTINUOUS
 62
     3
 10
-425.2999881408177
 20
26.54416983042396
 30
0.0
 11
-425.2999881408177
 21
-28.05582864369714
 31
0.0
  0
LINE
  5
B29
  8
OUTLINE
  6
CONTINUOUS
 62
     3
 10
-406.1890872619111
 20
-90.2093797453817
 30
0.0
 11
-403.6443790099583
 21
-92.7541032561239
 31
0.0
  0
LINE
  5
B2A
  8
OUTLINE
  6
CONTINUOUS
 62
     3
 10
-407.7999881408248
 20
-86.32029588307701
 30
0.0
 11
-407.7999881408248
 21
-65.15696580495202
 31
0.0
  0
LINE
  5
B2B
  8
OUTLINE
  6
CONTINUOUS
 62
     3
 10
-410.590057720903
 20
-46.39432771291099
 30
0.0
 11
-410.037567486528
 21
-47.36033876027426
 31
0.0
  0
LINE
  5
B2C
  8
OUTLINE
  6
CONTINUOUS
 62
     3
 10
-410.590057720903
 20
-46.39432771291099
 30
0.0
 11
-410.037567486528
 21
-47.36033876027426
 31
0.0
  0
ARC
  5
B2D
  8
OUTLINE
  6
CONTINUOUS
 62
     3
 10
-402.1425454915396
 20
-86.2550898139218
 30
0.0
 40
5.657818410077021
 50
180.6603455610382
 51
224.3393928281155
  0
ARC
  5
B2E
  8
OUTLINE
  6
CONTINUOUS
 62
     3
 10
-405.2410950760235
 20
-94.3267741229485
 30
0.0
 40
2.241159488075279
 50
0.4355674136004859
 51
44.56532224314684
  0
ARC
  5
B2F
  8
OUTLINE
  6
CONTINUOUS
 62
     3
 10
-410.998223328444
 20
-27.39469990052654
 30
0.0
 40
14.31703768115121
 50
182.6467320194176
 51
251.1875688953885
  0
ARC
  5
B30
  8
OUTLINE
  6
CONTINUOUS
 62
     3
 10
-426.8713080808898
 20
-56.34449010074989
 30
0.0
 40
19.07324514743232
 50
1.780011637202806
 51
53.83167370380342
  0
LINE
  5
B31
  8
OUTLINE
  6
CONTINUOUS
 62
     3
 10
-403.0000003478486
 20
92.79808180246985
 30
0.0
 11
-403.012482037302
 21
92.56411116038001
 31
0.0
  0
LINE
  5
B32
  8
OUTLINE
  6
CONTINUOUS
 62
     3
 10
-403.012482037302
 20
92.56411116038001
 30
0.0
 11
-403.0491641662083
 21
92.33541242991127
 31
0.0
  0
LINE
  5
B33
  8
OUTLINE
  6
CONTINUOUS
 62
     3
 10
-403.0491641662083
 20
92.33541242991127
 30
0.0
 11
-403.1860660216771
 21
91.91245405588782
 31
0.0
  0
LINE
  5
B34
  8
OUTLINE
  6
CONTINUOUS
 62
     3
 10
-403.1860660216771
 20
91.91245405588782
 30
0.0
 11
-403.3912967345749
 21
91.5458235016886
 31
0.0
  0
LINE
  5
B35
  8
OUTLINE
  6
CONTINUOUS
 62
     3
 10
-403.3912967345749
 20
91.5458235016886
 30
0.0
 11
-403.6443790099583
 21
91.24244825754796
 31
0.0
  0
LINE
  5
B36
  8
OUTLINE
  6
CONTINUOUS
 62
     3
 10
-407.7999881408248
 20
84.80864088450107
 30
0.0
 11
-407.693085064653
 21
85.88595716868079
 31
0.0
  0
LINE
  5
B37
  8
OUTLINE
  6
CONTINUOUS
 62
     3
 10
-407.693085064653
 20
85.88595716868079
 30
0.0
 11
-407.3784793517551
 21
86.92006819163002
 31
0.0
  0
LINE
  5
B38
  8
OUTLINE
  6
CONTINUOUS
 62
     3
 10
-407.3784793517551
 20
86.92006819163002
 30
0.0
 11
-406.869873394724
 21
87.86930220041907
 31
0.0
  0
LINE
  5
B39
  8
OUTLINE
  6
CONTINUOUS
 62
     3
 10
-406.869873394724
 20
87.86930220041907
 30
0.0
 11
-406.1890872619111
 21
88.69772474680579
 31
0.0
  0
LINE
  5
B3A
  8
OUTLINE
  6
CONTINUOUS
 62
     3
 10
-406.1890872619111
 20
88.69772474680579
 30
0.0
 11
-403.6443790099583
 21
91.24244825754796
 31
0.0
  0
LINE
  5
B3B
  8
OUTLINE
  6
CONTINUOUS
 62
     3
 10
-403.0000003478486
 20
101.2690443268839
 30
0.0
 11
-403.0000003478486
 21
92.79808180246985
 31
0.0
  0
LINE
  5
B3C
  8
OUTLINE
  6
CONTINUOUS
 62
     3
 10
-403.0000003478486
 20
92.79808180246985
 30
0.0
 11
-403.012482037302
 21
92.56411116038001
 31
0.0
  0
LINE
  5
B3D
  8
OUTLINE
  6
CONTINUOUS
 62
     3
 10
-403.012482037302
 20
92.56411116038001
 30
0.0
 11
-403.0491641662083
 21
92.33541242991127
 31
0.0
  0
LINE
  5
B3E
  8
OUTLINE
  6
CONTINUOUS
 62
     3
 10
-403.0491641662083
 20
92.33541242991127
 30
0.0
 11
-403.1860660216771
 21
91.91245405588782
 31
0.0
  0
LINE
  5
B3F
  8
OUTLINE
  6
CONTINUOUS
 62
     3
 10
-407.3784793517551
 20
86.92006819163002
 30
0.0
 11
-407.6905826232396
 21
85.89306776438391
 31
0.0
  0
LINE
  5
B40
  8
OUTLINE
  6
CONTINUOUS
 62
     3
 10
-407.6905826232396
 20
85.89306776438391
 30
0.0
 11
-407.7999881408248
 21
84.80864088450107
 31
0.0
  0
ARC
  5
B41
  8
OUTLINE
  6
CONTINUOUS
 62
     3
 10
-411.7959165173223
 20
26.17578064744455
 30
0.0
 40
13.50909549165426
 50
110.9654263489602
 51
178.4373667132546
  0
ARC
  5
B42
  8
OUTLINE
  6
CONTINUOUS
 62
     3
 10
-426.6107709344796
 20
54.72518430353219
 30
0.0
 40
18.80261780816719
 50
302.0624331009067
 51
358.6802087564716
  0
LINE
  5
B43
  8
OUTLINE
  6
CONTINUOUS
 62
     3
 10
-407.7999881408248
 20
69.84303419504796
 30
0.0
 11
-407.7999881408248
 21
84.80864088450107
 31
0.0
  0
LINE
  5
B44
  8
OUTLINE
  6
CONTINUOUS
 62
     3
 10
-387.9390567443333
 20
147.7441648713175
 30
0.0
 11
-392.5000003478488
 21
147.7441648713175
 31
0.0
  0
LINE
  5
B45
  8
OUTLINE
  6
CONTINUOUS
 62
     3
 10
-403.0000003478486
 20
137.2441648713175
 30
0.0
 11
-403.0000003478486
 21
132.6874784699503
 31
0.0
  0
LINE
  5
B46
  8
OUTLINE
  6
CONTINUOUS
 62
     3
 10
-346.7781375548796
 20
148.7441648713179
 30
0.0
 11
-392.5000003478488
 21
148.7441648713179
 31
0.0
  0
ARC
  5
B47
  8
OUTLINE
  6
CONTINUOUS
 62
     3
 10
-392.1273072564758
 20
136.3443981672766
 30
0.0
 40
12.40536635714581
 50
91.7215900044175
 51
175.8406595253149
  0
LINE
  5
B48
  8
OUTLINE
  6
CONTINUOUS
 62
     3
 10
-346.6498111388641
 20
152.4185880890913
 30
0.0
 11
-346.5655826232392
 21
154.8304380646763
 31
0.0
  0
LINE
  5
B49
  8
OUTLINE
  6
CONTINUOUS
 62
     3
 10
-345.9392398498021
 20
156.6829771271763
 30
0.0
 11
-346.1988834044892
 21
156.3760771027622
 31
0.0
  0
LINE
  5
B4A
  8
OUTLINE
  6
CONTINUOUS
 62
     3
 10
-346.8130496642552
 20
147.7441648713175
 30
0.0
 11
-346.7754214904271
 21
148.8211454621373
 31
0.0
  0
LINE
  5
B4B
  8
OUTLINE
  6
CONTINUOUS
 62
     3
 10
-346.7754214904271
 20
148.8211454621373
 30
0.0
 11
-346.6498111388641
 21
152.4185880890913
 31
0.0
  0
ARC
  5
B4C
  8
OUTLINE
  6
CONTINUOUS
 62
     3
 10
-344.4907642768531
 20
155.1462116717403
 30
0.0
 40
2.098710113717118
 50
91.61455375652939
 51
188.6536316495859
  0
ARC
  5
B4D
  8
OUTLINE
  6
CONTINUOUS
 62
     3
 10
-392.4159537097348
 20
137.1601182332031
 30
0.0
 40
10.58438033496311
 50
90.45496931338336
 51
179.5450306866157
  0
LINE
  5
B4E
  8
OUTLINE
  6
CONTINUOUS
 62
     3
 10
-270.0000003478488
 20
158.5653623810835
 30
0.0
 11
-270.0000003478488
 21
157.2440885773725
 31
0.0
  0
LINE
  5
B4F
  8
OUTLINE
  6
CONTINUOUS
 62
     3
 10
-270.0000003478488
 20
169.2441648713179
 30
0.0
 11
-270.0000003478488
 21
158.5653623810835
 31
0.0
  0
LINE
  5
B50
  8
OUTLINE
  6
CONTINUOUS
 62
     3
 10
-230.0000003478488
 20
157.2440885773725
 30
0.0
 11
-230.0000003478488
 21
158.5653623810835
 31
0.0
  0
LINE
  5
B51
  8
OUTLINE
  6
CONTINUOUS
 62
     3
 10
-230.0000003478488
 20
158.5653623810835
 30
0.0
 11
-230.0000003478488
 21
169.2441648713179
 31
0.0
  0
LINE
  5
B52
  8
OUTLINE
  6
CONTINUOUS
 62
     3
 10
-245.0000003478489
 20
169.2441648713179
 30
0.0
 11
-245.0000003478489
 21
158.7441648713178
 31
0.0
  0
LINE
  5
B53
  8
OUTLINE
  6
CONTINUOUS
 62
     3
 10
-245.2574771544886
 20
157.2440885773725
 30
0.0
 11
-245.1635440490207
 21
157.4758238068648
 31
0.0
  0
LINE
  5
B54
  8
OUTLINE
  6
CONTINUOUS
 62
     3
 10
-255.0000003478488
 20
158.7441648713178
 30
0.0
 11
-255.0000003478488
 21
169.2441648713179
 31
0.0
  0
LINE
  5
B55
  8
OUTLINE
  6
CONTINUOUS
 62
     3
 10
-254.8351443908176
 20
157.4708189240518
 30
0.0
 11
-254.742920269724
 21
157.2440885773725
 31
0.0
  0
LINE
  5
B56
  8
OUTLINE
  6
CONTINUOUS
 62
     3
 10
-245.1635440490207
 20
157.4758238068648
 30
0.0
 11
-245.0000003478489
 21
158.7441648713178
 31
0.0
  0
LINE
  5
B57
  8
OUTLINE
  6
CONTINUOUS
 62
     3
 10
-255.0000003478488
 20
158.7441648713178
 30
0.0
 11
-254.8351443908176
 21
157.4708189240518
 31
0.0
  0
ARC
  5
B58
  8
OUTLINE
  6
CONTINUOUS
 62
     3
 10
-237.5000003478493
 20
169.1209844743634
 30
0.0
 40
7.501011492471334
 50
0.9409443148924956
 51
179.0590556851071
  0
ARC
  5
B59
  8
OUTLINE
  6
CONTINUOUS
 62
     3
 10
416.8365648944964
 20
-18.63326493748283
 30
0.0
 40
15.68515742671444
 50
8.326495990325247
 51
87.6914268664784
  0
ARC
  5
B5A
  8
OUTLINE
  6
CONTINUOUS
 62
     3
 10
385.6151321320238
 20
72.41696408161673
 30
0.0
 40
164.4938713631906
 50
277.2942122346324
 51
287.0099633513003
  0
ARC
  5
B5B
  8
OUTLINE
  6
CONTINUOUS
 62
     3
 10
417.7495059976626
 20
-73.5872736010578
 30
0.0
 40
15.0464207023556
 50
285.0299282960196
 51
347.3098028601013
  0
ARC
  5
B5C
  8
OUTLINE
  6
CONTINUOUS
 62
     3
 10
319.9019687185641
 20
-46.76879960406264
 30
0.0
 40
116.4887938559427
 50
345.0130644904625
 51
15.24803361044292
  0
LINE
  5
B5D
  8
OUTLINE
  6
CONTINUOUS
 62
     3
 10
461.1411129334014
 20
18.6540006867472
 30
0.0
 11
406.499999652151
 21
19.63697187815345
 31
0.0
  0
LINE
  5
B5E
  8
OUTLINE
  6
CONTINUOUS
 62
     3
 10
452.4942623474641
 20
14.98114817057265
 30
0.0
 11
405.5359493591821
 21
16.67118112955703
 31
0.0
  0
LINE
  5
B5F
  8
OUTLINE
  6
CONTINUOUS
 62
     3
 10
404.4999891865518
 20
115.0441853575396
 30
0.0
 11
404.4999891865518
 21
136.826440261943
 31
0.0
  0
LINE
  5
B60
  8
OUTLINE
  6
CONTINUOUS
 62
     3
 10
403.6530147888702
 20
17.54169599924719
 30
0.0
 11
403.7000118591822
 21
14.8504413834635
 31
0.0
  0
LINE
  5
B61
  8
OUTLINE
  6
CONTINUOUS
 62
     3
 10
406.3439327576201
 20
16.20825998697912
 30
0.0
 11
406.4629513123072
 21
15.9415058365885
 31
0.0
  0
LINE
  5
B62
  8
OUTLINE
  6
CONTINUOUS
 62
     3
 10
404.499999652151
 20
14.72577707682265
 30
0.0
 11
404.499999652151
 21
16.70844309244787
 31
0.0
  0
LINE
  5
B63
  8
OUTLINE
  6
CONTINUOUS
 62
     3
 10
406.6423946716822
 20
-2.626516652959222
 30
0.0
 11
406.5794063904323
 21
-2.543204856770866
 31
0.0
  0
LINE
  5
B64
  8
OUTLINE
  6
CONTINUOUS
 62
     3
 10
406.718749652151
 20
-2.692735744374857
 30
0.0
 11
406.6423946716822
 21
-2.626516652959222
 31
0.0
  0
LINE
  5
B65
  8
OUTLINE
  6
CONTINUOUS
 62
     3
 10
406.8495479919951
 20
-2.754755092519386
 30
0.0
 11
406.718749652151
 21
-2.692735744374857
 31
0.0
  0
LINE
  5
B66
  8
OUTLINE
  6
CONTINUOUS
 62
     3
 10
406.9894100525421
 20
-2.772330833333369
 30
0.0
 11
406.8495479919951
 21
-2.754755092519386
 31
0.0
  0
LINE
  5
B67
  8
OUTLINE
  6
CONTINUOUS
 62
     3
 10
406.3404842712921
 20
1.760170506579041
 30
0.0
 11
406.462157855276
 21
1.490791844469441
 31
0.0
  0
LINE
  5
B68
  8
OUTLINE
  6
CONTINUOUS
 62
     3
 10
406.2134395935571
 20
1.919045018297791
 30
0.0
 11
406.3404842712921
 21
1.760170506579041
 31
0.0
  0
LINE
  5
B69
  8
OUTLINE
  6
CONTINUOUS
 62
     3
 10
406.056884417776
 20
2.048927830797792
 30
0.0
 11
406.2134395935571
 21
1.919045018297791
 31
0.0
  0
LINE
  5
B6A
  8
OUTLINE
  6
CONTINUOUS
 62
     3
 10
405.789703021292
 20
2.175453709703815
 30
0.0
 11
406.056884417776
 21
2.048927830797792
 31
0.0
  0
LINE
  5
B6B
  8
OUTLINE
  6
CONTINUOUS
 62
     3
 10
405.5179745056671
 20
2.218147801500917
 30
0.0
 11
405.789703021292
 21
2.175453709703815
 31
0.0
  0
LINE
  5
B6C
  8
OUTLINE
  6
CONTINUOUS
 62
     3
 10
406.5243526794951
 20
15.60663645182265
 30
0.0
 11
406.499999652151
 21
15.67182199869787
 31
0.0
  0
LINE
  5
B6D
  8
OUTLINE
  6
CONTINUOUS
 62
     3
 10
406.499999652151
 20
14.68042795572913
 30
0.0
 11
406.499999652151
 21
15.67182199869787
 31
0.0
  0
LINE
  5
B6E
  8
OUTLINE
  6
CONTINUOUS
 62
     3
 10
406.499999652151
 20
7.191475319010152
 30
0.0
 11
406.499999652151
 21
14.68042795572913
 31
0.0
  0
LINE
  5
B6F
  8
OUTLINE
  6
CONTINUOUS
 62
     3
 10
403.6698604919951
 20
14.8509601822914
 30
0.0
 11
402.9999996521508
 21
14.86264746103919
 31
0.0
  0
LINE
  5
B70
  8
OUTLINE
  6
CONTINUOUS
 62
     3
 10
404.1765743591822
 20
14.84211008463515
 30
0.0
 11
404.499999652151
 21
14.83646433268225
 31
0.0
  0
LINE
  5
B71
  8
OUTLINE
  6
CONTINUOUS
 62
     3
 10
403.7000118591822
 20
14.8504413834635
 30
0.0
 11
404.1765743591822
 21
14.84211008463515
 31
0.0
  0
LINE
  5
B72
  8
OUTLINE
  6
CONTINUOUS
 62
     3
 10
406.4629513123072
 20
15.9415058365885
 30
0.0
 11
406.499999652151
 21
15.67182199869787
 31
0.0
  0
LINE
  5
B73
  8
OUTLINE
  6
CONTINUOUS
 62
     3
 10
404.499999652151
 20
7.213997291666629
 30
0.0
 11
404.499999652151
 21
14.72577707682265
 31
0.0
  0
LINE
  5
B74
  8
OUTLINE
  6
CONTINUOUS
 62
     3
 10
406.499999652151
 20
7.191475319010152
 30
0.0
 11
406.499999652151
 21
1.218330892068507
 31
0.0
  0
LINE
  5
B75
  8
OUTLINE
  6
CONTINUOUS
 62
     3
 10
406.499999652151
 20
-2.763755393880244
 30
0.0
 11
406.499999652151
 21
1.218330892068507
 31
0.0
  0
LINE
  5
B76
  8
OUTLINE
  6
CONTINUOUS
 62
     3
 10
406.854400286917
 20
-2.750968528645866
 30
0.0
 11
406.9894100525421
 21
-2.772330833333369
 31
0.0
  0
LINE
  5
B77
  8
OUTLINE
  6
CONTINUOUS
 62
     3
 10
406.5188289978546
 20
-2.408561302083366
 30
0.0
 11
406.5794063904323
 21
-2.543204856770866
 31
0.0
  0
LINE
  5
B78
  8
OUTLINE
  6
CONTINUOUS
 62
     3
 10
406.7206722595733
 20
-2.687614036458597
 30
0.0
 11
406.854400286917
 21
-2.750968528645866
 31
0.0
  0
LINE
  5
B79
  8
OUTLINE
  6
CONTINUOUS
 62
     3
 10
406.6426693298863
 20
-2.622642112630241
 30
0.0
 11
406.7206722595733
 21
-2.687614036458597
 31
0.0
  0
LINE
  5
B7A
  8
OUTLINE
  6
CONTINUOUS
 62
     3
 10
406.5794063904323
 20
-2.543204856770866
 30
0.0
 11
406.6426693298863
 21
-2.622642112630241
 31
0.0
  0
LINE
  5
B7B
  8
OUTLINE
  6
CONTINUOUS
 62
     3
 10
406.499999652151
 20
-2.272513938802116
 30
0.0
 11
406.5188289978546
 21
-2.408561302083366
 31
0.0
  0
LINE
  5
B7C
  8
OUTLINE
  6
CONTINUOUS
 62
     3
 10
406.9894100525421
 20
-2.772330833333369
 30
0.0
 11
406.854400286917
 21
-2.750968528645866
 31
0.0
  0
LINE
  5
B7D
  8
OUTLINE
  6
CONTINUOUS
 62
     3
 10
406.9999996521509
 20
-2.772513938802119
 30
0.0
 11
407.1326900818394
 21
-2.774894309895869
 31
0.0
  0
LINE
  5
B7E
  8
OUTLINE
  6
CONTINUOUS
 62
     3
 10
417.4683834412141
 20
-2.960837913411494
 30
0.0
 11
406.9894100525421
 21
-2.772330833333369
 31
0.0
  0
LINE
  5
B7F
  8
OUTLINE
  6
CONTINUOUS
 62
     3
 10
404.5981136658232
 20
2.234718846422792
 30
0.0
 11
405.5179745056671
 21
2.218147801500917
 31
0.0
  0
LINE
  5
B80
  8
OUTLINE
  6
CONTINUOUS
 62
     3
 10
405.789703021292
 20
2.175453709703815
 30
0.0
 11
405.5179745056671
 21
2.218147801500917
 31
0.0
  0
LINE
  5
B81
  8
OUTLINE
  6
CONTINUOUS
 62
     3
 10
406.056884417776
 20
2.048927830797792
 30
0.0
 11
405.789703021292
 21
2.175453709703815
 31
0.0
  0
LINE
  5
B82
  8
OUTLINE
  6
CONTINUOUS
 62
     3
 10
406.2134395935571
 20
1.919045018297791
 30
0.0
 11
406.056884417776
 21
2.048927830797792
 31
0.0
  0
LINE
  5
B83
  8
OUTLINE
  6
CONTINUOUS
 62
     3
 10
406.3404842712921
 20
1.760170506579041
 30
0.0
 11
406.2134395935571
 21
1.919045018297791
 31
0.0
  0
LINE
  5
B84
  8
OUTLINE
  6
CONTINUOUS
 62
     3
 10
406.462157855276
 20
1.490791844469441
 30
0.0
 11
406.3404842712921
 21
1.760170506579041
 31
0.0
  0
LINE
  5
B85
  8
OUTLINE
  6
CONTINUOUS
 62
     3
 10
406.499999652151
 20
1.218330892068507
 30
0.0
 11
406.462157855276
 21
1.490791844469441
 31
0.0
  0
LINE
  5
B86
  8
OUTLINE
  6
CONTINUOUS
 62
     3
 10
404.499999652151
 20
2.236458348375917
 30
0.0
 11
404.499999652151
 21
-2.563529563802116
 31
0.0
  0
LINE
  5
B87
  8
OUTLINE
  6
CONTINUOUS
 62
     3
 10
404.499999652151
 20
2.236458348375917
 30
0.0
 11
404.5981136658232
 21
2.234718846422792
 31
0.0
  0
LINE
  5
B88
  8
OUTLINE
  6
CONTINUOUS
 62
     3
 10
404.6612850525421
 20
0.7852864733759188
 30
0.0
 11
404.6876217224641
 21
-2.744437766927347
 31
0.0
  0
LINE
  5
B89
  8
OUTLINE
  6
CONTINUOUS
 62
     3
 10
404.6321102478546
 20
1.862282322985066
 30
0.0
 11
404.6612850525421
 21
0.7852864733759188
 31
0.0
  0
LINE
  5
B8A
  8
OUTLINE
  6
CONTINUOUS
 62
     3
 10
404.5981136658232
 20
2.234718846422792
 30
0.0
 11
404.6321102478546
 21
1.862282322985066
 31
0.0
  0
LINE
  5
B8B
  8
OUTLINE
  6
CONTINUOUS
 62
     3
 10
404.499999652151
 20
7.213997291666629
 30
0.0
 11
404.499999652151
 21
2.236458348375917
 31
0.0
  0
LINE
  5
B8C
  8
OUTLINE
  6
CONTINUOUS
 62
     3
 10
402.9999996521508
 20
-2.590517831700679
 30
0.0
 11
404.499999652151
 21
-2.563529563802116
 31
0.0
  0
LINE
  5
B8D
  8
OUTLINE
  6
CONTINUOUS
 62
     3
 10
404.567870745901
 20
-4.173484397786494
 30
0.0
 11
404.5960079529321
 21
-8.062675071614844
 31
0.0
  0
LINE
  5
B8E
  8
OUTLINE
  6
CONTINUOUS
 62
     3
 10
404.5367428162141
 20
-2.981589866536494
 30
0.0
 11
404.567870745901
 21
-4.173484397786494
 31
0.0
  0
LINE
  5
B8F
  8
OUTLINE
  6
CONTINUOUS
 62
     3
 10
404.499999652151
 20
-2.563529563802116
 30
0.0
 11
404.5367428162141
 21
-2.981589866536494
 31
0.0
  0
LINE
  5
B90
  8
OUTLINE
  6
CONTINUOUS
 62
     3
 10
403.7000118591822
 20
14.8504413834635
 30
0.0
 11
403.6698604919951
 21
14.8509601822914
 31
0.0
  0
LINE
  5
B91
  8
OUTLINE
  6
CONTINUOUS
 62
     3
 10
403.999999652151
 20
14.84519140635168
 30
0.0
 11
403.999999652151
 21
-2.572526050465936
 31
0.0
  0
LINE
  5
B92
  8
OUTLINE
  6
CONTINUOUS
 62
     3
 10
406.499999652151
 20
-94.72778947438583
 30
0.0
 11
406.499999652151
 21
-90.74570329274522
 31
0.0
  0
LINE
  5
B93
  8
OUTLINE
  6
CONTINUOUS
 62
     3
 10
404.5367428162141
 20
-90.52855546559654
 30
0.0
 11
404.499999652151
 21
-90.94663102712023
 31
0.0
  0
LINE
  5
B94
  8
OUTLINE
  6
CONTINUOUS
 62
     3
 10
404.567870745901
 20
-89.33667619313584
 30
0.0
 11
404.5367428162141
 21
-90.52855546559654
 31
0.0
  0
LINE
  5
B95
  8
OUTLINE
  6
CONTINUOUS
 62
     3
 10
404.5960079529321
 20
-85.44745500172935
 30
0.0
 11
404.567870745901
 21
-89.33667619313584
 31
0.0
  0
LINE
  5
B96
  8
OUTLINE
  6
CONTINUOUS
 62
     3
 10
404.499999652151
 20
-90.94663102712023
 30
0.0
 11
402.9999996521508
 21
-90.91964585866296
 31
0.0
  0
LINE
  5
B97
  8
OUTLINE
  6
CONTINUOUS
 62
     3
 10
403.7051388123073
 20
-91.65115983571374
 30
0.0
 11
403.717681536917
 21
-90.93255479420984
 31
0.0
  0
LINE
  5
B98
  8
OUTLINE
  6
CONTINUOUS
 62
     3
 10
402.9999996521508
 20
-91.94591386403405
 30
0.0
 11
404.499999652151
 21
-91.94591386403405
 31
0.0
  0
LINE
  5
B99
  8
OUTLINE
  6
CONTINUOUS
 62
     3
 10
404.6321102478546
 20
-95.37174089040124
 30
0.0
 11
404.5981136658232
 21
-95.74414689626083
 31
0.0
  0
LINE
  5
B9A
  8
OUTLINE
  6
CONTINUOUS
 62
     3
 10
404.6612850525421
 20
-94.29474504079187
 30
0.0
 11
404.6321102478546
 21
-95.37174089040124
 31
0.0
  0
LINE
  5
B9B
  8
OUTLINE
  6
CONTINUOUS
 62
     3
 10
404.6876217224641
 20
-90.76502091969836
 30
0.0
 11
404.6612850525421
 21
-94.29474504079187
 31
0.0
  0
LINE
  5
B9C
  8
OUTLINE
  6
CONTINUOUS
 62
     3
 10
404.5981136658232
 20
-95.74414689626083
 30
0.0
 11
404.499999652151
 21
-95.74591691579185
 31
0.0
  0
LINE
  5
B9D
  8
OUTLINE
  6
CONTINUOUS
 62
     3
 10
404.499999652151
 20
-90.94663102712023
 30
0.0
 11
404.499999652151
 21
-95.74591691579185
 31
0.0
  0
LINE
  5
B9E
  8
OUTLINE
  6
CONTINUOUS
 62
     3
 10
404.5981136658232
 20
-95.74414689626083
 30
0.0
 11
405.5179745056671
 21
-95.72760636891685
 31
0.0
  0
ARC
  5
B9F
  8
OUTLINE
  6
CONTINUOUS
 62
     3
 10
405.4866738646341
 20
-94.71467927437286
 30
0.0
 40
1.013410592499622
 50
271.7699438947443
 51
359.2587603794576
  0
ARC
  5
BA0
  8
OUTLINE
  6
CONTINUOUS
 62
     3
 10
403.405187175289
 20
-91.64591640049338
 30
0.0
 40
0.2999974635936347
 50
269.9989231411788
 51
358.9985181774766
  0
LINE
  5
BA1
  8
OUTLINE
  6
CONTINUOUS
 62
     3
 10
404.5960079529321
 20
-85.44745500172935
 30
0.0
 11
404.5960079529321
 21
-8.062675071614844
 31
0.0
  0
LINE
  5
BA2
  8
OUTLINE
  6
CONTINUOUS
 62
     3
 10
406.499999652151
 20
-90.74570329274522
 30
0.0
 11
406.499999652151
 21
-2.763755393880244
 31
0.0
  0
LINE
  5
BA3
  8
OUTLINE
  6
CONTINUOUS
 62
     3
 10
404.6876217224641
 20
-2.744437766927347
 30
0.0
 11
404.6876217224641
 21
-90.76502091969836
 31
0.0
  0
LINE
  5
BA4
  8
OUTLINE
  6
CONTINUOUS
 62
     3
 10
404.1786800720733
 20
115.3654951325472
 30
0.0
 11
411.6011959412142
 21
107.9429640046181
 31
0.0
  0
LINE
  5
BA5
  8
OUTLINE
  6
CONTINUOUS
 62
     3
 10
403.2999874451201
 20
130.7441648713175
 30
0.0
 11
402.9999996521508
 21
130.7441648713175
 31
0.0
  0
LINE
  5
BA6
  8
OUTLINE
  6
CONTINUOUS
 62
     3
 10
403.2999874451201
 20
131.7441648713175
 30
0.0
 11
403.2999874451201
 21
130.7441648713175
 31
0.0
  0
LINE
  5
BA7
  8
OUTLINE
  6
CONTINUOUS
 62
     3
 10
402.9999996521508
 20
131.7441648713175
 30
0.0
 11
403.2999874451201
 21
131.7441648713175
 31
0.0
  0
LINE
  5
BA8
  8
OUTLINE
  6
CONTINUOUS
 62
     3
 10
403.2999874451201
 20
130.7441648713175
 30
0.0
 11
403.2999874451201
 21
125.7441725007124
 31
0.0
  0
ARC
  5
BA9
  8
OUTLINE
  6
CONTINUOUS
 62
     3
 10
407.1132660731391
 20
103.6842353041214
 30
0.0
 40
6.1869446938854
 50
0.4868178355135644
 51
43.49894049879678
  0
ARC
  5
BAA
  8
OUTLINE
  6
CONTINUOUS
 62
     3
 10
406.2686580893815
 20
117.4738511783386
 30
0.0
 40
2.968698928597492
 50
179.7498918216752
 51
225.2508082316253
  0
LINE
  5
BAB
  8
OUTLINE
  6
CONTINUOUS
 62
     3
 10
405.8666073181671
 20
16.60244600687635
 30
0.0
 11
405.8360592224643
 21
16.60879366312636
 31
0.0
  0
LINE
  5
BAC
  8
OUTLINE
  6
CONTINUOUS
 62
     3
 10
406.3994747498072
 20
16.10880319986975
 30
0.0
 11
406.372222552542
 21
16.14487306986464
 31
0.0
  0
LINE
  5
BAD
  8
OUTLINE
  6
CONTINUOUS
 62
     3
 10
406.1792293884796
 20
16.40036718760146
 30
0.0
 11
406.1657406189483
 21
16.41819708262099
 31
0.0
  0
LINE
  5
BAE
  8
OUTLINE
  6
CONTINUOUS
 62
     3
 10
405.9328914978546
 20
16.56135218058264
 30
0.0
 11
405.8697506287144
 21
16.6001629105631
 31
0.0
  0
LINE
  5
BAF
  8
OUTLINE
  6
CONTINUOUS
 62
     3
 10
406.1657406189483
 20
16.41819708262099
 30
0.0
 11
406.138183245901
 21
16.4351305237831
 31
0.0
  0
LINE
  5
BB0
  8
OUTLINE
  6
CONTINUOUS
 62
     3
 10
405.8697506287144
 20
16.6001629105631
 30
0.0
 11
405.8666073181671
 21
16.60244600687635
 31
0.0
  0
LINE
  5
BB1
  8
OUTLINE
  6
CONTINUOUS
 62
     3
 10
406.499999652151
 20
19.63697187815345
 30
0.0
 11
406.499999652151
 21
20.61832563791907
 31
0.0
  0
LINE
  5
BB2
  8
OUTLINE
  6
CONTINUOUS
 62
     3
 10
402.9999996521508
 20
17.83646528635657
 30
0.0
 11
403.1013790466822
 21
17.83646528635657
 31
0.0
  0
LINE
  5
BB3
  8
OUTLINE
  6
CONTINUOUS
 62
     3
 10
403.1013790466822
 20
17.83646528635657
 30
0.0
 11
403.3410030701201
 21
17.83646528635657
 31
0.0
  0
LINE
  5
BB4
  8
OUTLINE
  6
CONTINUOUS
 62
     3
 10
404.499999652151
 20
16.70844309244787
 30
0.0
 11
405.5359493591821
 21
16.67118112955703
 31
0.0
  0
LINE
  5
BB5
  8
OUTLINE
  6
CONTINUOUS
 62
     3
 10
403.3530575134795
 20
17.83646528635657
 30
0.0
 11
404.499999652151
 21
17.83646528635657
 31
0.0
  0
LINE
  5
BB6
  8
OUTLINE
  6
CONTINUOUS
 62
     3
 10
404.499999652151
 20
21.63648359690345
 30
0.0
 11
405.4476620056671
 21
21.61942427073157
 31
0.0
  0
LINE
  5
BB7
  8
OUTLINE
  6
CONTINUOUS
 62
     3
 10
406.2196956970733
 20
16.3660969010414
 30
0.0
 11
406.3439327576201
 21
16.20825998697912
 31
0.0
  0
LINE
  5
BB8
  8
OUTLINE
  6
CONTINUOUS
 62
     3
 10
406.0664669373072
 20
16.49588816080703
 30
0.0
 11
406.2196956970733
 21
16.3660969010414
 31
0.0
  0
LINE
  5
BB9
  8
OUTLINE
  6
CONTINUOUS
 62
     3
 10
405.8041683533232
 20
16.62442819986975
 30
0.0
 11
406.0664669373072
 21
16.49588816080703
 31
0.0
  0
LINE
  5
BBA
  8
OUTLINE
  6
CONTINUOUS
 62
     3
 10
405.5359493591821
 20
16.67118112955703
 30
0.0
 11
405.8041683533232
 21
16.62442819986975
 31
0.0
  0
LINE
  5
BBB
  8
OUTLINE
  6
CONTINUOUS
 62
     3
 10
405.6736446716822
 20
21.60312788401282
 30
0.0
 11
405.5179745056671
 21
21.61817305002822
 31
0.0
  0
LINE
  5
BBC
  8
OUTLINE
  6
CONTINUOUS
 62
     3
 10
405.999999652151
 20
21.48435346995032
 30
0.0
 11
405.6736446716822
 21
21.60312788401282
 31
0.0
  0
LINE
  5
BBD
  8
OUTLINE
  6
CONTINUOUS
 62
     3
 10
406.2660518982451
 20
21.26111738596595
 30
0.0
 11
405.999999652151
 21
21.48435346995032
 31
0.0
  0
LINE
  5
BBE
  8
OUTLINE
  6
CONTINUOUS
 62
     3
 10
406.439696917776
 20
20.96033613596594
 30
0.0
 11
406.2660518982451
 21
21.26111738596595
 31
0.0
  0
LINE
  5
BBF
  8
OUTLINE
  6
CONTINUOUS
 62
     3
 10
406.499999652151
 20
20.61832563791907
 30
0.0
 11
406.439696917776
 21
20.96033613596594
 31
0.0
  0
LINE
  5
BC0
  8
OUTLINE
  6
CONTINUOUS
 62
     3
 10
404.499999652151
 20
18.67804853830946
 30
0.0
 11
404.499999652151
 21
19.67295210276281
 31
0.0
  0
LINE
  5
BC1
  8
OUTLINE
  6
CONTINUOUS
 62
     3
 10
404.499999652151
 20
17.20353071604383
 30
0.0
 11
404.499999652151
 21
18.67804853830946
 31
0.0
  0
LINE
  5
BC2
  8
OUTLINE
  6
CONTINUOUS
 62
     3
 10
404.499999652151
 20
21.63648359690345
 30
0.0
 11
404.499999652151
 21
19.67295210276281
 31
0.0
  0
LINE
  5
BC3
  8
OUTLINE
  6
CONTINUOUS
 62
     3
 10
405.8129574158233
 20
16.62011568461074
 30
0.0
 11
405.9927059509796
 21
16.58698313151015
 31
0.0
  0
LINE
  5
BC4
  8
OUTLINE
  6
CONTINUOUS
 62
     3
 10
403.640227923636
 20
17.62326948557532
 30
0.0
 11
403.6530147888702
 21
17.54169599924719
 31
0.0
  0
LINE
  5
BC5
  8
OUTLINE
  6
CONTINUOUS
 62
     3
 10
403.602294574026
 20
17.70343916330946
 30
0.0
 11
403.640227923636
 21
17.62326948557532
 31
0.0
  0
LINE
  5
BC6
  8
OUTLINE
  6
CONTINUOUS
 62
     3
 10
403.5633541443393
 20
17.75043623362219
 30
0.0
 11
403.602294574026
 21
17.70343916330946
 31
0.0
  0
LINE
  5
BC7
  8
OUTLINE
  6
CONTINUOUS
 62
     3
 10
403.5156551697296
 20
17.78858320627821
 30
0.0
 11
403.5633541443393
 21
17.75043623362219
 31
0.0
  0
LINE
  5
BC8
  8
OUTLINE
  6
CONTINUOUS
 62
     3
 10
403.434814105276
 20
17.82511274729384
 30
0.0
 11
403.5156551697296
 21
17.78858320627821
 31
0.0
  0
LINE
  5
BC9
  8
OUTLINE
  6
CONTINUOUS
 62
     3
 10
403.3530575134795
 20
17.83646528635657
 30
0.0
 11
403.434814105276
 21
17.82511274729384
 31
0.0
  0
LINE
  5
BCA
  8
OUTLINE
  6
CONTINUOUS
 62
     3
 10
403.3410030701201
 20
17.83646528635657
 30
0.0
 11
403.4178463318394
 21
17.82511274729384
 31
0.0
  0
LINE
  5
BCB
  8
OUTLINE
  6
CONTINUOUS
 62
     3
 10
404.499999652151
 20
17.20353071604383
 30
0.0
 11
404.499999652151
 21
16.70844309244787
 31
0.0
  0
LINE
  5
BCC
  8
OUTLINE
  6
CONTINUOUS
 62
     3
 10
403.3410030701201
 20
17.83646528635657
 30
0.0
 11
403.3530575134795
 21
17.83646528635657
 31
0.0
  0
LINE
  5
BCD
  8
OUTLINE
  6
CONTINUOUS
 62
     3
 10
405.4476620056671
 20
21.61942427073157
 30
0.0
 11
405.5179745056671
 21
21.61817305002822
 31
0.0
  0
LINE
  5
BCE
  8
OUTLINE
  6
CONTINUOUS
 62
     3
 10
404.1786495544951
 20
51.62284223948158
 30
0.0
 11
411.6011959412142
 21
59.0453886262003
 31
0.0
  0
LINE
  5
BCF
  8
OUTLINE
  6
CONTINUOUS
 62
     3
 10
403.2999874451201
 20
32.74417440806067
 30
0.0
 11
402.9999996521508
 21
32.74417440806067
 31
0.0
  0
LINE
  5
BD0
  8
OUTLINE
  6
CONTINUOUS
 62
     3
 10
402.9999996521508
 20
44.74417250071158
 30
0.0
 11
403.2999874451201
 21
44.74417250071158
 31
0.0
  0
LINE
  5
BD1
  8
OUTLINE
  6
CONTINUOUS
 62
     3
 10
403.2999874451201
 20
39.74417250071158
 30
0.0
 11
403.2999874451201
 21
37.74417250071158
 31
0.0
  0
LINE
  5
BD2
  8
OUTLINE
  6
CONTINUOUS
 62
     3
 10
403.2999874451201
 20
39.74417250071158
 30
0.0
 11
403.2999874451201
 21
44.74417250071158
 31
0.0
  0
LINE
  5
BD3
  8
OUTLINE
  6
CONTINUOUS
 62
     3
 10
403.2999874451201
 20
32.74417440806067
 30
0.0
 11
403.2999874451201
 21
37.74417250071158
 31
0.0
  0
LINE
  5
BD4
  8
OUTLINE
  6
CONTINUOUS
 62
     3
 10
403.2999874451201
 20
49.74417250071158
 30
0.0
 11
403.2999874451201
 21
44.74417250071158
 31
0.0
  0
LINE
  5
BD5
  8
OUTLINE
  6
CONTINUOUS
 62
     3
 10
403.999999652151
 20
51.40556471262611
 30
0.0
 11
403.999999652151
 21
27.6868147126261
 31
0.0
  0
LINE
  5
BD6
  8
OUTLINE
  6
CONTINUOUS
 62
     3
 10
403.999999652151
 20
25.56549208079063
 30
0.0
 11
403.999999652151
 21
27.6868147126261
 31
0.0
  0
LINE
  5
BD7
  8
OUTLINE
  6
CONTINUOUS
 62
     3
 10
403.999999652151
 20
25.56549208079063
 30
0.0
 11
403.999999652151
 21
18.82285063181601
 31
0.0
  0
LINE
  5
BD8
  8
OUTLINE
  6
CONTINUOUS
 62
     3
 10
403.999999652151
 20
17.84958021555623
 30
0.0
 11
403.999999652151
 21
18.82285063181601
 31
0.0
  0
LINE
  5
BD9
  8
OUTLINE
  6
CONTINUOUS
 62
     3
 10
403.999999652151
 20
17.83646528635703
 30
0.0
 11
403.999999652151
 21
17.84958021555623
 31
0.0
  0
ARC
  5
BDA
  8
OUTLINE
  6
CONTINUOUS
 62
     3
 10
407.4951036479347
 20
63.14990050051964
 30
0.0
 40
5.805773992101272
 50
315.0110285836862
 51
1.003357431362782
  0
ARC
  5
BDB
  8
OUTLINE
  6
CONTINUOUS
 62
     3
 10
406.5048139492896
 20
49.41669870269791
 30
0.0
 40
3.205949172476326
 50
136.5169052864125
 51
178.4836560611722
  0
LINE
  5
BDC
  8
OUTLINE
  6
CONTINUOUS
 62
     3
 10
413.2999874451201
 20
103.7368025055943
 30
0.0
 11
413.2999874451201
 21
63.25156538401284
 31
0.0
  0
LINE
  5
BDD
  8
OUTLINE
  6
CONTINUOUS
 62
     3
 10
403.2999874451201
 20
125.7441725007124
 30
0.0
 11
403.2999874451201
 21
49.74417250071158
 31
0.0
  0
LINE
  5
BDE
  8
OUTLINE
  6
CONTINUOUS
 62
     3
 10
260.3372494080109
 20
164.3440946808872
 30
0.0
 11
260.918487200979
 21
157.7005094758094
 31
0.0
  0
LINE
  5
BDF
  8
OUTLINE
  6
CONTINUOUS
 62
     3
 10
261.6330105164088
 20
164.3440946808872
 30
0.0
 11
256.5325771667999
 21
164.3440946808872
 31
0.0
  0
ARC
  5
BE0
  8
OUTLINE
  6
CONTINUOUS
 62
     3
 10
262.3649144601608
 20
169.5221674820298
 30
0.0
 40
7.202670526118134
 50
90.66081734434192
 51
178.5644249847803
  0
ARC
  5
BE1
  8
OUTLINE
  6
CONTINUOUS
 62
     3
 10
268.5533823460746
 20
155.2230032216547
 30
0.0
 40
19.72109283228771
 50
46.85270921476073
 51
132.7586450779064
  0
LINE
  5
BE2
  8
OUTLINE
  6
CONTINUOUS
 62
     3
 10
244.9999996521509
 20
158.7441648713178
 30
0.0
 11
244.9999996521509
 21
169.2441648713179
 31
0.0
  0
LINE
  5
BE3
  8
OUTLINE
  6
CONTINUOUS
 62
     3
 10
245.1648556091821
 20
157.4708189240518
 30
0.0
 11
245.2570644714874
 21
157.2440885773725
 31
0.0
  0
LINE
  5
BE4
  8
OUTLINE
  6
CONTINUOUS
 62
     3
 10
244.9999996521509
 20
158.7441648713178
 30
0.0
 11
245.1648556091821
 21
157.4708189240518
 31
0.0
  0
LINE
  5
BE5
  8
OUTLINE
  6
CONTINUOUS
 62
     3
 10
229.9999996521509
 20
158.5653623810835
 30
0.0
 11
229.9999996521509
 21
157.2440885773725
 31
0.0
  0
LINE
  5
BE6
  8
OUTLINE
  6
CONTINUOUS
 62
     3
 10
229.9999996521509
 20
169.2441648713179
 30
0.0
 11
229.9999996521509
 21
158.5653623810835
 31
0.0
  0
LINE
  5
BE7
  8
OUTLINE
  6
CONTINUOUS
 62
     3
 10
253.4090877869165
 20
164.3440946808872
 30
0.0
 11
253.5325771667998
 21
164.3440946808872
 31
0.0
  0
LINE
  5
BE8
  8
OUTLINE
  6
CONTINUOUS
 62
     3
 10
253.4090877869165
 20
164.3440946808872
 30
0.0
 11
253.5164791443385
 21
158.1917356720983
 31
0.0
  0
LINE
  5
BE9
  8
OUTLINE
  6
CONTINUOUS
 62
     3
 10
253.9051205017608
 20
164.3440946808872
 30
0.0
 11
253.5330196716818
 21
157.2440885773723
 31
0.0
  0
LINE
  5
BEA
  8
OUTLINE
  6
CONTINUOUS
 62
     3
 10
253.5164791443385
 20
158.1917356720983
 30
0.0
 11
253.569366107229
 21
157.9374937287392
 31
0.0
  0
LINE
  5
BEB
  8
OUTLINE
  6
CONTINUOUS
 62
     3
 10
253.5330196716818
 20
157.2440885773723
 30
0.0
 11
253.6476436951196
 21
157.5465482941683
 31
0.0
  0
LINE
  5
BEC
  8
OUTLINE
  6
CONTINUOUS
 62
     3
 10
253.5330196716818
 20
157.2440885773723
 30
0.0
 11
253.6460720398467
 21
157.2614988556925
 31
0.0
  0
LINE
  5
BED
  8
OUTLINE
  6
CONTINUOUS
 62
     3
 10
253.5798488953151
 20
167.0271848908483
 30
0.0
 11
253.5325771667998
 21
164.3440946808872
 31
0.0
  0
LINE
  5
BEE
  8
OUTLINE
  6
CONTINUOUS
 62
     3
 10
253.5325771667998
 20
164.3440946808872
 30
0.0
 11
256.5325771667999
 21
164.3440946808872
 31
0.0
  0
ARC
  5
BEF
  8
OUTLINE
  6
CONTINUOUS
 62
     3
 10
237.4999996521505
 20
169.1209844743627
 30
0.0
 40
7.501011492471342
 50
0.9409443148979185
 51
179.0590556851017
  0
ARC
  5
BF0
  8
OUTLINE
  6
CONTINUOUS
 62
     3
 10
256.8768749674481
 20
166.8813688024424
 30
0.0
 40
3.300248968178226
 50
121.2558771571403
 51
177.467655560901
  0
LINE
  5
BF1
  8
OUTLINE
  6
CONTINUOUS
 62
     3
 10
387.9390560486354
 20
147.7441648713175
 30
0.0
 11
298.1313778259791
 21
147.7441648713175
 31
0.0
  0
LINE
  5
BF2
  8
OUTLINE
  6
CONTINUOUS
 62
     3
 10
391.999999652151
 20
148.7441648713179
 30
0.0
 11
325.7168880798863
 21
148.7441648713179
 31
0.0
  0
LINE
  5
BF3
  8
OUTLINE
  6
CONTINUOUS
 62
     3
 10
275.874023089651
 20
151.2441648713174
 30
0.0
 11
292.7259823181667
 21
151.2441648713174
 31
0.0
  0
LINE
  5
BF4
  8
OUTLINE
  6
CONTINUOUS
 62
     3
 10
298.1313778259791
 20
147.7441648713175
 30
0.0
 11
297.8252254822292
 21
147.8050626984658
 31
0.0
  0
LINE
  5
BF5
  8
OUTLINE
  6
CONTINUOUS
 62
     3
 10
297.8252254822292
 20
147.8050626984658
 30
0.0
 11
297.565673480276
 21
147.9784788361612
 31
0.0
  0
LINE
  5
BF6
  8
OUTLINE
  6
CONTINUOUS
 62
     3
 10
295.4129940369167
 20
150.1311735383097
 30
0.0
 11
297.565673480276
 21
147.9784788361612
 31
0.0
  0
LINE
  5
BF7
  8
OUTLINE
  6
CONTINUOUS
 62
     3
 10
323.4207760193393
 20
148.2874540558878
 30
0.0
 11
322.6076961853546
 21
147.7441648713179
 31
0.0
  0
LINE
  5
BF8
  8
OUTLINE
  6
CONTINUOUS
 62
     3
 10
299.5792232849643
 20
148.2874540558878
 30
0.0
 11
300.3923031189483
 21
147.7441648713179
 31
0.0
  0
LINE
  5
BF9
  8
OUTLINE
  6
CONTINUOUS
 62
     3
 10
297.2831264832066
 20
148.7441648713179
 30
0.0
 11
296.7999874451202
 21
148.7441648713179
 31
0.0
  0
ARC
  5
BFA
  8
OUTLINE
  6
CONTINUOUS
 62
     3
 10
325.7168476600189
 20
142.7441649137127
 30
0.0
 40
5.999999957741187
 50
89.99961401869997
 51
112.4997009015426
  0
ARC
  5
BFB
  8
OUTLINE
  6
CONTINUOUS
 62
     3
 10
297.2831514759727
 20
142.7441640664397
 30
0.0
 40
6.000000804929717
 50
67.50030070973712
 51
90.00023866331917
  0
LINE
  5
BFC
  8
OUTLINE
  6
CONTINUOUS
 62
     3
 10
284.0382229187525
 20
157.5716184845983
 30
0.0
 11
284.0094295837916
 21
157.7005094758094
 31
0.0
  0
LINE
  5
BFD
  8
OUTLINE
  6
CONTINUOUS
 62
     3
 10
284.1050564148466
 20
157.4474272004182
 30
0.0
 11
284.0382229187525
 21
157.5716184845983
 31
0.0
  0
LINE
  5
BFE
  8
OUTLINE
  6
CONTINUOUS
 62
     3
 10
284.1697384216818
 20
157.3754514924113
 30
0.0
 11
284.1050564148466
 21
157.4474272004182
 31
0.0
  0
LINE
  5
BFF
  8
OUTLINE
  6
CONTINUOUS
 62
     3
 10
284.247069964651
 20
157.3172849885053
 30
0.0
 11
284.1697384216818
 21
157.3754514924113
 31
0.0
  0
LINE
  5
C00
  8
OUTLINE
  6
CONTINUOUS
 62
     3
 10
284.3766170837916
 20
157.2615293732704
 30
0.0
 11
284.247069964651
 21
157.3172849885053
 31
0.0
  0
LINE
  5
C01
  8
OUTLINE
  6
CONTINUOUS
 62
     3
 10
274.2329555847677
 20
185.7352537385053
 30
0.0
 11
274.1707149841818
 21
185.8066953888953
 31
0.0
  0
LINE
  5
C02
  8
OUTLINE
  6
CONTINUOUS
 62
     3
 10
274.2765804626979
 20
185.6513303986614
 30
0.0
 11
274.2329555847677
 21
185.7352537385053
 31
0.0
  0
LINE
  5
C03
  8
OUTLINE
  6
CONTINUOUS
 62
     3
 10
273.9669643738311
 20
185.9238828888953
 30
0.0
 11
273.8265377380889
 21
185.9440092316683
 31
0.0
  0
LINE
  5
C04
  8
OUTLINE
  6
CONTINUOUS
 62
     3
 10
274.3511349060568
 20
184.9876341095982
 30
0.0
 11
274.325851092581
 21
185.4701780549114
 31
0.0
  0
LINE
  5
C05
  8
OUTLINE
  6
CONTINUOUS
 62
     3
 10
274.9275966980499
 20
173.9881071320593
 30
0.0
 11
274.8039242126978
 21
176.3481077424114
 31
0.0
  0
LINE
  5
C06
  8
OUTLINE
  6
CONTINUOUS
 62
     3
 10
274.8039242126978
 20
176.3481077424114
 30
0.0
 11
274.3511349060568
 21
184.9876341095982
 31
0.0
  0
LINE
  5
C07
  8
OUTLINE
  6
CONTINUOUS
 62
     3
 10
273.9669643738311
 20
185.9238828888953
 30
0.0
 11
273.8265377380889
 21
185.9440092316683
 31
0.0
  0
LINE
  5
C08
  8
OUTLINE
  6
CONTINUOUS
 62
     3
 10
274.0960995056665
 20
185.8651212922164
 30
0.0
 11
273.9669643738311
 21
185.9238828888953
 31
0.0
  0
LINE
  5
C09
  8
OUTLINE
  6
CONTINUOUS
 62
     3
 10
274.1707149841818
 20
185.8066953888953
 30
0.0
 11
274.0960995056665
 21
185.8651212922164
 31
0.0
  0
LINE
  5
C0A
  8
OUTLINE
  6
CONTINUOUS
 62
     3
 10
274.2329555847677
 20
185.7352537385053
 30
0.0
 11
274.1707149841818
 21
185.8066953888953
 31
0.0
  0
LINE
  5
C0B
  8
OUTLINE
  6
CONTINUOUS
 62
     3
 10
274.2765804626979
 20
185.6513303986614
 30
0.0
 11
274.2329555847677
 21
185.7352537385053
 31
0.0
  0
LINE
  5
C0C
  8
OUTLINE
  6
CONTINUOUS
 62
     3
 10
274.2984005310568
 20
185.6093687287392
 30
0.0
 11
274.2765804626979
 21
185.6513303986614
 31
0.0
  0
LINE
  5
C0D
  8
OUTLINE
  6
CONTINUOUS
 62
     3
 10
274.325851092581
 20
185.4701780549114
 30
0.0
 11
274.2984005310568
 21
185.6093687287392
 31
0.0
  0
LINE
  5
C0E
  8
OUTLINE
  6
CONTINUOUS
 62
     3
 10
283.5156704285176
 20
163.3442625275674
 30
0.0
 11
283.5331722595729
 21
164.3440946808872
 31
0.0
  0
LINE
  5
C0F
  8
OUTLINE
  6
CONTINUOUS
 62
     3
 10
283.4281917908228
 20
164.3440946808872
 30
0.0
 11
284.0094295837916
 21
157.7005094758094
 31
0.0
  0
LINE
  5
C10
  8
OUTLINE
  6
CONTINUOUS
 62
     3
 10
276.1475521423859
 20
157.7005094758094
 30
0.0
 11
276.7287899353541
 21
164.3440946808872
 31
0.0
  0
LINE
  5
C11
  8
OUTLINE
  6
CONTINUOUS
 62
     3
 10
275.6078487732447
 20
157.2440885773723
 30
0.0
 11
276.1076198914088
 21
157.2440885773723
 31
0.0
  0
LINE
  5
C12
  8
OUTLINE
  6
CONTINUOUS
 62
     3
 10
276.1251674988311
 20
157.4445280304973
 30
0.0
 11
276.1475521423859
 21
157.7005094758094
 31
0.0
  0
LINE
  5
C13
  8
OUTLINE
  6
CONTINUOUS
 62
     3
 10
276.1076198914088
 20
157.2440885773723
 30
0.0
 11
276.1251674988311
 21
157.4445280304973
 31
0.0
  0
LINE
  5
C14
  8
OUTLINE
  6
CONTINUOUS
 62
     3
 10
276.1918484070339
 20
152.4185880890913
 30
0.0
 11
276.1076198914088
 21
157.2440885773723
 31
0.0
  0
LINE
  5
C15
  8
OUTLINE
  6
CONTINUOUS
 62
     3
 10
284.0382229187525
 20
157.5716184845983
 30
0.0
 11
284.0094295837916
 21
157.7005094758094
 31
0.0
  0
LINE
  5
C16
  8
OUTLINE
  6
CONTINUOUS
 62
     3
 10
284.5075374939479
 20
157.2440885773723
 30
0.0
 11
284.3766170837916
 21
157.2615293732704
 31
0.0
  0
LINE
  5
C17
  8
OUTLINE
  6
CONTINUOUS
 62
     3
 10
284.1050564148466
 20
157.4474272004182
 30
0.0
 11
284.0382229187525
 21
157.5716184845983
 31
0.0
  0
LINE
  5
C18
  8
OUTLINE
  6
CONTINUOUS
 62
     3
 10
284.1697384216818
 20
157.3754514924113
 30
0.0
 11
284.1050564148466
 21
157.4474272004182
 31
0.0
  0
LINE
  5
C19
  8
OUTLINE
  6
CONTINUOUS
 62
     3
 10
284.247069964651
 20
157.3172849885053
 30
0.0
 11
284.1697384216818
 21
157.3754514924113
 31
0.0
  0
LINE
  5
C1A
  8
OUTLINE
  6
CONTINUOUS
 62
     3
 10
284.3766170837916
 20
157.2615293732704
 30
0.0
 11
284.247069964651
 21
157.3172849885053
 31
0.0
  0
LINE
  5
C1B
  8
OUTLINE
  6
CONTINUOUS
 62
     3
 10
291.5138546326197
 20
157.2440885773723
 30
0.0
 11
276.1076198914088
 21
157.2440885773723
 31
0.0
  0
LINE
  5
C1C
  8
OUTLINE
  6
CONTINUOUS
 62
     3
 10
293.6593471863312
 20
151.1129087678014
 30
0.0
 11
293.6137539246118
 21
152.4185880890913
 31
0.0
  0
LINE
  5
C1D
  8
OUTLINE
  6
CONTINUOUS
 62
     3
 10
276.1918484070339
 20
152.4185880890913
 30
0.0
 11
276.2123562195338
 21
151.2441648713174
 31
0.0
  0
LINE
  5
C1E
  8
OUTLINE
  6
CONTINUOUS
 62
     3
 10
293.6137539246118
 20
152.4185880890913
 30
0.0
 11
293.5126491882838
 21
155.3138975373333
 31
0.0
  0
LINE
  5
C1F
  8
OUTLINE
  6
CONTINUOUS
 62
     3
 10
275.6078487732447
 20
157.2440885773723
 30
0.0
 11
275.0609279968776
 21
157.2440885773723
 31
0.0
  0
LINE
  5
C20
  8
OUTLINE
  6
CONTINUOUS
 62
     3
 10
276.1774441101588
 20
153.2441648713174
 30
0.0
 11
274.8512874939478
 21
153.2441648713174
 31
0.0
  0
LINE
  5
C21
  8
OUTLINE
  6
CONTINUOUS
 62
     3
 10
283.4861904480499
 20
167.0271848908483
 30
0.0
 11
283.5330044128927
 21
164.3440946808872
 31
0.0
  0
LINE
  5
C22
  8
OUTLINE
  6
CONTINUOUS
 62
     3
 10
280.533462176565
 20
164.3440946808872
 30
0.0
 11
283.5330044128927
 21
164.3440946808872
 31
0.0
  0
LINE
  5
C23
  8
OUTLINE
  6
CONTINUOUS
 62
     3
 10
280.533462176565
 20
164.3440946808872
 30
0.0
 11
275.4330288269561
 21
164.3440946808872
 31
0.0
  0
LINE
  5
C24
  8
OUTLINE
  6
CONTINUOUS
 62
     3
 10
273.8716579773468
 20
166.4920591584264
 30
0.0
 11
274.0334011414088
 21
157.2440885773723
 31
0.0
  0
LINE
  5
C25
  8
OUTLINE
  6
CONTINUOUS
 62
     3
 10
275.086684832815
 20
157.7353605500284
 30
0.0
 11
275.4330288269561
 21
164.3440946808872
 31
0.0
  0
LINE
  5
C26
  8
OUTLINE
  6
CONTINUOUS
 62
     3
 10
274.7363430359401
 20
151.0509275666304
 30
0.0
 11
274.808028826956
 21
152.4185880890913
 31
0.0
  0
LINE
  5
C27
  8
OUTLINE
  6
CONTINUOUS
 62
     3
 10
275.0609279968776
 20
157.2440885773723
 30
0.0
 11
274.808028826956
 21
152.4185880890913
 31
0.0
  0
LINE
  5
C28
  8
OUTLINE
  6
CONTINUOUS
 62
     3
 10
275.0609279968776
 20
157.2440885773723
 30
0.0
 11
275.086684832815
 21
157.7353605500284
 31
0.0
  0
ARC
  5
C29
  8
OUTLINE
  6
CONTINUOUS
 62
     3
 10
280.158976551002
 20
166.8621652614852
 30
0.0
 40
3.331303617922288
 50
2.839368740570658
 51
55.61844046834369
  0
ARC
  5
C2A
  8
OUTLINE
  6
CONTINUOUS
 62
     3
 10
292.6209515457026
 20
147.1905755713242
 30
0.0
 40
4.054949774804183
 50
46.48442891863346
 51
88.51576630587167
  0
ARC
  5
C2B
  8
OUTLINE
  6
CONTINUOUS
 62
     3
 10
291.490359381677
 20
155.2197445295474
 30
0.0
 40
2.024480390317838
 50
2.665630435208045
 51
89.33503483402777
  0
LINE
  5
C2C
  8
OUTLINE
  6
CONTINUOUS
 62
     3
 10
271.0343014099635
 20
147.9784788361612
 30
0.0
 11
273.187011370901
 21
150.1311735383097
 31
0.0
  0
LINE
  5
C2D
  8
OUTLINE
  6
CONTINUOUS
 62
     3
 10
271.0343014099635
 20
147.9784788361612
 30
0.0
 11
270.4686275818385
 21
147.7441648713175
 31
0.0
  0
LINE
  5
C2E
  8
OUTLINE
  6
CONTINUOUS
 62
     3
 10
262.8330837585966
 20
185.7352537385053
 30
0.0
 11
262.7804256775415
 21
185.6339658967083
 31
0.0
  0
LINE
  5
C2F
  8
OUTLINE
  6
CONTINUOUS
 62
     3
 10
262.886748919729
 20
185.7968534699503
 30
0.0
 11
262.8330837585966
 21
185.7352537385053
 31
0.0
  0
LINE
  5
C30
  8
OUTLINE
  6
CONTINUOUS
 62
     3
 10
262.8953243591818
 20
185.8066953888953
 30
0.0
 11
262.886748919729
 21
185.7968534699503
 31
0.0
  0
LINE
  5
C31
  8
OUTLINE
  6
CONTINUOUS
 62
     3
 10
263.239501605276
 20
185.9440092316683
 30
0.0
 11
263.0990749695338
 21
185.9238828888953
 31
0.0
  0
LINE
  5
C32
  8
OUTLINE
  6
CONTINUOUS
 62
     3
 10
262.7676388123068
 20
185.6093687287392
 30
0.0
 11
262.7401882507838
 21
185.4701780549114
 31
0.0
  0
LINE
  5
C33
  8
OUTLINE
  6
CONTINUOUS
 62
     3
 10
262.8330837585966
 20
185.7352537385053
 30
0.0
 11
262.7804256775415
 21
185.6339658967083
 31
0.0
  0
LINE
  5
C34
  8
OUTLINE
  6
CONTINUOUS
 62
     3
 10
262.9699398376978
 20
185.8651212922164
 30
0.0
 11
262.8953243591818
 21
185.8066953888953
 31
0.0
  0
LINE
  5
C35
  8
OUTLINE
  6
CONTINUOUS
 62
     3
 10
263.239501605276
 20
185.9440092316683
 30
0.0
 11
263.0990749695338
 21
185.9238828888953
 31
0.0
  0
LINE
  5
C36
  8
OUTLINE
  6
CONTINUOUS
 62
     3
 10
262.7804256775415
 20
185.6339658967083
 30
0.0
 11
262.7676388123068
 21
185.6093687287392
 31
0.0
  0
LINE
  5
C37
  8
OUTLINE
  6
CONTINUOUS
 62
     3
 10
262.8953243591818
 20
185.8066953888953
 30
0.0
 11
262.8330837585966
 21
185.7352537385053
 31
0.0
  0
LINE
  5
C38
  8
OUTLINE
  6
CONTINUOUS
 62
     3
 10
263.0990749695338
 20
185.9238828888953
 30
0.0
 11
262.9699398376978
 21
185.8651212922164
 31
0.0
  0
LINE
  5
C39
  8
OUTLINE
  6
CONTINUOUS
 62
     3
 10
262.7401882507838
 20
185.4701780549114
 30
0.0
 11
262.7149044373068
 21
184.9876341095982
 31
0.0
  0
LINE
  5
C3A
  8
OUTLINE
  6
CONTINUOUS
 62
     3
 10
262.2621303894557
 20
176.3481077424114
 30
0.0
 11
262.138442645315
 21
173.9881071320593
 31
0.0
  0
LINE
  5
C3B
  8
OUTLINE
  6
CONTINUOUS
 62
     3
 10
262.7149044373068
 20
184.9876341095982
 30
0.0
 11
262.2621303894557
 21
176.3481077424114
 31
0.0
  0
LINE
  5
C3C
  8
OUTLINE
  6
CONTINUOUS
 62
     3
 10
262.0051113464869
 20
157.2440885773723
 30
0.0
 11
261.4581905701196
 21
157.2440885773723
 31
0.0
  0
LINE
  5
C3D
  8
OUTLINE
  6
CONTINUOUS
 62
     3
 10
260.9584194519557
 20
157.2440885773723
 30
0.0
 11
261.4581905701196
 21
157.2440885773723
 31
0.0
  0
LINE
  5
C3E
  8
OUTLINE
  6
CONTINUOUS
 62
     3
 10
261.1101681091818
 20
153.2441648713174
 30
0.0
 11
261.3967892029318
 21
153.2441648713174
 31
0.0
  0
LINE
  5
C3F
  8
OUTLINE
  6
CONTINUOUS
 62
     3
 10
260.8885952332057
 20
153.2441648713174
 30
0.0
 11
261.1101681091818
 21
153.2441648713174
 31
0.0
  0
LINE
  5
C40
  8
OUTLINE
  6
CONTINUOUS
 62
     3
 10
260.9584194519557
 20
157.2440885773723
 30
0.0
 11
260.8741909363307
 21
152.4186186066683
 31
0.0
  0
LINE
  5
C41
  8
OUTLINE
  6
CONTINUOUS
 62
     3
 10
260.9409023621119
 20
157.4442991486613
 30
0.0
 11
260.918487200979
 21
157.7005094758094
 31
0.0
  0
LINE
  5
C42
  8
OUTLINE
  6
CONTINUOUS
 62
     3
 10
260.9584194519557
 20
157.2440885773723
 30
0.0
 11
260.9409023621119
 21
157.4442991486613
 31
0.0
  0
LINE
  5
C43
  8
OUTLINE
  6
CONTINUOUS
 62
     3
 10
262.2147518494165
 20
153.2441648713174
 30
0.0
 11
261.3967892029318
 21
153.2441648713174
 31
0.0
  0
LINE
  5
C44
  8
OUTLINE
  6
CONTINUOUS
 62
     3
 10
260.8741909363307
 20
152.4186186066683
 30
0.0
 11
260.7926021912135
 21
147.7441648713175
 31
0.0
  0
LINE
  5
C45
  8
OUTLINE
  6
CONTINUOUS
 62
     3
 10
265.1940761902368
 20
168.4571623078413
 30
0.0
 11
271.8719631531275
 21
168.4571623078413
 31
0.0
  0
LINE
  5
C46
  8
OUTLINE
  6
CONTINUOUS
 62
     3
 10
261.6330105164088
 20
164.3440946808872
 30
0.0
 11
261.9793545105498
 21
157.7353605500284
 31
0.0
  0
LINE
  5
C47
  8
OUTLINE
  6
CONTINUOUS
 62
     3
 10
263.0329433777368
 20
157.2440885773723
 30
0.0
 11
263.1943813660177
 21
166.4920591584264
 31
0.0
  0
LINE
  5
C48
  8
OUTLINE
  6
CONTINUOUS
 62
     3
 10
262.2580105164088
 20
152.4185880890913
 30
0.0
 11
262.5029903748066
 21
147.7441648713175
 31
0.0
  0
LINE
  5
C49
  8
OUTLINE
  6
CONTINUOUS
 62
     3
 10
262.2580105164088
 20
152.4185880890913
 30
0.0
 11
262.0051113464869
 21
157.2440885773723
 31
0.0
  0
LINE
  5
C4A
  8
OUTLINE
  6
CONTINUOUS
 62
     3
 10
261.9793545105498
 20
157.7353605500284
 30
0.0
 11
262.0051113464869
 21
157.2440885773723
 31
0.0
  0
ARC
  5
C4B
  8
OUTLINE
  6
CONTINUOUS
 62
     3
 10
265.2539508041621
 20
166.3962344396539
 30
0.0
 40
2.061797431191148
 50
91.66410384806382
 51
177.3361444879686
  0
LINE
  5
C4C
  8
OUTLINE
  6
CONTINUOUS
 62
     3
 10
273.8265377380889
 20
185.9440092316683
 30
0.0
 11
263.239501605276
 21
185.9440092316683
 31
0.0
  0
LINE
  5
C4D
  8
OUTLINE
  6
CONTINUOUS
 62
     3
 10
262.0051113464869
 20
157.2440885773723
 30
0.0
 11
275.0609279968776
 21
157.2440885773723
 31
0.0
  0
ARC
  5
C4E
  8
OUTLINE
  6
CONTINUOUS
 62
     3
 10
271.8807092590644
 20
166.4591244724927
 30
0.0
 40
1.991221105845656
 50
0.947712208942454
 51
90.25166294552042
  0
ARC
  5
C4F
  8
OUTLINE
  6
CONTINUOUS
 62
     3
 10
275.8703171377788
 20
147.4530905109146
 30
0.0
 40
3.791076171772621
 50
89.9439907230679
 51
135.0558140524201
  0
LINE
  5
C50
  8
OUTLINE
  6
CONTINUOUS
 62
     3
 10
387.9390560486354
 20
147.7441648713175
 30
0.0
 11
392.499999652151
 21
147.7441648713175
 31
0.0
  0
LINE
  5
C51
  8
OUTLINE
  6
CONTINUOUS
 62
     3
 10
402.9999996521508
 20
137.2441648713175
 30
0.0
 11
402.9999996521508
 21
132.6874784699503
 31
0.0
  0
ARC
  5
C52
  8
OUTLINE
  6
CONTINUOUS
 62
     3
 10
391.6266108995291
 20
135.8383200348339
 30
0.0
 40
12.91124510277801
 50
4.389238312282094
 51
88.3427947752423
  0
ARC
  5
C53
  8
OUTLINE
  6
CONTINUOUS
 62
     3
 10
392.3959408145657
 20
137.1401060337318
 30
0.0
 40
10.60456939590936
 50
0.5622319659080774
 51
89.43776803409315
  0
LINE
  5
C54
  8
OUTLINE
  6
CONTINUOUS
 62
     3
 10
462.122954974417
 20
17.63617842112219
 30
0.0
 11
462.0775753357452
 21
15.12757151041663
 31
0.0
  0
LINE
  5
C55
  8
OUTLINE
  6
CONTINUOUS
 62
     3
 10
450.161224017386
 20
15.07538645182265
 30
0.0
 11
450.1812130310573
 21
15.06440012369788
 31
0.0
  0
LINE
  5
C56
  8
OUTLINE
  6
CONTINUOUS
 62
     3
 10
452.6521908142613
 20
14.89911692057265
 30
0.0
 11
452.4942623474641
 21
14.98114817057265
 31
0.0
  0
LINE
  5
C57
  8
OUTLINE
  6
CONTINUOUS
 62
     3
 10
452.4942623474641
 20
14.98114817057265
 30
0.0
 11
465.1608578064482
 21
14.5252765885414
 31
0.0
  0
LINE
  5
C58
  8
OUTLINE
  6
CONTINUOUS
 62
     3
 10
467.0889889099643
 20
12.52664987955703
 30
0.0
 11
467.0889889099643
 21
-41.41428239430748
 31
0.0
  0
ARC
  5
C59
  8
OUTLINE
  6
CONTINUOUS
 62
     3
 10
465.1296820119551
 20
12.56582606256781
 30
0.0
 40
1.959698521176219
 50
358.8545281568611
 51
89.08847367074583
  0
ARC
  5
C5A
  8
OUTLINE
  6
CONTINUOUS
 62
     3
 10
462.5826799585666
 20
15.12349386669555
 30
0.0
 40
0.5051210816965447
 50
179.5374686948765
 51
267.3707923387347
  0
ARC
  5
C5B
  8
OUTLINE
  6
CONTINUOUS
 62
     3
 10
421.3922065760741
 20
-40.87961825376323
 30
0.0
 40
45.69991008102816
 50
285.6703184898761
 51
359.3296551886265
  0
LINE
  5
C5C
  8
OUTLINE
  6
CONTINUOUS
 62
     3
 10
459.5335079529323
 20
18.68293135080946
 30
0.0
 11
459.7850338318393
 21
18.67839567576064
 31
0.0
  0
LINE
  5
C5D
  8
OUTLINE
  6
CONTINUOUS
 62
     3
 10
457.7940059998073
 20
18.71421568308509
 30
0.0
 11
459.5335079529323
 21
18.68293135080946
 31
0.0
  0
ARC
  5
C5E
  8
OUTLINE
  6
CONTINUOUS
 62
     3
 10
461.122992756962
 20
17.65404306708526
 30
0.0
 40
1.000121783540919
 50
358.9765013899562
 51
88.96185998536977
  0
CIRCLE
  5
C5F
  8
ARRANGE
  6
CONTINUOUS
 62
     1
 10
0.0
 20
0.0
 30
0.0
 40
50.0
  0
LINE
  5
C60
  8
ARRANGE
  6
CONTINUOUS
 62
     1
 10
49.963763
 20
49.59659499999999
 30
0.0
 11
-49.963763
 21
-49.596595
 31
0.0
  0
LINE
  5
C61
  8
ARRANGE
  6
CONTINUOUS
 62
     1
 10
50.03735
 20
-49.522353
 30
0.0
 11
-50.03735
 21
49.522353
 31
0.0
  0
ENDSEC
  0
EOF
