  0
SECTION
  2
HEADER
  9
$ACADVER
  1
AC1009
  9
$INSBASE
 10
0.0
 20
0.0
 30
0.0
  9
$EXTMIN
 10
-1305.827178
 20
-431.946868
 30
-0.001526
  9
$EXTMAX
 10
1204.777793
 20
1389.957569
 30
0.0
  9
$LIMMIN
 10
-4267.152221
 20
-2696.08321
  9
$LIMMAX
 10
7190.717423
 20
5141.155364
  9
$ORTHOMODE
 70
     0
  9
$REGENMODE
 70
     1
  9
$FILLMODE
 70
     1
  9
$QTEXTMODE
 70
     0
  9
$MIRRTEXT
 70
     0
  9
$DRAGMODE
 70
     2
  9
$LTSCALE
 40
20.0
  9
$OSMODE
 70
    37
  9
$ATTMODE
 70
     1
  9
$TEXTSIZE
 40
64.0
  9
$TRACEWID
 40
0.05
  9
$TEXTSTYLE
  7
STANDARD1
  9
$CLAYER
  8
SIZE
  9
$CELTYPE
  6
CONTINUOUS
  9
$CECOLOR
 62
     7
  9
$DIMSCALE
 40
1.0
  9
$DIMASZ
 40
30.0
  9
$DIMEXO
 40
15.0
  9
$DIMDLI
 40
80.0
  9
$DIMRND
 40
0.0
  9
$DIMDLE
 40
0.0
  9
$DIMEXE
 40
15.0
  9
$DIMTP
 40
0.0
  9
$DIMTM
 40
0.0
  9
$DIMTXT
 40
50.0
  9
$DIMCEN
 40
0.09
  9
$DIMTSZ
 40
0.0
  9
$DIMTOL
 70
     0
  9
$DIMLIM
 70
     0
  9
$DIMTIH
 70
     0
  9
$DIMTOH
 70
     0
  9
$DIMSE1
 70
     0
  9
$DIMSE2
 70
     0
  9
$DIMTAD
 70
     1
  9
$DIMZIN
 70
     8
  9
$DIMBLK
  1
_SMALL
  9
$DIMASO
 70
     1
  9
$DIMSHO
 70
     0
  9
$DIMPOST
  1

  9
$DIMAPOST
  1

  9
$DIMALT
 70
     0
  9
$DIMALTD
 70
     2
  9
$DIMALTF
 40
25.4
  9
$DIMLFAC
 40
1.0
  9
$DIMTOFL
 70
     1
  9
$DIMTVP
 40
0.0
  9
$DIMTIX
 70
     0
  9
$DIMSOXD
 70
     0
  9
$DIMSAH
 70
     0
  9
$DIMBLK1
  1

  9
$DIMBLK2
  1

  9
$DIMSTYLE
  2
STANDARD
  9
$DIMCLRD
 70
     0
  9
$DIMCLRE
 70
     0
  9
$DIMCLRT
 70
     0
  9
$DIMTFAC
 40
1.0
  9
$DIMGAP
 40
0.09
  9
$LUNITS
 70
     2
  9
$LUPREC
 70
     4
  9
$SKETCHINC
 40
0.1
  9
$FILLETRAD
 40
0.8
  9
$AUNITS
 70
     1
  9
$AUPREC
 70
     3
  9
$MENU
  1
ACAD
  9
$ELEVATION
 40
0.0
  9
$PELEVATION
 40
0.0
  9
$THICKNESS
 40
0.0
  9
$LIMCHECK
 70
     0
  9
$BLIPMODE
 70
     0
  9
$CHAMFERA
 40
0.0
  9
$CHAMFERB
 40
0.0
  9
$SKPOLY
 70
     0
  9
$TDCREATE
 40
2450330.439931
  9
$TDUPDATE
 40
2454645.611794
  9
$TDINDWG
 40
3.964062
  9
$TDUSRTIMER
 40
3.964061
  9
$USRTIMER
 70
     1
  9
$ANGBASE
 50
0.0
  9
$ANGDIR
 70
     0
  9
$PDMODE
 70
     3
  9
$PDSIZE
 40
-2.0
  9
$PLINEWID
 40
0.0
  9
$COORDS
 70
     0
  9
$SPLFRAME
 70
     0
  9
$SPLINETYPE
 70
     6
  9
$SPLINESEGS
 70
     8
  9
$ATTDIA
 70
     0
  9
$ATTREQ
 70
     1
  9
$HANDLING
 70
     1
  9
$HANDSEED
  5
2AB
  9
$SURFTAB1
 70
     6
  9
$SURFTAB2
 70
     6
  9
$SURFTYPE
 70
     6
  9
$SURFU
 70
     6
  9
$SURFV
 70
     6
  9
$UCSNAME
  2

  9
$UCSORG
 10
0.0
 20
0.0
 30
0.0
  9
$UCSXDIR
 10
1.0
 20
0.0
 30
0.0
  9
$UCSYDIR
 10
0.0
 20
1.0
 30
0.0
  9
$PUCSNAME
  2

  9
$PUCSORG
 10
0.0
 20
0.0
 30
0.0
  9
$PUCSXDIR
 10
1.0
 20
0.0
 30
0.0
  9
$PUCSYDIR
 10
0.0
 20
1.0
 30
0.0
  9
$USERI1
 70
     0
  9
$USERI2
 70
     0
  9
$USERI3
 70
     0
  9
$USERI4
 70
     0
  9
$USERI5
 70
     0
  9
$USERR1
 40
20.0
  9
$USERR2
 40
0.0
  9
$USERR3
 40
0.0
  9
$USERR4
 40
0.0
  9
$USERR5
 40
0.0
  9
$WORLDVIEW
 70
     1
  9
$SHADEDGE
 70
     3
  9
$SHADEDIF
 70
    70
  9
$TILEMODE
 70
     1
  9
$MAXACTVP
 70
    48
  9
$PLIMCHECK
 70
     0
  9
$PEXTMIN
 10
1.000000E+020
 20
1.000000E+020
 30
1.000000E+020
  9
$PEXTMAX
 10
-1.000000E+020
 20
-1.000000E+020
 30
-1.000000E+020
  9
$PLIMMIN
 10
0.0
 20
0.0
  9
$PLIMMAX
 10
12.0
 20
9.0
  9
$UNITMODE
 70
     0
  9
$VISRETAIN
 70
     1
  9
$PLINEGEN
 70
     0
  9
$PSLTSCALE
 70
     1
  0
ENDSEC
  0
SECTION
  2
TABLES
  0
TABLE
  2
VPORT
 70
     2
  0
VPORT
  2
*ACTIVE
 70
     0
 10
0.0
 20
0.0
 11
1.0
 21
1.0
 12
1829.622071
 22
1222.536077
 13
0.0
 23
0.0
 14
50.0
 24
50.0
 15
100.0
 25
100.0
 16
0.0
 26
0.0
 36
1.0
 17
0.0
 27
0.0
 37
0.0
 40
7837.238574
 41
1.555848
 42
50.0
 43
0.0
 44
0.0
 50
0.0
 51
0.0
 71
     0
 72
  1000
 73
     1
 74
     0
 75
     0
 76
     0
 77
     0
 78
     0
  0
ENDTAB
  0
TABLE
  2
LTYPE
 70
     2
  0
LTYPE
  2
CONTINUOUS
 70
     0
  3
実線
 72
    65
 73
     0
 40
0.0
  0
LTYPE
  2
DASHDOT
 70
     0
  3
____ _ ____ _ ____ _ ____ _ ____ _ ____ _ ____
 72
    65
 73
     4
 40
5.5
 49
4.0
 49
-0.6
 49
0.3
 49
-0.6
  0
ENDTAB
  0
TABLE
  2
LAYER
 70
    12
  0
LAYER
  2
0
 70
     0
 62
     7
  6
CONTINUOUS
  0
LAYER
  2
SIZE
 70
     0
 62
    30
  6
CONTINUOUS
  0
LAYER
  2
OUTLINE
 70
     0
 62
     3
  6
CONTINUOUS
  0
LAYER
  2
DETAIL
 70
     0
 62
     5
  6
CONTINUOUS
  0
LAYER
  2
BASIS
 70
     0
 62
     6
  6
DASHDOT
  0
LAYER
  2
NOTE
 70
     0
 62
     4
  6
CONTINUOUS
  0
LAYER
  2
ARRANGE
 70
     0
 62
     1
  6
CONTINUOUS
  0
LAYER
  2
FIX
 70
     0
 62
    11
  6
CONTINUOUS
  0
LAYER
  2
SERVICESPACE
 70
     0
 62
     2
  6
DASHDOT
  0
LAYER
  2
ETC
 70
     0
 62
    61
  6
CONTINUOUS
  0
LAYER
  2
SYMBOLLINE
 70
     0
 62
    15
  6
CONTINUOUS
  0
LAYER
  2
DEFPOINTS
 70
     0
 62
     7
  6
CONTINUOUS
  0
ENDTAB
  0
TABLE
  2
STYLE
 70
     3
  0
STYLE
  2
STANDARD
 70
     0
 40
0.0
 41
0.9
 50
0.0
 71
     0
 42
64.0
  3
SIMPLEX
  4
BIGFONT
  0
STYLE
  2
STANDARD1
 70
     0
 40
0.0
 41
1.0
 50
0.0
 71
     0
 42
64.0
  3
MONOTXT
  4
BIGFONT
  0
STYLE
  2

 70
     1
 40
0.0
 41
1.0
 50
0.0
 71
     0
 42
64.0
  3
ltypeshp.shx
  4

  0
ENDTAB
  0
TABLE
  2
VIEW
 70
     1
  0
VIEW
  2
ALL
 70
     0
 40
9000.0
 10
241.506647
 20
0.0
 41
12483.01
 11
0.0
 21
0.0
 31
1.0
 12
0.0
 22
0.0
 32
0.0
 42
50.0
 43
0.0
 44
0.0
 50
0.0
 71
     0
  0
ENDTAB
  0
TABLE
  2
UCS
 70
     0
  0
ENDTAB
  0
TABLE
  2
APPID
 70
     1
  0
APPID
  2
ACAD
 70
     0
  0
ENDTAB
  0
TABLE
  2
DIMSTYLE
 70
     1
  0
DIMSTYLE
  2
STANDARD
 70
     0
  3

  4

  5

  6

  7

 40
1.0
 41
0.18
 42
0.0625
 43
0.38
 44
0.18
 45
0.0
 46
0.0
 47
0.0
 48
0.0
140
0.18
141
0.09
142
0.0
143
25.4
144
1.0
145
0.0
146
1.0
147
0.09
 71
     0
 72
     0
 73
     1
 74
     1
 75
     0
 76
     0
 77
     0
 78
     0
170
     0
171
     2
172
     0
173
     0
174
     0
175
     0
176
     0
177
     0
178
     0
  0
ENDTAB
  0
ENDSEC
  0
SECTION
  2
BLOCKS
  0
BLOCK
  8
0
  2
$MODEL_SPACE
 70
     0
 10
0.0
 20
0.0
 30
0.0
  3
$MODEL_SPACE
  1

  0
ENDBLK
  5
1A
  8
0
  0
BLOCK
 67
     1
  8
0
  2
$PAPER_SPACE
 70
     0
 10
0.0
 20
0.0
 30
0.0
  3
$PAPER_SPACE
  1

  0
ENDBLK
  5
17
 67
     1
  8
0
  0
BLOCK
  8
0
  2
_SMALL
 70
     0
 10
0.0
 20
0.0
 30
0.0
  3
_SMALL
  1

  0
CIRCLE
  5
34
  8
0
  6
CONTINUOUS
 62
     7
 10
0.0
 20
0.0
 30
0.0
 40
0.25
  0
ENDBLK
  5
35
  8
0
  0
ENDSEC
  0
SECTION
  2
ENTITIES
  0
LINE
  5
36
  8
DETAIL
  6
CONTINUOUS
 62
     5
 10
389.50024
 20
206.984432
 30
0.0
 11
387.5
 21
206.984432
 31
0.0
  0
ARC
  5
37
  8
DETAIL
  6
CONTINUOUS
 62
     5
 10
391.500479
 20
226.998802
 30
0.0
 40
2.00024
 50
90.0
 51
180.0
  0
LINE
  5
38
  8
DETAIL
  6
CONTINUOUS
 62
     5
 10
398.501317
 20
228.999042
 30
0.0
 11
391.500479
 21
228.999042
 31
0.0
  0
LINE
  5
39
  8
DETAIL
  6
CONTINUOUS
 62
     5
 10
422.504191
 20
237.0
 30
0.0
 11
457.5
 21
239.5
 31
0.0
  0
ARC
  5
3A
  8
DETAIL
  6
CONTINUOUS
 62
     5
 10
404.502036
 20
234.99976
 30
0.0
 40
2.00024
 50
90.0
 51
180.0
  0
LINE
  5
3B
  8
DETAIL
  6
CONTINUOUS
 62
     5
 10
422.504191
 20
237.0
 30
0.0
 11
404.502036
 21
237.0
 31
0.0
  0
ARC
  5
3C
  8
DETAIL
  6
CONTINUOUS
 62
     5
 10
398.501317
 20
232.999521
 30
0.0
 40
4.000479
 50
270.0
 51
0.0
  0
ARC
  5
3D
  8
DETAIL
  6
CONTINUOUS
 62
     5
 10
391.500479
 20
447.001198
 30
0.0
 40
2.00024
 50
180.0
 51
270.0
  0
LINE
  5
3E
  8
DETAIL
  6
CONTINUOUS
 62
     5
 10
422.504191
 20
437.0
 30
0.0
 11
404.502036
 21
437.0
 31
0.0
  0
LINE
  5
3F
  8
DETAIL
  6
CONTINUOUS
 62
     5
 10
422.504191
 20
437.0
 30
0.0
 11
457.5
 21
434.5
 31
0.0
  0
ARC
  5
40
  8
DETAIL
  6
CONTINUOUS
 62
     5
 10
404.502036
 20
439.00024
 30
0.0
 40
2.00024
 50
180.0
 51
270.0
  0
LINE
  5
41
  8
DETAIL
  6
CONTINUOUS
 62
     5
 10
422.504191
 20
237.0
 30
0.0
 11
422.504191
 21
437.0
 31
0.0
  0
LINE
  5
42
  8
DETAIL
  6
CONTINUOUS
 62
     5
 10
457.5
 20
239.5
 30
0.0
 11
457.5
 21
434.5
 31
0.0
  0
LINE
  5
43
  8
DETAIL
  6
CONTINUOUS
 62
     5
 10
402.501796
 20
441.000479
 30
0.0
 11
402.501796
 21
232.999521
 31
0.0
  0
LINE
  5
44
  8
DETAIL
  6
CONTINUOUS
 62
     5
 10
398.501317
 20
445.000958
 30
0.0
 11
391.500479
 21
445.000958
 31
0.0
  0
ARC
  5
45
  8
DETAIL
  6
CONTINUOUS
 62
     5
 10
398.501317
 20
441.000479
 30
0.0
 40
4.000479
 50
0.0
 51
90.0
  0
LINE
  5
46
  8
DETAIL
  6
CONTINUOUS
 62
     5
 10
389.50024
 20
467.015568
 30
0.0
 11
389.50024
 21
447.001198
 31
0.0
  0
LINE
  5
47
  8
DETAIL
  6
CONTINUOUS
 62
     5
 10
389.50024
 20
467.015568
 30
0.0
 11
387.5
 21
467.015568
 31
0.0
  0
LINE
  5
48
  8
DETAIL
  6
CONTINUOUS
 62
     5
 10
387.5
 20
472.4
 30
0.0
 11
387.5
 21
140.8
 31
0.0
  0
LINE
  5
49
  8
DETAIL
  6
CONTINUOUS
 62
     5
 10
323.882576
 20
473.0
 30
0.0
 11
382.889641
 21
473.0
 31
0.0
  0
LINE
  5
4A
  8
DETAIL
  6
CONTINUOUS
 62
     5
 10
382.889641
 20
473.0
 30
0.0
 11
382.889641
 21
432.995809
 31
0.0
  0
LINE
  5
4B
  8
DETAIL
  6
CONTINUOUS
 62
     5
 10
-387.5
 20
473.0
 30
0.0
 11
-387.5
 21
132.0
 31
0.0
  0
LINE
  5
4C
  8
DETAIL
  6
CONTINUOUS
 62
     5
 10
386.7
 20
140.0
 30
0.0
 11
-386.7
 21
140.0
 31
0.0
  0
LINE
  5
4D
  8
DETAIL
  6
CONTINUOUS
 62
     5
 10
-385.7
 20
473.0
 30
0.0
 11
-327.3
 21
473.0
 31
0.0
  0
ARC
  5
4E
  8
DETAIL
  6
CONTINUOUS
 62
     5
 10
-382.699641
 20
432.996084
 30
0.0
 40
3.000359
 50
180.0
 51
270.0
  0
LINE
  5
4F
  8
DETAIL
  6
CONTINUOUS
 62
     5
 10
-365.500359
 20
460.998838
 30
0.0
 11
-382.699641
 21
460.998838
 31
0.0
  0
LINE
  5
50
  8
DETAIL
  6
CONTINUOUS
 62
     5
 10
-362.5
 20
473.0
 30
0.0
 11
-362.5
 21
463.999198
 31
0.0
  0
ARC
  5
51
  8
DETAIL
  6
CONTINUOUS
 62
     5
 10
-382.699641
 20
463.999198
 30
0.0
 40
3.000359
 50
180.0
 51
270.0
  0
ARC
  5
52
  8
DETAIL
  6
CONTINUOUS
 62
     5
 10
-365.500359
 20
463.999198
 30
0.0
 40
3.000359
 50
270.0
 51
0.0
  0
ARC
  5
53
  8
DETAIL
  6
CONTINUOUS
 62
     5
 10
-330.300359
 20
455.998838
 30
0.0
 40
3.000359
 50
270.0
 51
0.0
  0
ARC
  5
54
  8
DETAIL
  6
CONTINUOUS
 62
     5
 10
-344.112658
 20
432.996084
 30
0.0
 40
3.000359
 50
270.0
 51
0.0
  0
LINE
  5
55
  8
DETAIL
  6
CONTINUOUS
 62
     5
 10
-344.112658
 20
429.995725
 30
0.0
 11
-382.699641
 21
429.995725
 31
0.0
  0
LINE
  5
56
  8
DETAIL
  6
CONTINUOUS
 62
     5
 10
-327.3
 20
473.0
 30
0.0
 11
-327.3
 21
455.998838
 31
0.0
  0
ARC
  5
57
  8
DETAIL
  6
CONTINUOUS
 62
     5
 10
-347.499641
 20
463.999198
 30
0.0
 40
3.000359
 50
180.0
 51
270.0
  0
LINE
  5
58
  8
DETAIL
  6
CONTINUOUS
 62
     5
 10
-350.5
 20
473.0
 30
0.0
 11
-350.5
 21
463.999198
 31
0.0
  0
LINE
  5
59
  8
DETAIL
  6
CONTINUOUS
 62
     5
 10
-347.499641
 20
460.998838
 30
0.0
 11
-330.300359
 21
460.998838
 31
0.0
  0
ARC
  5
5A
  8
DETAIL
  6
CONTINUOUS
 62
     5
 10
-330.300359
 20
463.999198
 30
0.0
 40
3.000359
 50
270.0
 51
0.0
  0
LINE
  5
5B
  8
DETAIL
  6
CONTINUOUS
 62
     5
 10
-362.5
 20
470.7
 30
0.0
 11
-350.5
 21
470.7
 31
0.0
  0
LINE
  5
5C
  8
DETAIL
  6
CONTINUOUS
 62
     5
 10
-330.300359
 20
452.998479
 30
0.0
 11
-341.112299
 21
452.998479
 31
0.0
  0
LINE
  5
5D
  8
DETAIL
  6
CONTINUOUS
 62
     5
 10
-341.112299
 20
452.998479
 30
0.0
 11
-341.112299
 21
432.996084
 31
0.0
  0
LINE
  5
5E
  8
DETAIL
  6
CONTINUOUS
 62
     5
 10
359.38708
 20
473.0
 30
0.0
 11
359.38708
 21
463.998922
 31
0.0
  0
ARC
  5
5F
  8
DETAIL
  6
CONTINUOUS
 62
     5
 10
362.387439
 20
463.998922
 30
0.0
 40
3.000359
 50
180.0
 51
270.0
  0
LINE
  5
60
  8
DETAIL
  6
CONTINUOUS
 62
     5
 10
359.38708
 20
470.699725
 30
0.0
 11
347.385643
 21
470.699725
 31
0.0
  0
ARC
  5
61
  8
DETAIL
  6
CONTINUOUS
 62
     5
 10
379.889535
 20
432.995809
 30
0.0
 40
3.000359
 50
270.0
 51
0.0
  0
LINE
  5
62
  8
DETAIL
  6
CONTINUOUS
 62
     5
 10
362.387439
 20
460.998563
 30
0.0
 11
379.889535
 21
460.998563
 31
0.0
  0
ARC
  5
63
  8
DETAIL
  6
CONTINUOUS
 62
     5
 10
379.889535
 20
463.998922
 30
0.0
 40
3.000359
 50
270.0
 51
0.0
  0
LINE
  5
64
  8
DETAIL
  6
CONTINUOUS
 62
     5
 10
347.385643
 20
473.0
 30
0.0
 11
347.385643
 21
463.998922
 31
0.0
  0
ARC
  5
65
  8
DETAIL
  6
CONTINUOUS
 62
     5
 10
326.883188
 20
455.998563
 30
0.0
 40
3.000359
 50
180.0
 51
270.0
  0
LINE
  5
66
  8
DETAIL
  6
CONTINUOUS
 62
     5
 10
323.882829
 20
473.0
 30
0.0
 11
323.882829
 21
455.998563
 31
0.0
  0
ARC
  5
67
  8
DETAIL
  6
CONTINUOUS
 62
     5
 10
344.385284
 20
463.998922
 30
0.0
 40
3.000359
 50
270.0
 51
0.0
  0
LINE
  5
68
  8
DETAIL
  6
CONTINUOUS
 62
     5
 10
344.385284
 20
460.998563
 30
0.0
 11
326.383128
 21
460.998563
 31
0.0
  0
ARC
  5
69
  8
DETAIL
  6
CONTINUOUS
 62
     5
 10
326.883188
 20
463.998922
 30
0.0
 40
3.000359
 50
180.0
 51
270.0
  0
LINE
  5
6A
  8
DETAIL
  6
CONTINUOUS
 62
     5
 10
326.883188
 20
452.998204
 30
0.0
 11
337.884505
 21
452.998204
 31
0.0
  0
LINE
  5
6B
  8
DETAIL
  6
CONTINUOUS
 62
     5
 10
379.889535
 20
429.995449
 30
0.0
 11
340.884864
 21
429.995449
 31
0.0
  0
ARC
  5
6C
  8
DETAIL
  6
CONTINUOUS
 62
     5
 10
340.884864
 20
432.995809
 30
0.0
 40
3.000359
 50
180.0
 51
270.0
  0
LINE
  5
6D
  8
DETAIL
  6
CONTINUOUS
 62
     5
 10
337.884505
 20
452.998204
 30
0.0
 11
337.884505
 21
432.995809
 31
0.0
  0
LINE
  5
6E
  8
DETAIL
  6
CONTINUOUS
 62
     5
 10
-385.7
 20
473.0
 30
0.0
 11
-385.7
 21
432.996084
 31
0.0
  0
LINE
  5
6F
  8
NOTE
  6
CONTINUOUS
 62
     4
 10
-356.5
 20
493.002257
 30
0.0
 11
-356.5
 21
452.997743
 31
0.0
  0
LINE
  5
70
  8
NOTE
  6
CONTINUOUS
 62
     4
 10
353.5
 20
493.002395
 30
0.0
 11
353.5
 21
452.997605
 31
0.0
  0
LINE
  5
71
  8
DETAIL
  6
CONTINUOUS
 62
     5
 10
-387.5
 20
473.0
 30
0.0
 11
386.9
 21
473.0
 31
0.0
  0
LINE
  5
72
  8
NOTE
  6
CONTINUOUS
 62
     4
 10
592.031045
 20
555.017858
 30
0.0
 11
1203.976791
 21
555.017858
 31
0.0
  0
TEXT
  5
73
  8
NOTE
  6
CONTINUOUS
 62
     4
 10
602.402048
 20
569.81355
 30
0.0
 40
60.0
  1
%%C200 吹出円形フランジ
 50
359.999997
 41
0.7
  7
STANDARD1
  0
LINE
  5
74
  8
ARRANGE
  6
CONTINUOUS
 62
     1
 10
49.963763
 20
49.596595
 30
0.0
 11
-49.963763
 21
-49.596595
 31
0.0
  0
CIRCLE
  5
75
  8
ARRANGE
  6
CONTINUOUS
 62
     1
 10
0.0
 20
0.0
 30
0.0
 40
50.0
  0
LINE
  5
76
  8
ARRANGE
  6
CONTINUOUS
 62
     1
 10
50.03735
 20
-49.522353
 30
0.0
 11
-50.03735
 21
49.522353
 31
0.0
  0
LINE
  5
77
  8
NOTE
  6
CONTINUOUS
 62
     4
 10
457.5
 20
408.944515
 30
0.0
 11
457.5
 21
265.055485
 31
0.0
  0
LINE
  5
78
  8
NOTE
  6
CONTINUOUS
 62
     4
 10
529.444515
 20
337.0
 30
0.0
 11
385.555485
 21
337.0
 31
0.0
  0
LINE
  5
79
  8
BASIS
  6
DASHDOT
 62
     6
 10
0.0
 20
-58.000958
 30
0.0
 11
0.0
 21
516.253815
 31
0.0
  0
CIRCLE
  5
7A
  8
FIX
  6
CONTINUOUS
 62
    11
 10
353.5
 20
473.0
 30
0.0
 40
18.598564
  0
LINE
  5
7B
  8
NOTE
  6
CONTINUOUS
 62
     4
 10
373.500958
 20
473.0
 30
0.0
 11
333.499042
 21
473.0
 31
0.0
  0
CIRCLE
  5
7C
  8
FIX
  6
CONTINUOUS
 62
    11
 10
-356.5
 20
473.0
 30
0.0
 40
18.598564
  0
LINE
  5
7D
  8
NOTE
  6
CONTINUOUS
 62
     4
 10
-336.499042
 20
473.0
 30
0.0
 11
-376.500958
 21
473.0
 31
0.0
  0
LINE
  5
7E
  8
SIZE
  6
CONTINUOUS
 62
    30
 10
-356.5
 20
508.002257
 30
0.0
 11
-356.5
 21
914.347598
 31
0.0
  0
LINE
  5
7F
  8
SIZE
  6
CONTINUOUS
 62
    30
 10
353.5
 20
508.002395
 30
0.0
 11
353.5
 21
914.347598
 31
0.0
  0
LINE
  5
80
  8
SIZE
  6
CONTINUOUS
 62
    30
 10
-356.5
 20
899.347598
 30
0.0
 11
353.5
 21
899.347598
 31
0.0
  0
CIRCLE
  5
81
  8
SIZE
  6
CONTINUOUS
 62
    30
 10
-356.5
 20
899.347598
 30
0.0
 40
7.5
  0
CIRCLE
  5
82
  8
SIZE
  6
CONTINUOUS
 62
    30
 10
353.5
 20
899.347598
 30
0.0
 40
7.5
  0
TEXT
  5
83
  8
SIZE
  6
CONTINUOUS
 62
    30
 10
-265.097078
 20
927.442836
 30
0.0
 40
50.0
  1
710(吊りボルトピッチ)
 41
0.9
 72
     1
 11
33.402922
 21
927.442836
 31
0.0
  0
POINT
  5
84
  8
DEFPOINTS
  6
CONTINUOUS
 62
     7
 10
-356.5
 20
493.002257
 30
0.0
  0
POINT
  5
85
  8
DEFPOINTS
  6
CONTINUOUS
 62
     7
 10
353.5
 20
493.002395
 30
0.0
  0
POINT
  5
86
  8
DEFPOINTS
  6
CONTINUOUS
 62
     7
 10
353.5
 20
899.347598
 30
0.0
  0
ARC
  5
87
  8
DETAIL
  6
CONTINUOUS
 62
     5
 10
-386.7
 20
140.8
 30
0.0
 40
0.8
 50
180.0
 51
270.0
  0
LINE
  5
88
  8
SIZE
  6
CONTINUOUS
 62
    30
 10
-401.699976
 20
140.0
 30
0.0
 11
-1203.33559
 21
140.0
 31
0.0
  0
LINE
  5
89
  8
SIZE
  6
CONTINUOUS
 62
    30
 10
-541.500501
 20
0.0
 30
0.0
 11
-1203.33559
 21
0.0
 31
0.0
  0
LINE
  5
8A
  8
SIZE
  6
CONTINUOUS
 62
    30
 10
-1188.33559
 20
140.0
 30
0.0
 11
-1188.33559
 21
0.0
 31
0.0
  0
LINE
  5
8B
  8
SIZE
  6
CONTINUOUS
 62
    30
 10
-1188.33559
 20
0.0
 30
0.0
 11
-1188.33559
 21
-355.714286
 31
0.0
  0
CIRCLE
  5
8C
  8
SIZE
  6
CONTINUOUS
 62
    30
 10
-1188.33559
 20
140.0
 30
0.0
 40
7.5
  0
CIRCLE
  5
8D
  8
SIZE
  6
CONTINUOUS
 62
    30
 10
-1188.33559
 20
0.0
 30
0.0
 40
7.5
  0
TEXT
  5
8E
  8
SIZE
  6
CONTINUOUS
 62
    30
 10
-1203.33559
 20
-340.714286
 30
0.0
 40
50.0
  1
140-300
 50
90.0
 41
0.9
 72
     1
 11
-1203.33559
 21
-195.0
 31
0.0
  0
POINT
  5
8F
  8
DEFPOINTS
  6
CONTINUOUS
 62
     7
 10
-386.699976
 20
140.0
 30
0.0
  0
POINT
  5
90
  8
DEFPOINTS
  6
CONTINUOUS
 62
     7
 10
-526.500501
 20
0.0
 30
0.0
  0
POINT
  5
91
  8
DEFPOINTS
  6
CONTINUOUS
 62
     7
 10
-1188.33559
 20
0.0
 30
0.0
  0
LINE
  5
92
  8
SIZE
  6
CONTINUOUS
 62
    30
 10
-401.7
 20
140.0
 30
0.0
 11
-1203.33559
 21
140.0
 31
0.0
  0
LINE
  5
93
  8
SIZE
  6
CONTINUOUS
 62
    30
 10
-496.5
 20
473.0
 30
0.0
 11
-1203.33559
 21
473.0
 31
0.0
  0
LINE
  5
94
  8
SIZE
  6
CONTINUOUS
 62
    30
 10
-1188.33559
 20
140.0
 30
0.0
 11
-1188.33559
 21
473.0
 31
0.0
  0
CIRCLE
  5
95
  8
SIZE
  6
CONTINUOUS
 62
    30
 10
-1188.33559
 20
140.0
 30
0.0
 40
7.5
  0
CIRCLE
  5
96
  8
SIZE
  6
CONTINUOUS
 62
    30
 10
-1188.33559
 20
473.0
 30
0.0
 40
7.5
  0
TEXT
  5
97
  8
SIZE
  6
CONTINUOUS
 62
    30
 10
-1203.33559
 20
248.642857
 30
0.0
 40
50.0
  1
333
 50
90.0
 41
0.9
 72
     1
 11
-1203.33559
 21
306.5
 31
0.0
  0
POINT
  5
98
  8
DEFPOINTS
  6
CONTINUOUS
 62
     7
 10
-386.7
 20
140.0
 30
0.0
  0
POINT
  5
99
  8
DEFPOINTS
  6
CONTINUOUS
 62
     7
 10
-481.5
 20
473.0
 30
0.0
  0
POINT
  5
9A
  8
DEFPOINTS
  6
CONTINUOUS
 62
     7
 10
-1188.33559
 20
473.0
 30
0.0
  0
LINE
  5
9B
  8
SIZE
  6
CONTINUOUS
 62
    30
 10
-358.497964
 20
473.0
 30
0.0
 11
722.014651
 21
473.0
 31
0.0
  0
LINE
  5
9C
  8
SIZE
  6
CONTINUOUS
 62
    30
 10
544.444515
 20
337.0
 30
0.0
 11
722.014651
 21
337.0
 31
0.0
  0
LINE
  5
9D
  8
SIZE
  6
CONTINUOUS
 62
    30
 10
707.014651
 20
473.0
 30
0.0
 11
707.014651
 21
337.0
 31
0.0
  0
CIRCLE
  5
9E
  8
SIZE
  6
CONTINUOUS
 62
    30
 10
707.014651
 20
473.0
 30
0.0
 40
7.5
  0
CIRCLE
  5
9F
  8
SIZE
  6
CONTINUOUS
 62
    30
 10
707.014651
 20
337.0
 30
0.0
 40
7.5
  0
TEXT
  5
A0
  8
SIZE
  6
CONTINUOUS
 62
    30
 10
692.014651
 20
352.5
 30
0.0
 40
50.0
  1
136
 50
90.0
 41
0.9
 72
     1
 11
692.014651
 21
405.0
 31
0.0
  0
POINT
  5
A1
  8
DEFPOINTS
  6
CONTINUOUS
 62
     7
 10
-373.497964
 20
473.0
 30
0.0
  0
POINT
  5
A2
  8
DEFPOINTS
  6
CONTINUOUS
 62
     7
 10
529.444515
 20
337.0
 30
0.0
  0
POINT
  5
A3
  8
DEFPOINTS
  6
CONTINUOUS
 62
     7
 10
707.014651
 20
337.0
 30
0.0
  0
ARC
  5
A4
  8
DETAIL
  6
CONTINUOUS
 62
     5
 10
386.9
 20
472.4
 30
0.0
 40
0.6
 50
0.0
 51
90.0
  0
LINE
  5
A5
  8
SIZE
  6
CONTINUOUS
 62
    30
 10
353.5
 20
508.002395
 30
0.0
 11
353.5
 21
914.347598
 31
0.0
  0
LINE
  5
A6
  8
SIZE
  6
CONTINUOUS
 62
    30
 10
387.5
 20
487.4
 30
0.0
 11
387.5
 21
914.347598
 31
0.0
  0
LINE
  5
A7
  8
SIZE
  6
CONTINUOUS
 62
    30
 10
353.5
 20
899.347598
 30
0.0
 11
387.5
 21
899.347598
 31
0.0
  0
LINE
  5
A8
  8
SIZE
  6
CONTINUOUS
 62
    30
 10
387.5
 20
899.347598
 30
0.0
 11
561.635402
 21
899.347598
 31
0.0
  0
CIRCLE
  5
A9
  8
SIZE
  6
CONTINUOUS
 62
    30
 10
353.5
 20
899.347598
 30
0.0
 40
7.5
  0
CIRCLE
  5
AA
  8
SIZE
  6
CONTINUOUS
 62
    30
 10
387.5
 20
899.347598
 30
0.0
 40
7.5
  0
TEXT
  5
AB
  8
SIZE
  6
CONTINUOUS
 62
    30
 10
471.635402
 20
914.347598
 30
0.0
 40
50.0
  1
34
 41
0.9
 72
     1
 11
509.135402
 21
914.347598
 31
0.0
  0
POINT
  5
AC
  8
DEFPOINTS
  6
CONTINUOUS
 62
     7
 10
353.5
 20
493.002395
 30
0.0
  0
POINT
  5
AD
  8
DEFPOINTS
  6
CONTINUOUS
 62
     7
 10
387.5
 20
472.4
 30
0.0
  0
POINT
  5
AE
  8
DEFPOINTS
  6
CONTINUOUS
 62
     7
 10
387.5
 20
899.347598
 30
0.0
  0
LINE
  5
AF
  8
DETAIL
  6
CONTINUOUS
 62
     5
 10
389.50024
 20
226.998802
 30
0.0
 11
389.50024
 21
206.984432
 31
0.0
  0
ARC
  5
B0
  8
OUTLINE
  6
CONTINUOUS
 62
     3
 10
386.9
 20
472.4
 30
0.0
 40
0.6
 50
0.0
 51
90.0
  0
ARC
  5
B1
  8
OUTLINE
  6
CONTINUOUS
 62
     3
 10
-386.7
 20
140.8
 30
0.0
 40
0.8
 50
180.0
 51
270.001745
  0
LINE
  5
B2
  8
OUTLINE
  6
CONTINUOUS
 62
     3
 10
-387.5
 20
473.0
 30
0.0
 11
386.9
 21
473.0
 31
0.0
  0
LINE
  5
B3
  8
OUTLINE
  6
CONTINUOUS
 62
     3
 10
-387.5
 20
473.0
 30
0.0
 11
-387.5
 21
132.0
 31
0.0
  0
LINE
  5
B4
  8
OUTLINE
  6
CONTINUOUS
 62
     3
 10
386.699904
 20
140.0
 30
0.0
 11
-386.699976
 21
140.0
 31
0.0
  0
ARC
  5
B5
  8
OUTLINE
  6
CONTINUOUS
 62
     3
 10
386.699904
 20
140.800096
 30
0.0
 40
0.800096
 50
270.0
 51
0.000811
  0
LINE
  5
B6
  8
OUTLINE
  6
CONTINUOUS
 62
     3
 10
387.5
 20
472.4
 30
0.0
 11
387.5
 21
140.800107
 31
0.0
  0
ARC
  5
B7
  8
DETAIL
  6
CONTINUOUS
 62
     5
 10
386.7
 20
140.8
 30
0.0
 40
0.8
 50
270.0
 51
0.0
  0
LINE
  5
B8
  8
NOTE
  6
CONTINUOUS
 62
     4
 10
466.612153
 20
366.69151
 30
0.0
 11
457.5
 21
337.0
 31
0.0
  0
LINE
  5
B9
  8
NOTE
  6
CONTINUOUS
 62
     4
 10
457.5
 20
337.0
 30
0.0
 11
480.237111
 21
358.157526
 31
0.0
  0
LINE
  5
BA
  8
DETAIL
  6
CONTINUOUS
 62
     5
 10
-510.500096
 20
162.999757
 30
0.0
 11
-510.5
 21
451.0
 31
0.0
  0
CIRCLE
  5
BB
  8
DETAIL
  6
CONTINUOUS
 62
     5
 10
-500.5
 20
231.0
 30
0.0
 40
1.500001
  0
LINE
  5
BC
  8
NOTE
  6
CONTINUOUS
 62
     4
 10
-500.5
 20
238.500006
 30
0.0
 11
-500.5
 21
223.499994
 31
0.0
  0
LINE
  5
BD
  8
NOTE
  6
CONTINUOUS
 62
     4
 10
-508.000006
 20
231.0
 30
0.0
 11
-492.999994
 21
231.0
 31
0.0
  0
LINE
  5
BE
  8
NOTE
  6
CONTINUOUS
 62
     4
 10
-500.500088
 20
387.500006
 30
0.0
 11
-500.500088
 21
372.499994
 31
0.0
  0
CIRCLE
  5
BF
  8
DETAIL
  6
CONTINUOUS
 62
     5
 10
-500.500088
 20
380.0
 30
0.0
 40
1.500001
  0
LINE
  5
C0
  8
NOTE
  6
CONTINUOUS
 62
     4
 10
-508.000094
 20
380.0
 30
0.0
 11
-493.000083
 21
380.0
 31
0.0
  0
LINE
  5
C1
  8
DETAIL
  6
CONTINUOUS
 62
     5
 10
-481.5
 20
473.0
 30
0.0
 11
-481.5
 21
132.0
 31
0.0
  0
LINE
  5
C2
  8
DETAIL
  6
CONTINUOUS
 62
     5
 10
-510.5
 20
451.0
 30
0.0
 11
-510.5
 21
160.0
 31
0.0
  0
LINE
  5
C3
  8
DETAIL
  6
CONTINUOUS
 62
     5
 10
-387.5
 20
473.0
 30
0.0
 11
-481.5
 21
473.0
 31
0.0
  0
LINE
  5
C4
  8
DETAIL
  6
CONTINUOUS
 62
     5
 10
-387.5
 20
132.0
 30
0.0
 11
-481.5
 21
132.0
 31
0.0
  0
LINE
  5
C5
  8
DETAIL
  6
CONTINUOUS
 62
     5
 10
-481.5
 20
451.0
 30
0.0
 11
-510.500096
 21
451.0
 31
0.0
  0
LINE
  5
C6
  8
DETAIL
  6
CONTINUOUS
 62
     5
 10
-481.5
 20
160.0
 30
0.0
 11
-510.500097
 21
160.0
 31
0.0
  0
LINE
  5
C7
  8
OUTLINE
  6
CONTINUOUS
 62
     3
 10
-387.5
 20
473.0
 30
0.0
 11
-481.5
 21
473.0
 31
0.0
  0
LINE
  5
C8
  8
OUTLINE
  6
CONTINUOUS
 62
     3
 10
-481.5
 20
473.0
 30
0.0
 11
-481.5
 21
132.0
 31
0.0
  0
LINE
  5
C9
  8
OUTLINE
  6
CONTINUOUS
 62
     3
 10
-481.5
 20
132.0
 30
0.0
 11
-387.5
 21
132.0
 31
0.0
  0
LINE
  5
CA
  8
OUTLINE
  6
CONTINUOUS
 62
     3
 10
-481.5
 20
160.0
 30
0.0
 11
-510.500097
 21
160.0
 31
0.0
  0
LINE
  5
CB
  8
OUTLINE
  6
CONTINUOUS
 62
     3
 10
-510.500097
 20
160.0
 30
0.0
 11
-510.500097
 21
451.0
 31
0.0
  0
LINE
  5
CC
  8
OUTLINE
  6
CONTINUOUS
 62
     3
 10
-510.500097
 20
451.0
 30
0.0
 11
-481.5
 21
451.0
 31
0.0
  0
LINE
  5
CD
  8
NOTE
  6
CONTINUOUS
 62
     4
 10
-523.928287
 20
542.085072
 30
0.0
 11
-942.76471
 21
542.085072
 31
0.0
  0
TEXT
  5
CE
  8
NOTE
  6
CONTINUOUS
 62
     4
 10
-935.546091
 20
557.911651
 30
0.0
 40
60.0
  1
2X2-%%C3取付穴
 50
359.999997
 41
0.7
  7
STANDARD1
  0
LINE
  5
CF
  8
DETAIL
  6
CONTINUOUS
 62
     5
 10
101.499991
 20
58.000045
 30
0.0
 11
-504.500484
 21
58.000045
 31
0.0
  0
LINE
  5
D0
  8
DETAIL
  6
CONTINUOUS
 62
     5
 10
123.500008
 20
0.0
 30
0.0
 11
-526.500501
 21
0.0
 31
0.0
  0
LINE
  5
D1
  8
DETAIL
  6
CONTINUOUS
 62
     5
 10
123.500008
 20
-2.000002
 30
0.0
 11
-526.500501
 21
-2.000002
 31
0.0
  0
LINE
  5
D2
  8
NOTE
  6
CONTINUOUS
 62
     4
 10
113.5
 20
1.000001
 30
0.0
 11
206.204167
 21
1.000001
 31
0.0
  0
LINE
  5
D3
  8
NOTE
  6
CONTINUOUS
 62
     4
 10
113.5
 20
21.000016
 30
0.0
 11
206.204167
 21
21.000016
 31
0.0
  0
LINE
  5
D4
  8
NOTE
  6
CONTINUOUS
 62
     4
 10
195.161718
 20
1.000001
 30
0.0
 11
175.161703
 21
21.000016
 31
0.0
  0
LINE
  5
D5
  8
NOTE
  6
CONTINUOUS
 62
     4
 10
190.161714
 20
1.000001
 30
0.0
 11
170.161699
 21
21.000016
 31
0.0
  0
LINE
  5
D6
  8
NOTE
  6
CONTINUOUS
 62
     4
 10
113.5
 20
1.000001
 30
0.0
 11
113.5
 21
21.000016
 31
0.0
  0
LINE
  5
D7
  8
NOTE
  6
CONTINUOUS
 62
     4
 10
145.161679
 20
1.000001
 30
0.0
 11
125.161663
 21
21.000016
 31
0.0
  0
LINE
  5
D8
  8
NOTE
  6
CONTINUOUS
 62
     4
 10
150.161683
 20
1.000001
 30
0.0
 11
130.161667
 21
21.000016
 31
0.0
  0
LINE
  5
D9
  8
NOTE
  6
CONTINUOUS
 62
     4
 10
155.161687
 20
1.000001
 30
0.0
 11
135.161671
 21
21.000016
 31
0.0
  0
LINE
  5
DA
  8
NOTE
  6
CONTINUOUS
 62
     4
 10
185.16171
 20
1.000001
 30
0.0
 11
165.161695
 21
21.000016
 31
0.0
  0
LINE
  5
DB
  8
DETAIL
  6
CONTINUOUS
 62
     5
 10
101.499991
 20
58.000045
 30
0.0
 11
101.499991
 21
0.0
 31
0.0
  0
LINE
  5
DC
  8
DETAIL
  6
CONTINUOUS
 62
     5
 10
123.500008
 20
-2.000002
 30
0.0
 11
123.500008
 21
0.0
 31
0.0
  0
LINE
  5
DD
  8
NOTE
  6
CONTINUOUS
 62
     4
 10
-574.838884
 20
1.000001
 30
0.0
 11
-594.8389
 21
21.000016
 31
0.0
  0
LINE
  5
DE
  8
NOTE
  6
CONTINUOUS
 62
     4
 10
-616.500571
 20
21.000016
 30
0.0
 11
-516.500493
 21
21.000016
 31
0.0
  0
LINE
  5
DF
  8
NOTE
  6
CONTINUOUS
 62
     4
 10
-616.500571
 20
1.000001
 30
0.0
 11
-516.500493
 21
1.000001
 31
0.0
  0
LINE
  5
E0
  8
NOTE
  6
CONTINUOUS
 62
     4
 10
-544.838861
 20
1.000001
 30
0.0
 11
-564.838876
 21
21.000016
 31
0.0
  0
LINE
  5
E1
  8
NOTE
  6
CONTINUOUS
 62
     4
 10
-539.838857
 20
1.000001
 30
0.0
 11
-559.838873
 21
21.000016
 31
0.0
  0
LINE
  5
E2
  8
NOTE
  6
CONTINUOUS
 62
     4
 10
-534.838853
 20
1.000001
 30
0.0
 11
-554.838869
 21
21.000016
 31
0.0
  0
LINE
  5
E3
  8
NOTE
  6
CONTINUOUS
 62
     4
 10
-516.500493
 20
1.000001
 30
0.0
 11
-516.500493
 21
21.000016
 31
0.0
  0
LINE
  5
E4
  8
DETAIL
  6
CONTINUOUS
 62
     5
 10
-504.500484
 20
0.0
 30
0.0
 11
-504.500484
 21
58.000045
 31
0.0
  0
LINE
  5
E5
  8
DETAIL
  6
CONTINUOUS
 62
     5
 10
-526.500501
 20
-2.000002
 30
0.0
 11
-526.500501
 21
0.0
 31
0.0
  0
LINE
  5
E6
  8
NOTE
  6
CONTINUOUS
 62
     4
 10
-584.838892
 20
1.000001
 30
0.0
 11
-604.838908
 21
21.000016
 31
0.0
  0
LINE
  5
E7
  8
NOTE
  6
CONTINUOUS
 62
     4
 10
-579.838888
 20
1.000001
 30
0.0
 11
-599.838904
 21
21.000016
 31
0.0
  0
LINE
  5
E8
  8
SIZE
  6
CONTINUOUS
 62
    30
 10
387.5
 20
487.4
 30
0.0
 11
387.5
 21
1152.00921
 31
0.0
  0
LINE
  5
E9
  8
SIZE
  6
CONTINUOUS
 62
    30
 10
-387.5
 20
488.0
 30
0.0
 11
-387.5
 21
1152.00921
 31
0.0
  0
LINE
  5
EA
  8
SIZE
  6
CONTINUOUS
 62
    30
 10
387.5
 20
1137.00921
 30
0.0
 11
-387.5
 21
1137.00921
 31
0.0
  0
CIRCLE
  5
EB
  8
SIZE
  6
CONTINUOUS
 62
    30
 10
387.5
 20
1137.00921
 30
0.0
 40
7.5
  0
CIRCLE
  5
EC
  8
SIZE
  6
CONTINUOUS
 62
    30
 10
-387.5
 20
1137.00921
 30
0.0
 40
7.5
  0
TEXT
  5
ED
  8
SIZE
  6
CONTINUOUS
 62
    30
 10
-57.857143
 20
1152.00921
 30
0.0
 40
50.0
  1
775
 41
0.9
 72
     1
 11
0.0
 21
1152.00921
 31
0.0
  0
POINT
  5
EE
  8
DEFPOINTS
  6
CONTINUOUS
 62
     7
 10
387.5
 20
472.4
 30
0.0
  0
POINT
  5
EF
  8
DEFPOINTS
  6
CONTINUOUS
 62
     7
 10
-387.5
 20
473.0
 30
0.0
  0
POINT
  5
F0
  8
DEFPOINTS
  6
CONTINUOUS
 62
     7
 10
-387.5
 20
1137.00921
 30
0.0
  0
LINE
  5
F1
  8
SIZE
  6
CONTINUOUS
 62
    30
 10
-387.5
 20
488.0
 30
0.0
 11
-387.5
 21
1152.00921
 31
0.0
  0
LINE
  5
F2
  8
SIZE
  6
CONTINUOUS
 62
    30
 10
-481.5
 20
488.0
 30
0.0
 11
-481.5
 21
1152.00921
 31
0.0
  0
LINE
  5
F3
  8
SIZE
  6
CONTINUOUS
 62
    30
 10
-387.5
 20
1137.00921
 30
0.0
 11
-481.5
 21
1137.00921
 31
0.0
  0
CIRCLE
  5
F4
  8
SIZE
  6
CONTINUOUS
 62
    30
 10
-387.5
 20
1137.00921
 30
0.0
 40
7.5
  0
CIRCLE
  5
F5
  8
SIZE
  6
CONTINUOUS
 62
    30
 10
-481.5
 20
1137.00921
 30
0.0
 40
7.5
  0
TEXT
  5
F6
  8
SIZE
  6
CONTINUOUS
 62
    30
 10
-472.0
 20
1152.00921
 30
0.0
 40
50.0
  1
94
 41
0.9
 72
     1
 11
-434.5
 21
1152.00921
 31
0.0
  0
POINT
  5
F7
  8
DEFPOINTS
  6
CONTINUOUS
 62
     7
 10
-387.5
 20
473.0
 30
0.0
  0
POINT
  5
F8
  8
DEFPOINTS
  6
CONTINUOUS
 62
     7
 10
-481.5
 20
473.0
 30
0.0
  0
POINT
  5
F9
  8
DEFPOINTS
  6
CONTINUOUS
 62
     7
 10
-481.5
 20
1137.00921
 30
0.0
  0
LINE
  5
FA
  8
SIZE
  6
CONTINUOUS
 62
    30
 10
-481.5
 20
488.0
 30
0.0
 11
-481.5
 21
1152.00921
 31
0.0
  0
LINE
  5
FB
  8
SIZE
  6
CONTINUOUS
 62
    30
 10
-510.5
 20
466.0
 30
0.0
 11
-510.5
 21
1152.00921
 31
0.0
  0
LINE
  5
FC
  8
SIZE
  6
CONTINUOUS
 62
    30
 10
-481.5
 20
1137.00921
 30
0.0
 11
-451.5
 21
1137.00921
 31
0.0
  0
LINE
  5
FD
  8
SIZE
  6
CONTINUOUS
 62
    30
 10
-510.5
 20
1137.00921
 30
0.0
 11
-671.214286
 21
1137.00921
 31
0.0
  0
LINE
  5
FE
  8
SIZE
  6
CONTINUOUS
 62
    30
 10
-481.5
 20
1137.00921
 30
0.0
 11
-510.5
 21
1137.00921
 31
0.0
  0
CIRCLE
  5
FF
  8
SIZE
  6
CONTINUOUS
 62
    30
 10
-481.5
 20
1137.00921
 30
0.0
 40
7.5
  0
CIRCLE
  5
100
  8
SIZE
  6
CONTINUOUS
 62
    30
 10
-510.5
 20
1137.00921
 30
0.0
 40
7.5
  0
TEXT
  5
101
  8
SIZE
  6
CONTINUOUS
 62
    30
 10
-656.214286
 20
1152.00921
 30
0.0
 40
50.0
  1
29
 41
0.9
 72
     1
 11
-620.857143
 21
1152.00921
 31
0.0
  0
POINT
  5
102
  8
DEFPOINTS
  6
CONTINUOUS
 62
     7
 10
-481.5
 20
473.0
 30
0.0
  0
POINT
  5
103
  8
DEFPOINTS
  6
CONTINUOUS
 62
     7
 10
-510.5
 20
451.0
 30
0.0
  0
POINT
  5
104
  8
DEFPOINTS
  6
CONTINUOUS
 62
     7
 10
-510.5
 20
1137.00921
 30
0.0
  0
LINE
  5
105
  8
SIZE
  6
CONTINUOUS
 62
    30
 10
387.5
 20
487.4
 30
0.0
 11
387.5
 21
1152.00921
 31
0.0
  0
LINE
  5
106
  8
SIZE
  6
CONTINUOUS
 62
    30
 10
457.5
 20
449.5
 30
0.0
 11
457.5
 21
1152.00921
 31
0.0
  0
LINE
  5
107
  8
SIZE
  6
CONTINUOUS
 62
    30
 10
387.5
 20
1137.00921
 30
0.0
 11
457.5
 21
1137.00921
 31
0.0
  0
LINE
  5
108
  8
SIZE
  6
CONTINUOUS
 62
    30
 10
457.5
 20
1137.00921
 30
0.0
 11
590.357143
 21
1137.00921
 31
0.0
  0
CIRCLE
  5
109
  8
SIZE
  6
CONTINUOUS
 62
    30
 10
387.5
 20
1137.00921
 30
0.0
 40
7.5
  0
CIRCLE
  5
10A
  8
SIZE
  6
CONTINUOUS
 62
    30
 10
457.5
 20
1137.00921
 30
0.0
 40
7.5
  0
TEXT
  5
10B
  8
SIZE
  6
CONTINUOUS
 62
    30
 10
502.5
 20
1152.00921
 30
0.0
 40
50.0
  1
70
 41
0.9
 72
     1
 11
538.928571
 21
1152.00921
 31
0.0
  0
POINT
  5
10C
  8
DEFPOINTS
  6
CONTINUOUS
 62
     7
 10
387.5
 20
472.4
 30
0.0
  0
POINT
  5
10D
  8
DEFPOINTS
  6
CONTINUOUS
 62
     7
 10
457.5
 20
434.5
 30
0.0
  0
POINT
  5
10E
  8
DEFPOINTS
  6
CONTINUOUS
 62
     7
 10
457.5
 20
1137.00921
 30
0.0
  0
LINE
  5
10F
  8
SIZE
  6
CONTINUOUS
 62
    30
 10
-500.500088
 20
357.499994
 30
0.0
 11
-500.500088
 21
249.295676
 31
0.0
  0
LINE
  5
110
  8
SIZE
  6
CONTINUOUS
 62
    30
 10
-510.500097
 20
322.0
 30
0.0
 11
-510.500097
 21
249.295676
 31
0.0
  0
LINE
  5
111
  8
SIZE
  6
CONTINUOUS
 62
    30
 10
-500.500088
 20
264.295676
 30
0.0
 11
-470.500088
 21
264.295676
 31
0.0
  0
LINE
  5
112
  8
SIZE
  6
CONTINUOUS
 62
    30
 10
-510.500097
 20
264.295676
 30
0.0
 11
-664.785812
 21
264.295676
 31
0.0
  0
LINE
  5
113
  8
SIZE
  6
CONTINUOUS
 62
    30
 10
-500.500088
 20
264.295676
 30
0.0
 11
-510.500097
 21
264.295676
 31
0.0
  0
CIRCLE
  5
114
  8
SIZE
  6
CONTINUOUS
 62
    30
 10
-500.500088
 20
264.295676
 30
0.0
 40
7.5
  0
CIRCLE
  5
115
  8
SIZE
  6
CONTINUOUS
 62
    30
 10
-510.500097
 20
264.295676
 30
0.0
 40
7.5
  0
TEXT
  5
116
  8
SIZE
  6
CONTINUOUS
 62
    30
 10
-649.785812
 20
279.295676
 30
0.0
 40
50.0
  1
10
 41
0.9
 72
     1
 11
-617.642954
 21
279.295676
 31
0.0
  0
POINT
  5
117
  8
DEFPOINTS
  6
CONTINUOUS
 62
     7
 10
-500.500088
 20
372.499994
 30
0.0
  0
POINT
  5
118
  8
DEFPOINTS
  6
CONTINUOUS
 62
     7
 10
-510.500097
 20
337.0
 30
0.0
  0
POINT
  5
119
  8
DEFPOINTS
  6
CONTINUOUS
 62
     7
 10
-510.500097
 20
264.295676
 30
0.0
  0
LINE
  5
11A
  8
SIZE
  6
CONTINUOUS
 62
    30
 10
-525.5
 20
451.0
 30
0.0
 11
-800.905502
 21
451.0
 31
0.0
  0
LINE
  5
11B
  8
SIZE
  6
CONTINUOUS
 62
    30
 10
-523.000094
 20
380.0
 30
0.0
 11
-800.905502
 21
380.0
 31
0.0
  0
LINE
  5
11C
  8
SIZE
  6
CONTINUOUS
 62
    30
 10
-785.905502
 20
451.0
 30
0.0
 11
-785.905502
 21
380.0
 31
0.0
  0
CIRCLE
  5
11D
  8
SIZE
  6
CONTINUOUS
 62
    30
 10
-785.905502
 20
451.0
 30
0.0
 40
7.5
  0
CIRCLE
  5
11E
  8
SIZE
  6
CONTINUOUS
 62
    30
 10
-785.905502
 20
380.0
 30
0.0
 40
7.5
  0
TEXT
  5
11F
  8
SIZE
  6
CONTINUOUS
 62
    30
 10
-800.905502
 20
388.714286
 30
0.0
 40
50.0
  1
71
 50
90.0
 41
0.9
 72
     1
 11
-800.905502
 21
415.5
 31
0.0
  0
POINT
  5
120
  8
DEFPOINTS
  6
CONTINUOUS
 62
     7
 10
-510.5
 20
451.0
 30
0.0
  0
POINT
  5
121
  8
DEFPOINTS
  6
CONTINUOUS
 62
     7
 10
-508.000094
 20
380.0
 30
0.0
  0
POINT
  5
122
  8
DEFPOINTS
  6
CONTINUOUS
 62
     7
 10
-785.905502
 20
380.0
 30
0.0
  0
LINE
  5
123
  8
SIZE
  6
CONTINUOUS
 62
    30
 10
-523.000094
 20
380.0
 30
0.0
 11
-800.905502
 21
380.0
 31
0.0
  0
LINE
  5
124
  8
SIZE
  6
CONTINUOUS
 62
    30
 10
-523.000006
 20
231.0
 30
0.0
 11
-800.905502
 21
231.0
 31
0.0
  0
LINE
  5
125
  8
SIZE
  6
CONTINUOUS
 62
    30
 10
-785.905502
 20
380.0
 30
0.0
 11
-785.905502
 21
231.0
 31
0.0
  0
CIRCLE
  5
126
  8
SIZE
  6
CONTINUOUS
 62
    30
 10
-785.905502
 20
380.0
 30
0.0
 40
7.5
  0
CIRCLE
  5
127
  8
SIZE
  6
CONTINUOUS
 62
    30
 10
-785.905502
 20
231.0
 30
0.0
 40
7.5
  0
TEXT
  5
128
  8
SIZE
  6
CONTINUOUS
 62
    30
 10
-800.905502
 20
253.0
 30
0.0
 40
50.0
  1
149
 50
90.0
 41
0.9
 72
     1
 11
-800.905502
 21
305.5
 31
0.0
  0
POINT
  5
129
  8
DEFPOINTS
  6
CONTINUOUS
 62
     7
 10
-508.000094
 20
380.0
 30
0.0
  0
POINT
  5
12A
  8
DEFPOINTS
  6
CONTINUOUS
 62
     7
 10
-508.000006
 20
231.0
 30
0.0
  0
POINT
  5
12B
  8
DEFPOINTS
  6
CONTINUOUS
 62
     7
 10
-785.905502
 20
231.0
 30
0.0
  0
LINE
  5
12C
  8
SIZE
  6
CONTINUOUS
 62
    30
 10
-496.5
 20
473.0
 30
0.0
 11
-981.118493
 21
473.0
 31
0.0
  0
LINE
  5
12D
  8
SIZE
  6
CONTINUOUS
 62
    30
 10
-525.5
 20
451.0
 30
0.0
 11
-981.118493
 21
451.0
 31
0.0
  0
LINE
  5
12E
  8
SIZE
  6
CONTINUOUS
 62
    30
 10
-966.118493
 20
451.0
 30
0.0
 11
-966.118493
 21
421.0
 31
0.0
  0
LINE
  5
12F
  8
SIZE
  6
CONTINUOUS
 62
    30
 10
-966.118493
 20
473.0
 30
0.0
 11
-966.118493
 21
635.857143
 31
0.0
  0
LINE
  5
130
  8
SIZE
  6
CONTINUOUS
 62
    30
 10
-966.118493
 20
451.0
 30
0.0
 11
-966.118493
 21
473.0
 31
0.0
  0
CIRCLE
  5
131
  8
SIZE
  6
CONTINUOUS
 62
    30
 10
-966.118493
 20
451.0
 30
0.0
 40
7.5
  0
CIRCLE
  5
132
  8
SIZE
  6
CONTINUOUS
 62
    30
 10
-966.118493
 20
473.0
 30
0.0
 40
7.5
  0
TEXT
  5
133
  8
SIZE
  6
CONTINUOUS
 62
    30
 10
-981.118493
 20
548.0
 30
0.0
 40
50.0
  1
22
 50
90.0
 41
0.9
 72
     1
 11
-981.118493
 21
584.428571
 31
0.0
  0
POINT
  5
134
  8
DEFPOINTS
  6
CONTINUOUS
 62
     7
 10
-481.5
 20
473.0
 30
0.0
  0
POINT
  5
135
  8
DEFPOINTS
  6
CONTINUOUS
 62
     7
 10
-510.5
 20
451.0
 30
0.0
  0
POINT
  5
136
  8
DEFPOINTS
  6
CONTINUOUS
 62
     7
 10
-966.118493
 20
451.0
 30
0.0
  0
LINE
  5
137
  8
SIZE
  6
CONTINUOUS
 62
    30
 10
-525.5
 20
451.0
 30
0.0
 11
-981.118493
 21
451.0
 31
0.0
  0
LINE
  5
138
  8
SIZE
  6
CONTINUOUS
 62
    30
 10
-525.5
 20
160.0
 30
0.0
 11
-981.118493
 21
160.0
 31
0.0
  0
LINE
  5
139
  8
SIZE
  6
CONTINUOUS
 62
    30
 10
-966.118493
 20
451.0
 30
0.0
 11
-966.118493
 21
160.0
 31
0.0
  0
CIRCLE
  5
13A
  8
SIZE
  6
CONTINUOUS
 62
    30
 10
-966.118493
 20
451.0
 30
0.0
 40
7.5
  0
CIRCLE
  5
13B
  8
SIZE
  6
CONTINUOUS
 62
    30
 10
-966.118493
 20
160.0
 30
0.0
 40
7.5
  0
TEXT
  5
13C
  8
SIZE
  6
CONTINUOUS
 62
    30
 10
-981.118493
 20
257.285714
 30
0.0
 40
50.0
  1
291
 50
90.0
 41
0.9
 72
     1
 11
-981.118493
 21
305.5
 31
0.0
  0
POINT
  5
13D
  8
DEFPOINTS
  6
CONTINUOUS
 62
     7
 10
-510.5
 20
451.0
 30
0.0
  0
POINT
  5
13E
  8
DEFPOINTS
  6
CONTINUOUS
 62
     7
 10
-510.5
 20
160.0
 30
0.0
  0
POINT
  5
13F
  8
DEFPOINTS
  6
CONTINUOUS
 62
     7
 10
-966.118493
 20
160.0
 30
0.0
  0
LINE
  5
140
  8
SIZE
  6
CONTINUOUS
 62
    30
 10
-496.5
 20
473.0
 30
0.0
 11
-1092.519024
 21
473.0
 31
0.0
  0
LINE
  5
141
  8
SIZE
  6
CONTINUOUS
 62
    30
 10
-496.5
 20
132.0
 30
0.0
 11
-1092.519024
 21
132.0
 31
0.0
  0
LINE
  5
142
  8
SIZE
  6
CONTINUOUS
 62
    30
 10
-1077.519024
 20
473.0
 30
0.0
 11
-1077.519024
 21
132.0
 31
0.0
  0
CIRCLE
  5
143
  8
SIZE
  6
CONTINUOUS
 62
    30
 10
-1077.519024
 20
473.0
 30
0.0
 40
7.5
  0
CIRCLE
  5
144
  8
SIZE
  6
CONTINUOUS
 62
    30
 10
-1077.519024
 20
132.0
 30
0.0
 40
7.5
  0
TEXT
  5
145
  8
SIZE
  6
CONTINUOUS
 62
    30
 10
-1092.519024
 20
254.285714
 30
0.0
 40
50.0
  1
341
 50
90.0
 41
0.9
 72
     1
 11
-1092.519024
 21
302.5
 31
0.0
  0
POINT
  5
146
  8
DEFPOINTS
  6
CONTINUOUS
 62
     7
 10
-481.5
 20
473.0
 30
0.0
  0
POINT
  5
147
  8
DEFPOINTS
  6
CONTINUOUS
 62
     7
 10
-481.5
 20
132.0
 30
0.0
  0
POINT
  5
148
  8
DEFPOINTS
  6
CONTINUOUS
 62
     7
 10
-1077.519024
 20
132.0
 30
0.0
  0
LINE
  5
149
  8
SIZE
  6
CONTINUOUS
 62
    30
 10
-541.500501
 20
-2.000002
 30
0.0
 11
-862.912937
 21
-2.000002
 31
0.0
  0
LINE
  5
14A
  8
SIZE
  6
CONTINUOUS
 62
    30
 10
-541.500501
 20
0.0
 30
0.0
 11
-862.912937
 21
0.0
 31
0.0
  0
LINE
  5
14B
  8
SIZE
  6
CONTINUOUS
 62
    30
 10
-847.912937
 20
0.0
 30
0.0
 11
-847.912937
 21
30.0
 31
0.0
  0
LINE
  5
14C
  8
SIZE
  6
CONTINUOUS
 62
    30
 10
-847.912937
 20
-2.000002
 30
0.0
 11
-847.912937
 21
-122.000002
 31
0.0
  0
LINE
  5
14D
  8
SIZE
  6
CONTINUOUS
 62
    30
 10
-847.912937
 20
0.0
 30
0.0
 11
-847.912937
 21
-2.000002
 31
0.0
  0
CIRCLE
  5
14E
  8
SIZE
  6
CONTINUOUS
 62
    30
 10
-847.912937
 20
0.0
 30
0.0
 40
7.5
  0
CIRCLE
  5
14F
  8
SIZE
  6
CONTINUOUS
 62
    30
 10
-847.912937
 20
-2.000002
 30
0.0
 40
7.5
  0
TEXT
  5
150
  8
SIZE
  6
CONTINUOUS
 62
    30
 10
-862.912937
 20
-107.000002
 30
0.0
 40
50.0
  1
2
 50
90.0
 41
0.9
 72
     1
 11
-862.912937
 21
-92.000002
 31
0.0
  0
POINT
  5
151
  8
DEFPOINTS
  6
CONTINUOUS
 62
     7
 10
-526.500501
 20
-2.000002
 30
0.0
  0
POINT
  5
152
  8
DEFPOINTS
  6
CONTINUOUS
 62
     7
 10
-526.500501
 20
0.0
 30
0.0
  0
POINT
  5
153
  8
DEFPOINTS
  6
CONTINUOUS
 62
     7
 10
-847.912937
 20
0.0
 30
0.0
  0
LINE
  5
154
  8
SIZE
  6
CONTINUOUS
 62
    30
 10
-541.500501
 20
0.0
 30
0.0
 11
-862.912937
 21
0.0
 31
0.0
  0
LINE
  5
155
  8
SIZE
  6
CONTINUOUS
 62
    30
 10
-519.500484
 20
58.000045
 30
0.0
 11
-862.912937
 21
58.000045
 31
0.0
  0
LINE
  5
156
  8
SIZE
  6
CONTINUOUS
 62
    30
 10
-847.912937
 20
0.0
 30
0.0
 11
-847.912937
 21
58.000045
 31
0.0
  0
LINE
  5
157
  8
SIZE
  6
CONTINUOUS
 62
    30
 10
-847.912937
 20
29.000023
 30
0.0
 11
-939.142373
 21
18.054096
 31
0.0
  0
LINE
  5
158
  8
SIZE
  6
CONTINUOUS
 62
    30
 10
-939.142373
 20
18.054096
 30
0.0
 11
-939.142373
 21
120.911239
 31
0.0
  0
TEXT
  5
159
  8
SIZE
  6
CONTINUOUS
 62
    30
 10
-954.142373
 20
33.054096
 30
0.0
 40
50.0
  1
58
 50
90.0
 41
0.9
 72
     1
 11
-954.142373
 21
69.482668
 31
0.0
  0
CIRCLE
  5
15A
  8
SIZE
  6
CONTINUOUS
 62
    30
 10
-847.912937
 20
0.0
 30
0.0
 40
7.5
  0
CIRCLE
  5
15B
  8
SIZE
  6
CONTINUOUS
 62
    30
 10
-847.912937
 20
58.000045
 30
0.0
 40
7.5
  0
POINT
  5
15C
  8
DEFPOINTS
  6
CONTINUOUS
 62
     7
 10
-526.500501
 20
0.0
 30
0.0
  0
POINT
  5
15D
  8
DEFPOINTS
  6
CONTINUOUS
 62
     7
 10
-504.500484
 20
58.000045
 30
0.0
  0
POINT
  5
15E
  8
DEFPOINTS
  6
CONTINUOUS
 62
     7
 10
-847.912937
 20
58.000045
 30
0.0
  0
LINE
  5
15F
  8
NOTE
  6
CONTINUOUS
 62
     4
 10
151.990652
 20
244.77005
 30
0.0
 11
89.760978
 21
244.77005
 31
0.0
  0
LINE
  5
160
  8
NOTE
  6
CONTINUOUS
 62
     4
 10
120.875815
 20
275.884887
 30
0.0
 11
120.875815
 21
213.655213
 31
0.0
  0
LINE
  5
161
  8
NOTE
  6
CONTINUOUS
 62
     4
 10
135.39417
 20
325.0
 30
0.0
 11
93.60583
 21
325.0
 31
0.0
  0
LINE
  5
162
  8
DETAIL
  6
CONTINUOUS
 62
     5
 10
13.86321
 20
188.963368
 30
0.0
 11
13.86321
 21
326.981691
 31
0.0
  0
LINE
  5
163
  8
DETAIL
  6
CONTINUOUS
 62
     5
 10
160.880605
 20
188.963368
 30
0.0
 11
160.880605
 21
326.981691
 31
0.0
  0
LINE
  5
164
  8
DETAIL
  6
CONTINUOUS
 62
     5
 10
23.864407
 20
178.96217
 30
0.0
 11
150.879408
 21
178.96217
 31
0.0
  0
ARC
  5
165
  8
DETAIL
  6
CONTINUOUS
 62
     5
 10
150.879408
 20
188.963368
 30
0.0
 40
10.001198
 50
270.0
 51
0.0
  0
ARC
  5
166
  8
DETAIL
  6
CONTINUOUS
 62
     5
 10
23.864407
 20
188.963368
 30
0.0
 40
10.001198
 50
180.0
 51
270.0
  0
CIRCLE
  5
167
  8
DETAIL
  6
CONTINUOUS
 62
     5
 10
120.875815
 20
244.77005
 30
0.0
 40
20.002395
  0
ARC
  5
168
  8
DETAIL
  6
CONTINUOUS
 62
     5
 10
114.5
 20
325.0
 30
0.0
 40
17.502096
 50
180.0
 51
0.0
  0
LINE
  5
169
  8
DETAIL
  6
CONTINUOUS
 62
     5
 10
96.997904
 20
325.0
 30
0.0
 11
96.997904
 21
336.982889
 31
0.0
  0
LINE
  5
16A
  8
DETAIL
  6
CONTINUOUS
 62
     5
 10
96.997904
 20
336.982889
 30
0.0
 11
23.864407
 21
336.982889
 31
0.0
  0
ARC
  5
16B
  8
DETAIL
  6
CONTINUOUS
 62
     5
 10
23.864407
 20
326.981691
 30
0.0
 40
10.001198
 50
90.0
 51
180.0
  0
LINE
  5
16C
  8
DETAIL
  6
CONTINUOUS
 62
     5
 10
150.879408
 20
336.982889
 30
0.0
 11
132.002096
 21
336.982889
 31
0.0
  0
ARC
  5
16D
  8
DETAIL
  6
CONTINUOUS
 62
     5
 10
150.879408
 20
326.981691
 30
0.0
 40
10.001198
 50
0.0
 51
90.0
  0
LINE
  5
16E
  8
DETAIL
  6
CONTINUOUS
 62
     5
 10
132.002096
 20
325.0
 30
0.0
 11
132.002096
 21
336.982889
 31
0.0
  0
ARC
  5
16F
  8
DETAIL
  6
CONTINUOUS
 62
     5
 10
174.876592
 20
410.997093
 30
0.0
 40
5.000599
 50
90.0
 51
180.0
  0
ARC
  5
170
  8
DETAIL
  6
CONTINUOUS
 62
     5
 10
336.897352
 20
227.969376
 30
0.0
 40
5.000599
 50
270.0
 51
0.0
  0
ARC
  5
171
  8
DETAIL
  6
CONTINUOUS
 62
     5
 10
336.897352
 20
410.997093
 30
0.0
 40
5.000599
 50
0.0
 51
90.0
  0
LINE
  5
172
  8
DETAIL
  6
CONTINUOUS
 62
     5
 10
341.897951
 20
227.969376
 30
0.0
 11
341.897951
 21
410.997093
 31
0.0
  0
LINE
  5
173
  8
DETAIL
  6
CONTINUOUS
 62
     5
 10
174.876592
 20
250.977327
 30
0.0
 11
179.498204
 21
250.977327
 31
0.0
  0
LINE
  5
174
  8
DETAIL
  6
CONTINUOUS
 62
     5
 10
219.501796
 20
227.969376
 30
0.0
 11
240.497844
 21
227.969376
 31
0.0
  0
LINE
  5
175
  8
DETAIL
  6
CONTINUOUS
 62
     5
 10
286.502156
 20
222.968777
 30
0.0
 11
336.897352
 21
222.968777
 31
0.0
  0
ARC
  5
176
  8
DETAIL
  6
CONTINUOUS
 62
     5
 10
174.876592
 20
255.977926
 30
0.0
 40
5.000599
 50
180.0
 51
270.0
  0
LINE
  5
177
  8
DETAIL
  6
CONTINUOUS
 62
     5
 10
184.498204
 20
255.977327
 30
0.0
 11
184.498204
 21
267.0
 31
0.0
  0
LINE
  5
178
  8
DETAIL
  6
CONTINUOUS
 62
     5
 10
214.501796
 20
232.969376
 30
0.0
 11
214.501796
 21
267.0
 31
0.0
  0
LINE
  5
179
  8
DETAIL
  6
CONTINUOUS
 62
     5
 10
169.875993
 20
410.997093
 30
0.0
 11
169.875993
 21
255.977926
 31
0.0
  0
LINE
  5
17A
  8
DETAIL
  6
CONTINUOUS
 62
     5
 10
336.897352
 20
415.997692
 30
0.0
 11
174.876592
 21
415.997692
 31
0.0
  0
CIRCLE
  5
17B
  8
DETAIL
  6
CONTINUOUS
 62
     5
 10
255.887652
 20
407.996733
 30
0.0
 40
3.000359
  0
CIRCLE
  5
17C
  8
DETAIL
  6
CONTINUOUS
 62
     5
 10
195.5
 20
168.0
 30
0.0
 40
13.751647
  0
CIRCLE
  5
17D
  8
DETAIL
  6
CONTINUOUS
 62
     5
 10
199.5
 20
267.0
 30
0.0
 40
4.76
  0
CIRCLE
  5
17E
  8
DETAIL
  6
CONTINUOUS
 62
     5
 10
263.5
 20
239.0
 30
0.0
 40
18.002156
  0
CIRCLE
  5
17F
  8
DETAIL
  6
CONTINUOUS
 62
     5
 10
263.5
 20
239.0
 30
0.0
 40
7.94
  0
CIRCLE
  5
180
  8
DETAIL
  6
CONTINUOUS
 62
     5
 10
199.5
 20
267.0
 30
0.0
 40
15.001796
  0
LINE
  5
181
  8
DETAIL
  6
CONTINUOUS
 62
     5
 10
174.497485
 20
140.800096
 30
0.0
 11
174.497485
 21
168.0
 31
0.0
  0
LINE
  5
182
  8
DETAIL
  6
CONTINUOUS
 62
     5
 10
216.502515
 20
140.800096
 30
0.0
 11
216.502515
 21
168.0
 31
0.0
  0
ARC
  5
183
  8
DETAIL
  6
CONTINUOUS
 62
     5
 10
195.5
 20
168.0
 30
0.0
 40
21.002515
 50
0.0
 51
180.0
  0
LINE
  5
184
  8
NOTE
  6
CONTINUOUS
 62
     4
 10
114.5
 20
347.502695
 30
0.0
 11
114.5
 21
302.497305
 31
0.0
  0
LINE
  5
185
  8
NOTE
  6
CONTINUOUS
 62
     4
 10
195.5
 20
197.583605
 30
0.0
 11
195.5
 21
138.416395
 31
0.0
  0
LINE
  5
186
  8
NOTE
  6
CONTINUOUS
 62
     4
 10
225.503593
 20
168.0
 30
0.0
 11
165.496407
 21
168.0
 31
0.0
  0
LINE
  5
187
  8
NOTE
  6
CONTINUOUS
 62
     4
 10
227.584781
 20
267.0
 30
0.0
 11
171.415219
 21
267.0
 31
0.0
  0
LINE
  5
188
  8
NOTE
  6
CONTINUOUS
 62
     4
 10
199.5
 20
297.003593
 30
0.0
 11
199.5
 21
236.996407
 31
0.0
  0
LINE
  5
189
  8
NOTE
  6
CONTINUOUS
 62
     4
 10
293.503593
 20
239.0
 30
0.0
 11
233.496407
 21
239.0
 31
0.0
  0
LINE
  5
18A
  8
NOTE
  6
CONTINUOUS
 62
     4
 10
263.5
 20
269.003593
 30
0.0
 11
263.5
 21
208.996407
 31
0.0
  0
ARC
  5
18B
  8
DETAIL
  6
CONTINUOUS
 62
     5
 10
179.498204
 20
255.977327
 30
0.0
 40
5.0
 50
270.0
 51
0.0
  0
ARC
  5
18C
  8
DETAIL
  6
CONTINUOUS
 62
     5
 10
219.501796
 20
232.969376
 30
0.0
 40
5.0
 50
180.0
 51
270.0
  0
LINE
  5
18D
  8
DETAIL
  6
CONTINUOUS
 62
     5
 10
245.497844
 20
239.0
 30
0.0
 11
245.497844
 21
232.969376
 31
0.0
  0
LINE
  5
18E
  8
DETAIL
  6
CONTINUOUS
 62
     5
 10
281.502156
 20
239.0
 30
0.0
 11
281.502156
 21
227.968777
 31
0.0
  0
ARC
  5
18F
  8
DETAIL
  6
CONTINUOUS
 62
     5
 10
240.497844
 20
232.969376
 30
0.0
 40
5.0
 50
270.0
 51
0.0
  0
ARC
  5
190
  8
DETAIL
  6
CONTINUOUS
 62
     5
 10
286.502156
 20
227.968777
 30
0.0
 40
5.0
 50
180.0
 51
270.0
  0
TEXT
  5
191
  8
NOTE
  6
CONTINUOUS
 62
     4
 10
436.086339
 20
18.673167
 30
0.0
 40
60.0
  1
RG %%C15.88
 50
0.000003
 41
0.7
  7
STANDARD1
  0
LINE
  5
192
  8
NOTE
  6
CONTINUOUS
 62
     4
 10
802.314798
 20
7.904144
 30
0.0
 11
422.279319
 21
7.904144
 31
0.0
  0
TEXT
  5
193
  8
NOTE
  6
CONTINUOUS
 62
     4
 10
-334.790926
 20
683.875843
 30
0.0
 40
60.0
  1
D1 VP-25
 50
0.000003
 41
0.7
  7
STANDARD1
  0
LINE
  5
194
  8
NOTE
  6
CONTINUOUS
 62
     4
 10
-13.81236
 20
668.049312
 30
0.0
 11
-356.466198
 21
668.049312
 31
0.0
  0
TEXT
  5
195
  8
NOTE
  6
CONTINUOUS
 62
     4
 10
676.195741
 20
728.670359
 30
0.0
 40
60.0
  1
RL %%C9.52
 50
0.000003
 41
0.7
  7
STANDARD1
  0
LINE
  5
196
  8
NOTE
  6
CONTINUOUS
 62
     4
 10
1005.328106
 20
711.030951
 30
0.0
 11
667.217056
 21
711.030951
 31
0.0
  0
TEXT
  5
197
  8
NOTE
  6
CONTINUOUS
 62
     4
 10
429.232948
 20
-128.516748
 30
0.0
 40
60.0
  1
D2（自然排水口）
 50
0.000003
 41
0.7
  7
STANDARD1
  0
LINE
  5
198
  8
NOTE
  6
CONTINUOUS
 62
     4
 10
842.488476
 20
-144.343279
 30
0.0
 11
407.557676
 21
-144.343279
 31
0.0
  0
TEXT
  5
199
  8
NOTE
  6
CONTINUOUS
 62
     4
 10
-491.301543
 20
-152.910079
 30
0.0
 40
60.0
  1
ドレン排水確認用給水口
 50
0.000003
 41
0.7
  7
STANDARD1
  0
LINE
  5
19A
  8
NOTE
  6
CONTINUOUS
 62
     4
 10
71.162813
 20
-161.646179
 30
0.0
 11
-500.331111
 21
-161.646179
 31
0.0
  0
LINE
  5
19B
  8
SIZE
  6
CONTINUOUS
 62
    30
 10
263.5
 20
284.003593
 30
0.0
 11
263.5
 21
695.052872
 31
0.0
  0
LINE
  5
19C
  8
SIZE
  6
CONTINUOUS
 62
    30
 10
199.5
 20
312.003593
 30
0.0
 11
199.5
 21
695.052872
 31
0.0
  0
LINE
  5
19D
  8
SIZE
  6
CONTINUOUS
 62
    30
 10
263.5
 20
680.052872
 30
0.0
 11
199.5
 21
680.052872
 31
0.0
  0
LINE
  5
19E
  8
SIZE
  6
CONTINUOUS
 62
    30
 10
199.5
 20
680.052872
 30
0.0
 11
8.633163
 21
680.052872
 31
0.0
  0
CIRCLE
  5
19F
  8
SIZE
  6
CONTINUOUS
 62
    30
 10
263.5
 20
680.052872
 30
0.0
 40
7.5
  0
CIRCLE
  5
1A0
  8
SIZE
  6
CONTINUOUS
 62
    30
 10
199.5
 20
680.052872
 30
0.0
 40
7.5
  0
TEXT
  5
1A1
  8
SIZE
  6
CONTINUOUS
 62
    30
 10
23.633163
 20
695.052872
 30
0.0
 40
50.0
  1
64
 41
0.9
 72
     1
 11
61.133163
 21
695.052872
 31
0.0
  0
POINT
  5
1A2
  8
DEFPOINTS
  6
CONTINUOUS
 62
     7
 10
263.5
 20
269.003593
 30
0.0
  0
POINT
  5
1A3
  8
DEFPOINTS
  6
CONTINUOUS
 62
     7
 10
199.5
 20
297.003593
 30
0.0
  0
POINT
  5
1A4
  8
DEFPOINTS
  6
CONTINUOUS
 62
     7
 10
199.5
 20
680.052872
 30
0.0
  0
CIRCLE
  5
1A5
  8
DETAIL
  6
CONTINUOUS
 62
     5
 10
114.5
 20
325.0
 30
0.0
 40
16.0
  0
LINE
  5
1A6
  8
SIZE
  6
CONTINUOUS
 62
    30
 10
242.584781
 20
267.0
 30
0.0
 11
945.676267
 21
267.0
 31
0.0
  0
LINE
  5
1A7
  8
SIZE
  6
CONTINUOUS
 62
    30
 10
401.7
 20
473.0
 30
0.0
 11
945.676267
 21
473.0
 31
0.0
  0
LINE
  5
1A8
  8
SIZE
  6
CONTINUOUS
 62
    30
 10
930.676267
 20
267.0
 30
0.0
 11
930.676267
 21
473.0
 31
0.0
  0
CIRCLE
  5
1A9
  8
SIZE
  6
CONTINUOUS
 62
    30
 10
930.676267
 20
267.0
 30
0.0
 40
7.5
  0
CIRCLE
  5
1AA
  8
SIZE
  6
CONTINUOUS
 62
    30
 10
930.676267
 20
473.0
 30
0.0
 40
7.5
  0
TEXT
  5
1AB
  8
SIZE
  6
CONTINUOUS
 62
    30
 10
915.676267
 20
313.214286
 30
0.0
 40
50.0
  1
206
 50
90.0
 41
0.9
 72
     1
 11
915.676267
 21
370.0
 31
0.0
  0
POINT
  5
1AC
  8
DEFPOINTS
  6
CONTINUOUS
 62
     7
 10
227.584781
 20
267.0
 30
0.0
  0
POINT
  5
1AD
  8
DEFPOINTS
  6
CONTINUOUS
 62
     7
 10
386.7
 20
473.0
 30
0.0
  0
POINT
  5
1AE
  8
DEFPOINTS
  6
CONTINUOUS
 62
     7
 10
930.676267
 20
473.0
 30
0.0
  0
LINE
  5
1AF
  8
SIZE
  6
CONTINUOUS
 62
    30
 10
242.584781
 20
267.0
 30
0.0
 11
945.676267
 21
267.0
 31
0.0
  0
LINE
  5
1B0
  8
SIZE
  6
CONTINUOUS
 62
    30
 10
308.503593
 20
239.0
 30
0.0
 11
945.676267
 21
239.0
 31
0.0
  0
LINE
  5
1B1
  8
SIZE
  6
CONTINUOUS
 62
    30
 10
930.676267
 20
267.0
 30
0.0
 11
930.676267
 21
297.0
 31
0.0
  0
LINE
  5
1B2
  8
SIZE
  6
CONTINUOUS
 62
    30
 10
930.676267
 20
239.0
 30
0.0
 11
930.676267
 21
43.890028
 31
0.0
  0
LINE
  5
1B3
  8
SIZE
  6
CONTINUOUS
 62
    30
 10
930.676267
 20
267.0
 30
0.0
 11
930.676267
 21
239.0
 31
0.0
  0
CIRCLE
  5
1B4
  8
SIZE
  6
CONTINUOUS
 62
    30
 10
930.676267
 20
267.0
 30
0.0
 40
7.5
  0
CIRCLE
  5
1B5
  8
SIZE
  6
CONTINUOUS
 62
    30
 10
930.676267
 20
239.0
 30
0.0
 40
7.5
  0
TEXT
  5
1B6
  8
SIZE
  6
CONTINUOUS
 62
    30
 10
915.676267
 20
58.890028
 30
0.0
 40
50.0
  1
28
 50
90.0
 41
0.9
 72
     1
 11
915.676267
 21
95.318599
 31
0.0
  0
POINT
  5
1B7
  8
DEFPOINTS
  6
CONTINUOUS
 62
     7
 10
227.584781
 20
267.0
 30
0.0
  0
POINT
  5
1B8
  8
DEFPOINTS
  6
CONTINUOUS
 62
     7
 10
293.503593
 20
239.0
 30
0.0
  0
POINT
  5
1B9
  8
DEFPOINTS
  6
CONTINUOUS
 62
     7
 10
930.676267
 20
239.0
 30
0.0
  0
LINE
  5
1BA
  8
SIZE
  6
CONTINUOUS
 62
    30
 10
240.503593
 20
168.0
 30
0.0
 11
1052.281303
 21
168.0
 31
0.0
  0
LINE
  5
1BB
  8
SIZE
  6
CONTINUOUS
 62
    30
 10
401.7
 20
473.0
 30
0.0
 11
1052.281303
 21
473.0
 31
0.0
  0
LINE
  5
1BC
  8
SIZE
  6
CONTINUOUS
 62
    30
 10
1037.281303
 20
168.0
 30
0.0
 11
1037.281303
 21
473.0
 31
0.0
  0
CIRCLE
  5
1BD
  8
SIZE
  6
CONTINUOUS
 62
    30
 10
1037.281303
 20
168.0
 30
0.0
 40
7.5
  0
CIRCLE
  5
1BE
  8
SIZE
  6
CONTINUOUS
 62
    30
 10
1037.281303
 20
473.0
 30
0.0
 40
7.5
  0
TEXT
  5
1BF
  8
SIZE
  6
CONTINUOUS
 62
    30
 10
1022.281303
 20
262.642857
 30
0.0
 40
50.0
  1
305
 50
90.0
 41
0.9
 72
     1
 11
1022.281303
 21
320.5
 31
0.0
  0
POINT
  5
1C0
  8
DEFPOINTS
  6
CONTINUOUS
 62
     7
 10
225.503593
 20
168.0
 30
0.0
  0
POINT
  5
1C1
  8
DEFPOINTS
  6
CONTINUOUS
 62
     7
 10
386.7
 20
473.0
 30
0.0
  0
POINT
  5
1C2
  8
DEFPOINTS
  6
CONTINUOUS
 62
     7
 10
1037.281303
 20
473.0
 30
0.0
  0
LINE
  5
1C3
  8
SIZE
  6
CONTINUOUS
 62
    30
 10
263.5
 20
284.003593
 30
0.0
 11
263.5
 21
695.052872
 31
0.0
  0
LINE
  5
1C4
  8
SIZE
  6
CONTINUOUS
 62
    30
 10
387.5
 20
486.640435
 30
0.0
 11
387.5
 21
695.052872
 31
0.0
  0
LINE
  5
1C5
  8
SIZE
  6
CONTINUOUS
 62
    30
 10
263.5
 20
680.052872
 30
0.0
 11
387.5
 21
680.052872
 31
0.0
  0
LINE
  5
1C6
  8
SIZE
  6
CONTINUOUS
 62
    30
 10
387.5
 20
680.052872
 30
0.0
 11
556.785714
 21
680.052872
 31
0.0
  0
CIRCLE
  5
1C7
  8
SIZE
  6
CONTINUOUS
 62
    30
 10
263.5
 20
680.052872
 30
0.0
 40
7.5
  0
CIRCLE
  5
1C8
  8
SIZE
  6
CONTINUOUS
 62
    30
 10
387.5
 20
680.052872
 30
0.0
 40
7.5
  0
TEXT
  5
1C9
  8
SIZE
  6
CONTINUOUS
 62
    30
 10
432.5
 20
695.052872
 30
0.0
 40
50.0
  1
124
 41
0.9
 72
     1
 11
487.142857
 21
695.052872
 31
0.0
  0
POINT
  5
1CA
  8
DEFPOINTS
  6
CONTINUOUS
 62
     7
 10
263.5
 20
269.003593
 30
0.0
  0
POINT
  5
1CB
  8
DEFPOINTS
  6
CONTINUOUS
 62
     7
 10
387.5
 20
471.640435
 30
0.0
  0
POINT
  5
1CC
  8
DEFPOINTS
  6
CONTINUOUS
 62
     7
 10
387.5
 20
680.052872
 30
0.0
  0
LINE
  5
1CD
  8
SIZE
  6
CONTINUOUS
 62
    30
 10
114.5
 20
362.502695
 30
0.0
 11
114.5
 21
798.838777
 31
0.0
  0
LINE
  5
1CE
  8
SIZE
  6
CONTINUOUS
 62
    30
 10
387.5
 20
486.640435
 30
0.0
 11
387.5
 21
798.838777
 31
0.0
  0
LINE
  5
1CF
  8
SIZE
  6
CONTINUOUS
 62
    30
 10
114.5
 20
783.838777
 30
0.0
 11
387.5
 21
783.838777
 31
0.0
  0
CIRCLE
  5
1D0
  8
SIZE
  6
CONTINUOUS
 62
    30
 10
114.5
 20
783.838777
 30
0.0
 40
7.5
  0
CIRCLE
  5
1D1
  8
SIZE
  6
CONTINUOUS
 62
    30
 10
387.5
 20
783.838777
 30
0.0
 40
7.5
  0
TEXT
  5
1D2
  8
SIZE
  6
CONTINUOUS
 62
    30
 10
193.142857
 20
798.838777
 30
0.0
 40
50.0
  1
273
 41
0.9
 72
     1
 11
251.0
 21
798.838777
 31
0.0
  0
POINT
  5
1D3
  8
DEFPOINTS
  6
CONTINUOUS
 62
     7
 10
114.5
 20
347.502695
 30
0.0
  0
POINT
  5
1D4
  8
DEFPOINTS
  6
CONTINUOUS
 62
     7
 10
387.5
 20
471.640435
 30
0.0
  0
POINT
  5
1D5
  8
DEFPOINTS
  6
CONTINUOUS
 62
     7
 10
387.5
 20
783.838777
 30
0.0
  0
LINE
  5
1D6
  8
SIZE
  6
CONTINUOUS
 62
    30
 10
401.9
 20
473.0
 30
0.0
 11
829.664833
 21
473.0
 31
0.0
  0
LINE
  5
1D7
  8
SIZE
  6
CONTINUOUS
 62
    30
 10
150.39417
 20
325.0
 30
0.0
 11
829.664833
 21
325.0
 31
0.0
  0
LINE
  5
1D8
  8
SIZE
  6
CONTINUOUS
 62
    30
 10
814.664833
 20
473.0
 30
0.0
 11
814.664833
 21
325.0
 31
0.0
  0
CIRCLE
  5
1D9
  8
SIZE
  6
CONTINUOUS
 62
    30
 10
814.664833
 20
473.0
 30
0.0
 40
7.5
  0
CIRCLE
  5
1DA
  8
SIZE
  6
CONTINUOUS
 62
    30
 10
814.664833
 20
325.0
 30
0.0
 40
7.5
  0
TEXT
  5
1DB
  8
SIZE
  6
CONTINUOUS
 62
    30
 10
799.664833
 20
345.428571
 30
0.0
 40
50.0
  1
148
 50
90.0
 41
0.9
 72
     1
 11
799.664833
 21
399.0
 31
0.0
  0
POINT
  5
1DC
  8
DEFPOINTS
  6
CONTINUOUS
 62
     7
 10
386.9
 20
473.0
 30
0.0
  0
POINT
  5
1DD
  8
DEFPOINTS
  6
CONTINUOUS
 62
     7
 10
135.39417
 20
325.0
 30
0.0
  0
POINT
  5
1DE
  8
DEFPOINTS
  6
CONTINUOUS
 62
     7
 10
814.664833
 20
325.0
 30
0.0
  0
LINE
  5
1DF
  8
DETAIL
  6
CONTINUOUS
 62
     5
 10
-359.5
 20
170.0
 30
0.0
 11
-129.5
 21
170.0
 31
0.0
  0
LINE
  5
1E0
  8
DETAIL
  6
CONTINUOUS
 62
     5
 10
-305.179527
 20
156.197024
 30
0.0
 11
-222.149449
 21
156.197024
 31
0.0
  0
LINE
  5
1E1
  8
DETAIL
  6
CONTINUOUS
 62
     5
 10
-308.180886
 20
170.0
 30
0.0
 11
-308.180886
 21
159.198383
 31
0.0
  0
ARC
  5
1E2
  8
DETAIL
  6
CONTINUOUS
 62
     5
 10
-305.179527
 20
159.198383
 30
0.0
 40
3.001359
 50
180.0
 51
270.0
  0
LINE
  5
1E3
  8
DETAIL
  6
CONTINUOUS
 62
     5
 10
-361.104844
 20
220.627259
 30
0.0
 11
-359.5
 21
220.627259
 31
0.0
  0
LINE
  5
1E4
  8
DETAIL
  6
CONTINUOUS
 62
     5
 10
-361.104844
 20
185.611408
 30
0.0
 11
-359.5
 21
185.611408
 31
0.0
  0
ARC
  5
1E5
  8
DETAIL
  6
CONTINUOUS
 62
     5
 10
-362.105297
 20
184.610955
 30
0.0
 40
2.000906
 50
180.0
 51
270.0
  0
ARC
  5
1E6
  8
DETAIL
  6
CONTINUOUS
 62
     5
 10
-362.105297
 20
221.627712
 30
0.0
 40
2.000906
 50
90.0
 51
180.0
  0
LINE
  5
1E7
  8
DETAIL
  6
CONTINUOUS
 62
     5
 10
-361.104844
 20
182.610049
 30
0.0
 11
-361.104844
 21
223.628617
 31
0.0
  0
LINE
  5
1E8
  8
DETAIL
  6
CONTINUOUS
 62
     5
 10
-364.106202
 20
184.610955
 30
0.0
 11
-364.106202
 21
221.627712
 31
0.0
  0
LINE
  5
1E9
  8
DETAIL
  6
CONTINUOUS
 62
     5
 10
-362.105297
 20
182.610049
 30
0.0
 11
-361.104844
 21
182.610049
 31
0.0
  0
LINE
  5
1EA
  8
DETAIL
  6
CONTINUOUS
 62
     5
 10
-362.105297
 20
223.628617
 30
0.0
 11
-361.104844
 21
223.628617
 31
0.0
  0
LINE
  5
1EB
  8
DETAIL
  6
CONTINUOUS
 62
     5
 10
-322.589883
 20
420.0
 30
0.0
 11
-322.589883
 21
266.043477
 31
0.0
  0
LINE
  5
1EC
  8
DETAIL
  6
CONTINUOUS
 62
     5
 10
-359.5
 20
266.043477
 30
0.0
 11
-322.589883
 21
266.043477
 31
0.0
  0
LINE
  5
1ED
  8
DETAIL
  6
CONTINUOUS
 62
     5
 10
-129.5
 20
170.0
 30
0.0
 11
-129.5
 21
420.0
 31
0.0
  0
ARC
  5
1EE
  8
DETAIL
  6
CONTINUOUS
 62
     5
 10
-222.149449
 20
159.198383
 30
0.0
 40
3.001359
 50
270.0
 51
0.0
  0
LINE
  5
1EF
  8
DETAIL
  6
CONTINUOUS
 62
     5
 10
-219.14809
 20
159.198383
 30
0.0
 11
-219.14809
 21
170.0
 31
0.0
  0
LINE
  5
1F0
  8
DETAIL
  6
CONTINUOUS
 62
     5
 10
-126.498641
 20
182.610049
 30
0.0
 11
-127.499094
 21
182.610049
 31
0.0
  0
LINE
  5
1F1
  8
DETAIL
  6
CONTINUOUS
 62
     5
 10
-124.497736
 20
184.610955
 30
0.0
 11
-124.497736
 21
221.627712
 31
0.0
  0
LINE
  5
1F2
  8
DETAIL
  6
CONTINUOUS
 62
     5
 10
-127.499094
 20
182.610049
 30
0.0
 11
-127.499094
 21
223.628617
 31
0.0
  0
LINE
  5
1F3
  8
DETAIL
  6
CONTINUOUS
 62
     5
 10
-127.499094
 20
185.611408
 30
0.0
 11
-129.5
 21
185.611408
 31
0.0
  0
ARC
  5
1F4
  8
DETAIL
  6
CONTINUOUS
 62
     5
 10
-126.498641
 20
184.610955
 30
0.0
 40
2.000906
 50
270.0
 51
0.0
  0
LINE
  5
1F5
  8
DETAIL
  6
CONTINUOUS
 62
     5
 10
-126.498641
 20
223.628617
 30
0.0
 11
-127.499094
 21
223.628617
 31
0.0
  0
ARC
  5
1F6
  8
DETAIL
  6
CONTINUOUS
 62
     5
 10
-126.498641
 20
221.627712
 30
0.0
 40
2.000906
 50
0.0
 51
90.0
  0
LINE
  5
1F7
  8
DETAIL
  6
CONTINUOUS
 62
     5
 10
-127.499094
 20
220.627259
 30
0.0
 11
-129.5
 21
220.627259
 31
0.0
  0
LINE
  5
1F8
  8
DETAIL
  6
CONTINUOUS
 62
     5
 10
-359.5
 20
170.0
 30
0.0
 11
-359.5
 21
266.043477
 31
0.0
  0
LINE
  5
1F9
  8
DETAIL
  6
CONTINUOUS
 62
     5
 10
-322.589883
 20
420.0
 30
0.0
 11
-129.5
 21
420.0
 31
0.0
  0
LINE
  5
1FA
  8
SIZE
  6
CONTINUOUS
 62
    30
 10
-114.5
 20
170.0
 30
0.0
 11
-26.303797
 21
170.0
 31
0.0
  0
LINE
  5
1FB
  8
SIZE
  6
CONTINUOUS
 62
    30
 10
-114.5
 20
420.0
 30
0.0
 11
-26.303797
 21
420.0
 31
0.0
  0
LINE
  5
1FC
  8
SIZE
  6
CONTINUOUS
 62
    30
 10
-41.303797
 20
170.0
 30
0.0
 11
-41.303797
 21
420.0
 31
0.0
  0
CIRCLE
  5
1FD
  8
SIZE
  6
CONTINUOUS
 62
    30
 10
-41.303797
 20
170.0
 30
0.0
 40
7.5
  0
CIRCLE
  5
1FE
  8
SIZE
  6
CONTINUOUS
 62
    30
 10
-41.303797
 20
420.0
 30
0.0
 40
7.5
  0
TEXT
  5
1FF
  8
SIZE
  6
CONTINUOUS
 62
    30
 10
-56.303797
 20
237.142857
 30
0.0
 40
50.0
  1
250
 50
90.0
 41
0.9
 72
     1
 11
-56.303797
 21
295.0
 31
0.0
  0
POINT
  5
200
  8
DEFPOINTS
  6
CONTINUOUS
 62
     7
 10
-129.5
 20
170.0
 30
0.0
  0
POINT
  5
201
  8
DEFPOINTS
  6
CONTINUOUS
 62
     7
 10
-129.5
 20
420.0
 30
0.0
  0
POINT
  5
202
  8
DEFPOINTS
  6
CONTINUOUS
 62
     7
 10
-41.303797
 20
420.0
 30
0.0
  0
LINE
  5
203
  8
SIZE
  6
CONTINUOUS
 62
    30
 10
-114.5
 20
420.0
 30
0.0
 11
-26.303797
 21
420.0
 31
0.0
  0
LINE
  5
204
  8
SIZE
  6
CONTINUOUS
 62
    30
 10
-15.0
 20
473.0
 30
0.0
 11
-56.303797
 21
473.0
 31
0.0
  0
LINE
  5
205
  8
SIZE
  6
CONTINUOUS
 62
    30
 10
-41.303797
 20
420.0
 30
0.0
 11
-41.303797
 21
473.0
 31
0.0
  0
LINE
  5
206
  8
SIZE
  6
CONTINUOUS
 62
    30
 10
-41.303797
 20
613.983683
 30
0.0
 11
-41.303797
 21
473.0
 31
0.0
  0
TEXT
  5
207
  8
SIZE
  6
CONTINUOUS
 62
    30
 10
-56.303797
 20
526.126541
 30
0.0
 40
50.0
  1
53
 50
90.0
 41
0.9
 72
     1
 11
-56.303797
 21
562.555112
 31
0.0
  0
CIRCLE
  5
208
  8
SIZE
  6
CONTINUOUS
 62
    30
 10
-41.303797
 20
420.0
 30
0.0
 40
7.5
  0
CIRCLE
  5
209
  8
SIZE
  6
CONTINUOUS
 62
    30
 10
-41.303797
 20
473.0
 30
0.0
 40
7.5
  0
POINT
  5
20A
  8
DEFPOINTS
  6
CONTINUOUS
 62
     7
 10
-129.5
 20
420.0
 30
0.0
  0
POINT
  5
20B
  8
DEFPOINTS
  6
CONTINUOUS
 62
     7
 10
0.0
 20
473.0
 30
0.0
  0
POINT
  5
20C
  8
DEFPOINTS
  6
CONTINUOUS
 62
     7
 10
-41.303797
 20
473.0
 30
0.0
  0
LINE
  5
20D
  8
SIZE
  6
CONTINUOUS
 62
    30
 10
-359.5
 20
281.043477
 30
0.0
 11
-359.5
 21
1035.667522
 31
0.0
  0
LINE
  5
20E
  8
SIZE
  6
CONTINUOUS
 62
    30
 10
-129.5
 20
435.0
 30
0.0
 11
-129.5
 21
1035.667522
 31
0.0
  0
LINE
  5
20F
  8
SIZE
  6
CONTINUOUS
 62
    30
 10
-359.5
 20
1020.667522
 30
0.0
 11
-129.5
 21
1020.667522
 31
0.0
  0
CIRCLE
  5
210
  8
SIZE
  6
CONTINUOUS
 62
    30
 10
-359.5
 20
1020.667522
 30
0.0
 40
7.5
  0
CIRCLE
  5
211
  8
SIZE
  6
CONTINUOUS
 62
    30
 10
-129.5
 20
1020.667522
 30
0.0
 40
7.5
  0
TEXT
  5
212
  8
SIZE
  6
CONTINUOUS
 62
    30
 10
-302.357143
 20
1035.667522
 30
0.0
 40
50.0
  1
230
 41
0.9
 72
     1
 11
-244.5
 21
1035.667522
 31
0.0
  0
POINT
  5
213
  8
DEFPOINTS
  6
CONTINUOUS
 62
     7
 10
-359.5
 20
266.043477
 30
0.0
  0
POINT
  5
214
  8
DEFPOINTS
  6
CONTINUOUS
 62
     7
 10
-129.5
 20
420.0
 30
0.0
  0
POINT
  5
215
  8
DEFPOINTS
  6
CONTINUOUS
 62
     7
 10
-129.5
 20
1020.667522
 30
0.0
  0
LINE
  5
216
  8
SIZE
  6
CONTINUOUS
 62
    30
 10
-129.5
 20
435.0
 30
0.0
 11
-129.5
 21
1035.667522
 31
0.0
  0
LINE
  5
217
  8
SIZE
  6
CONTINUOUS
 62
    30
 10
387.5
 20
487.4
 30
0.0
 11
387.5
 21
1035.667522
 31
0.0
  0
LINE
  5
218
  8
SIZE
  6
CONTINUOUS
 62
    30
 10
-129.5
 20
1020.667522
 30
0.0
 11
387.5
 21
1020.667522
 31
0.0
  0
CIRCLE
  5
219
  8
SIZE
  6
CONTINUOUS
 62
    30
 10
-129.5
 20
1020.667522
 30
0.0
 40
7.5
  0
CIRCLE
  5
21A
  8
SIZE
  6
CONTINUOUS
 62
    30
 10
387.5
 20
1020.667522
 30
0.0
 40
7.5
  0
TEXT
  5
21B
  8
SIZE
  6
CONTINUOUS
 62
    30
 10
75.428571
 20
1035.667522
 30
0.0
 40
50.0
  1
517
 41
0.9
 72
     1
 11
129.0
 21
1035.667522
 31
0.0
  0
POINT
  5
21C
  8
DEFPOINTS
  6
CONTINUOUS
 62
     7
 10
-129.5
 20
420.0
 30
0.0
  0
POINT
  5
21D
  8
DEFPOINTS
  6
CONTINUOUS
 62
     7
 10
387.5
 20
472.4
 30
0.0
  0
POINT
  5
21E
  8
DEFPOINTS
  6
CONTINUOUS
 62
     7
 10
387.5
 20
1020.667522
 30
0.0
  0
LINE
  5
21F
  8
DETAIL
  6
CONTINUOUS
 62
     5
 10
-397.453352
 20
151.463995
 30
0.0
 11
-397.453352
 21
301.031702
 31
0.0
  0
LINE
  5
220
  8
DETAIL
  6
CONTINUOUS
 62
     5
 10
-418.662954
 20
141.459466
 30
0.0
 11
-418.662954
 21
469.608014
 31
0.0
  0
LINE
  5
221
  8
DETAIL
  6
CONTINUOUS
 62
     5
 10
-407.457881
 20
141.459466
 30
0.0
 11
-481.5
 21
141.459466
 31
0.0
  0
LINE
  5
222
  8
DETAIL
  6
CONTINUOUS
 62
     5
 10
-397.453352
 20
151.463995
 30
0.0
 11
-407.457881
 21
141.459466
 31
0.0
  0
LINE
  5
223
  8
DETAIL
  6
CONTINUOUS
 62
     5
 10
-397.453352
 20
310.035778
 30
0.0
 11
-397.453352
 21
459.603485
 31
0.0
  0
CIRCLE
  5
224
  8
DETAIL
  6
CONTINUOUS
 62
     5
 10
-403.45607
 20
305.53374
 30
0.0
 40
6.502944
  0
CIRCLE
  5
225
  8
DETAIL
  6
CONTINUOUS
 62
     5
 10
-403.45607
 20
305.53374
 30
0.0
 40
7.503397
  0
LINE
  5
226
  8
DETAIL
  6
CONTINUOUS
 62
     5
 10
-407.457881
 20
469.608014
 30
0.0
 11
-481.5
 21
469.608014
 31
0.0
  0
LINE
  5
227
  8
DETAIL
  6
CONTINUOUS
 62
     5
 10
-407.457881
 20
469.608014
 30
0.0
 11
-397.453352
 21
459.603485
 31
0.0
  0
TEXT
  5
228
  8
NOTE
  6
CONTINUOUS
 62
     4
 10
-310.765255
 20
73.491593
 30
0.0
 40
60.0
  1
EL
 50
0.000003
 41
0.7
  7
STANDARD1
  0
LINE
  5
229
  8
NOTE
  6
CONTINUOUS
 62
     4
 10
-227.522141
 20
65.652003
 30
0.0
 11
-317.839349
 21
65.652003
 31
0.0
  0
TEXT
  5
22A
  8
NOTE
  6
CONTINUOUS
 62
     4
 10
-270.127077
 20
516.331474
 30
0.0
 40
60.0
  1
CL
 50
0.000003
 41
0.7
  7
STANDARD1
  0
LINE
  5
22B
  8
NOTE
  6
CONTINUOUS
 62
     4
 10
-194.027988
 20
512.870665
 30
0.0
 11
-291.802349
 21
512.870665
 31
0.0
  0
TEXT
  5
22C
  8
NOTE
  6
CONTINUOUS
 62
     4
 10
-1283.950566
 20
772.234551
 30
0.0
 40
60.0
  1
AH 4-14×30長穴(M10)
 50
0.000003
 41
0.7
  7
STANDARD1
  0
LINE
  5
22D
  8
NOTE
  6
CONTINUOUS
 62
     4
 10
-576.52521
 20
756.408021
 30
0.0
 11
-1305.625838
 21
756.408021
 31
0.0
  0
TEXT
  5
22E
  8
ETC
  6
CONTINUOUS
 62
    61
 10
-1157.968832
 20
1324.932047
 30
0.0
 40
65.0
  1
MPD-RP112_160FA3(F-BOX)_5
 50
0.000003
 41
0.85
  7
STANDARD1
  0
LINE
  5
236
  8
OUTLINE
  6
CONTINUOUS
 62
     3
 10
123.500008
 20
0.0
 30
0.0
 11
123.500008
 21
-2.000002
 31
0.0
  0
LINE
  5
237
  8
OUTLINE
  6
CONTINUOUS
 62
     3
 10
123.500008
 20
-2.000002
 30
0.0
 11
-526.500501
 21
-2.000002
 31
0.0
  0
LINE
  5
238
  8
OUTLINE
  6
CONTINUOUS
 62
     3
 10
-526.500501
 20
-2.000002
 30
0.0
 11
-526.500501
 21
0.0
 31
0.0
  0
LINE
  5
23A
  8
NOTE
  6
CONTINUOUS
 62
     4
 10
575.354583
 20
295.752482
 30
0.0
 11
554.384524
 21
316.722541
 31
0.0
  0
LINE
  5
23B
  8
NOTE
  6
CONTINUOUS
 62
     4
 10
575.354583
 20
295.752482
 30
0.0
 11
554.384524
 21
274.782423
 31
0.0
  0
TEXT
  5
23C
  8
NOTE
  6
CONTINUOUS
 62
     4
 10
516.716749
 20
344.650071
 30
0.0
 40
45.872003
  1
吹出
 50
0.000003
 41
0.810714
  7
STANDARD1
  0
LINE
  5
23D
  8
NOTE
  6
CONTINUOUS
 62
     4
 10
533.414465
 20
285.267452
 30
0.0
 11
554.384524
 21
285.267452
 31
0.0
  0
LINE
  5
23E
  8
NOTE
  6
CONTINUOUS
 62
     4
 10
533.414465
 20
306.237511
 30
0.0
 11
554.384524
 21
306.237511
 31
0.0
  0
LINE
  5
23F
  8
NOTE
  6
CONTINUOUS
 62
     4
 10
533.414465
 20
306.237511
 30
0.0
 11
533.414465
 21
285.267452
 31
0.0
  0
LINE
  5
240
  8
NOTE
  6
CONTINUOUS
 62
     4
 10
554.384524
 20
285.267452
 30
0.0
 11
554.384524
 21
274.782423
 31
0.0
  0
LINE
  5
241
  8
NOTE
  6
CONTINUOUS
 62
     4
 10
554.384524
 20
316.722541
 30
0.0
 11
554.384524
 21
306.237511
 31
0.0
  0
LINE
  5
242
  8
NOTE
  6
CONTINUOUS
 62
     4
 10
-703.891704
 20
284.672469
 30
0.0
 11
-724.861763
 21
305.642528
 31
0.0
  0
LINE
  5
243
  8
NOTE
  6
CONTINUOUS
 62
     4
 10
-703.891704
 20
284.672469
 30
0.0
 11
-724.861763
 21
263.70241
 31
0.0
  0
LINE
  5
244
  8
NOTE
  6
CONTINUOUS
 62
     4
 10
-745.831822
 20
274.187439
 30
0.0
 11
-724.861763
 21
274.187439
 31
0.0
  0
LINE
  5
245
  8
NOTE
  6
CONTINUOUS
 62
     4
 10
-745.831822
 20
295.157498
 30
0.0
 11
-724.861763
 21
295.157498
 31
0.0
  0
LINE
  5
246
  8
NOTE
  6
CONTINUOUS
 62
     4
 10
-745.831822
 20
295.157498
 30
0.0
 11
-745.831822
 21
274.187439
 31
0.0
  0
LINE
  5
247
  8
NOTE
  6
CONTINUOUS
 62
     4
 10
-724.861763
 20
274.187439
 30
0.0
 11
-724.861763
 21
263.70241
 31
0.0
  0
LINE
  5
248
  8
NOTE
  6
CONTINUOUS
 62
     4
 10
-724.861763
 20
305.642528
 30
0.0
 11
-724.861763
 21
295.157498
 31
0.0
  0
TEXT
  5
249
  8
NOTE
  6
CONTINUOUS
 62
     4
 10
-767.172834
 20
317.130522
 30
0.0
 40
45.872003
  1
吸込
 50
0.000003
 41
0.810714
  7
STANDARD1
  0
LINE
  5
24A
  8
NOTE
  6
CONTINUOUS
 62
     4
 10
-334.10261
 20
203.119333
 30
0.0
 11
-394.109795
 21
203.119333
 31
0.0
  0
LINE
  5
24B
  8
NOTE
  6
CONTINUOUS
 62
     4
 10
-364.106202
 20
233.122926
 30
0.0
 11
-364.106202
 21
173.11574
 31
0.0
  0
LINE
  5
24C
  8
NOTE
  6
CONTINUOUS
 62
     4
 10
-94.494143
 20
203.119333
 30
0.0
 11
-154.501328
 21
203.119333
 31
0.0
  0
LINE
  5
24D
  8
NOTE
  6
CONTINUOUS
 62
     4
 10
-124.497736
 20
233.122926
 30
0.0
 11
-124.497736
 21
173.11574
 31
0.0
  0
LINE
  5
24E
  8
SIZE
  6
CONTINUOUS
 62
    30
 10
113.5
 20
-13.999999
 30
0.0
 11
113.5
 21
-431.503361
 31
0.0
  0
LINE
  5
24F
  8
SIZE
  6
CONTINUOUS
 62
    30
 10
387.5
 20
125.8
 30
0.0
 11
387.5
 21
-431.503361
 31
0.0
  0
LINE
  5
250
  8
SIZE
  6
CONTINUOUS
 62
    30
 10
113.5
 20
-416.503361
 30
0.0
 11
387.5
 21
-416.503361
 31
0.0
  0
CIRCLE
  5
251
  8
SIZE
  6
CONTINUOUS
 62
    30
 10
113.5
 20
-416.503361
 30
0.0
 40
7.5
  0
CIRCLE
  5
252
  8
SIZE
  6
CONTINUOUS
 62
    30
 10
387.5
 20
-416.503361
 30
0.0
 40
7.5
  0
TEXT
  5
253
  8
SIZE
  6
CONTINUOUS
 62
    30
 10
191.571429
 20
-401.503361
 30
0.0
 40
50.0
  1
274
 41
0.9
 72
     1
 11
250.5
 21
-401.503361
 31
0.0
  0
POINT
  5
254
  8
DEFPOINTS
  6
CONTINUOUS
 62
     7
 10
113.5
 20
1.000001
 30
0.0
  0
POINT
  5
255
  8
DEFPOINTS
  6
CONTINUOUS
 62
     7
 10
387.5
 20
140.8
 30
0.0
  0
POINT
  5
256
  8
DEFPOINTS
  6
CONTINUOUS
 62
     7
 10
387.5
 20
-416.503361
 30
0.0
  0
LINE
  5
257
  8
SIZE
  6
CONTINUOUS
 62
    30
 10
113.5
 20
-13.999999
 30
0.0
 11
113.5
 21
-431.503361
 31
0.0
  0
LINE
  5
258
  8
SIZE
  6
CONTINUOUS
 62
    30
 10
-516.500493
 20
-13.999999
 30
0.0
 11
-516.500493
 21
-431.503361
 31
0.0
  0
LINE
  5
259
  8
SIZE
  6
CONTINUOUS
 62
    30
 10
113.5
 20
-416.503361
 30
0.0
 11
-516.500493
 21
-416.503361
 31
0.0
  0
CIRCLE
  5
25A
  8
SIZE
  6
CONTINUOUS
 62
    30
 10
113.5
 20
-416.503361
 30
0.0
 40
7.5
  0
CIRCLE
  5
25B
  8
SIZE
  6
CONTINUOUS
 62
    30
 10
-516.500493
 20
-416.503361
 30
0.0
 40
7.5
  0
TEXT
  5
25C
  8
SIZE
  6
CONTINUOUS
 62
    30
 10
-463.785961
 20
-401.503361
 30
0.0
 40
50.0
  1
630（天井開口寸法）
 41
0.9
 72
     1
 11
-201.500246
 21
-401.503361
 31
0.0
  0
POINT
  5
25D
  8
DEFPOINTS
  6
CONTINUOUS
 62
     7
 10
113.5
 20
1.000001
 30
0.0
  0
POINT
  5
25E
  8
DEFPOINTS
  6
CONTINUOUS
 62
     7
 10
-516.500493
 20
1.000001
 30
0.0
  0
POINT
  5
25F
  8
DEFPOINTS
  6
CONTINUOUS
 62
     7
 10
-516.500493
 20
-416.503361
 30
0.0
  0
LINE
  5
260
  8
SIZE
  6
CONTINUOUS
 62
    30
 10
113.5
 20
-13.999999
 30
0.0
 11
113.5
 21
-130.942107
 31
0.0
  0
LINE
  5
261
  8
SIZE
  6
CONTINUOUS
 62
    30
 10
123.500008
 20
-17.000002
 30
0.0
 11
123.500008
 21
-130.942107
 31
0.0
  0
LINE
  5
262
  8
SIZE
  6
CONTINUOUS
 62
    30
 10
113.5
 20
-115.942107
 30
0.0
 11
83.5
 21
-115.942107
 31
0.0
  0
LINE
  5
263
  8
SIZE
  6
CONTINUOUS
 62
    30
 10
123.500008
 20
-115.942107
 30
0.0
 11
277.785722
 21
-115.942107
 31
0.0
  0
LINE
  5
264
  8
SIZE
  6
CONTINUOUS
 62
    30
 10
113.5
 20
-115.942107
 30
0.0
 11
123.500008
 21
-115.942107
 31
0.0
  0
CIRCLE
  5
265
  8
SIZE
  6
CONTINUOUS
 62
    30
 10
113.5
 20
-115.942107
 30
0.0
 40
7.5
  0
CIRCLE
  5
266
  8
SIZE
  6
CONTINUOUS
 62
    30
 10
123.500008
 20
-115.942107
 30
0.0
 40
7.5
  0
TEXT
  5
267
  8
SIZE
  6
CONTINUOUS
 62
    30
 10
198.500008
 20
-100.942107
 30
0.0
 40
50.0
  1
10
 41
0.9
 72
     1
 11
230.642865
 21
-100.942107
 31
0.0
  0
POINT
  5
268
  8
DEFPOINTS
  6
CONTINUOUS
 62
     7
 10
113.5
 20
1.000001
 30
0.0
  0
POINT
  5
269
  8
DEFPOINTS
  6
CONTINUOUS
 62
     7
 10
123.500008
 20
-2.000002
 30
0.0
  0
POINT
  5
26A
  8
DEFPOINTS
  6
CONTINUOUS
 62
     7
 10
123.500008
 20
-115.942107
 30
0.0
  0
LINE
  5
26B
  8
SIZE
  6
CONTINUOUS
 62
    30
 10
-516.500493
 20
-13.999999
 30
0.0
 11
-516.500493
 21
-130.942107
 31
0.0
  0
LINE
  5
26C
  8
SIZE
  6
CONTINUOUS
 62
    30
 10
-526.500501
 20
-17.000002
 30
0.0
 11
-526.500501
 21
-130.942107
 31
0.0
  0
LINE
  5
26D
  8
SIZE
  6
CONTINUOUS
 62
    30
 10
-516.500493
 20
-115.942107
 30
0.0
 11
-486.500493
 21
-115.942107
 31
0.0
  0
LINE
  5
26E
  8
SIZE
  6
CONTINUOUS
 62
    30
 10
-526.500501
 20
-115.942107
 30
0.0
 11
-680.786215
 21
-115.942107
 31
0.0
  0
LINE
  5
26F
  8
SIZE
  6
CONTINUOUS
 62
    30
 10
-516.500493
 20
-115.942107
 30
0.0
 11
-526.500501
 21
-115.942107
 31
0.0
  0
CIRCLE
  5
270
  8
SIZE
  6
CONTINUOUS
 62
    30
 10
-516.500493
 20
-115.942107
 30
0.0
 40
7.5
  0
CIRCLE
  5
271
  8
SIZE
  6
CONTINUOUS
 62
    30
 10
-526.500501
 20
-115.942107
 30
0.0
 40
7.5
  0
TEXT
  5
272
  8
SIZE
  6
CONTINUOUS
 62
    30
 10
-665.786215
 20
-100.942107
 30
0.0
 40
50.0
  1
10
 41
0.9
 72
     1
 11
-633.643358
 21
-100.942107
 31
0.0
  0
POINT
  5
273
  8
DEFPOINTS
  6
CONTINUOUS
 62
     7
 10
-516.500493
 20
1.000001
 30
0.0
  0
POINT
  5
274
  8
DEFPOINTS
  6
CONTINUOUS
 62
     7
 10
-526.500501
 20
-2.000002
 30
0.0
  0
POINT
  5
275
  8
DEFPOINTS
  6
CONTINUOUS
 62
     7
 10
-526.500501
 20
-115.942107
 30
0.0
  0
LINE
  5
276
  8
SIZE
  6
CONTINUOUS
 62
    30
 10
123.500008
 20
-17.000002
 30
0.0
 11
123.500008
 21
-255.877224
 31
0.0
  0
LINE
  5
277
  8
SIZE
  6
CONTINUOUS
 62
    30
 10
-526.500501
 20
-17.000002
 30
0.0
 11
-526.500501
 21
-255.877224
 31
0.0
  0
LINE
  5
278
  8
SIZE
  6
CONTINUOUS
 62
    30
 10
123.500008
 20
-240.877224
 30
0.0
 11
-526.500501
 21
-240.877224
 31
0.0
  0
CIRCLE
  5
279
  8
SIZE
  6
CONTINUOUS
 62
    30
 10
123.500008
 20
-240.877224
 30
0.0
 40
7.5
  0
CIRCLE
  5
27A
  8
SIZE
  6
CONTINUOUS
 62
    30
 10
-526.500501
 20
-240.877224
 30
0.0
 40
7.5
  0
TEXT
  5
27B
  8
SIZE
  6
CONTINUOUS
 62
    30
 10
-246.104672
 20
-225.877224
 30
0.0
 40
50.0
  1
650
 41
0.9
 72
     1
 11
-188.247529
 21
-225.877224
 31
0.0
  0
POINT
  5
27C
  8
DEFPOINTS
  6
CONTINUOUS
 62
     7
 10
123.500008
 20
-2.000002
 30
0.0
  0
POINT
  5
27D
  8
DEFPOINTS
  6
CONTINUOUS
 62
     7
 10
-526.500501
 20
-2.000002
 30
0.0
  0
POINT
  5
27E
  8
DEFPOINTS
  6
CONTINUOUS
 62
     7
 10
-526.500501
 20
-240.877224
 30
0.0
  0
LINE
  5
27F
  8
BASIS
  6
DASHDOT
 62
     6
 10
-201.500246
 20
69.548046
 30
0.0
 11
-201.500246
 21
-41.242684
 31
0.0
  0
LINE
  5
280
  8
NOTE
  6
CONTINUOUS
 62
     4
 10
457.5
 20
337.0
 30
0.0
 11
592.031045
 21
555.017858
 31
0.0
  0
LINE
  5
281
  8
NOTE
  6
CONTINUOUS
 62
     4
 10
-496.681733
 20
410.845566
 30
0.0
 11
-500.310523
 21
380.0
 31
0.0
  0
LINE
  5
282
  8
NOTE
  6
CONTINUOUS
 62
     4
 10
-500.310523
 20
380.0
 30
0.0
 11
-512.590681
 21
408.527439
 31
0.0
  0
LINE
  5
283
  8
NOTE
  6
CONTINUOUS
 62
     4
 10
-500.310523
 20
380.0
 30
0.0
 11
-504.636207
 21
409.686503
 31
0.0
  0
LINE
  5
284
  8
NOTE
  6
CONTINUOUS
 62
     4
 10
-504.636207
 20
409.686503
 30
0.0
 11
-523.928287
 21
542.085072
 31
0.0
  0
LINE
  5
285
  8
NOTE
  6
CONTINUOUS
 62
     4
 10
226.791484
 20
281.825383
 30
0.0
 11
199.5
 21
267.0
 31
0.0
  0
LINE
  5
286
  8
NOTE
  6
CONTINUOUS
 62
     4
 10
199.5
 20
267.0
 30
0.0
 11
215.722428
 21
293.4849
 31
0.0
  0
LINE
  5
287
  8
NOTE
  6
CONTINUOUS
 62
     4
 10
199.5
 20
267.0
 30
0.0
 11
221.256956
 21
287.655141
 31
0.0
  0
LINE
  5
288
  8
NOTE
  6
CONTINUOUS
 62
     4
 10
221.256956
 20
287.655141
 30
0.0
 11
667.217056
 21
711.030951
 31
0.0
  0
LINE
  5
289
  8
NOTE
  6
CONTINUOUS
 62
     4
 10
111.519125
 20
355.914907
 30
0.0
 11
114.5
 21
325.0
 31
0.0
  0
LINE
  5
28A
  8
NOTE
  6
CONTINUOUS
 62
     4
 10
114.5
 20
325.0
 30
0.0
 11
96.461033
 21
350.282658
 31
0.0
  0
LINE
  5
28B
  8
NOTE
  6
CONTINUOUS
 62
     4
 10
114.5
 20
325.0
 30
0.0
 11
103.990079
 21
353.098782
 31
0.0
  0
LINE
  5
28C
  8
NOTE
  6
CONTINUOUS
 62
     4
 10
103.990079
 20
353.098782
 30
0.0
 11
-13.81236
 21
668.049312
 31
0.0
  0
LINE
  5
28D
  8
NOTE
  6
CONTINUOUS
 62
     4
 10
273.863298
 20
209.721695
 30
0.0
 11
263.5
 21
239.0
 31
0.0
  0
LINE
  5
28E
  8
NOTE
  6
CONTINUOUS
 62
     4
 10
263.5
 20
239.0
 30
0.0
 11
287.114032
 21
218.825893
 31
0.0
  0
LINE
  5
28F
  8
NOTE
  6
CONTINUOUS
 62
     4
 10
263.5
 20
239.0
 30
0.0
 11
280.488665
 21
214.273794
 31
0.0
  0
LINE
  5
290
  8
NOTE
  6
CONTINUOUS
 62
     4
 10
280.488665
 20
214.273794
 30
0.0
 11
422.279319
 21
7.904144
 31
0.0
  0
LINE
  5
291
  8
NOTE
  6
CONTINUOUS
 62
     4
 10
-368.547638
 20
501.626413
 30
0.0
 11
-356.5
 21
473.0
 31
0.0
  0
LINE
  5
292
  8
NOTE
  6
CONTINUOUS
 62
     4
 10
-356.5
 20
473.0
 30
0.0
 11
-381.246767
 21
491.767382
 31
0.0
  0
LINE
  5
293
  8
NOTE
  6
CONTINUOUS
 62
     4
 10
-356.5
 20
473.0
 30
0.0
 11
-374.897203
 21
496.696897
 31
0.0
  0
LINE
  5
294
  8
NOTE
  6
CONTINUOUS
 62
     4
 10
-374.897203
 20
496.696897
 30
0.0
 11
-576.52521
 21
756.408021
 31
0.0
  0
LINE
  5
295
  8
NOTE
  6
CONTINUOUS
 62
     4
 10
205.700501
 20
138.66458
 30
0.0
 11
195.5
 21
168.0
 31
0.0
  0
LINE
  5
296
  8
NOTE
  6
CONTINUOUS
 62
     4
 10
195.5
 20
168.0
 30
0.0
 11
219.001603
 21
147.695031
 31
0.0
  0
LINE
  5
297
  8
NOTE
  6
CONTINUOUS
 62
     4
 10
195.5
 20
168.0
 30
0.0
 11
212.351052
 21
143.179806
 31
0.0
  0
LINE
  5
298
  8
NOTE
  6
CONTINUOUS
 62
     4
 10
212.351052
 20
143.179806
 30
0.0
 11
407.557676
 21
-144.343279
 31
0.0
  0
LINE
  5
299
  8
NOTE
  6
CONTINUOUS
 62
     4
 10
109.254346
 20
215.967992
 30
0.0
 11
120.875815
 21
244.77005
 31
0.0
  0
LINE
  5
29A
  8
NOTE
  6
CONTINUOUS
 62
     4
 10
120.875815
 20
244.77005
 30
0.0
 11
125.212356
 21
214.016002
 31
0.0
  0
LINE
  5
29B
  8
NOTE
  6
CONTINUOUS
 62
     4
 10
120.875815
 20
244.77005
 30
0.0
 11
117.233351
 21
214.991997
 31
0.0
  0
LINE
  5
29C
  8
NOTE
  6
CONTINUOUS
 62
     4
 10
117.233351
 20
214.991997
 30
0.0
 11
71.162813
 21
-161.646179
 31
0.0
  0
LINE
  5
29D
  8
NOTE
  6
CONTINUOUS
 62
     4
 10
-123.225065
 20
234.151533
 30
0.0
 11
-124.497736
 21
203.119333
 31
0.0
  0
LINE
  5
29E
  8
NOTE
  6
CONTINUOUS
 62
     4
 10
-124.497736
 20
203.119333
 30
0.0
 11
-138.91167
 21
230.630342
 31
0.0
  0
LINE
  5
29F
  8
NOTE
  6
CONTINUOUS
 62
     4
 10
-124.497736
 20
203.119333
 30
0.0
 11
-131.068368
 21
232.390937
 31
0.0
  0
LINE
  5
2A0
  8
NOTE
  6
CONTINUOUS
 62
     4
 10
-131.068368
 20
232.390937
 30
0.0
 11
-194.027988
 21
512.870665
 31
0.0
  0
LINE
  5
2A1
  8
NOTE
  6
CONTINUOUS
 62
     4
 10
-362.155229
 20
172.122385
 30
0.0
 11
-364.106202
 21
203.119333
 31
0.0
  0
LINE
  5
2A2
  8
NOTE
  6
CONTINUOUS
 62
     4
 10
-364.106202
 20
203.119333
 30
0.0
 11
-346.918136
 21
177.250675
 31
0.0
  0
LINE
  5
2A3
  8
NOTE
  6
CONTINUOUS
 62
     4
 10
-364.106202
 20
203.119333
 30
0.0
 11
-354.536683
 21
174.68653
 31
0.0
  0
LINE
  5
2A4
  8
NOTE
  6
CONTINUOUS
 62
     4
 10
-354.536683
 20
174.68653
 30
0.0
 11
-317.839349
 21
65.652003
 31
0.0
  0
LINE
  5
2A6
  8
OUTLINE
  6
CONTINUOUS
 62
     3
 10
-504.500484
 20
58.000045
 30
0.0
 11
101.499991
 21
58.000045
 31
0.0
  0
LINE
  5
2A7
  8
OUTLINE
  6
CONTINUOUS
 62
     3
 10
101.499991
 20
58.000045
 30
0.0
 11
101.499991
 21
0.0
 31
0.0
  0
LINE
  5
2A8
  8
OUTLINE
  6
CONTINUOUS
 62
     3
 10
123.500008
 20
0.0
 30
0.0
 11
-526.500501
 21
0.0
 31
0.0
  0
LINE
  5
2A9
  8
OUTLINE
  6
CONTINUOUS
 62
     3
 10
-504.500484
 20
0.0
 30
0.0
 11
-504.500484
 21
58.000045
 31
0.0
  0
ENDSEC
  0
EOF
