  0
SECTION
  2
HEADER
  9
$ACADVER
  1
AC1009
  9
$INSBASE
 10
0.0
 20
0.0
 30
0.0
  9
$EXTMIN
 10
-1964.074237
 20
-416.400588
 30
0.0
  9
$EXTMAX
 10
1743.264099
 20
1215.360884
 30
0.0
  9
$LIMMIN
 10
-4267.152221
 20
-2696.08321
  9
$LIMMAX
 10
7190.717423
 20
5141.155364
  9
$ORTHOMODE
 70
     0
  9
$REGENMODE
 70
     1
  9
$FILLMODE
 70
     1
  9
$QTEXTMODE
 70
     0
  9
$MIRRTEXT
 70
     0
  9
$DRAGMODE
 70
     2
  9
$LTSCALE
 40
20.0
  9
$OSMODE
 70
    37
  9
$ATTMODE
 70
     1
  9
$TEXTSIZE
 40
64.0
  9
$TRACEWID
 40
0.05
  9
$TEXTSTYLE
  7
STANDARD1
  9
$CLAYER
  8
NOTE
  9
$CELTYPE
  6
CONTINUOUS
  9
$CECOLOR
 62
     7
  9
$DIMSCALE
 40
1.0
  9
$DIMASZ
 40
20.0
  9
$DIMEXO
 40
20.0
  9
$DIMDLI
 40
80.0
  9
$DIMRND
 40
0.0
  9
$DIMDLE
 40
0.0
  9
$DIMEXE
 40
18.0
  9
$DIMTP
 40
0.0
  9
$DIMTM
 40
0.0
  9
$DIMTXT
 40
55.0
  9
$DIMCEN
 40
0.09
  9
$DIMTSZ
 40
0.0
  9
$DIMTOL
 70
     0
  9
$DIMLIM
 70
     0
  9
$DIMTIH
 70
     0
  9
$DIMTOH
 70
     0
  9
$DIMSE1
 70
     0
  9
$DIMSE2
 70
     0
  9
$DIMTAD
 70
     1
  9
$DIMZIN
 70
     8
  9
$DIMBLK
  1
_ORIGIN
  9
$DIMASO
 70
     1
  9
$DIMSHO
 70
     0
  9
$DIMPOST
  1

  9
$DIMAPOST
  1

  9
$DIMALT
 70
     0
  9
$DIMALTD
 70
     2
  9
$DIMALTF
 40
25.4
  9
$DIMLFAC
 40
1.0
  9
$DIMTOFL
 70
     0
  9
$DIMTVP
 40
0.0
  9
$DIMTIX
 70
     0
  9
$DIMSOXD
 70
     0
  9
$DIMSAH
 70
     0
  9
$DIMBLK1
  1

  9
$DIMBLK2
  1

  9
$DIMSTYLE
  2
STANDARD
  9
$DIMCLRD
 70
     0
  9
$DIMCLRE
 70
     0
  9
$DIMCLRT
 70
     0
  9
$DIMTFAC
 40
1.0
  9
$DIMGAP
 40
0.09
  9
$LUNITS
 70
     2
  9
$LUPREC
 70
     4
  9
$SKETCHINC
 40
0.1
  9
$FILLETRAD
 40
0.8
  9
$AUNITS
 70
     1
  9
$AUPREC
 70
     3
  9
$MENU
  1
ACAD
  9
$ELEVATION
 40
0.0
  9
$PELEVATION
 40
0.0
  9
$THICKNESS
 40
0.0
  9
$LIMCHECK
 70
     0
  9
$BLIPMODE
 70
     0
  9
$CHAMFERA
 40
0.0
  9
$CHAMFERB
 40
0.0
  9
$SKPOLY
 70
     0
  9
$TDCREATE
 40
2450330.439931
  9
$TDUPDATE
 40
2454503.675202
  9
$TDINDWG
 40
3.674348
  9
$TDUSRTIMER
 40
3.674348
  9
$USRTIMER
 70
     1
  9
$ANGBASE
 50
0.0
  9
$ANGDIR
 70
     0
  9
$PDMODE
 70
     3
  9
$PDSIZE
 40
-2.0
  9
$PLINEWID
 40
0.0
  9
$COORDS
 70
     1
  9
$SPLFRAME
 70
     0
  9
$SPLINETYPE
 70
     6
  9
$SPLINESEGS
 70
     8
  9
$ATTDIA
 70
     0
  9
$ATTREQ
 70
     1
  9
$HANDLING
 70
     1
  9
$HANDSEED
  5
6FD
  9
$SURFTAB1
 70
     6
  9
$SURFTAB2
 70
     6
  9
$SURFTYPE
 70
     6
  9
$SURFU
 70
     6
  9
$SURFV
 70
     6
  9
$UCSNAME
  2

  9
$UCSORG
 10
0.0
 20
0.0
 30
0.0
  9
$UCSXDIR
 10
1.0
 20
0.0
 30
0.0
  9
$UCSYDIR
 10
0.0
 20
1.0
 30
0.0
  9
$PUCSNAME
  2

  9
$PUCSORG
 10
0.0
 20
0.0
 30
0.0
  9
$PUCSXDIR
 10
1.0
 20
0.0
 30
0.0
  9
$PUCSYDIR
 10
0.0
 20
1.0
 30
0.0
  9
$USERI1
 70
     0
  9
$USERI2
 70
     0
  9
$USERI3
 70
     0
  9
$USERI4
 70
     0
  9
$USERI5
 70
     0
  9
$USERR1
 40
20.0
  9
$USERR2
 40
0.0
  9
$USERR3
 40
0.0
  9
$USERR4
 40
0.0
  9
$USERR5
 40
0.0
  9
$WORLDVIEW
 70
     1
  9
$SHADEDGE
 70
     3
  9
$SHADEDIF
 70
    70
  9
$TILEMODE
 70
     1
  9
$MAXACTVP
 70
    48
  9
$PLIMCHECK
 70
     0
  9
$PEXTMIN
 10
1.000000E+020
 20
1.000000E+020
 30
1.000000E+020
  9
$PEXTMAX
 10
-1.000000E+020
 20
-1.000000E+020
 30
-1.000000E+020
  9
$PLIMMIN
 10
0.0
 20
0.0
  9
$PLIMMAX
 10
12.0
 20
9.0
  9
$UNITMODE
 70
     0
  9
$VISRETAIN
 70
     1
  9
$PLINEGEN
 70
     0
  9
$PSLTSCALE
 70
     1
  0
ENDSEC
  0
SECTION
  2
TABLES
  0
TABLE
  2
VPORT
 70
     3
  0
VPORT
  2
*ACTIVE
 70
     0
 10
0.0
 20
0.0
 11
1.0
 21
1.0
 12
1645.853864
 22
1222.536077
 13
0.0
 23
0.0
 14
50.0
 24
50.0
 15
100.0
 25
100.0
 16
0.0
 26
0.0
 36
1.0
 17
0.0
 27
0.0
 37
0.0
 40
7837.238574
 41
1.508951
 42
50.0
 43
0.0
 44
0.0
 50
0.0
 51
0.0
 71
     0
 72
  1000
 73
     1
 74
     0
 75
     0
 76
     0
 77
     0
 78
     0
  0
ENDTAB
  0
TABLE
  2
LTYPE
 70
     2
  0
LTYPE
  2
CONTINUOUS
 70
     0
  3
実線
 72
    65
 73
     0
 40
0.0
  0
LTYPE
  2
DASHDOT
 70
     0
  3
____ _ ____ _ ____ _ ____ _ ____ _ ____ _ ____
 72
    65
 73
     4
 40
5.5
 49
4.0
 49
-0.6
 49
0.3
 49
-0.6
  0
ENDTAB
  0
TABLE
  2
LAYER
 70
    12
  0
LAYER
  2
0
 70
     0
 62
     7
  6
CONTINUOUS
  0
LAYER
  2
NOTE
 70
     0
 62
     4
  6
CONTINUOUS
  0
LAYER
  2
OUTLINE
 70
     0
 62
     3
  6
CONTINUOUS
  0
LAYER
  2
DETAIL
 70
     0
 62
     5
  6
CONTINUOUS
  0
LAYER
  2
BASIS
 70
     0
 62
     6
  6
DASHDOT
  0
LAYER
  2
SIZE
 70
     0
 62
    30
  6
CONTINUOUS
  0
LAYER
  2
ARRANGE
 70
     0
 62
     1
  6
CONTINUOUS
  0
LAYER
  2
FIX
 70
     0
 62
    11
  6
CONTINUOUS
  0
LAYER
  2
SERVICESPACE
 70
     0
 62
     2
  6
DASHDOT
  0
LAYER
  2
ETC
 70
     0
 62
    61
  6
CONTINUOUS
  0
LAYER
  2
SYMBOLLINE
 70
     0
 62
    15
  6
CONTINUOUS
  0
LAYER
  2
DEFPOINTS
 70
     0
 62
     7
  6
CONTINUOUS
  0
ENDTAB
  0
TABLE
  2
STYLE
 70
     3
  0
STYLE
  2
STANDARD
 70
     0
 40
0.0
 41
0.9
 50
0.0
 71
     0
 42
64.0
  3
SIMPLEX
  4
BIGFONT
  0
STYLE
  2
STANDARD1
 70
     0
 40
0.0
 41
1.0
 50
0.0
 71
     0
 42
64.0
  3
MONOTXT
  4
BIGFONT
  0
STYLE
  2

 70
     1
 40
0.0
 41
1.0
 50
0.0
 71
     0
 42
64.0
  3
ltypeshp.shx
  4

  0
ENDTAB
  0
TABLE
  2
VIEW
 70
     1
  0
VIEW
  2
ALL
 70
     0
 40
9000.0
 10
241.506647
 20
0.0
 41
12483.01
 11
0.0
 21
0.0
 31
1.0
 12
0.0
 22
0.0
 32
0.0
 42
50.0
 43
0.0
 44
0.0
 50
0.0
 71
     0
  0
ENDTAB
  0
TABLE
  2
UCS
 70
     0
  0
ENDTAB
  0
TABLE
  2
APPID
 70
     1
  0
APPID
  2
ACAD
 70
     0
  0
ENDTAB
  0
TABLE
  2
DIMSTYLE
 70
     1
  0
DIMSTYLE
  2
STANDARD
 70
     0
  3

  4

  5

  6

  7

 40
1.0
 41
0.18
 42
0.0625
 43
0.38
 44
0.18
 45
0.0
 46
0.0
 47
0.0
 48
0.0
140
0.18
141
0.09
142
0.0
143
25.4
144
1.0
145
0.0
146
1.0
147
0.09
 71
     0
 72
     0
 73
     1
 74
     1
 75
     0
 76
     0
 77
     0
 78
     0
170
     0
171
     2
172
     0
173
     0
174
     0
175
     0
176
     0
177
     0
178
     0
  0
ENDTAB
  0
ENDSEC
  0
SECTION
  2
BLOCKS
  0
BLOCK
  8
0
  2
$MODEL_SPACE
 70
     0
 10
0.0
 20
0.0
 30
0.0
  3
$MODEL_SPACE
  1

  0
ENDBLK
  5
280
  8
0
  0
BLOCK
 67
     1
  8
0
  2
$PAPER_SPACE
 70
     0
 10
0.0
 20
0.0
 30
0.0
  3
$PAPER_SPACE
  1

  0
ENDBLK
  5
27D
 67
     1
  8
0
  0
BLOCK
  8
0
  2
_ORIGIN
 70
     0
 10
0.0
 20
0.0
 30
0.0
  3
_ORIGIN
  1

  0
CIRCLE
  5
34
  8
0
  6
CONTINUOUS
 62
     7
 10
0.0
 20
0.0
 30
0.0
 40
0.5
  0
LINE
  5
35
  8
0
  6
CONTINUOUS
 62
     7
 10
-0.5
 20
0.0
 30
0.0
 11
-1.0
 21
0.0
 31
0.0
  0
ENDBLK
  5
36
  8
0
  0
BLOCK
  8
0
 62
     7
  2
A$C2C172287
 70
     0
 10
0.0
 20
0.0
 30
0.0
  3
A$C2C172287
  1

  0
TEXT
  5
2A1
  8
SIZE
  6
CONTINUOUS
 62
    30
 10
3427.412268
 20
103.419579
 30
0.0
 40
55.0
  1
50-60
 50
90.0
 41
0.9
 72
     1
 11
3427.412268
 21
221.276722
 31
0.0
  0
POLYLINE
  5
2A2
  8
SIZE
  6
CONTINUOUS
 62
    30
 66
     1
 10
0.0
 20
0.0
 30
0.0
  0
VERTEX
  5
2A3
  8
SIZE
  6
CONTINUOUS
 62
    30
 10
3435.123962
 20
366.235177
 30
0.0
 42
0.186174
  0
VERTEX
  5
2A4
  8
SIZE
  6
CONTINUOUS
 62
    30
 10
3426.274113
 20
387.184665
 30
0.0
 42
0.082105
  0
VERTEX
  5
2A5
  8
SIZE
  6
CONTINUOUS
 62
    30
 10
3410.571611
 20
399.359226
 30
0.0
 42
0.058826
  0
VERTEX
  5
2A6
  8
SIZE
  6
CONTINUOUS
 62
    30
 10
3388.785553
 20
408.134154
 30
0.0
 42
0.067494
  0
VERTEX
  5
2A7
  8
SIZE
  6
CONTINUOUS
 62
    30
 10
3351.296993
 20
413.079657
 30
0.0
 42
0.067494
  0
VERTEX
  5
2A8
  8
SIZE
  6
CONTINUOUS
 62
    30
 10
3313.808433
 20
408.134154
 30
0.0
 42
0.058826
  0
VERTEX
  5
2A9
  8
SIZE
  6
CONTINUOUS
 62
    30
 10
3292.022375
 20
399.359226
 30
0.0
 42
0.082105
  0
VERTEX
  5
2AA
  8
SIZE
  6
CONTINUOUS
 62
    30
 10
3276.319873
 20
387.184665
 30
0.0
 42
0.186174
  0
VERTEX
  5
2AB
  8
SIZE
  6
CONTINUOUS
 62
    30
 10
3267.470025
 20
366.235177
 30
0.0
 42
0.186174
  0
SEQEND
  5
2AC
  8
SIZE
  6
CONTINUOUS
 62
    30
  0
POLYLINE
  5
2AD
  8
SIZE
  6
CONTINUOUS
 62
    30
 66
     1
 10
0.0
 20
0.0
 30
0.0
  0
VERTEX
  5
2AE
  8
SIZE
  6
CONTINUOUS
 62
    30
 10
3267.470025
 20
46.844476
 30
0.0
 42
0.186174
  0
VERTEX
  5
2AF
  8
SIZE
  6
CONTINUOUS
 62
    30
 10
3276.319873
 20
25.894988
 30
0.0
 42
0.082105
  0
VERTEX
  5
2B0
  8
SIZE
  6
CONTINUOUS
 62
    30
 10
3292.022375
 20
13.720427
 30
0.0
 42
0.058826
  0
VERTEX
  5
2B1
  8
SIZE
  6
CONTINUOUS
 62
    30
 10
3313.808433
 20
4.9455
 30
0.0
 42
0.067494
  0
VERTEX
  5
2B2
  8
SIZE
  6
CONTINUOUS
 62
    30
 10
3351.296993
 20
-0.000004
 30
0.0
 42
0.067494
  0
VERTEX
  5
2B3
  8
SIZE
  6
CONTINUOUS
 62
    30
 10
3388.785553
 20
4.9455
 30
0.0
 42
0.058826
  0
VERTEX
  5
2B4
  8
SIZE
  6
CONTINUOUS
 62
    30
 10
3410.571611
 20
13.720427
 30
0.0
 42
0.082105
  0
VERTEX
  5
2B5
  8
SIZE
  6
CONTINUOUS
 62
    30
 10
3426.274113
 20
25.894988
 30
0.0
 42
0.186174
  0
VERTEX
  5
2B6
  8
SIZE
  6
CONTINUOUS
 62
    30
 10
3435.123962
 20
46.844476
 30
0.0
 42
0.186174
  0
VERTEX
  5
2B7
  8
SIZE
  6
CONTINUOUS
 62
    30
 10
3435.123962
 20
46.844476
 30
0.0
 42
0.186174
  0
SEQEND
  5
2B8
  8
SIZE
  6
CONTINUOUS
 62
    30
  0
LINE
  5
2B9
  8
NOTE
  6
CONTINUOUS
 62
     4
 10
3072.449635
 20
1002.054793
 30
0.0
 11
3707.226778
 21
1002.054793
 31
0.0
  0
TEXT
  5
2BA
  8
NOTE
  6
CONTINUOUS
 62
     4
 10
3096.382001
 20
1019.694214
 30
0.0
 40
60.0
  1
%%C150（ノックアウト穴）
 50
0.000003
 41
0.7
  7
STANDARD1
  0
LINE
  5
2BB
  8
DETAIL
  6
CONTINUOUS
 62
     5
 10
2759.062947
 20
414.786264
 30
0.0
 11
1169.062947
 21
414.786264
 31
0.0
  0
LINE
  5
2BC
  8
OUTLINE
  6
CONTINUOUS
 62
     3
 10
2703.151447
 20
461.786264
 30
0.0
 11
1224.974447
 21
461.786264
 31
0.0
  0
LINE
  5
2BD
  8
OUTLINE
  6
CONTINUOUS
 62
     3
 10
2727.87973
 20
406.786264
 30
0.0
 11
1200.246164
 21
406.786264
 31
0.0
  0
LINE
  5
2BE
  8
OUTLINE
  6
CONTINUOUS
 62
     3
 10
1209.062947
 20
554.786264
 30
0.0
 11
2719.062947
 21
554.786264
 31
0.0
  0
LINE
  5
2BF
  8
OUTLINE
  6
CONTINUOUS
 62
     3
 10
1209.062947
 20
887.786264
 30
0.0
 11
2719.062947
 21
887.786264
 31
0.0
  0
LINE
  5
2C0
  8
NOTE
  6
CONTINUOUS
 62
     4
 10
2034.913849
 20
268.711846
 30
0.0
 11
1418.032704
 21
268.711846
 31
0.0
  0
TEXT
  5
2C1
  8
NOTE
  6
CONTINUOUS
 62
     4
 10
1456.970157
 20
283.507513
 30
0.0
 40
60.0
  1
%%C200 吹出円形フランジ
 50
0.000003
 41
0.7
  7
STANDARD1
  0
LINE
  5
2C2
  8
SIZE
  6
CONTINUOUS
 62
    30
 10
2699.062947
 20
1242.768243
 30
0.0
 11
1229.062947
 21
1242.768243
 31
0.0
  0
TEXT
  5
2C3
  8
SIZE
  6
CONTINUOUS
 62
    30
 10
1611.205804
 20
1155.197316
 30
0.0
 40
50.0
  1
320
 41
0.9
 72
     1
 11
1669.062947
 21
1155.197316
 31
0.0
  0
LINE
  5
2C4
  8
SIZE
  6
CONTINUOUS
 62
    30
 10
1809.062947
 20
1137.197316
 30
0.0
 11
1529.062947
 21
1137.197316
 31
0.0
  0
LINE
  5
2C5
  8
SIZE
  6
CONTINUOUS
 62
    30
 10
1213.062947
 20
1484.648291
 30
0.0
 11
2715.062947
 21
1484.648291
 31
0.0
  0
LINE
  5
2C6
  8
SIZE
  6
CONTINUOUS
 62
    30
 10
2692.062947
 20
1354.274887
 30
0.0
 11
1236.062947
 21
1354.274887
 31
0.0
  0
LINE
  5
2C7
  8
SIZE
  6
CONTINUOUS
 62
    30
 10
2719.062947
 20
175.188207
 30
0.0
 11
1209.062947
 21
175.188207
 31
0.0
  0
LINE
  5
2C8
  8
SIZE
  6
CONTINUOUS
 62
    30
 10
1189.062947
 20
77.496814
 30
0.0
 11
2739.062947
 21
77.496814
 31
0.0
  0
LINE
  5
2C9
  8
DETAIL
  6
CONTINUOUS
 62
     5
 10
1209.062947
 20
887.786264
 30
0.0
 11
2719.062947
 21
887.786264
 31
0.0
  0
LINE
  5
2CA
  8
DETAIL
  6
CONTINUOUS
 62
     5
 10
1227.065103
 20
569.78806
 30
0.0
 11
2701.060791
 21
569.78806
 31
0.0
  0
LINE
  5
2CB
  8
DETAIL
  6
CONTINUOUS
 62
     5
 10
1209.062947
 20
554.786264
 30
0.0
 11
2719.062947
 21
554.786264
 31
0.0
  0
LINE
  5
2CC
  8
DETAIL
  6
CONTINUOUS
 62
     5
 10
2677.087856
 20
643.77333
 30
0.0
 11
1251.067977
 21
643.77333
 31
0.0
  0
LINE
  5
2CD
  8
DETAIL
  6
CONTINUOUS
 62
     5
 10
2714.062348
 20
582.189545
 30
0.0
 11
1214.063546
 21
582.189545
 31
0.0
  0
LINE
  5
2CE
  8
DETAIL
  6
CONTINUOUS
 62
     5
 10
2677.087856
 20
859.799198
 30
0.0
 11
1251.067977
 21
859.799198
 31
0.0
  0
LINE
  5
2CF
  8
DETAIL
  6
CONTINUOUS
 62
     5
 10
2727.87973
 20
406.786264
 30
0.0
 11
1200.246164
 21
406.786264
 31
0.0
  0
LINE
  5
2D0
  8
DETAIL
  6
CONTINUOUS
 62
     5
 10
2703.151447
 20
461.786264
 30
0.0
 11
1224.974447
 21
461.786264
 31
0.0
  0
POLYLINE
  5
2D1
  8
NOTE
  6
CONTINUOUS
 62
     4
 66
     1
 10
0.0
 20
0.0
 30
0.0
  0
VERTEX
  5
2D2
  8
NOTE
  6
CONTINUOUS
 62
     4
 10
1509.062947
 20
751.786264
 30
0.0
  0
VERTEX
  5
2D3
  8
NOTE
  6
CONTINUOUS
 62
     4
 10
1418.032704
 20
268.711846
 30
0.0
  0
SEQEND
  5
2D4
  8
NOTE
  6
CONTINUOUS
 62
     4
  0
LINE
  5
2D5
  8
OUTLINE
  6
CONTINUOUS
 62
     3
 10
1169.062947
 20
410.779276
 30
0.0
 11
1169.062947
 21
414.786264
 31
0.0
  0
LINE
  5
2D6
  8
SIZE
  6
CONTINUOUS
 62
    30
 10
1209.062947
 20
536.786264
 30
0.0
 11
1209.062947
 21
226.125111
 31
0.0
  0
LINE
  5
2D7
  8
DETAIL
  6
CONTINUOUS
 62
     5
 10
1169.062947
 20
410.779276
 30
0.0
 11
1169.062947
 21
414.786264
 31
0.0
  0
ARC
  5
2D8
  8
OUTLINE
  6
CONTINUOUS
 62
     3
 10
1199.766624
 20
526.799677
 30
0.0
 40
120.014371
 50
255.17703
 51
270.228937
  0
CIRCLE
  5
2D9
  8
SIZE
  6
CONTINUOUS
 62
    30
 10
1189.062947
 20
256.125111
 30
0.0
 40
10.0
  0
CIRCLE
  5
2DA
  8
SIZE
  6
CONTINUOUS
 62
    30
 10
1189.062947
 20
175.188207
 30
0.0
 40
10.0
  0
LINE
  5
2DB
  8
SIZE
  6
CONTINUOUS
 62
    30
 10
1179.062947
 20
77.496814
 30
0.0
 11
1189.062947
 21
77.496814
 31
0.0
  0
CIRCLE
  5
2DC
  8
SIZE
  6
CONTINUOUS
 62
    30
 10
1189.062947
 20
175.188207
 30
0.0
 40
10.0
  0
LINE
  5
2DD
  8
SIZE
  6
CONTINUOUS
 62
    30
 10
1189.062947
 20
175.188207
 30
0.0
 11
1169.062947
 21
175.188207
 31
0.0
  0
ARC
  5
2DE
  8
DETAIL
  6
CONTINUOUS
 62
     5
 10
1199.766624
 20
526.799677
 30
0.0
 40
120.014371
 50
255.17703
 51
270.228937
  0
LINE
  5
2DF
  8
SIZE
  6
CONTINUOUS
 62
    30
 10
1169.062947
 20
392.779276
 30
0.0
 11
1169.062947
 21
47.496814
 31
0.0
  0
CIRCLE
  5
2E0
  8
SIZE
  6
CONTINUOUS
 62
    30
 10
1169.062947
 20
77.496814
 30
0.0
 40
10.0
  0
LINE
  5
2E1
  8
SIZE
  6
CONTINUOUS
 62
    30
 10
1169.062947
 20
392.779276
 30
0.0
 11
1169.062947
 21
145.188207
 31
0.0
  0
LINE
  5
2E2
  8
SIZE
  6
CONTINUOUS
 62
    30
 10
1169.062947
 20
256.125111
 30
0.0
 11
1040.205804
 21
256.125111
 31
0.0
  0
TEXT
  5
2E3
  8
SIZE
  6
CONTINUOUS
 62
    30
 10
1038.205804
 20
193.188207
 30
0.0
 40
50.0
  1
20
 41
0.9
 72
     1
 11
1074.634376
 21
193.188207
 31
0.0
  0
LINE
  5
2E4
  8
SIZE
  6
CONTINUOUS
 62
    30
 10
1149.062947
 20
175.188207
 30
0.0
 11
1020.205804
 21
175.188207
 31
0.0
  0
LINE
  5
2E5
  8
SIZE
  6
CONTINUOUS
 62
    30
 10
1179.062947
 20
256.125111
 30
0.0
 11
1169.062947
 21
256.125111
 31
0.0
  0
POINT
  5
2E6
  8
DEFPOINTS
  6
CONTINUOUS
 62
     7
 10
1169.062947
 20
175.188207
 30
0.0
  0
LINE
  5
2E7
  8
SIZE
  6
CONTINUOUS
 62
    30
 10
1159.062947
 20
175.188207
 30
0.0
 11
1149.062947
 21
175.188207
 31
0.0
  0
CIRCLE
  5
2E8
  8
SIZE
  6
CONTINUOUS
 62
    30
 10
1169.062947
 20
175.188207
 30
0.0
 40
10.0
  0
TEXT
  5
2E9
  8
SIZE
  6
CONTINUOUS
 62
    30
 10
1058.205804
 20
274.125111
 30
0.0
 40
50.0
  1
20
 41
0.9
 72
     1
 11
1094.634376
 21
274.125111
 31
0.0
  0
POINT
  5
2EA
  8
DEFPOINTS
  6
CONTINUOUS
 62
     7
 10
1169.062947
 20
410.779276
 30
0.0
  0
POINT
  5
2EB
  8
DEFPOINTS
  6
CONTINUOUS
 62
     7
 10
1169.062947
 20
410.779276
 30
0.0
  0
CIRCLE
  5
2EC
  8
SIZE
  6
CONTINUOUS
 62
    30
 10
1209.062947
 20
256.125111
 30
0.0
 40
10.0
  0
LINE
  5
2ED
  8
SIZE
  6
CONTINUOUS
 62
    30
 10
1189.062947
 20
397.786264
 30
0.0
 11
1189.062947
 21
226.125111
 31
0.0
  0
LINE
  5
2EE
  8
SIZE
  6
CONTINUOUS
 62
    30
 10
1189.062947
 20
397.786264
 30
0.0
 11
1189.062947
 21
145.188207
 31
0.0
  0
LINE
  5
2EF
  8
SIZE
  6
CONTINUOUS
 62
    30
 10
1189.062947
 20
397.786264
 30
0.0
 11
1189.062947
 21
145.188207
 31
0.0
  0
POINT
  5
2F0
  8
DEFPOINTS
  6
CONTINUOUS
 62
     7
 10
1189.062947
 20
256.125111
 30
0.0
  0
LINE
  5
2F1
  8
SIZE
  6
CONTINUOUS
 62
    30
 10
1219.062947
 20
256.125111
 30
0.0
 11
1229.062947
 21
256.125111
 31
0.0
  0
LINE
  5
2F2
  8
SIZE
  6
CONTINUOUS
 62
    30
 10
1209.062947
 20
256.125111
 30
0.0
 11
1189.062947
 21
256.125111
 31
0.0
  0
LINE
  5
2F3
  8
SIZE
  6
CONTINUOUS
 62
    30
 10
1229.062947
 20
256.125111
 30
0.0
 11
1249.062947
 21
256.125111
 31
0.0
  0
POINT
  5
2F4
  8
DEFPOINTS
  6
CONTINUOUS
 62
     7
 10
1189.062947
 20
175.188207
 30
0.0
  0
LINE
  5
2F5
  8
SIZE
  6
CONTINUOUS
 62
    30
 10
1199.062947
 20
175.188207
 30
0.0
 11
1209.062947
 21
175.188207
 31
0.0
  0
LINE
  5
2F6
  8
SIZE
  6
CONTINUOUS
 62
    30
 10
1199.062947
 20
175.188207
 30
0.0
 11
1209.062947
 21
175.188207
 31
0.0
  0
LINE
  5
2F7
  8
SIZE
  6
CONTINUOUS
 62
    30
 10
1209.062947
 20
175.188207
 30
0.0
 11
1229.062947
 21
175.188207
 31
0.0
  0
LINE
  5
2F8
  8
SIZE
  6
CONTINUOUS
 62
    30
 10
1191.062947
 20
887.786264
 30
0.0
 11
494.004782
 21
887.786264
 31
0.0
  0
LINE
  5
2F9
  8
SIZE
  6
CONTINUOUS
 62
    30
 10
1185.562947
 20
582.786264
 30
0.0
 11
494.004782
 21
582.786264
 31
0.0
  0
TEXT
  5
2FA
  8
NOTE
  6
CONTINUOUS
 62
     4
 10
665.280425
 20
494.708518
 30
0.0
 40
60.0
  1
D2（自然排水口）
 50
0.000003
 41
0.7
  7
STANDARD1
  0
LINE
  5
2FB
  8
NOTE
  6
CONTINUOUS
 62
     4
 10
1084.058231
 20
478.881988
 30
0.0
 11
643.605153
 21
478.881988
 31
0.0
  0
TEXT
  5
2FC
  8
NOTE
  6
CONTINUOUS
 62
     4
 10
508.11465
 20
956.307194
 30
0.0
 40
60.0
  1
RG %%C15.88
 50
0.000003
 41
0.7
  7
STANDARD1
  0
LINE
  5
2FD
  8
NOTE
  6
CONTINUOUS
 62
     4
 10
868.388492
 20
945.538171
 30
0.0
 11
494.307629
 21
945.538171
 31
0.0
  0
TEXT
  5
2FE
  8
NOTE
  6
CONTINUOUS
 62
     4
 10
536.080527
 20
1076.20059
 30
0.0
 40
60.0
  1
RL %%C9.52
 50
0.000003
 41
0.7
  7
STANDARD1
  0
LINE
  5
2FF
  8
NOTE
  6
CONTINUOUS
 62
     4
 10
865.212893
 20
1058.561182
 30
0.0
 11
527.101843
 21
1058.561182
 31
0.0
  0
TEXT
  5
300
  8
NOTE
  6
CONTINUOUS
 62
     4
 10
539.936487
 20
1214.068645
 30
0.0
 40
60.0
  1
D1 VP-25
 50
0.000003
 41
0.7
  7
STANDARD1
  0
LINE
  5
301
  8
NOTE
  6
CONTINUOUS
 62
     4
 10
860.915053
 20
1198.242114
 30
0.0
 11
518.261215
 21
1198.242114
 31
0.0
  0
LINE
  5
302
  8
SIZE
  6
CONTINUOUS
 62
    30
 10
1117.401612
 20
653.786264
 30
0.0
 11
582.256242
 21
653.786264
 31
0.0
  0
LINE
  5
303
  8
SIZE
  6
CONTINUOUS
 62
    30
 10
1131.060858
 20
681.786264
 30
0.0
 11
582.256242
 21
681.786264
 31
0.0
  0
LINE
  5
304
  8
SIZE
  6
CONTINUOUS
 62
    30
 10
1131.060858
 20
681.786264
 30
0.0
 11
582.256242
 21
681.786264
 31
0.0
  0
LINE
  5
305
  8
SIZE
  6
CONTINUOUS
 62
    30
 10
1191.062947
 20
887.786264
 30
0.0
 11
582.256242
 21
887.786264
 31
0.0
  0
LINE
  5
306
  8
SIZE
  6
CONTINUOUS
 62
    30
 10
1137.394612
 20
739.786264
 30
0.0
 11
684.737183
 21
739.786264
 31
0.0
  0
LINE
  5
307
  8
SIZE
  6
CONTINUOUS
 62
    30
 10
1191.062947
 20
887.786264
 30
0.0
 11
684.737183
 21
887.786264
 31
0.0
  0
TEXT
  5
308
  8
ETC
  6
CONTINUOUS
 62
    61
 10
0.000006
 20
1565.09799
 30
0.0
 40
65.0
  1
MPD-RP112_160FA3_2
 50
0.000003
 41
0.85
  7
STANDARD1
  0
TEXT
  5
309
  8
SIZE
  6
CONTINUOUS
 62
    30
 10
506.004782
 20
677.429121
 30
0.0
 40
50.0
  1
305
 50
90.0
 41
0.9
 72
     1
 11
506.004782
 21
735.286264
 31
0.0
  0
LINE
  5
30A
  8
SIZE
  6
CONTINUOUS
 62
    30
 10
524.004782
 20
602.786264
 30
0.0
 11
524.004782
 21
867.786264
 31
0.0
  0
LINE
  5
30B
  8
SIZE
  6
CONTINUOUS
 62
    30
 10
612.256242
 20
701.786264
 30
0.0
 11
612.256242
 21
721.786264
 31
0.0
  0
LINE
  5
30C
  8
SIZE
  6
CONTINUOUS
 62
    30
 10
612.256242
 20
867.786264
 30
0.0
 11
612.256242
 21
701.786264
 31
0.0
  0
CIRCLE
  5
30D
  8
SIZE
  6
CONTINUOUS
 62
    30
 10
524.004782
 20
582.786264
 30
0.0
 40
10.0
  0
LINE
  5
30E
  8
SIZE
  6
CONTINUOUS
 62
    30
 10
612.256242
 20
633.786264
 30
0.0
 11
612.256242
 21
447.550343
 31
0.0
  0
TEXT
  5
30F
  8
SIZE
  6
CONTINUOUS
 62
    30
 10
594.256242
 20
465.550344
 30
0.0
 40
50.0
  1
28
 50
90.0
 41
0.9
 72
     1
 11
594.256242
 21
501.978915
 31
0.0
  0
LINE
  5
310
  8
SIZE
  6
CONTINUOUS
 62
    30
 10
524.004782
 20
592.786264
 30
0.0
 11
524.004782
 21
602.786264
 31
0.0
  0
POINT
  5
311
  8
DEFPOINTS
  6
CONTINUOUS
 62
     7
 10
612.256242
 20
653.786264
 30
0.0
  0
LINE
  5
312
  8
SIZE
  6
CONTINUOUS
 62
    30
 10
612.256242
 20
643.786264
 30
0.0
 11
612.256242
 21
633.786264
 31
0.0
  0
CIRCLE
  5
313
  8
SIZE
  6
CONTINUOUS
 62
    30
 10
612.256242
 20
653.786264
 30
0.0
 40
10.0
  0
LINE
  5
314
  8
SIZE
  6
CONTINUOUS
 62
    30
 10
612.256242
 20
691.786264
 30
0.0
 11
612.256242
 21
701.786264
 31
0.0
  0
CIRCLE
  5
315
  8
SIZE
  6
CONTINUOUS
 62
    30
 10
612.256242
 20
681.786264
 30
0.0
 40
10.0
  0
LINE
  5
316
  8
SIZE
  6
CONTINUOUS
 62
    30
 10
612.256242
 20
681.786264
 30
0.0
 11
612.256242
 21
653.786264
 31
0.0
  0
POINT
  5
317
  8
DEFPOINTS
  6
CONTINUOUS
 62
     7
 10
612.256242
 20
681.786264
 30
0.0
  0
LINE
  5
318
  8
SIZE
  6
CONTINUOUS
 62
    30
 10
612.256242
 20
691.786264
 30
0.0
 11
612.256242
 21
701.786264
 31
0.0
  0
CIRCLE
  5
319
  8
SIZE
  6
CONTINUOUS
 62
    30
 10
612.256242
 20
681.786264
 30
0.0
 40
10.0
  0
CIRCLE
  5
31A
  8
SIZE
  6
CONTINUOUS
 62
    30
 10
524.004782
 20
887.786264
 30
0.0
 40
10.0
  0
LINE
  5
31B
  8
SIZE
  6
CONTINUOUS
 62
    30
 10
524.004782
 20
877.786264
 30
0.0
 11
524.004782
 21
867.786264
 31
0.0
  0
LINE
  5
31C
  8
SIZE
  6
CONTINUOUS
 62
    30
 10
612.256242
 20
877.786264
 30
0.0
 11
612.256242
 21
867.786264
 31
0.0
  0
LINE
  5
31D
  8
SIZE
  6
CONTINUOUS
 62
    30
 10
714.737183
 20
877.786264
 30
0.0
 11
714.737183
 21
867.786264
 31
0.0
  0
TEXT
  5
31E
  8
SIZE
  6
CONTINUOUS
 62
    30
 10
594.256242
 20
728.00055
 30
0.0
 40
50.0
  1
206
 50
90.0
 41
0.9
 72
     1
 11
594.256242
 21
784.786264
 31
0.0
  0
POINT
  5
31F
  8
DEFPOINTS
  6
CONTINUOUS
 62
     7
 10
714.737183
 20
739.786264
 30
0.0
  0
TEXT
  5
320
  8
SIZE
  6
CONTINUOUS
 62
    30
 10
696.737183
 20
760.214835
 30
0.0
 40
50.0
  1
148
 50
90.0
 41
0.9
 72
     1
 11
696.737183
 21
813.786264
 31
0.0
  0
LINE
  5
321
  8
SIZE
  6
CONTINUOUS
 62
    30
 10
714.737183
 20
749.786264
 30
0.0
 11
714.737183
 21
759.786264
 31
0.0
  0
CIRCLE
  5
322
  8
SIZE
  6
CONTINUOUS
 62
    30
 10
714.737183
 20
739.786264
 30
0.0
 40
10.0
  0
LINE
  5
323
  8
SIZE
  6
CONTINUOUS
 62
    30
 10
714.737183
 20
867.786264
 30
0.0
 11
714.737183
 21
759.786264
 31
0.0
  0
POINT
  5
324
  8
DEFPOINTS
  6
CONTINUOUS
 62
     7
 10
524.004782
 20
887.786264
 30
0.0
  0
CIRCLE
  5
325
  8
SIZE
  6
CONTINUOUS
 62
    30
 10
612.256242
 20
887.786264
 30
0.0
 40
10.0
  0
CIRCLE
  5
326
  8
SIZE
  6
CONTINUOUS
 62
    30
 10
714.737183
 20
887.786264
 30
0.0
 40
10.0
  0
POLYLINE
  5
327
  8
NOTE
  6
CONTINUOUS
 62
     4
 66
     1
 10
0.0
 20
0.0
 30
0.0
  0
VERTEX
  5
328
  8
NOTE
  6
CONTINUOUS
 62
     4
 10
1170.062947
 20
681.786264
 30
0.0
  0
VERTEX
  5
329
  8
NOTE
  6
CONTINUOUS
 62
     4
 10
865.212893
 20
1058.561182
 30
0.0
  0
SEQEND
  5
32A
  8
NOTE
  6
CONTINUOUS
 62
     4
  0
POLYLINE
  5
32B
  8
NOTE
  6
CONTINUOUS
 62
     4
 66
     1
 10
0.0
 20
0.0
 30
0.0
  0
VERTEX
  5
32C
  8
NOTE
  6
CONTINUOUS
 62
     4
 10
1175.062947
 20
739.786264
 30
0.0
  0
VERTEX
  5
32D
  8
NOTE
  6
CONTINUOUS
 62
     4
 10
860.915053
 20
1198.242114
 30
0.0
  0
SEQEND
  5
32E
  8
NOTE
  6
CONTINUOUS
 62
     4
  0
LINE
  5
32F
  8
SIZE
  6
CONTINUOUS
 62
    30
 10
1209.062947
 20
905.786264
 30
0.0
 11
1209.062947
 21
1180.7229
 31
0.0
  0
LINE
  5
330
  8
SIZE
  6
CONTINUOUS
 62
    30
 10
1162.062947
 20
679.726264
 30
0.0
 11
1162.062947
 21
1180.7229
 31
0.0
  0
LINE
  5
331
  8
SIZE
  6
CONTINUOUS
 62
    30
 10
1209.062947
 20
905.786264
 30
0.0
 11
1209.062947
 21
1091.75236
 31
0.0
  0
LINE
  5
332
  8
SIZE
  6
CONTINUOUS
 62
    30
 10
1170.062947
 20
704.546264
 30
0.0
 11
1170.062947
 21
1091.75236
 31
0.0
  0
TEXT
  5
333
  8
SIZE
  6
CONTINUOUS
 62
    30
 10
1042.062947
 20
992.29143
 30
0.0
 40
50.0
  1
34
 41
0.9
 72
     1
 11
1079.562947
 21
992.29143
 31
0.0
  0
LINE
  5
334
  8
SIZE
  6
CONTINUOUS
 62
    30
 10
1193.062947
 20
896.485749
 30
0.0
 11
1193.062947
 21
1272.768243
 31
0.0
  0
LINE
  5
335
  8
SIZE
  6
CONTINUOUS
 62
    30
 10
1209.062947
 20
905.786264
 30
0.0
 11
1209.062947
 21
1272.768243
 31
0.0
  0
LINE
  5
336
  8
SIZE
  6
CONTINUOUS
 62
    30
 10
1209.062947
 20
905.786264
 30
0.0
 11
1209.062947
 21
1272.768243
 31
0.0
  0
LINE
  5
337
  8
SIZE
  6
CONTINUOUS
 62
    30
 10
1509.062947
 20
889.800635
 30
0.0
 11
1509.062947
 21
1167.197316
 31
0.0
  0
LINE
  5
338
  8
SIZE
  6
CONTINUOUS
 62
    30
 10
1193.062947
 20
906.485749
 30
0.0
 11
1193.062947
 21
1514.648291
 31
0.0
  0
LINE
  5
339
  8
SIZE
  6
CONTINUOUS
 62
    30
 10
1193.062947
 20
901.485749
 30
0.0
 11
1193.062947
 21
1384.274887
 31
0.0
  0
LINE
  5
33A
  8
SIZE
  6
CONTINUOUS
 62
    30
 10
1216.062947
 20
930.788659
 30
0.0
 11
1216.062947
 21
1384.274887
 31
0.0
  0
LINE
  5
33B
  8
SIZE
  6
CONTINUOUS
 62
    30
 10
1216.062947
 20
925.788659
 30
0.0
 11
1216.062947
 21
1384.274887
 31
0.0
  0
LINE
  5
33C
  8
NOTE
  6
CONTINUOUS
 62
     4
 10
1180.853824
 20
569.791555
 30
0.0
 11
1209.062947
 21
582.786264
 31
0.0
  0
POLYLINE
  5
33D
  8
NOTE
  6
CONTINUOUS
 62
     4
 66
     1
 10
0.0
 20
0.0
 30
0.0
  0
VERTEX
  5
33E
  8
NOTE
  6
CONTINUOUS
 62
     4
 10
1209.062947
 20
582.786264
 30
0.0
  0
VERTEX
  5
33F
  8
NOTE
  6
CONTINUOUS
 62
     4
 10
1084.058231
 20
478.881988
 30
0.0
  0
SEQEND
  5
340
  8
NOTE
  6
CONTINUOUS
 62
     4
  0
LINE
  5
341
  8
OUTLINE
  6
CONTINUOUS
 62
     3
 10
1224.974447
 20
414.786264
 30
0.0
 11
1169.062947
 21
414.786264
 31
0.0
  0
LINE
  5
342
  8
SIZE
  6
CONTINUOUS
 62
    30
 10
1209.062947
 20
974.29143
 30
0.0
 11
1175.062947
 21
974.29143
 31
0.0
  0
LINE
  5
343
  8
NOTE
  6
CONTINUOUS
 62
     4
 10
1189.062947
 20
415.786264
 30
0.0
 11
1087.755498
 21
415.786264
 31
0.0
  0
LINE
  5
344
  8
NOTE
  6
CONTINUOUS
 62
     4
 10
1189.062947
 20
435.786264
 30
0.0
 11
1087.755498
 21
435.786264
 31
0.0
  0
LINE
  5
345
  8
DETAIL
  6
CONTINUOUS
 62
     5
 10
1162.062947
 20
645.846264
 30
0.0
 11
1209.062947
 21
645.846264
 31
0.0
  0
LINE
  5
346
  8
DETAIL
  6
CONTINUOUS
 62
     5
 10
1209.062947
 20
661.726264
 30
0.0
 11
1162.062947
 21
661.726264
 31
0.0
  0
LINE
  5
347
  8
DETAIL
  6
CONTINUOUS
 62
     5
 10
1170.062947
 20
677.026264
 30
0.0
 11
1209.062947
 21
677.026264
 31
0.0
  0
LINE
  5
348
  8
DETAIL
  6
CONTINUOUS
 62
     5
 10
1209.062947
 20
686.546264
 30
0.0
 11
1170.062947
 21
686.546264
 31
0.0
  0
LINE
  5
349
  8
DETAIL
  6
CONTINUOUS
 62
     5
 10
1175.062947
 20
755.786264
 30
0.0
 11
1209.062947
 21
755.786264
 31
0.0
  0
LINE
  5
34A
  8
DETAIL
  6
CONTINUOUS
 62
     5
 10
1175.062947
 20
723.786264
 30
0.0
 11
1209.062947
 21
723.786264
 31
0.0
  0
LINE
  5
34B
  8
NOTE
  6
CONTINUOUS
 62
     4
 10
1135.401612
 20
653.786264
 30
0.0
 11
1188.724282
 21
653.786264
 31
0.0
  0
LINE
  5
34C
  8
NOTE
  6
CONTINUOUS
 62
     4
 10
1149.060858
 20
681.786264
 30
0.0
 11
1191.065036
 21
681.786264
 31
0.0
  0
LINE
  5
34D
  8
NOTE
  6
CONTINUOUS
 62
     4
 10
1155.394612
 20
739.786264
 30
0.0
 11
1194.731282
 21
739.786264
 31
0.0
  0
POLYLINE
  5
34E
  8
NOTE
  6
CONTINUOUS
 62
     4
 66
     1
 10
0.0
 20
0.0
 30
0.0
  0
VERTEX
  5
34F
  8
NOTE
  6
CONTINUOUS
 62
     4
 10
1162.062947
 20
653.786264
 30
0.0
  0
VERTEX
  5
350
  8
NOTE
  6
CONTINUOUS
 62
     4
 10
868.388492
 20
945.538171
 30
0.0
  0
SEQEND
  5
351
  8
NOTE
  6
CONTINUOUS
 62
     4
  0
LINE
  5
352
  8
NOTE
  6
CONTINUOUS
 62
     4
 10
1148.797939
 20
415.786264
 30
0.0
 11
1168.797939
 21
435.786264
 31
0.0
  0
LINE
  5
353
  8
NOTE
  6
CONTINUOUS
 62
     4
 10
1143.797939
 20
415.786264
 30
0.0
 11
1163.797939
 21
435.786264
 31
0.0
  0
LINE
  5
354
  8
NOTE
  6
CONTINUOUS
 62
     4
 10
1138.797939
 20
415.786264
 30
0.0
 11
1158.797939
 21
435.786264
 31
0.0
  0
LINE
  5
355
  8
NOTE
  6
CONTINUOUS
 62
     4
 10
1108.797939
 20
415.786264
 30
0.0
 11
1128.797939
 21
435.786264
 31
0.0
  0
LINE
  5
356
  8
NOTE
  6
CONTINUOUS
 62
     4
 10
1103.797939
 20
415.786264
 30
0.0
 11
1123.797939
 21
435.786264
 31
0.0
  0
LINE
  5
357
  8
NOTE
  6
CONTINUOUS
 62
     4
 10
1098.797939
 20
415.786264
 30
0.0
 11
1118.797939
 21
435.786264
 31
0.0
  0
LINE
  5
358
  8
NOTE
  6
CONTINUOUS
 62
     4
 10
1162.062947
 20
633.786264
 30
0.0
 11
1162.062947
 21
673.786264
 31
0.0
  0
LINE
  5
359
  8
NOTE
  6
CONTINUOUS
 62
     4
 10
1170.062947
 20
661.786264
 30
0.0
 11
1170.062947
 21
701.786264
 31
0.0
  0
LINE
  5
35A
  8
NOTE
  6
CONTINUOUS
 62
     4
 10
1162.062947
 20
653.786264
 30
0.0
 11
1135.252841
 21
669.4654
 31
0.0
  0
LINE
  5
35B
  8
NOTE
  6
CONTINUOUS
 62
     4
 10
1146.684282
 20
680.769847
 30
0.0
 11
1162.062947
 21
653.786264
 31
0.0
  0
LINE
  5
35C
  8
NOTE
  6
CONTINUOUS
 62
     4
 10
1170.062947
 20
681.786264
 30
0.0
 11
1144.774167
 21
699.816647
 31
0.0
  0
LINE
  5
35D
  8
NOTE
  6
CONTINUOUS
 62
     4
 10
1157.177413
 20
710.045424
 30
0.0
 11
1170.062947
 21
681.786264
 31
0.0
  0
POINT
  5
35E
  8
DEFPOINTS
  6
CONTINUOUS
 62
     7
 10
1162.062947
 20
661.726264
 30
0.0
  0
POINT
  5
35F
  8
DEFPOINTS
  6
CONTINUOUS
 62
     7
 10
1170.062947
 20
686.546264
 30
0.0
  0
POINT
  5
360
  8
DEFPOINTS
  6
CONTINUOUS
 62
     7
 10
1135.401612
 20
653.786264
 30
0.0
  0
POINT
  5
361
  8
DEFPOINTS
  6
CONTINUOUS
 62
     7
 10
1149.060858
 20
681.786264
 30
0.0
  0
POINT
  5
362
  8
DEFPOINTS
  6
CONTINUOUS
 62
     7
 10
1149.060858
 20
681.786264
 30
0.0
  0
LINE
  5
363
  8
DETAIL
  6
CONTINUOUS
 62
     5
 10
1162.062947
 20
661.726264
 30
0.0
 11
1162.062947
 21
645.846264
 31
0.0
  0
LINE
  5
364
  8
DETAIL
  6
CONTINUOUS
 62
     5
 10
1170.062947
 20
686.546264
 30
0.0
 11
1170.062947
 21
677.026264
 31
0.0
  0
LINE
  5
365
  8
SIZE
  6
CONTINUOUS
 62
    30
 10
1175.062947
 20
773.786264
 30
0.0
 11
1175.062947
 21
1004.29143
 31
0.0
  0
LINE
  5
366
  8
NOTE
  6
CONTINUOUS
 62
     4
 10
1175.062947
 20
719.786264
 30
0.0
 11
1175.062947
 21
759.786264
 31
0.0
  0
LINE
  5
367
  8
NOTE
  6
CONTINUOUS
 62
     4
 10
1175.062947
 20
739.786264
 30
0.0
 11
1151.895482
 21
760.471661
 31
0.0
  0
LINE
  5
368
  8
NOTE
  6
CONTINUOUS
 62
     4
 10
1165.342032
 20
769.284076
 30
0.0
 11
1175.062947
 21
739.786264
 31
0.0
  0
POINT
  5
369
  8
DEFPOINTS
  6
CONTINUOUS
 62
     7
 10
1175.062947
 20
755.786264
 30
0.0
  0
POINT
  5
36A
  8
DEFPOINTS
  6
CONTINUOUS
 62
     7
 10
1155.394612
 20
739.786264
 30
0.0
  0
LINE
  5
36B
  8
DETAIL
  6
CONTINUOUS
 62
     5
 10
1175.062947
 20
755.786264
 30
0.0
 11
1175.062947
 21
723.786264
 31
0.0
  0
LINE
  5
36C
  8
SIZE
  6
CONTINUOUS
 62
    30
 10
1155.062947
 20
974.29143
 30
0.0
 11
1024.062947
 21
974.29143
 31
0.0
  0
POINT
  5
36D
  8
DEFPOINTS
  6
CONTINUOUS
 62
     7
 10
1175.062947
 20
974.29143
 30
0.0
  0
LINE
  5
36E
  8
SIZE
  6
CONTINUOUS
 62
    30
 10
1165.062947
 20
974.29143
 30
0.0
 11
1155.062947
 21
974.29143
 31
0.0
  0
CIRCLE
  5
36F
  8
SIZE
  6
CONTINUOUS
 62
    30
 10
1175.062947
 20
974.29143
 30
0.0
 40
10.0
  0
LINE
  5
370
  8
OUTLINE
  6
CONTINUOUS
 62
     3
 10
1209.062947
 20
887.786264
 30
0.0
 11
1209.062947
 21
554.786264
 31
0.0
  0
CIRCLE
  5
371
  8
DETAIL
  6
CONTINUOUS
 62
     5
 10
1509.062947
 20
751.786264
 30
0.0
 40
85.5
  0
CIRCLE
  5
372
  8
DETAIL
  6
CONTINUOUS
 62
     5
 10
1509.062947
 20
751.786264
 30
0.0
 40
100.0
  0
LINE
  5
373
  8
DETAIL
  6
CONTINUOUS
 62
     5
 10
1209.062947
 20
887.786264
 30
0.0
 11
1209.062947
 21
554.786264
 31
0.0
  0
LINE
  5
374
  8
NOTE
  6
CONTINUOUS
 62
     4
 10
1509.062947
 20
871.800635
 30
0.0
 11
1509.062947
 21
631.771893
 31
0.0
  0
LINE
  5
375
  8
DETAIL
  6
CONTINUOUS
 62
     5
 10
1241.066779
 20
653.774528
 30
0.0
 11
1241.066779
 21
849.798
 31
0.0
  0
LINE
  5
376
  8
NOTE
  6
CONTINUOUS
 62
     4
 10
1209.062947
 20
582.786264
 30
0.0
 11
1191.130484
 21
557.427955
 31
0.0
  0
LINE
  5
377
  8
DETAIL
  6
CONTINUOUS
 62
     5
 10
1224.064743
 20
566.787701
 30
0.0
 11
1224.064743
 21
554.786264
 31
0.0
  0
LINE
  5
378
  8
OUTLINE
  6
CONTINUOUS
 62
     3
 10
1224.974447
 20
414.786264
 30
0.0
 11
1224.974447
 21
461.786264
 31
0.0
  0
POINT
  5
379
  8
DEFPOINTS
  6
CONTINUOUS
 62
     7
 10
1189.062947
 20
415.786264
 30
0.0
  0
POINT
  5
37A
  8
DEFPOINTS
  6
CONTINUOUS
 62
     7
 10
1209.062947
 20
554.786264
 30
0.0
  0
POINT
  5
37B
  8
DEFPOINTS
  6
CONTINUOUS
 62
     7
 10
1189.062947
 20
415.786264
 30
0.0
  0
POINT
  5
37C
  8
DEFPOINTS
  6
CONTINUOUS
 62
     7
 10
1189.062947
 20
415.786264
 30
0.0
  0
LINE
  5
37D
  8
NOTE
  6
CONTINUOUS
 62
     4
 10
1189.062947
 20
415.786264
 30
0.0
 11
1189.062947
 21
435.786264
 31
0.0
  0
LINE
  5
37E
  8
DETAIL
  6
CONTINUOUS
 62
     5
 10
1224.974447
 20
414.786264
 30
0.0
 11
1224.974447
 21
461.786264
 31
0.0
  0
POINT
  5
37F
  8
DEFPOINTS
  6
CONTINUOUS
 62
     7
 10
1203.562947
 20
582.786264
 30
0.0
  0
LINE
  5
380
  8
NOTE
  6
CONTINUOUS
 62
     4
 10
1209.062947
 20
588.286256
 30
0.0
 11
1209.062947
 21
577.286272
 31
0.0
  0
LINE
  5
381
  8
NOTE
  6
CONTINUOUS
 62
     4
 10
1214.562947
 20
582.786264
 30
0.0
 11
1203.562947
 21
582.786264
 31
0.0
  0
LINE
  5
382
  8
DETAIL
  6
CONTINUOUS
 62
     5
 10
1227.065103
 20
569.78806
 30
0.0
 11
1224.064743
 21
566.787701
 31
0.0
  0
ARC
  5
383
  8
DETAIL
  6
CONTINUOUS
 62
     5
 10
1214.063546
 20
587.190144
 30
0.0
 40
5.000599
 50
180.0
 51
270.0
  0
ARC
  5
384
  8
DETAIL
  6
CONTINUOUS
 62
     5
 10
1251.067977
 20
653.774528
 30
0.0
 40
10.001198
 50
180.0
 51
270.0
  0
LINE
  5
385
  8
NOTE
  6
CONTINUOUS
 62
     4
 10
1629.077318
 20
751.786264
 30
0.0
 11
1389.048576
 21
751.786264
 31
0.0
  0
LINE
  5
386
  8
SIZE
  6
CONTINUOUS
 62
    30
 10
1350.361068
 20
877.786264
 30
0.0
 11
1350.361068
 21
867.786264
 31
0.0
  0
CIRCLE
  5
387
  8
FIX
  6
CONTINUOUS
 62
    11
 10
1216.062947
 20
887.786264
 30
0.0
 40
18.598564
  0
LINE
  5
388
  8
NOTE
  6
CONTINUOUS
 62
     4
 10
1216.062947
 20
867.783869
 30
0.0
 11
1216.062947
 21
907.788659
 31
0.0
  0
TEXT
  5
389
  8
SIZE
  6
CONTINUOUS
 62
    30
 10
1332.361068
 20
729.567672
 30
0.0
 40
55.0
  1
136
 50
90.0
 41
0.9
 72
     1
 11
1332.361068
 21
787.317672
 31
0.0
  0
ARC
  5
38A
  8
DETAIL
  6
CONTINUOUS
 62
     5
 10
1251.067977
 20
849.798
 30
0.0
 40
10.001198
 50
90.0
 51
180.0
  0
POINT
  5
38B
  8
DEFPOINTS
  6
CONTINUOUS
 62
     7
 10
1350.361068
 20
751.786264
 30
0.0
  0
POINT
  5
38C
  8
DEFPOINTS
  6
CONTINUOUS
 62
     7
 10
1389.048576
 20
751.786264
 30
0.0
  0
LINE
  5
38D
  8
SIZE
  6
CONTINUOUS
 62
    30
 10
1350.361068
 20
761.786264
 30
0.0
 11
1350.361068
 21
771.786264
 31
0.0
  0
CIRCLE
  5
38E
  8
SIZE
  6
CONTINUOUS
 62
    30
 10
1350.361068
 20
751.786264
 30
0.0
 40
10.0
  0
LINE
  5
38F
  8
SIZE
  6
CONTINUOUS
 62
    30
 10
1350.361068
 20
867.786264
 30
0.0
 11
1350.361068
 21
771.786264
 31
0.0
  0
LINE
  5
390
  8
SIZE
  6
CONTINUOUS
 62
    30
 10
1369.048576
 20
751.786264
 30
0.0
 11
1332.361068
 21
751.786264
 31
0.0
  0
LINE
  5
391
  8
SIZE
  6
CONTINUOUS
 62
    30
 10
1229.062947
 20
887.786264
 30
0.0
 11
1368.361068
 21
887.786264
 31
0.0
  0
POINT
  5
392
  8
DEFPOINTS
  6
CONTINUOUS
 62
     7
 10
1209.062947
 20
887.786264
 30
0.0
  0
POINT
  5
393
  8
DEFPOINTS
  6
CONTINUOUS
 62
     7
 10
1209.062947
 20
887.786264
 30
0.0
  0
POINT
  5
394
  8
DEFPOINTS
  6
CONTINUOUS
 62
     7
 10
1209.062947
 20
887.786264
 30
0.0
  0
POINT
  5
395
  8
DEFPOINTS
  6
CONTINUOUS
 62
     7
 10
1209.062947
 20
887.786264
 30
0.0
  0
LINE
  5
396
  8
SIZE
  6
CONTINUOUS
 62
    30
 10
1219.062947
 20
974.29143
 30
0.0
 11
1229.062947
 21
974.29143
 31
0.0
  0
CIRCLE
  5
397
  8
SIZE
  6
CONTINUOUS
 62
    30
 10
1209.062947
 20
974.29143
 30
0.0
 40
10.0
  0
LINE
  5
398
  8
SIZE
  6
CONTINUOUS
 62
    30
 10
1229.062947
 20
974.29143
 30
0.0
 11
1249.062947
 21
974.29143
 31
0.0
  0
LINE
  5
399
  8
SIZE
  6
CONTINUOUS
 62
    30
 10
1209.062947
 20
905.786264
 30
0.0
 11
1209.062947
 21
1004.29143
 31
0.0
  0
POINT
  5
39A
  8
DEFPOINTS
  6
CONTINUOUS
 62
     7
 10
1209.062947
 20
887.786264
 30
0.0
  0
POINT
  5
39B
  8
DEFPOINTS
  6
CONTINUOUS
 62
     7
 10
1209.062947
 20
887.786264
 30
0.0
  0
POINT
  5
39C
  8
DEFPOINTS
  6
CONTINUOUS
 62
     7
 10
1209.062947
 20
887.786264
 30
0.0
  0
POINT
  5
39D
  8
DEFPOINTS
  6
CONTINUOUS
 62
     7
 10
1193.062947
 20
878.485749
 30
0.0
  0
POINT
  5
39E
  8
DEFPOINTS
  6
CONTINUOUS
 62
     7
 10
1209.062947
 20
887.786264
 30
0.0
  0
POINT
  5
39F
  8
DEFPOINTS
  6
CONTINUOUS
 62
     7
 10
1209.062947
 20
887.786264
 30
0.0
  0
POINT
  5
3A0
  8
DEFPOINTS
  6
CONTINUOUS
 62
     7
 10
1193.062947
 20
888.485749
 30
0.0
  0
POINT
  5
3A1
  8
DEFPOINTS
  6
CONTINUOUS
 62
     7
 10
1193.062947
 20
883.485749
 30
0.0
  0
POINT
  5
3A2
  8
DEFPOINTS
  6
CONTINUOUS
 62
     7
 10
1216.062947
 20
912.788659
 30
0.0
  0
POINT
  5
3A3
  8
DEFPOINTS
  6
CONTINUOUS
 62
     7
 10
1216.062947
 20
907.788659
 30
0.0
  0
ARC
  5
3A4
  8
DETAIL
  6
CONTINUOUS
 62
     5
 10
1197.363222
 20
883.485989
 30
0.0
 40
2.0
 50
90.0
 51
180.0
  0
LINE
  5
3A5
  8
NOTE
  6
CONTINUOUS
 62
     4
 10
1196.061989
 20
887.786264
 30
0.0
 11
1236.063905
 21
887.786264
 31
0.0
  0
LINE
  5
3A6
  8
DETAIL
  6
CONTINUOUS
 62
     5
 10
1209.062947
 20
885.485989
 30
0.0
 11
1197.363222
 21
885.485989
 31
0.0
  0
LINE
  5
3A7
  8
DETAIL
  6
CONTINUOUS
 62
     5
 10
1209.062947
 20
887.786264
 30
0.0
 11
1197.363462
 21
887.786264
 31
0.0
  0
LINE
  5
3A8
  8
DETAIL
  6
CONTINUOUS
 62
     5
 10
1195.363222
 20
875.784827
 30
0.0
 11
1193.062947
 21
875.784827
 31
0.0
  0
LINE
  5
3A9
  8
DETAIL
  6
CONTINUOUS
 62
     5
 10
1195.363222
 20
883.485989
 30
0.0
 11
1195.363222
 21
875.784827
 31
0.0
  0
LINE
  5
3AA
  8
DETAIL
  6
CONTINUOUS
 62
     5
 10
1193.062947
 20
883.485749
 30
0.0
 11
1193.062947
 21
875.784827
 31
0.0
  0
ARC
  5
3AB
  8
DETAIL
  6
CONTINUOUS
 62
     5
 10
1197.363462
 20
883.485749
 30
0.0
 40
4.300515
 50
90.0
 51
180.0
  0
CIRCLE
  5
3AC
  8
SIZE
  6
CONTINUOUS
 62
    30
 10
1350.361068
 20
887.786264
 30
0.0
 40
10.0
  0
LINE
  5
3AD
  8
NOTE
  6
CONTINUOUS
 62
     4
 10
1509.062947
 20
751.786264
 30
0.0
 11
1511.406987
 21
720.81656
 31
0.0
  0
LINE
  5
3AE
  8
NOTE
  6
CONTINUOUS
 62
     4
 10
1495.608093
 20
723.793694
 30
0.0
 11
1509.062947
 21
751.786264
 31
0.0
  0
POINT
  5
3AF
  8
DEFPOINTS
  6
CONTINUOUS
 62
     7
 10
1509.062947
 20
871.800635
 30
0.0
  0
LINE
  5
3B0
  8
SIZE
  6
CONTINUOUS
 62
    30
 10
1209.062947
 20
1150.7229
 30
0.0
 11
1162.062947
 21
1150.7229
 31
0.0
  0
LINE
  5
3B1
  8
SIZE
  6
CONTINUOUS
 62
    30
 10
1209.062947
 20
1061.75236
 30
0.0
 11
1170.062947
 21
1061.75236
 31
0.0
  0
CIRCLE
  5
3B2
  8
SIZE
  6
CONTINUOUS
 62
    30
 10
1193.062947
 20
1242.768243
 30
0.0
 40
10.0
  0
CIRCLE
  5
3B3
  8
SIZE
  6
CONTINUOUS
 62
    30
 10
1193.062947
 20
1484.648291
 30
0.0
 40
10.0
  0
CIRCLE
  5
3B4
  8
SIZE
  6
CONTINUOUS
 62
    30
 10
1193.062947
 20
1354.274887
 30
0.0
 40
10.0
  0
TEXT
  5
3B5
  8
SIZE
  6
CONTINUOUS
 62
    30
 10
1031.205804
 20
1168.7229
 30
0.0
 40
50.0
  1
47
 41
0.9
 72
     1
 11
1067.634376
 21
1168.7229
 31
0.0
  0
LINE
  5
3B6
  8
SIZE
  6
CONTINUOUS
 62
    30
 10
1142.062947
 20
1150.7229
 30
0.0
 11
1013.205804
 21
1150.7229
 31
0.0
  0
TEXT
  5
3B7
  8
SIZE
  6
CONTINUOUS
 62
    30
 10
1041.348661
 20
1079.75236
 30
0.0
 40
50.0
  1
39
 41
0.9
 72
     1
 11
1076.705804
 21
1079.75236
 31
0.0
  0
LINE
  5
3B8
  8
SIZE
  6
CONTINUOUS
 62
    30
 10
1150.062947
 20
1061.75236
 30
0.0
 11
1023.348661
 21
1061.75236
 31
0.0
  0
LINE
  5
3B9
  8
SIZE
  6
CONTINUOUS
 62
    30
 10
1152.062947
 20
1150.7229
 30
0.0
 11
1142.062947
 21
1150.7229
 31
0.0
  0
CIRCLE
  5
3BA
  8
SIZE
  6
CONTINUOUS
 62
    30
 10
1162.062947
 20
1150.7229
 30
0.0
 40
10.0
  0
LINE
  5
3BB
  8
SIZE
  6
CONTINUOUS
 62
    30
 10
1160.062947
 20
1061.75236
 30
0.0
 11
1150.062947
 21
1061.75236
 31
0.0
  0
CIRCLE
  5
3BC
  8
SIZE
  6
CONTINUOUS
 62
    30
 10
1170.062947
 20
1061.75236
 30
0.0
 40
10.0
  0
TEXT
  5
3BD
  8
SIZE
  6
CONTINUOUS
 62
    30
 10
1072.920089
 20
1260.768243
 30
0.0
 40
50.0
  1
16
 41
0.9
 72
     1
 11
1103.991518
 21
1260.768243
 31
0.0
  0
LINE
  5
3BE
  8
SIZE
  6
CONTINUOUS
 62
    30
 10
1173.062947
 20
1242.768243
 30
0.0
 11
1054.92009
 21
1242.768243
 31
0.0
  0
LINE
  5
3BF
  8
SIZE
  6
CONTINUOUS
 62
    30
 10
1183.062947
 20
1242.768243
 30
0.0
 11
1173.062947
 21
1242.768243
 31
0.0
  0
TEXT
  5
3C0
  8
SIZE
  6
CONTINUOUS
 62
    30
 10
1062.205804
 20
1372.274887
 30
0.0
 40
50.0
  1
23
 41
0.9
 72
     1
 11
1098.634376
 21
1372.274887
 31
0.0
  0
LINE
  5
3C1
  8
SIZE
  6
CONTINUOUS
 62
    30
 10
1173.062947
 20
1354.274887
 30
0.0
 11
1044.205804
 21
1354.274887
 31
0.0
  0
LINE
  5
3C2
  8
SIZE
  6
CONTINUOUS
 62
    30
 10
1183.062947
 20
1354.274887
 30
0.0
 11
1173.062947
 21
1354.274887
 31
0.0
  0
POINT
  5
3C3
  8
DEFPOINTS
  6
CONTINUOUS
 62
     7
 10
1209.062947
 20
1150.7229
 30
0.0
  0
LINE
  5
3C4
  8
SIZE
  6
CONTINUOUS
 62
    30
 10
1219.062947
 20
1150.7229
 30
0.0
 11
1229.062947
 21
1150.7229
 31
0.0
  0
CIRCLE
  5
3C5
  8
SIZE
  6
CONTINUOUS
 62
    30
 10
1209.062947
 20
1150.7229
 30
0.0
 40
10.0
  0
LINE
  5
3C6
  8
SIZE
  6
CONTINUOUS
 62
    30
 10
1229.062947
 20
1150.7229
 30
0.0
 11
1249.062947
 21
1150.7229
 31
0.0
  0
POINT
  5
3C7
  8
DEFPOINTS
  6
CONTINUOUS
 62
     7
 10
1209.062947
 20
1061.75236
 30
0.0
  0
LINE
  5
3C8
  8
SIZE
  6
CONTINUOUS
 62
    30
 10
1219.062947
 20
1061.75236
 30
0.0
 11
1229.062947
 21
1061.75236
 31
0.0
  0
CIRCLE
  5
3C9
  8
SIZE
  6
CONTINUOUS
 62
    30
 10
1209.062947
 20
1061.75236
 30
0.0
 40
10.0
  0
LINE
  5
3CA
  8
SIZE
  6
CONTINUOUS
 62
    30
 10
1229.062947
 20
1061.75236
 30
0.0
 11
1249.062947
 21
1061.75236
 31
0.0
  0
POINT
  5
3CB
  8
DEFPOINTS
  6
CONTINUOUS
 62
     7
 10
1193.062947
 20
1242.768243
 30
0.0
  0
LINE
  5
3CC
  8
SIZE
  6
CONTINUOUS
 62
    30
 10
1219.062947
 20
1242.768243
 30
0.0
 11
1229.062947
 21
1242.768243
 31
0.0
  0
CIRCLE
  5
3CD
  8
SIZE
  6
CONTINUOUS
 62
    30
 10
1209.062947
 20
1242.768243
 30
0.0
 40
10.0
  0
LINE
  5
3CE
  8
SIZE
  6
CONTINUOUS
 62
    30
 10
1209.062947
 20
1242.768243
 30
0.0
 11
1193.062947
 21
1242.768243
 31
0.0
  0
LINE
  5
3CF
  8
SIZE
  6
CONTINUOUS
 62
    30
 10
1229.062947
 20
1242.768243
 30
0.0
 11
1249.062947
 21
1242.768243
 31
0.0
  0
POINT
  5
3D0
  8
DEFPOINTS
  6
CONTINUOUS
 62
     7
 10
1209.062947
 20
1242.768243
 30
0.0
  0
LINE
  5
3D1
  8
SIZE
  6
CONTINUOUS
 62
    30
 10
1219.062947
 20
1242.768243
 30
0.0
 11
1229.062947
 21
1242.768243
 31
0.0
  0
CIRCLE
  5
3D2
  8
SIZE
  6
CONTINUOUS
 62
    30
 10
1209.062947
 20
1242.768243
 30
0.0
 40
10.0
  0
LINE
  5
3D3
  8
SIZE
  6
CONTINUOUS
 62
    30
 10
1519.062947
 20
1137.197316
 30
0.0
 11
1529.062947
 21
1137.197316
 31
0.0
  0
POINT
  5
3D4
  8
DEFPOINTS
  6
CONTINUOUS
 62
     7
 10
1509.062947
 20
1137.197316
 30
0.0
  0
CIRCLE
  5
3D5
  8
SIZE
  6
CONTINUOUS
 62
    30
 10
1509.062947
 20
1137.197316
 30
0.0
 40
10.0
  0
POINT
  5
3D6
  8
DEFPOINTS
  6
CONTINUOUS
 62
     7
 10
1193.062947
 20
1354.274887
 30
0.0
  0
LINE
  5
3D7
  8
SIZE
  6
CONTINUOUS
 62
    30
 10
1226.062947
 20
1354.274887
 30
0.0
 11
1236.062947
 21
1354.274887
 31
0.0
  0
CIRCLE
  5
3D8
  8
SIZE
  6
CONTINUOUS
 62
    30
 10
1216.062947
 20
1354.274887
 30
0.0
 40
10.0
  0
LINE
  5
3D9
  8
SIZE
  6
CONTINUOUS
 62
    30
 10
1216.062947
 20
1354.274887
 30
0.0
 11
1193.062947
 21
1354.274887
 31
0.0
  0
LINE
  5
3DA
  8
SIZE
  6
CONTINUOUS
 62
    30
 10
1236.062947
 20
1354.274887
 30
0.0
 11
1256.062947
 21
1354.274887
 31
0.0
  0
POINT
  5
3DB
  8
DEFPOINTS
  6
CONTINUOUS
 62
     7
 10
1216.062947
 20
1354.274887
 30
0.0
  0
LINE
  5
3DC
  8
SIZE
  6
CONTINUOUS
 62
    30
 10
1226.062947
 20
1354.274887
 30
0.0
 11
1236.062947
 21
1354.274887
 31
0.0
  0
CIRCLE
  5
3DD
  8
SIZE
  6
CONTINUOUS
 62
    30
 10
1216.062947
 20
1354.274887
 30
0.0
 40
10.0
  0
LINE
  5
3DE
  8
SIZE
  6
CONTINUOUS
 62
    30
 10
1203.062947
 20
1484.648291
 30
0.0
 11
1213.062947
 21
1484.648291
 31
0.0
  0
LINE
  5
3DF
  8
BASIS
  6
DASHDOT
 62
     6
 10
1964.062947
 20
356.785306
 30
0.0
 11
1964.062947
 21
944.802192
 31
0.0
  0
CIRCLE
  5
3E0
  8
ARRANGE
  6
CONTINUOUS
 62
     1
 10
1964.062947
 20
414.786264
 30
0.0
 40
50.0
  0
LINE
  5
3E1
  8
OUTLINE
  6
CONTINUOUS
 62
     3
 10
2759.062947
 20
410.779276
 30
0.0
 11
2759.062947
 21
414.786264
 31
0.0
  0
CIRCLE
  5
3E2
  8
SIZE
  6
CONTINUOUS
 62
    30
 10
3233.640693
 20
414.786264
 30
0.0
 40
10.0
  0
LINE
  5
3E3
  8
SIZE
  6
CONTINUOUS
 62
    30
 10
3233.640693
 20
414.786264
 30
0.0
 11
3233.640693
 21
67.357693
 31
0.0
  0
CIRCLE
  5
3E4
  8
SIZE
  6
CONTINUOUS
 62
    30
 10
2926.984534
 20
414.786264
 30
0.0
 40
10.0
  0
CIRCLE
  5
3E5
  8
SIZE
  6
CONTINUOUS
 62
    30
 10
2926.984534
 20
406.786264
 30
0.0
 40
10.0
  0
CIRCLE
  5
3E6
  8
SIZE
  6
CONTINUOUS
 62
    30
 10
2926.984534
 20
414.786264
 30
0.0
 40
10.0
  0
LINE
  5
3E7
  8
SIZE
  6
CONTINUOUS
 62
    30
 10
2926.984534
 20
414.786264
 30
0.0
 11
2926.984534
 21
406.786264
 31
0.0
  0
LINE
  5
3E8
  8
SIZE
  6
CONTINUOUS
 62
    30
 10
2719.062947
 20
536.786264
 30
0.0
 11
2719.062947
 21
238.17687
 31
0.0
  0
LINE
  5
3E9
  8
ARRANGE
  6
CONTINUOUS
 62
     1
 10
1914.025597
 20
365.263911
 30
0.0
 11
2014.100297
 21
464.308617
 31
0.0
  0
LINE
  5
3EA
  8
ARRANGE
  6
CONTINUOUS
 62
     1
 10
1914.099184
 20
464.382859
 30
0.0
 11
2014.02671
 21
365.189669
 31
0.0
  0
LINE
  5
3EB
  8
DETAIL
  6
CONTINUOUS
 62
     5
 10
2759.062947
 20
410.779276
 30
0.0
 11
2759.062947
 21
414.786264
 31
0.0
  0
LINE
  5
3EC
  8
SIZE
  6
CONTINUOUS
 62
    30
 10
2699.062947
 20
268.17687
 30
0.0
 11
2366.205804
 21
268.17687
 31
0.0
  0
TEXT
  5
3ED
  8
SIZE
  6
CONTINUOUS
 62
    30
 10
1684.634375
 20
193.188207
 30
0.0
 40
50.0
  1
1550（天井開口寸法）
 41
0.9
 72
     1
 11
1964.062947
 21
193.188207
 31
0.0
  0
TEXT
  5
3EE
  8
SIZE
  6
CONTINUOUS
 62
    30
 10
1889.062947
 20
95.496814
 30
0.0
 40
50.0
  1
1590
 41
0.9
 72
     1
 11
1964.062947
 21
95.496814
 31
0.0
  0
TEXT
  5
3EF
  8
SIZE
  6
CONTINUOUS
 62
    30
 10
2384.205804
 20
286.17687
 30
0.0
 40
50.0
  1
20
 41
0.9
 72
     1
 11
2420.634376
 21
286.17687
 31
0.0
  0
LINE
  5
3F0
  8
SIZE
  6
CONTINUOUS
 62
    30
 10
2759.062947
 20
392.779276
 30
0.0
 11
2759.062947
 21
47.496814
 31
0.0
  0
CIRCLE
  5
3F1
  8
SIZE
  6
CONTINUOUS
 62
    30
 10
2759.062947
 20
77.496814
 30
0.0
 40
10.0
  0
LINE
  5
3F2
  8
SIZE
  6
CONTINUOUS
 62
    30
 10
2749.062947
 20
77.496814
 30
0.0
 11
2739.062947
 21
77.496814
 31
0.0
  0
POINT
  5
3F3
  8
DEFPOINTS
  6
CONTINUOUS
 62
     7
 10
2759.062947
 20
77.496814
 30
0.0
  0
ARC
  5
3F4
  8
OUTLINE
  6
CONTINUOUS
 62
     3
 10
2728.35927
 20
526.799677
 30
0.0
 40
120.014371
 50
269.771063
 51
284.82297
  0
LINE
  5
3F5
  8
SIZE
  6
CONTINUOUS
 62
    30
 10
2745.87973
 20
406.786264
 30
0.0
 11
2956.984534
 21
406.786264
 31
0.0
  0
LINE
  5
3F6
  8
SIZE
  6
CONTINUOUS
 62
    30
 10
2749.062947
 20
268.17687
 30
0.0
 11
2759.062947
 21
268.17687
 31
0.0
  0
CIRCLE
  5
3F7
  8
SIZE
  6
CONTINUOUS
 62
    30
 10
2759.062947
 20
175.188207
 30
0.0
 40
10.0
  0
LINE
  5
3F8
  8
SIZE
  6
CONTINUOUS
 62
    30
 10
2739.062947
 20
175.188207
 30
0.0
 11
2759.062947
 21
175.188207
 31
0.0
  0
ARC
  5
3F9
  8
DETAIL
  6
CONTINUOUS
 62
     5
 10
2728.35927
 20
526.799677
 30
0.0
 40
120.014371
 50
269.771063
 51
284.82297
  0
CIRCLE
  5
3FA
  8
SIZE
  6
CONTINUOUS
 62
    30
 10
2719.062947
 20
268.17687
 30
0.0
 40
10.0
  0
CIRCLE
  5
3FB
  8
SIZE
  6
CONTINUOUS
 62
    30
 10
2739.062947
 20
268.17687
 30
0.0
 40
10.0
  0
LINE
  5
3FC
  8
SIZE
  6
CONTINUOUS
 62
    30
 10
2739.062947
 20
397.786264
 30
0.0
 11
2739.062947
 21
238.17687
 31
0.0
  0
LINE
  5
3FD
  8
SIZE
  6
CONTINUOUS
 62
    30
 10
2739.062947
 20
397.786264
 30
0.0
 11
2739.062947
 21
145.188207
 31
0.0
  0
LINE
  5
3FE
  8
SIZE
  6
CONTINUOUS
 62
    30
 10
2739.062947
 20
397.786264
 30
0.0
 11
2739.062947
 21
145.188207
 31
0.0
  0
LINE
  5
3FF
  8
SIZE
  6
CONTINUOUS
 62
    30
 10
2729.062947
 20
175.188207
 30
0.0
 11
2719.062947
 21
175.188207
 31
0.0
  0
CIRCLE
  5
400
  8
SIZE
  6
CONTINUOUS
 62
    30
 10
2739.062947
 20
175.188207
 30
0.0
 40
10.0
  0
LINE
  5
401
  8
SIZE
  6
CONTINUOUS
 62
    30
 10
2729.062947
 20
175.188207
 30
0.0
 11
2719.062947
 21
175.188207
 31
0.0
  0
CIRCLE
  5
402
  8
SIZE
  6
CONTINUOUS
 62
    30
 10
2739.062947
 20
175.188207
 30
0.0
 40
10.0
  0
LINE
  5
403
  8
SIZE
  6
CONTINUOUS
 62
    30
 10
2719.062947
 20
175.188207
 30
0.0
 11
2699.062947
 21
175.188207
 31
0.0
  0
POINT
  5
404
  8
DEFPOINTS
  6
CONTINUOUS
 62
     7
 10
2727.87973
 20
406.786264
 30
0.0
  0
POINT
  5
405
  8
DEFPOINTS
  6
CONTINUOUS
 62
     7
 10
2739.062947
 20
268.17687
 30
0.0
  0
LINE
  5
406
  8
SIZE
  6
CONTINUOUS
 62
    30
 10
2709.062947
 20
268.17687
 30
0.0
 11
2699.062947
 21
268.17687
 31
0.0
  0
LINE
  5
407
  8
SIZE
  6
CONTINUOUS
 62
    30
 10
2739.062947
 20
268.17687
 30
0.0
 11
2719.062947
 21
268.17687
 31
0.0
  0
LINE
  5
408
  8
SIZE
  6
CONTINUOUS
 62
    30
 10
2759.062947
 20
392.779276
 30
0.0
 11
2759.062947
 21
145.188207
 31
0.0
  0
TEXT
  5
409
  8
SIZE
  6
CONTINUOUS
 62
    30
 10
2817.062946
 20
193.188207
 30
0.0
 40
50.0
  1
20
 41
0.9
 72
     1
 11
2853.491518
 21
193.188207
 31
0.0
  0
LINE
  5
40A
  8
SIZE
  6
CONTINUOUS
 62
    30
 10
2779.062947
 20
175.188207
 30
0.0
 11
2907.92009
 21
175.188207
 31
0.0
  0
POINT
  5
40B
  8
DEFPOINTS
  6
CONTINUOUS
 62
     7
 10
2759.062947
 20
175.188207
 30
0.0
  0
LINE
  5
40C
  8
SIZE
  6
CONTINUOUS
 62
    30
 10
2769.062947
 20
175.188207
 30
0.0
 11
2779.062947
 21
175.188207
 31
0.0
  0
TEXT
  5
40D
  8
SIZE
  6
CONTINUOUS
 62
    30
 10
2908.984534
 20
318.786264
 30
0.0
 40
50.0
  1
8
 50
90.0
 41
0.9
 72
     1
 11
2908.984534
 21
333.786264
 31
0.0
  0
LINE
  5
40E
  8
SIZE
  6
CONTINUOUS
 62
    30
 10
2759.062947
 20
268.17687
 30
0.0
 11
2779.062947
 21
268.17687
 31
0.0
  0
POINT
  5
40F
  8
DEFPOINTS
  6
CONTINUOUS
 62
     7
 10
2759.062947
 20
410.779276
 30
0.0
  0
POINT
  5
410
  8
DEFPOINTS
  6
CONTINUOUS
 62
     7
 10
2759.062947
 20
410.779276
 30
0.0
  0
LINE
  5
411
  8
SIZE
  6
CONTINUOUS
 62
    30
 10
2926.984534
 20
404.786264
 30
0.0
 11
2926.984534
 21
394.786264
 31
0.0
  0
LINE
  5
412
  8
SIZE
  6
CONTINUOUS
 62
    30
 10
2926.984534
 20
394.786264
 30
0.0
 11
2926.984534
 21
374.786264
 31
0.0
  0
POINT
  5
413
  8
DEFPOINTS
  6
CONTINUOUS
 62
     7
 10
2926.984534
 20
406.786264
 30
0.0
  0
LINE
  5
414
  8
SIZE
  6
CONTINUOUS
 62
    30
 10
2926.984534
 20
396.786264
 30
0.0
 11
2926.984534
 21
386.786264
 31
0.0
  0
LINE
  5
415
  8
SIZE
  6
CONTINUOUS
 62
    30
 10
2926.984534
 20
386.786264
 30
0.0
 11
2926.984534
 21
300.786264
 31
0.0
  0
TEXT
  5
416
  8
SIZE
  6
CONTINUOUS
 62
    30
 10
3215.640693
 20
85.357692
 30
0.0
 40
50.0
  1
140-300
 50
90.0
 41
0.9
 72
     1
 11
3215.640693
 21
231.071978
 31
0.0
  0
TEXT
  5
417
  8
SIZE
  6
CONTINUOUS
 62
    30
 10
3343.662489
 20
47.503785
 30
0.0
 40
55.0
  1
パネル直付時
 50
90.0
 41
0.9
 72
     1
 11
3343.662489
 21
219.103785
 31
0.0
  0
CIRCLE
  5
418
  8
DETAIL
  6
CONTINUOUS
 62
     5
 10
2469.062947
 20
751.786264
 30
0.0
 40
85.5
  0
CIRCLE
  5
419
  8
DETAIL
  6
CONTINUOUS
 62
     5
 10
2469.062947
 20
751.786264
 30
0.0
 40
100.0
  0
LINE
  5
41A
  8
SIZE
  6
CONTINUOUS
 62
    30
 10
2699.062947
 20
1137.197316
 30
0.0
 11
2489.062947
 21
1137.197316
 31
0.0
  0
LINE
  5
41B
  8
NOTE
  6
CONTINUOUS
 62
     4
 10
2589.077318
 20
751.786264
 30
0.0
 11
2349.048576
 21
751.786264
 31
0.0
  0
LINE
  5
41C
  8
SIZE
  6
CONTINUOUS
 62
    30
 10
1829.062947
 20
889.800635
 30
0.0
 11
1829.062947
 21
1167.197316
 31
0.0
  0
LINE
  5
41D
  8
SIZE
  6
CONTINUOUS
 62
    30
 10
1829.062947
 20
889.800635
 30
0.0
 11
1829.062947
 21
1167.197316
 31
0.0
  0
LINE
  5
41E
  8
SIZE
  6
CONTINUOUS
 62
    30
 10
2149.062947
 20
889.800635
 30
0.0
 11
2149.062947
 21
1167.197316
 31
0.0
  0
LINE
  5
41F
  8
SIZE
  6
CONTINUOUS
 62
    30
 10
2149.062947
 20
889.800635
 30
0.0
 11
2149.062947
 21
1167.197316
 31
0.0
  0
LINE
  5
420
  8
SIZE
  6
CONTINUOUS
 62
    30
 10
2469.062947
 20
889.800635
 30
0.0
 11
2469.062947
 21
1167.197316
 31
0.0
  0
LINE
  5
421
  8
SIZE
  6
CONTINUOUS
 62
    30
 10
2469.062947
 20
889.800635
 30
0.0
 11
2469.062947
 21
1167.197316
 31
0.0
  0
CIRCLE
  5
422
  8
DETAIL
  6
CONTINUOUS
 62
     5
 10
2149.062947
 20
751.786264
 30
0.0
 40
85.5
  0
CIRCLE
  5
423
  8
DETAIL
  6
CONTINUOUS
 62
     5
 10
2149.062947
 20
751.786264
 30
0.0
 40
100.0
  0
LINE
  5
424
  8
NOTE
  6
CONTINUOUS
 62
     4
 10
2269.077318
 20
751.786264
 30
0.0
 11
2029.048576
 21
751.786264
 31
0.0
  0
CIRCLE
  5
425
  8
DETAIL
  6
CONTINUOUS
 62
     5
 10
1829.062947
 20
751.786264
 30
0.0
 40
85.5
  0
CIRCLE
  5
426
  8
DETAIL
  6
CONTINUOUS
 62
     5
 10
1829.062947
 20
751.786264
 30
0.0
 40
100.0
  0
LINE
  5
427
  8
NOTE
  6
CONTINUOUS
 62
     4
 10
1829.062947
 20
871.800635
 30
0.0
 11
1829.062947
 21
631.771893
 31
0.0
  0
LINE
  5
428
  8
NOTE
  6
CONTINUOUS
 62
     4
 10
1949.077318
 20
751.786264
 30
0.0
 11
1709.048576
 21
751.786264
 31
0.0
  0
POINT
  5
429
  8
DEFPOINTS
  6
CONTINUOUS
 62
     7
 10
1829.062947
 20
871.800635
 30
0.0
  0
POINT
  5
42A
  8
DEFPOINTS
  6
CONTINUOUS
 62
     7
 10
1829.062947
 20
871.800635
 30
0.0
  0
LINE
  5
42B
  8
NOTE
  6
CONTINUOUS
 62
     4
 10
2469.062947
 20
871.800635
 30
0.0
 11
2469.062947
 21
631.771893
 31
0.0
  0
LINE
  5
42C
  8
NOTE
  6
CONTINUOUS
 62
     4
 10
2149.062947
 20
871.800635
 30
0.0
 11
2149.062947
 21
631.771893
 31
0.0
  0
POINT
  5
42D
  8
DEFPOINTS
  6
CONTINUOUS
 62
     7
 10
2149.062947
 20
871.800635
 30
0.0
  0
POINT
  5
42E
  8
DEFPOINTS
  6
CONTINUOUS
 62
     7
 10
2149.062947
 20
871.800635
 30
0.0
  0
POINT
  5
42F
  8
DEFPOINTS
  6
CONTINUOUS
 62
     7
 10
2469.062947
 20
871.800635
 30
0.0
  0
POINT
  5
430
  8
DEFPOINTS
  6
CONTINUOUS
 62
     7
 10
2469.062947
 20
871.800635
 30
0.0
  0
LINE
  5
431
  8
SIZE
  6
CONTINUOUS
 62
    30
 10
2129.062947
 20
1137.197316
 30
0.0
 11
1849.062947
 21
1137.197316
 31
0.0
  0
TEXT
  5
432
  8
SIZE
  6
CONTINUOUS
 62
    30
 10
1644.134375
 20
1385.370125
 30
0.0
 40
50.0
  1
1496(吊りボルトピッチ)
 41
0.9
 72
     1
 11
1964.062947
 21
1385.370125
 31
0.0
  0
LINE
  5
433
  8
SIZE
  6
CONTINUOUS
 62
    30
 10
1819.062947
 20
1137.197316
 30
0.0
 11
1809.062947
 21
1137.197316
 31
0.0
  0
CIRCLE
  5
434
  8
SIZE
  6
CONTINUOUS
 62
    30
 10
1829.062947
 20
1137.197316
 30
0.0
 40
10.0
  0
POINT
  5
435
  8
DEFPOINTS
  6
CONTINUOUS
 62
     7
 10
1829.062947
 20
1137.197316
 30
0.0
  0
LINE
  5
436
  8
SIZE
  6
CONTINUOUS
 62
    30
 10
1839.062947
 20
1137.197316
 30
0.0
 11
1849.062947
 21
1137.197316
 31
0.0
  0
CIRCLE
  5
437
  8
SIZE
  6
CONTINUOUS
 62
    30
 10
1829.062947
 20
1137.197316
 30
0.0
 40
10.0
  0
TEXT
  5
438
  8
SIZE
  6
CONTINUOUS
 62
    30
 10
1931.205804
 20
1155.197316
 30
0.0
 40
50.0
  1
320
 41
0.9
 72
     1
 11
1989.062947
 21
1155.197316
 31
0.0
  0
TEXT
  5
439
  8
SIZE
  6
CONTINUOUS
 62
    30
 10
1893.348661
 20
1260.768243
 30
0.0
 40
50.0
  1
1510
 41
0.9
 72
     1
 11
1964.062947
 21
1260.768243
 31
0.0
  0
TEXT
  5
43A
  8
SIZE
  6
CONTINUOUS
 62
    30
 10
1889.062947
 20
1502.648291
 30
0.0
 40
50.0
  1
1542
 41
0.9
 72
     1
 11
1964.062947
 21
1502.648291
 31
0.0
  0
TEXT
  5
43B
  8
SIZE
  6
CONTINUOUS
 62
    30
 10
2251.205804
 20
1155.197316
 30
0.0
 40
50.0
  1
320
 41
0.9
 72
     1
 11
2309.062947
 21
1155.197316
 31
0.0
  0
LINE
  5
43C
  8
SIZE
  6
CONTINUOUS
 62
    30
 10
2449.062947
 20
1137.197316
 30
0.0
 11
2169.062947
 21
1137.197316
 31
0.0
  0
LINE
  5
43D
  8
SIZE
  6
CONTINUOUS
 62
    30
 10
2139.062947
 20
1137.197316
 30
0.0
 11
2129.062947
 21
1137.197316
 31
0.0
  0
CIRCLE
  5
43E
  8
SIZE
  6
CONTINUOUS
 62
    30
 10
2149.062947
 20
1137.197316
 30
0.0
 40
10.0
  0
POINT
  5
43F
  8
DEFPOINTS
  6
CONTINUOUS
 62
     7
 10
2149.062947
 20
1137.197316
 30
0.0
  0
LINE
  5
440
  8
SIZE
  6
CONTINUOUS
 62
    30
 10
2159.062947
 20
1137.197316
 30
0.0
 11
2169.062947
 21
1137.197316
 31
0.0
  0
CIRCLE
  5
441
  8
SIZE
  6
CONTINUOUS
 62
    30
 10
2149.062947
 20
1137.197316
 30
0.0
 40
10.0
  0
LINE
  5
442
  8
SIZE
  6
CONTINUOUS
 62
    30
 10
2459.062947
 20
1137.197316
 30
0.0
 11
2449.062947
 21
1137.197316
 31
0.0
  0
CIRCLE
  5
443
  8
SIZE
  6
CONTINUOUS
 62
    30
 10
2469.062947
 20
1137.197316
 30
0.0
 40
10.0
  0
POINT
  5
444
  8
DEFPOINTS
  6
CONTINUOUS
 62
     7
 10
2469.062947
 20
1137.197316
 30
0.0
  0
LINE
  5
445
  8
SIZE
  6
CONTINUOUS
 62
    30
 10
2479.062947
 20
1137.197316
 30
0.0
 11
2489.062947
 21
1137.197316
 31
0.0
  0
CIRCLE
  5
446
  8
SIZE
  6
CONTINUOUS
 62
    30
 10
2469.062947
 20
1137.197316
 30
0.0
 40
10.0
  0
LINE
  5
447
  8
SIZE
  6
CONTINUOUS
 62
    30
 10
2719.062947
 20
905.786264
 30
0.0
 11
2719.062947
 21
1272.768243
 31
0.0
  0
LINE
  5
448
  8
SIZE
  6
CONTINUOUS
 62
    30
 10
2719.062947
 20
905.786264
 30
0.0
 11
2719.062947
 21
1167.197316
 31
0.0
  0
LINE
  5
449
  8
SIZE
  6
CONTINUOUS
 62
    30
 10
2735.062947
 20
896.485749
 30
0.0
 11
2735.062947
 21
1272.768243
 31
0.0
  0
LINE
  5
44A
  8
SIZE
  6
CONTINUOUS
 62
    30
 10
2719.062947
 20
905.786264
 30
0.0
 11
2719.062947
 21
1272.768243
 31
0.0
  0
LINE
  5
44B
  8
SIZE
  6
CONTINUOUS
 62
    30
 10
2735.062947
 20
901.485749
 30
0.0
 11
2735.062947
 21
1514.648291
 31
0.0
  0
LINE
  5
44C
  8
SIZE
  6
CONTINUOUS
 62
    30
 10
2712.062947
 20
918.488659
 30
0.0
 11
2712.062947
 21
1384.274887
 31
0.0
  0
LINE
  5
44D
  8
SIZE
  6
CONTINUOUS
 62
    30
 10
2712.062947
 20
925.788659
 30
0.0
 11
2712.062947
 21
1384.274887
 31
0.0
  0
LINE
  5
44E
  8
SIZE
  6
CONTINUOUS
 62
    30
 10
2735.062947
 20
901.485749
 30
0.0
 11
2735.062947
 21
1384.274887
 31
0.0
  0
POLYLINE
  5
44F
  8
NOTE
  6
CONTINUOUS
 62
     4
 66
     1
 10
0.0
 20
0.0
 30
0.0
  0
VERTEX
  5
450
  8
NOTE
  6
CONTINUOUS
 62
     4
 10
2719.062947
 20
751.786264
 30
0.0
  0
VERTEX
  5
451
  8
NOTE
  6
CONTINUOUS
 62
     4
 10
3072.449635
 20
1002.054793
 30
0.0
  0
SEQEND
  5
452
  8
NOTE
  6
CONTINUOUS
 62
     4
  0
LINE
  5
453
  8
SIZE
  6
CONTINUOUS
 62
    30
 10
2777.062947
 20
414.786264
 30
0.0
 11
3263.640693
 21
414.786264
 31
0.0
  0
LINE
  5
454
  8
SIZE
  6
CONTINUOUS
 62
    30
 10
2737.062947
 20
554.786264
 30
0.0
 11
3263.640693
 21
554.786264
 31
0.0
  0
LINE
  5
455
  8
SIZE
  6
CONTINUOUS
 62
    30
 10
2722.061151
 20
554.786264
 30
0.0
 11
3263.700262
 21
554.786264
 31
0.0
  0
LINE
  5
456
  8
SIZE
  6
CONTINUOUS
 62
    30
 10
2737.062947
 20
887.786264
 30
0.0
 11
3263.700262
 21
887.786264
 31
0.0
  0
TEXT
  5
457
  8
SIZE
  6
CONTINUOUS
 62
    30
 10
3023.743697
 20
608.786264
 30
0.0
 40
50.0
  1
136
 50
90.0
 41
0.9
 72
     1
 11
3023.743697
 21
661.286264
 31
0.0
  0
LINE
  5
458
  8
SIZE
  6
CONTINUOUS
 62
    30
 10
2757.139352
 20
751.786264
 30
0.0
 11
3071.743697
 21
751.786264
 31
0.0
  0
LINE
  5
459
  8
SIZE
  6
CONTINUOUS
 62
    30
 10
2737.062947
 20
887.786264
 30
0.0
 11
3071.743697
 21
887.786264
 31
0.0
  0
LINE
  5
45A
  8
OUTLINE
  6
CONTINUOUS
 62
     3
 10
2719.062947
 20
887.786264
 30
0.0
 11
2719.062947
 21
554.786264
 31
0.0
  0
LINE
  5
45B
  8
DETAIL
  6
CONTINUOUS
 62
     5
 10
2719.062947
 20
887.786264
 30
0.0
 11
2719.062947
 21
636.572468
 31
0.0
  0
LINE
  5
45C
  8
DETAIL
  6
CONTINUOUS
 62
     5
 10
2687.089054
 20
653.774528
 30
0.0
 11
2687.089054
 21
849.798
 31
0.0
  0
LINE
  5
45D
  8
OUTLINE
  6
CONTINUOUS
 62
     3
 10
2759.062947
 20
414.786264
 30
0.0
 11
2703.151447
 21
414.786264
 31
0.0
  0
LINE
  5
45E
  8
SIZE
  6
CONTINUOUS
 62
    30
 10
2721.151447
 20
461.786264
 30
0.0
 11
2956.984534
 21
461.786264
 31
0.0
  0
LINE
  5
45F
  8
NOTE
  6
CONTINUOUS
 62
     4
 10
2739.062947
 20
415.786264
 30
0.0
 11
2840.370396
 21
415.786264
 31
0.0
  0
LINE
  5
460
  8
NOTE
  6
CONTINUOUS
 62
     4
 10
2739.062947
 20
435.786264
 30
0.0
 11
2840.370396
 21
435.786264
 31
0.0
  0
LINE
  5
461
  8
DETAIL
  6
CONTINUOUS
 62
     5
 10
2719.062947
 20
636.572468
 30
0.0
 11
2719.062947
 21
554.786264
 31
0.0
  0
LINE
  5
462
  8
DETAIL
  6
CONTINUOUS
 62
     5
 10
2704.061151
 20
566.787701
 30
0.0
 11
2704.061151
 21
554.786264
 31
0.0
  0
LINE
  5
463
  8
OUTLINE
  6
CONTINUOUS
 62
     3
 10
2703.151447
 20
414.786264
 30
0.0
 11
2703.151447
 21
461.786264
 31
0.0
  0
POINT
  5
464
  8
DEFPOINTS
  6
CONTINUOUS
 62
     7
 10
2719.062947
 20
554.786264
 30
0.0
  0
POINT
  5
465
  8
DEFPOINTS
  6
CONTINUOUS
 62
     7
 10
2704.061151
 20
554.786264
 30
0.0
  0
POINT
  5
466
  8
DEFPOINTS
  6
CONTINUOUS
 62
     7
 10
2703.151447
 20
461.786264
 30
0.0
  0
POINT
  5
467
  8
DEFPOINTS
  6
CONTINUOUS
 62
     7
 10
2739.062947
 20
415.786264
 30
0.0
  0
POINT
  5
468
  8
DEFPOINTS
  6
CONTINUOUS
 62
     7
 10
2719.062947
 20
554.786264
 30
0.0
  0
POINT
  5
469
  8
DEFPOINTS
  6
CONTINUOUS
 62
     7
 10
2739.062947
 20
415.786264
 30
0.0
  0
POINT
  5
46A
  8
DEFPOINTS
  6
CONTINUOUS
 62
     7
 10
2739.062947
 20
415.786264
 30
0.0
  0
LINE
  5
46B
  8
NOTE
  6
CONTINUOUS
 62
     4
 10
2739.062947
 20
415.786264
 30
0.0
 11
2739.062947
 21
435.786264
 31
0.0
  0
LINE
  5
46C
  8
DETAIL
  6
CONTINUOUS
 62
     5
 10
2703.151447
 20
414.786264
 30
0.0
 11
2703.151447
 21
461.786264
 31
0.0
  0
LINE
  5
46D
  8
DETAIL
  6
CONTINUOUS
 62
     5
 10
2704.061151
 20
566.787701
 30
0.0
 11
2701.060791
 21
569.78806
 31
0.0
  0
ARC
  5
46E
  8
DETAIL
  6
CONTINUOUS
 62
     5
 10
2714.062348
 20
587.190144
 30
0.0
 40
5.000599
 50
270.0
 51
0.0
  0
ARC
  5
46F
  8
DETAIL
  6
CONTINUOUS
 62
     5
 10
2677.087856
 20
653.774528
 30
0.0
 40
10.001198
 50
270.0
 51
0.0
  0
LINE
  5
470
  8
SIZE
  6
CONTINUOUS
 62
    30
 10
2926.984534
 20
481.786264
 30
0.0
 11
2926.984534
 21
671.636666
 31
0.0
  0
LINE
  5
471
  8
SIZE
  6
CONTINUOUS
 62
    30
 10
2777.062947
 20
414.786264
 30
0.0
 11
2956.984534
 21
414.786264
 31
0.0
  0
LINE
  5
472
  8
SIZE
  6
CONTINUOUS
 62
    30
 10
2777.062947
 20
414.786264
 30
0.0
 11
2956.984534
 21
414.786264
 31
0.0
  0
POINT
  5
473
  8
DEFPOINTS
  6
CONTINUOUS
 62
     7
 10
2759.062947
 20
414.786264
 30
0.0
  0
POINT
  5
474
  8
DEFPOINTS
  6
CONTINUOUS
 62
     7
 10
2759.062947
 20
414.786264
 30
0.0
  0
POINT
  5
475
  8
DEFPOINTS
  6
CONTINUOUS
 62
     7
 10
2759.062947
 20
414.786264
 30
0.0
  0
LINE
  5
476
  8
NOTE
  6
CONTINUOUS
 62
     4
 10
2829.327955
 20
415.786264
 30
0.0
 11
2809.327955
 21
435.786264
 31
0.0
  0
LINE
  5
477
  8
NOTE
  6
CONTINUOUS
 62
     4
 10
2824.327955
 20
415.786264
 30
0.0
 11
2804.327955
 21
435.786264
 31
0.0
  0
LINE
  5
478
  8
NOTE
  6
CONTINUOUS
 62
     4
 10
2819.327955
 20
415.786264
 30
0.0
 11
2799.327955
 21
435.786264
 31
0.0
  0
LINE
  5
479
  8
NOTE
  6
CONTINUOUS
 62
     4
 10
2789.327955
 20
415.786264
 30
0.0
 11
2769.327955
 21
435.786264
 31
0.0
  0
LINE
  5
47A
  8
NOTE
  6
CONTINUOUS
 62
     4
 10
2784.327955
 20
415.786264
 30
0.0
 11
2764.327955
 21
435.786264
 31
0.0
  0
LINE
  5
47B
  8
NOTE
  6
CONTINUOUS
 62
     4
 10
2779.327955
 20
415.786264
 30
0.0
 11
2759.327955
 21
435.786264
 31
0.0
  0
POINT
  5
47C
  8
DEFPOINTS
  6
CONTINUOUS
 62
     7
 10
2926.984534
 20
461.786264
 30
0.0
  0
LINE
  5
47D
  8
SIZE
  6
CONTINUOUS
 62
    30
 10
2926.984534
 20
471.786264
 30
0.0
 11
2926.984534
 21
481.786264
 31
0.0
  0
CIRCLE
  5
47E
  8
SIZE
  6
CONTINUOUS
 62
    30
 10
2926.984534
 20
461.786264
 30
0.0
 40
10.0
  0
LINE
  5
47F
  8
SIZE
  6
CONTINUOUS
 62
    30
 10
2926.984534
 20
414.786264
 30
0.0
 11
2926.984534
 21
461.786264
 31
0.0
  0
LINE
  5
480
  8
SIZE
  6
CONTINUOUS
 62
    30
 10
2926.984534
 20
424.786264
 30
0.0
 11
2926.984534
 21
434.786264
 31
0.0
  0
LINE
  5
481
  8
SIZE
  6
CONTINUOUS
 62
    30
 10
2926.984534
 20
434.786264
 30
0.0
 11
2926.984534
 21
454.786264
 31
0.0
  0
TEXT
  5
482
  8
SIZE
  6
CONTINUOUS
 62
    30
 10
2908.984534
 20
580.779523
 30
0.0
 40
50.0
  1
47
 50
90.0
 41
0.9
 72
     1
 11
2908.984534
 21
617.208094
 31
0.0
  0
CIRCLE
  5
483
  8
FIX
  6
CONTINUOUS
 62
    11
 10
2712.062947
 20
887.786264
 30
0.0
 40
18.598564
  0
LINE
  5
484
  8
NOTE
  6
CONTINUOUS
 62
     4
 10
2712.062947
 20
867.783869
 30
0.0
 11
2712.062947
 21
907.788659
 31
0.0
  0
LINE
  5
485
  8
NOTE
  6
CONTINUOUS
 62
     4
 10
2719.062947
 20
751.786264
 30
0.0
 11
2738.899422
 21
775.684619
 31
0.0
  0
LINE
  5
486
  8
NOTE
  6
CONTINUOUS
 62
     4
 10
2748.191015
 20
762.564609
 30
0.0
 11
2719.062947
 21
751.786264
 31
0.0
  0
LINE
  5
487
  8
NOTE
  6
CONTINUOUS
 62
     4
 10
2719.062947
 20
731.786264
 30
0.0
 11
2719.062947
 21
771.786264
 31
0.0
  0
LINE
  5
488
  8
NOTE
  6
CONTINUOUS
 62
     4
 10
2698.986542
 20
751.786264
 30
0.0
 11
2739.139352
 21
751.786264
 31
0.0
  0
POINT
  5
489
  8
DEFPOINTS
  6
CONTINUOUS
 62
     7
 10
2739.139352
 20
751.786264
 30
0.0
  0
ARC
  5
48A
  8
DETAIL
  6
CONTINUOUS
 62
     5
 10
2677.087856
 20
849.798
 30
0.0
 40
10.001198
 50
0.0
 51
90.0
  0
POINT
  5
48B
  8
DEFPOINTS
  6
CONTINUOUS
 62
     7
 10
2719.062947
 20
887.786264
 30
0.0
  0
POINT
  5
48C
  8
DEFPOINTS
  6
CONTINUOUS
 62
     7
 10
2719.062947
 20
887.786264
 30
0.0
  0
POINT
  5
48D
  8
DEFPOINTS
  6
CONTINUOUS
 62
     7
 10
2719.062947
 20
887.786264
 30
0.0
  0
POINT
  5
48E
  8
DEFPOINTS
  6
CONTINUOUS
 62
     7
 10
2719.062947
 20
887.786264
 30
0.0
  0
POINT
  5
48F
  8
DEFPOINTS
  6
CONTINUOUS
 62
     7
 10
2735.062947
 20
878.485749
 30
0.0
  0
POINT
  5
490
  8
DEFPOINTS
  6
CONTINUOUS
 62
     7
 10
2719.062947
 20
887.786264
 30
0.0
  0
POINT
  5
491
  8
DEFPOINTS
  6
CONTINUOUS
 62
     7
 10
2735.062947
 20
883.485749
 30
0.0
  0
POINT
  5
492
  8
DEFPOINTS
  6
CONTINUOUS
 62
     7
 10
2712.062947
 20
900.488659
 30
0.0
  0
POINT
  5
493
  8
DEFPOINTS
  6
CONTINUOUS
 62
     7
 10
2712.062947
 20
907.788659
 30
0.0
  0
POINT
  5
494
  8
DEFPOINTS
  6
CONTINUOUS
 62
     7
 10
2735.062947
 20
883.485749
 30
0.0
  0
ARC
  5
495
  8
DETAIL
  6
CONTINUOUS
 62
     5
 10
2730.762672
 20
883.485989
 30
0.0
 40
2.0
 50
0.0
 51
90.0
  0
LINE
  5
496
  8
NOTE
  6
CONTINUOUS
 62
     4
 10
2692.061989
 20
887.786264
 30
0.0
 11
2732.063905
 21
887.786264
 31
0.0
  0
LINE
  5
497
  8
DETAIL
  6
CONTINUOUS
 62
     5
 10
2719.062947
 20
885.485989
 30
0.0
 11
2730.762672
 21
885.485989
 31
0.0
  0
LINE
  5
498
  8
DETAIL
  6
CONTINUOUS
 62
     5
 10
2719.062947
 20
887.786264
 30
0.0
 11
2730.762432
 21
887.786264
 31
0.0
  0
LINE
  5
499
  8
DETAIL
  6
CONTINUOUS
 62
     5
 10
2732.762672
 20
875.784827
 30
0.0
 11
2735.062947
 21
875.784827
 31
0.0
  0
LINE
  5
49A
  8
DETAIL
  6
CONTINUOUS
 62
     5
 10
2732.762672
 20
883.485989
 30
0.0
 11
2732.762672
 21
875.784827
 31
0.0
  0
LINE
  5
49B
  8
DETAIL
  6
CONTINUOUS
 62
     5
 10
2735.062947
 20
883.485749
 30
0.0
 11
2735.062947
 21
875.784827
 31
0.0
  0
ARC
  5
49C
  8
DETAIL
  6
CONTINUOUS
 62
     5
 10
2730.762432
 20
883.485749
 30
0.0
 40
4.300515
 50
0.0
 51
90.0
  0
TEXT
  5
49D
  8
SIZE
  6
CONTINUOUS
 62
    30
 10
3215.700262
 20
663.429121
 30
0.0
 40
50.0
  1
333
 50
90.0
 41
0.9
 72
     1
 11
3215.700262
 21
721.286264
 31
0.0
  0
LINE
  5
49E
  8
SIZE
  6
CONTINUOUS
 62
    30
 10
3233.700262
 20
867.786264
 30
0.0
 11
3233.700262
 21
574.786264
 31
0.0
  0
LINE
  5
49F
  8
SIZE
  6
CONTINUOUS
 62
    30
 10
3041.743697
 20
751.786264
 30
0.0
 11
3041.743697
 21
590.786264
 31
0.0
  0
LINE
  5
4A0
  8
SIZE
  6
CONTINUOUS
 62
    30
 10
3233.700262
 20
564.786264
 30
0.0
 11
3233.700262
 21
574.786264
 31
0.0
  0
POINT
  5
4A1
  8
DEFPOINTS
  6
CONTINUOUS
 62
     7
 10
3233.640693
 20
414.786264
 30
0.0
  0
LINE
  5
4A2
  8
SIZE
  6
CONTINUOUS
 62
    30
 10
3233.640693
 20
424.786264
 30
0.0
 11
3233.640693
 21
434.786264
 31
0.0
  0
LINE
  5
4A3
  8
SIZE
  6
CONTINUOUS
 62
    30
 10
3233.640693
 20
544.786264
 30
0.0
 11
3233.640693
 21
534.786264
 31
0.0
  0
CIRCLE
  5
4A4
  8
SIZE
  6
CONTINUOUS
 62
    30
 10
3233.640693
 20
554.786264
 30
0.0
 40
10.0
  0
LINE
  5
4A5
  8
SIZE
  6
CONTINUOUS
 62
    30
 10
3233.640693
 20
534.786264
 30
0.0
 11
3233.640693
 21
434.786264
 31
0.0
  0
POINT
  5
4A6
  8
DEFPOINTS
  6
CONTINUOUS
 62
     7
 10
3233.700262
 20
554.786264
 30
0.0
  0
CIRCLE
  5
4A7
  8
SIZE
  6
CONTINUOUS
 62
    30
 10
3233.700262
 20
554.786264
 30
0.0
 40
10.0
  0
LINE
  5
4A8
  8
SIZE
  6
CONTINUOUS
 62
    30
 10
3041.743697
 20
877.786264
 30
0.0
 11
3041.743697
 21
867.786264
 31
0.0
  0
POINT
  5
4A9
  8
DEFPOINTS
  6
CONTINUOUS
 62
     7
 10
3041.743697
 20
751.786264
 30
0.0
  0
LINE
  5
4AA
  8
SIZE
  6
CONTINUOUS
 62
    30
 10
3041.743697
 20
761.786264
 30
0.0
 11
3041.743697
 21
771.786264
 31
0.0
  0
CIRCLE
  5
4AB
  8
SIZE
  6
CONTINUOUS
 62
    30
 10
3041.743697
 20
751.786264
 30
0.0
 40
10.0
  0
LINE
  5
4AC
  8
SIZE
  6
CONTINUOUS
 62
    30
 10
3041.743697
 20
867.786264
 30
0.0
 11
3041.743697
 21
771.786264
 31
0.0
  0
CIRCLE
  5
4AD
  8
SIZE
  6
CONTINUOUS
 62
    30
 10
3041.743697
 20
887.786264
 30
0.0
 40
10.0
  0
LINE
  5
4AE
  8
SIZE
  6
CONTINUOUS
 62
    30
 10
3233.700262
 20
877.786264
 30
0.0
 11
3233.700262
 21
867.786264
 31
0.0
  0
CIRCLE
  5
4AF
  8
SIZE
  6
CONTINUOUS
 62
    30
 10
3233.700262
 20
887.786264
 30
0.0
 40
10.0
  0
LINE
  5
4B0
  8
SIZE
  6
CONTINUOUS
 62
    30
 10
2745.062947
 20
1242.768243
 30
0.0
 11
2755.062947
 21
1242.768243
 31
0.0
  0
TEXT
  5
4B1
  8
SIZE
  6
CONTINUOUS
 62
    30
 10
2536.205804
 20
1155.197316
 30
0.0
 40
50.0
  1
250
 41
0.9
 72
     1
 11
2594.062947
 21
1155.197316
 31
0.0
  0
LINE
  5
4B2
  8
SIZE
  6
CONTINUOUS
 62
    30
 10
2709.062947
 20
1137.197316
 30
0.0
 11
2699.062947
 21
1137.197316
 31
0.0
  0
CIRCLE
  5
4B3
  8
SIZE
  6
CONTINUOUS
 62
    30
 10
2719.062947
 20
1137.197316
 30
0.0
 40
10.0
  0
LINE
  5
4B4
  8
SIZE
  6
CONTINUOUS
 62
    30
 10
2709.062947
 20
1242.768243
 30
0.0
 11
2699.062947
 21
1242.768243
 31
0.0
  0
CIRCLE
  5
4B5
  8
SIZE
  6
CONTINUOUS
 62
    30
 10
2719.062947
 20
1242.768243
 30
0.0
 40
10.0
  0
POINT
  5
4B6
  8
DEFPOINTS
  6
CONTINUOUS
 62
     7
 10
2735.062947
 20
1242.768243
 30
0.0
  0
CIRCLE
  5
4B7
  8
SIZE
  6
CONTINUOUS
 62
    30
 10
2735.062947
 20
1242.768243
 30
0.0
 40
10.0
  0
LINE
  5
4B8
  8
SIZE
  6
CONTINUOUS
 62
    30
 10
2709.062947
 20
1242.768243
 30
0.0
 11
2699.062947
 21
1242.768243
 31
0.0
  0
CIRCLE
  5
4B9
  8
SIZE
  6
CONTINUOUS
 62
    30
 10
2719.062947
 20
1242.768243
 30
0.0
 40
10.0
  0
LINE
  5
4BA
  8
SIZE
  6
CONTINUOUS
 62
    30
 10
2719.062947
 20
1242.768243
 30
0.0
 11
2735.062947
 21
1242.768243
 31
0.0
  0
LINE
  5
4BB
  8
SIZE
  6
CONTINUOUS
 62
    30
 10
2699.062947
 20
1242.768243
 30
0.0
 11
2679.062947
 21
1242.768243
 31
0.0
  0
LINE
  5
4BC
  8
SIZE
  6
CONTINUOUS
 62
    30
 10
2755.062947
 20
1242.768243
 30
0.0
 11
2873.205804
 21
1242.768243
 31
0.0
  0
TEXT
  5
4BD
  8
SIZE
  6
CONTINUOUS
 62
    30
 10
2793.062947
 20
1260.768243
 30
0.0
 40
50.0
  1
16
 41
0.9
 72
     1
 11
2824.134376
 21
1260.768243
 31
0.0
  0
LINE
  5
4BE
  8
SIZE
  6
CONTINUOUS
 62
    30
 10
2745.062947
 20
1354.274887
 30
0.0
 11
2755.062947
 21
1354.274887
 31
0.0
  0
CIRCLE
  5
4BF
  8
SIZE
  6
CONTINUOUS
 62
    30
 10
2735.062947
 20
1484.648291
 30
0.0
 40
10.0
  0
LINE
  5
4C0
  8
SIZE
  6
CONTINUOUS
 62
    30
 10
2702.062947
 20
1354.274887
 30
0.0
 11
2692.062947
 21
1354.274887
 31
0.0
  0
CIRCLE
  5
4C1
  8
SIZE
  6
CONTINUOUS
 62
    30
 10
2712.062947
 20
1354.274887
 30
0.0
 40
10.0
  0
POINT
  5
4C2
  8
DEFPOINTS
  6
CONTINUOUS
 62
     7
 10
2712.062947
 20
1354.274887
 30
0.0
  0
CIRCLE
  5
4C3
  8
SIZE
  6
CONTINUOUS
 62
    30
 10
2735.062947
 20
1354.274887
 30
0.0
 40
10.0
  0
LINE
  5
4C4
  8
SIZE
  6
CONTINUOUS
 62
    30
 10
2702.062947
 20
1354.274887
 30
0.0
 11
2692.062947
 21
1354.274887
 31
0.0
  0
CIRCLE
  5
4C5
  8
SIZE
  6
CONTINUOUS
 62
    30
 10
2712.062947
 20
1354.274887
 30
0.0
 40
10.0
  0
LINE
  5
4C6
  8
SIZE
  6
CONTINUOUS
 62
    30
 10
2712.062947
 20
1354.274887
 30
0.0
 11
2735.062947
 21
1354.274887
 31
0.0
  0
LINE
  5
4C7
  8
SIZE
  6
CONTINUOUS
 62
    30
 10
2692.062947
 20
1354.274887
 30
0.0
 11
2672.062947
 21
1354.274887
 31
0.0
  0
POINT
  5
4C8
  8
DEFPOINTS
  6
CONTINUOUS
 62
     7
 10
2735.062947
 20
1484.648291
 30
0.0
  0
LINE
  5
4C9
  8
SIZE
  6
CONTINUOUS
 62
    30
 10
2725.062947
 20
1484.648291
 30
0.0
 11
2715.062947
 21
1484.648291
 31
0.0
  0
LINE
  5
4CA
  8
SIZE
  6
CONTINUOUS
 62
    30
 10
2755.062947
 20
1354.274887
 30
0.0
 11
2883.92009
 21
1354.274887
 31
0.0
  0
TEXT
  5
4CB
  8
SIZE
  6
CONTINUOUS
 62
    30
 10
2793.062946
 20
1372.274887
 30
0.0
 40
50.0
  1
23
 41
0.9
 72
     1
 11
2829.491518
 21
1372.274887
 31
0.0
  0
TEXT
  5
4CC
  8
NOTE
  6
CONTINUOUS
 62
     4
 10
3088.053215
 20
1090.374624
 30
0.0
 40
60.0
  1
外気取入口
 50
0.000003
 41
0.7
  7
STANDARD1
  0
ENDBLK
  5
4CE
  8
0
 62
     7
  0
ENDSEC
  0
SECTION
  2
ENTITIES
  0
TEXT
  5
4D0
  8
SIZE
  6
CONTINUOUS
 62
    30
 10
1463.349321
 20
-311.366685
 30
0.0
 40
55.0
  1
50-60
 50
90.0
 41
0.9
 72
     1
 11
1463.349321
 21
-193.509542
 31
0.0
  0
POLYLINE
  5
4D1
  8
SIZE
  6
CONTINUOUS
 62
    30
 66
     1
 10
0.0
 20
0.0
 30
0.0
  0
VERTEX
  5
4D2
  8
SIZE
  6
CONTINUOUS
 62
    30
 10
1471.061015
 20
-48.551087
 30
0.0
 42
0.186174
  0
VERTEX
  5
4D3
  8
SIZE
  6
CONTINUOUS
 62
    30
 10
1462.211166
 20
-27.601599
 30
0.0
 42
0.082105
  0
VERTEX
  5
4D4
  8
SIZE
  6
CONTINUOUS
 62
    30
 10
1446.508664
 20
-15.427038
 30
0.0
 42
0.058826
  0
VERTEX
  5
4D5
  8
SIZE
  6
CONTINUOUS
 62
    30
 10
1424.722606
 20
-6.65211
 30
0.0
 42
0.067494
  0
VERTEX
  5
4D6
  8
SIZE
  6
CONTINUOUS
 62
    30
 10
1387.234046
 20
-1.706607
 30
0.0
 42
0.067494
  0
VERTEX
  5
4D7
  8
SIZE
  6
CONTINUOUS
 62
    30
 10
1349.745486
 20
-6.65211
 30
0.0
 42
0.058826
  0
VERTEX
  5
4D8
  8
SIZE
  6
CONTINUOUS
 62
    30
 10
1327.959428
 20
-15.427038
 30
0.0
 42
0.082105
  0
VERTEX
  5
4D9
  8
SIZE
  6
CONTINUOUS
 62
    30
 10
1312.256926
 20
-27.601599
 30
0.0
 42
0.186174
  0
VERTEX
  5
4DA
  8
SIZE
  6
CONTINUOUS
 62
    30
 10
1303.407078
 20
-48.551087
 30
0.0
 42
0.186174
  0
SEQEND
  5
4DB
  8
SIZE
  6
CONTINUOUS
 62
    30
  0
POLYLINE
  5
4DC
  8
SIZE
  6
CONTINUOUS
 62
    30
 66
     1
 10
0.0
 20
0.0
 30
0.0
  0
VERTEX
  5
4DD
  8
SIZE
  6
CONTINUOUS
 62
    30
 10
1303.407078
 20
-367.941788
 30
0.0
 42
0.186174
  0
VERTEX
  5
4DE
  8
SIZE
  6
CONTINUOUS
 62
    30
 10
1312.256926
 20
-388.891276
 30
0.0
 42
0.082105
  0
VERTEX
  5
4DF
  8
SIZE
  6
CONTINUOUS
 62
    30
 10
1327.959428
 20
-401.065837
 30
0.0
 42
0.058826
  0
VERTEX
  5
4E0
  8
SIZE
  6
CONTINUOUS
 62
    30
 10
1349.745486
 20
-409.840764
 30
0.0
 42
0.067494
  0
VERTEX
  5
4E1
  8
SIZE
  6
CONTINUOUS
 62
    30
 10
1387.234046
 20
-414.786268
 30
0.0
 42
0.067494
  0
VERTEX
  5
4E2
  8
SIZE
  6
CONTINUOUS
 62
    30
 10
1424.722606
 20
-409.840764
 30
0.0
 42
0.058826
  0
VERTEX
  5
4E3
  8
SIZE
  6
CONTINUOUS
 62
    30
 10
1446.508664
 20
-401.065837
 30
0.0
 42
0.082105
  0
VERTEX
  5
4E4
  8
SIZE
  6
CONTINUOUS
 62
    30
 10
1462.211166
 20
-388.891276
 30
0.0
 42
0.186174
  0
VERTEX
  5
4E5
  8
SIZE
  6
CONTINUOUS
 62
    30
 10
1471.061015
 20
-367.941788
 30
0.0
 42
0.186174
  0
VERTEX
  5
4E6
  8
SIZE
  6
CONTINUOUS
 62
    30
 10
1471.061015
 20
-367.941788
 30
0.0
 42
0.186174
  0
SEQEND
  5
4E7
  8
SIZE
  6
CONTINUOUS
 62
    30
  0
LINE
  5
4E8
  8
NOTE
  6
CONTINUOUS
 62
     4
 10
1108.386688
 20
587.268529
 30
0.0
 11
1743.163831
 21
587.268529
 31
0.0
  0
TEXT
  5
4E9
  8
NOTE
  6
CONTINUOUS
 62
     4
 10
1132.319054
 20
604.90795
 30
0.0
 40
60.0
  1
%%C150（ノックアウト穴）
 50
0.000003
 41
0.7
  7
STANDARD1
  0
LINE
  5
4EA
  8
DETAIL
  6
CONTINUOUS
 62
     5
 10
795.0
 20
0.0
 30
0.0
 11
-795.0
 21
0.0
 31
0.0
  0
LINE
  5
4EB
  8
OUTLINE
  6
CONTINUOUS
 62
     3
 10
739.0885
 20
47.0
 30
0.0
 11
-739.0885
 21
47.0
 31
0.0
  0
LINE
  5
4EC
  8
OUTLINE
  6
CONTINUOUS
 62
     3
 10
763.816783
 20
-8.0
 30
0.0
 11
-763.816783
 21
-8.0
 31
0.0
  0
LINE
  5
4ED
  8
OUTLINE
  6
CONTINUOUS
 62
     3
 10
-755.0
 20
140.0
 30
0.0
 11
755.0
 21
140.0
 31
0.0
  0
LINE
  5
4EE
  8
OUTLINE
  6
CONTINUOUS
 62
     3
 10
-755.0
 20
473.0
 30
0.0
 11
755.0
 21
473.0
 31
0.0
  0
LINE
  5
4EF
  8
NOTE
  6
CONTINUOUS
 62
     4
 10
70.850902
 20
-146.074418
 30
0.0
 11
-546.030243
 21
-146.074418
 31
0.0
  0
TEXT
  5
4F0
  8
NOTE
  6
CONTINUOUS
 62
     4
 10
-507.09279
 20
-131.278751
 30
0.0
 40
60.0
  1
%%C200 吹出円形フランジ
 50
0.000003
 41
0.7
  7
STANDARD1
  0
LINE
  5
4F1
  8
SIZE
  6
CONTINUOUS
 62
    30
 10
735.0
 20
827.981979
 30
0.0
 11
-735.0
 21
827.981979
 31
0.0
  0
TEXT
  5
4F2
  8
SIZE
  6
CONTINUOUS
 62
    30
 10
-352.857143
 20
740.411052
 30
0.0
 40
50.0
  1
320
 41
0.9
 72
     1
 11
-295.0
 21
740.411052
 31
0.0
  0
LINE
  5
4F3
  8
SIZE
  6
CONTINUOUS
 62
    30
 10
-155.0
 20
722.411052
 30
0.0
 11
-435.0
 21
722.411052
 31
0.0
  0
LINE
  5
4F4
  8
SIZE
  6
CONTINUOUS
 62
    30
 10
-751.0
 20
1069.862027
 30
0.0
 11
751.0
 21
1069.862027
 31
0.0
  0
LINE
  5
4F5
  8
SIZE
  6
CONTINUOUS
 62
    30
 10
728.0
 20
939.488623
 30
0.0
 11
-728.0
 21
939.488623
 31
0.0
  0
LINE
  5
4F6
  8
SIZE
  6
CONTINUOUS
 62
    30
 10
755.0
 20
-239.598057
 30
0.0
 11
-755.0
 21
-239.598057
 31
0.0
  0
LINE
  5
4F7
  8
SIZE
  6
CONTINUOUS
 62
    30
 10
-775.0
 20
-337.28945
 30
0.0
 11
775.0
 21
-337.28945
 31
0.0
  0
LINE
  5
4F8
  8
DETAIL
  6
CONTINUOUS
 62
     5
 10
-755.0
 20
473.0
 30
0.0
 11
755.0
 21
473.0
 31
0.0
  0
LINE
  5
4F9
  8
DETAIL
  6
CONTINUOUS
 62
     5
 10
-736.997844
 20
155.001796
 30
0.0
 11
736.997844
 21
155.001796
 31
0.0
  0
LINE
  5
4FA
  8
DETAIL
  6
CONTINUOUS
 62
     5
 10
-755.0
 20
140.0
 30
0.0
 11
755.0
 21
140.0
 31
0.0
  0
LINE
  5
4FB
  8
DETAIL
  6
CONTINUOUS
 62
     5
 10
713.024909
 20
228.987066
 30
0.0
 11
-712.99497
 21
228.987066
 31
0.0
  0
LINE
  5
4FC
  8
DETAIL
  6
CONTINUOUS
 62
     5
 10
749.999401
 20
167.403281
 30
0.0
 11
-749.999401
 21
167.403281
 31
0.0
  0
LINE
  5
4FD
  8
DETAIL
  6
CONTINUOUS
 62
     5
 10
713.024909
 20
445.012934
 30
0.0
 11
-712.99497
 21
445.012934
 31
0.0
  0
LINE
  5
4FE
  8
DETAIL
  6
CONTINUOUS
 62
     5
 10
763.816783
 20
-8.0
 30
0.0
 11
-763.816783
 21
-8.0
 31
0.0
  0
LINE
  5
4FF
  8
DETAIL
  6
CONTINUOUS
 62
     5
 10
739.0885
 20
47.0
 30
0.0
 11
-739.0885
 21
47.0
 31
0.0
  0
POLYLINE
  5
500
  8
NOTE
  6
CONTINUOUS
 62
     4
 66
     1
 10
0.0
 20
0.0
 30
0.0
  0
VERTEX
  5
501
  8
NOTE
  6
CONTINUOUS
 62
     4
 10
-455.0
 20
337.0
 30
0.0
  0
VERTEX
  5
502
  8
NOTE
  6
CONTINUOUS
 62
     4
 10
-546.030243
 20
-146.074418
 30
0.0
  0
SEQEND
  5
503
  8
NOTE
  6
CONTINUOUS
 62
     4
  0
LINE
  5
504
  8
OUTLINE
  6
CONTINUOUS
 62
     3
 10
-795.0
 20
-4.006988
 30
0.0
 11
-795.0
 21
0.0
 31
0.0
  0
LINE
  5
505
  8
SIZE
  6
CONTINUOUS
 62
    30
 10
-755.0
 20
122.0
 30
0.0
 11
-755.0
 21
-188.661153
 31
0.0
  0
LINE
  5
506
  8
DETAIL
  6
CONTINUOUS
 62
     5
 10
-795.0
 20
-4.006988
 30
0.0
 11
-795.0
 21
0.0
 31
0.0
  0
ARC
  5
507
  8
OUTLINE
  6
CONTINUOUS
 62
     3
 10
-764.296323
 20
112.013413
 30
0.0
 40
120.014371
 50
255.17703
 51
270.228937
  0
CIRCLE
  5
508
  8
SIZE
  6
CONTINUOUS
 62
    30
 10
-775.0
 20
-158.661153
 30
0.0
 40
10.0
  0
CIRCLE
  5
509
  8
SIZE
  6
CONTINUOUS
 62
    30
 10
-775.0
 20
-239.598057
 30
0.0
 40
10.0
  0
LINE
  5
50A
  8
SIZE
  6
CONTINUOUS
 62
    30
 10
-785.0
 20
-337.28945
 30
0.0
 11
-775.0
 21
-337.28945
 31
0.0
  0
CIRCLE
  5
50B
  8
SIZE
  6
CONTINUOUS
 62
    30
 10
-775.0
 20
-239.598057
 30
0.0
 40
10.0
  0
LINE
  5
50C
  8
SIZE
  6
CONTINUOUS
 62
    30
 10
-775.0
 20
-239.598057
 30
0.0
 11
-795.0
 21
-239.598057
 31
0.0
  0
ARC
  5
50D
  8
DETAIL
  6
CONTINUOUS
 62
     5
 10
-764.296323
 20
112.013413
 30
0.0
 40
120.014371
 50
255.17703
 51
270.228937
  0
LINE
  5
50E
  8
SIZE
  6
CONTINUOUS
 62
    30
 10
-795.0
 20
-22.006988
 30
0.0
 11
-795.0
 21
-367.28945
 31
0.0
  0
CIRCLE
  5
50F
  8
SIZE
  6
CONTINUOUS
 62
    30
 10
-795.0
 20
-337.28945
 30
0.0
 40
10.0
  0
LINE
  5
510
  8
SIZE
  6
CONTINUOUS
 62
    30
 10
-795.0
 20
-22.006988
 30
0.0
 11
-795.0
 21
-269.598057
 31
0.0
  0
LINE
  5
511
  8
SIZE
  6
CONTINUOUS
 62
    30
 10
-795.0
 20
-158.661153
 30
0.0
 11
-923.857143
 21
-158.661153
 31
0.0
  0
TEXT
  5
512
  8
SIZE
  6
CONTINUOUS
 62
    30
 10
-925.857142
 20
-221.598057
 30
0.0
 40
50.0
  1
20
 41
0.9
 72
     1
 11
-889.428571
 21
-221.598057
 31
0.0
  0
LINE
  5
513
  8
SIZE
  6
CONTINUOUS
 62
    30
 10
-815.0
 20
-239.598057
 30
0.0
 11
-943.857143
 21
-239.598057
 31
0.0
  0
LINE
  5
514
  8
SIZE
  6
CONTINUOUS
 62
    30
 10
-785.0
 20
-158.661153
 30
0.0
 11
-795.0
 21
-158.661153
 31
0.0
  0
POINT
  5
515
  8
DEFPOINTS
  6
CONTINUOUS
 62
     7
 10
-795.0
 20
-239.598057
 30
0.0
  0
LINE
  5
516
  8
SIZE
  6
CONTINUOUS
 62
    30
 10
-805.0
 20
-239.598057
 30
0.0
 11
-815.0
 21
-239.598057
 31
0.0
  0
CIRCLE
  5
517
  8
SIZE
  6
CONTINUOUS
 62
    30
 10
-795.0
 20
-239.598057
 30
0.0
 40
10.0
  0
TEXT
  5
518
  8
SIZE
  6
CONTINUOUS
 62
    30
 10
-905.857142
 20
-140.661153
 30
0.0
 40
50.0
  1
20
 41
0.9
 72
     1
 11
-869.428571
 21
-140.661153
 31
0.0
  0
POINT
  5
519
  8
DEFPOINTS
  6
CONTINUOUS
 62
     7
 10
-795.0
 20
-4.006988
 30
0.0
  0
POINT
  5
51A
  8
DEFPOINTS
  6
CONTINUOUS
 62
     7
 10
-795.0
 20
-4.006988
 30
0.0
  0
CIRCLE
  5
51B
  8
SIZE
  6
CONTINUOUS
 62
    30
 10
-755.0
 20
-158.661153
 30
0.0
 40
10.0
  0
LINE
  5
51C
  8
SIZE
  6
CONTINUOUS
 62
    30
 10
-775.0
 20
-17.0
 30
0.0
 11
-775.0
 21
-188.661153
 31
0.0
  0
LINE
  5
51D
  8
SIZE
  6
CONTINUOUS
 62
    30
 10
-775.0
 20
-17.0
 30
0.0
 11
-775.0
 21
-269.598057
 31
0.0
  0
LINE
  5
51E
  8
SIZE
  6
CONTINUOUS
 62
    30
 10
-775.0
 20
-17.0
 30
0.0
 11
-775.0
 21
-269.598057
 31
0.0
  0
POINT
  5
51F
  8
DEFPOINTS
  6
CONTINUOUS
 62
     7
 10
-775.0
 20
-158.661153
 30
0.0
  0
LINE
  5
520
  8
SIZE
  6
CONTINUOUS
 62
    30
 10
-745.0
 20
-158.661153
 30
0.0
 11
-735.0
 21
-158.661153
 31
0.0
  0
LINE
  5
521
  8
SIZE
  6
CONTINUOUS
 62
    30
 10
-755.0
 20
-158.661153
 30
0.0
 11
-775.0
 21
-158.661153
 31
0.0
  0
LINE
  5
522
  8
SIZE
  6
CONTINUOUS
 62
    30
 10
-735.0
 20
-158.661153
 30
0.0
 11
-715.0
 21
-158.661153
 31
0.0
  0
POINT
  5
523
  8
DEFPOINTS
  6
CONTINUOUS
 62
     7
 10
-775.0
 20
-239.598057
 30
0.0
  0
LINE
  5
524
  8
SIZE
  6
CONTINUOUS
 62
    30
 10
-765.0
 20
-239.598057
 30
0.0
 11
-755.0
 21
-239.598057
 31
0.0
  0
LINE
  5
525
  8
SIZE
  6
CONTINUOUS
 62
    30
 10
-765.0
 20
-239.598057
 30
0.0
 11
-755.0
 21
-239.598057
 31
0.0
  0
LINE
  5
526
  8
SIZE
  6
CONTINUOUS
 62
    30
 10
-755.0
 20
-239.598057
 30
0.0
 11
-735.0
 21
-239.598057
 31
0.0
  0
LINE
  5
527
  8
SIZE
  6
CONTINUOUS
 62
    30
 10
-773.0
 20
473.0
 30
0.0
 11
-1470.058165
 21
473.0
 31
0.0
  0
LINE
  5
528
  8
SIZE
  6
CONTINUOUS
 62
    30
 10
-778.5
 20
168.0
 30
0.0
 11
-1470.058165
 21
168.0
 31
0.0
  0
TEXT
  5
529
  8
NOTE
  6
CONTINUOUS
 62
     4
 10
-1298.782522
 20
79.922254
 30
0.0
 40
60.0
  1
D2（自然排水口）
 50
0.000003
 41
0.7
  7
STANDARD1
  0
LINE
  5
52A
  8
NOTE
  6
CONTINUOUS
 62
     4
 10
-880.004716
 20
64.095724
 30
0.0
 11
-1320.457794
 21
64.095724
 31
0.0
  0
TEXT
  5
52B
  8
NOTE
  6
CONTINUOUS
 62
     4
 10
-1455.948297
 20
541.52093
 30
0.0
 40
60.0
  1
RG %%C15.88
 50
0.000003
 41
0.7
  7
STANDARD1
  0
LINE
  5
52C
  8
NOTE
  6
CONTINUOUS
 62
     4
 10
-1095.674455
 20
530.751907
 30
0.0
 11
-1469.755318
 21
530.751907
 31
0.0
  0
TEXT
  5
52D
  8
NOTE
  6
CONTINUOUS
 62
     4
 10
-1427.98242
 20
661.414326
 30
0.0
 40
60.0
  1
RL %%C9.52
 50
0.000003
 41
0.7
  7
STANDARD1
  0
LINE
  5
52E
  8
NOTE
  6
CONTINUOUS
 62
     4
 10
-1098.850054
 20
643.774918
 30
0.0
 11
-1436.961104
 21
643.774918
 31
0.0
  0
TEXT
  5
52F
  8
NOTE
  6
CONTINUOUS
 62
     4
 10
-1424.12646
 20
799.282381
 30
0.0
 40
60.0
  1
D1 VP-25
 50
0.000003
 41
0.7
  7
STANDARD1
  0
LINE
  5
530
  8
NOTE
  6
CONTINUOUS
 62
     4
 10
-1103.147894
 20
783.45585
 30
0.0
 11
-1445.801732
 21
783.45585
 31
0.0
  0
LINE
  5
531
  8
SIZE
  6
CONTINUOUS
 62
    30
 10
-846.661335
 20
239.0
 30
0.0
 11
-1381.806705
 21
239.0
 31
0.0
  0
LINE
  5
532
  8
SIZE
  6
CONTINUOUS
 62
    30
 10
-833.002089
 20
267.0
 30
0.0
 11
-1381.806705
 21
267.0
 31
0.0
  0
LINE
  5
533
  8
SIZE
  6
CONTINUOUS
 62
    30
 10
-833.002089
 20
267.0
 30
0.0
 11
-1381.806705
 21
267.0
 31
0.0
  0
LINE
  5
534
  8
SIZE
  6
CONTINUOUS
 62
    30
 10
-773.0
 20
473.0
 30
0.0
 11
-1381.806705
 21
473.0
 31
0.0
  0
LINE
  5
535
  8
SIZE
  6
CONTINUOUS
 62
    30
 10
-826.668335
 20
325.0
 30
0.0
 11
-1279.325764
 21
325.0
 31
0.0
  0
LINE
  5
536
  8
SIZE
  6
CONTINUOUS
 62
    30
 10
-773.0
 20
473.0
 30
0.0
 11
-1279.325764
 21
473.0
 31
0.0
  0
TEXT
  5
537
  8
ETC
  6
CONTINUOUS
 62
    61
 10
-1964.062941
 20
1150.311726
 30
0.0
 40
65.0
  1
MPD-RP112_160FA3_2
 50
0.000003
 41
0.85
  7
STANDARD1
  0
TEXT
  5
538
  8
SIZE
  6
CONTINUOUS
 62
    30
 10
-1458.058165
 20
262.642857
 30
0.0
 40
50.0
  1
305
 50
90.0
 41
0.9
 72
     1
 11
-1458.058165
 21
320.5
 31
0.0
  0
LINE
  5
539
  8
SIZE
  6
CONTINUOUS
 62
    30
 10
-1440.058165
 20
188.0
 30
0.0
 11
-1440.058165
 21
453.0
 31
0.0
  0
LINE
  5
53A
  8
SIZE
  6
CONTINUOUS
 62
    30
 10
-1351.806705
 20
287.0
 30
0.0
 11
-1351.806705
 21
307.0
 31
0.0
  0
LINE
  5
53B
  8
SIZE
  6
CONTINUOUS
 62
    30
 10
-1351.806705
 20
453.0
 30
0.0
 11
-1351.806705
 21
287.0
 31
0.0
  0
CIRCLE
  5
53C
  8
SIZE
  6
CONTINUOUS
 62
    30
 10
-1440.058165
 20
168.0
 30
0.0
 40
10.0
  0
LINE
  5
53D
  8
SIZE
  6
CONTINUOUS
 62
    30
 10
-1351.806705
 20
219.0
 30
0.0
 11
-1351.806705
 21
32.764079
 31
0.0
  0
TEXT
  5
53E
  8
SIZE
  6
CONTINUOUS
 62
    30
 10
-1369.806705
 20
50.76408
 30
0.0
 40
50.0
  1
28
 50
90.0
 41
0.9
 72
     1
 11
-1369.806705
 21
87.192651
 31
0.0
  0
LINE
  5
53F
  8
SIZE
  6
CONTINUOUS
 62
    30
 10
-1440.058165
 20
178.0
 30
0.0
 11
-1440.058165
 21
188.0
 31
0.0
  0
POINT
  5
540
  8
DEFPOINTS
  6
CONTINUOUS
 62
     7
 10
-1351.806705
 20
239.0
 30
0.0
  0
LINE
  5
541
  8
SIZE
  6
CONTINUOUS
 62
    30
 10
-1351.806705
 20
229.0
 30
0.0
 11
-1351.806705
 21
219.0
 31
0.0
  0
CIRCLE
  5
542
  8
SIZE
  6
CONTINUOUS
 62
    30
 10
-1351.806705
 20
239.0
 30
0.0
 40
10.0
  0
LINE
  5
543
  8
SIZE
  6
CONTINUOUS
 62
    30
 10
-1351.806705
 20
277.0
 30
0.0
 11
-1351.806705
 21
287.0
 31
0.0
  0
CIRCLE
  5
544
  8
SIZE
  6
CONTINUOUS
 62
    30
 10
-1351.806705
 20
267.0
 30
0.0
 40
10.0
  0
LINE
  5
545
  8
SIZE
  6
CONTINUOUS
 62
    30
 10
-1351.806705
 20
267.0
 30
0.0
 11
-1351.806705
 21
239.0
 31
0.0
  0
POINT
  5
546
  8
DEFPOINTS
  6
CONTINUOUS
 62
     7
 10
-1351.806705
 20
267.0
 30
0.0
  0
LINE
  5
547
  8
SIZE
  6
CONTINUOUS
 62
    30
 10
-1351.806705
 20
277.0
 30
0.0
 11
-1351.806705
 21
287.0
 31
0.0
  0
CIRCLE
  5
548
  8
SIZE
  6
CONTINUOUS
 62
    30
 10
-1351.806705
 20
267.0
 30
0.0
 40
10.0
  0
CIRCLE
  5
549
  8
SIZE
  6
CONTINUOUS
 62
    30
 10
-1440.058165
 20
473.0
 30
0.0
 40
10.0
  0
LINE
  5
54A
  8
SIZE
  6
CONTINUOUS
 62
    30
 10
-1440.058165
 20
463.0
 30
0.0
 11
-1440.058165
 21
453.0
 31
0.0
  0
LINE
  5
54B
  8
SIZE
  6
CONTINUOUS
 62
    30
 10
-1351.806705
 20
463.0
 30
0.0
 11
-1351.806705
 21
453.0
 31
0.0
  0
LINE
  5
54C
  8
SIZE
  6
CONTINUOUS
 62
    30
 10
-1249.325764
 20
463.0
 30
0.0
 11
-1249.325764
 21
453.0
 31
0.0
  0
TEXT
  5
54D
  8
SIZE
  6
CONTINUOUS
 62
    30
 10
-1369.806705
 20
313.214286
 30
0.0
 40
50.0
  1
206
 50
90.0
 41
0.9
 72
     1
 11
-1369.806705
 21
370.0
 31
0.0
  0
POINT
  5
54E
  8
DEFPOINTS
  6
CONTINUOUS
 62
     7
 10
-1249.325764
 20
325.0
 30
0.0
  0
TEXT
  5
54F
  8
SIZE
  6
CONTINUOUS
 62
    30
 10
-1267.325764
 20
345.428571
 30
0.0
 40
50.0
  1
148
 50
90.0
 41
0.9
 72
     1
 11
-1267.325764
 21
399.0
 31
0.0
  0
LINE
  5
550
  8
SIZE
  6
CONTINUOUS
 62
    30
 10
-1249.325764
 20
335.0
 30
0.0
 11
-1249.325764
 21
345.0
 31
0.0
  0
CIRCLE
  5
551
  8
SIZE
  6
CONTINUOUS
 62
    30
 10
-1249.325764
 20
325.0
 30
0.0
 40
10.0
  0
LINE
  5
552
  8
SIZE
  6
CONTINUOUS
 62
    30
 10
-1249.325764
 20
453.0
 30
0.0
 11
-1249.325764
 21
345.0
 31
0.0
  0
POINT
  5
553
  8
DEFPOINTS
  6
CONTINUOUS
 62
     7
 10
-1440.058165
 20
473.0
 30
0.0
  0
CIRCLE
  5
554
  8
SIZE
  6
CONTINUOUS
 62
    30
 10
-1351.806705
 20
473.0
 30
0.0
 40
10.0
  0
CIRCLE
  5
555
  8
SIZE
  6
CONTINUOUS
 62
    30
 10
-1249.325764
 20
473.0
 30
0.0
 40
10.0
  0
POLYLINE
  5
556
  8
NOTE
  6
CONTINUOUS
 62
     4
 66
     1
 10
0.0
 20
0.0
 30
0.0
  0
VERTEX
  5
557
  8
NOTE
  6
CONTINUOUS
 62
     4
 10
-794.0
 20
267.0
 30
0.0
  0
VERTEX
  5
558
  8
NOTE
  6
CONTINUOUS
 62
     4
 10
-1098.850054
 20
643.774918
 30
0.0
  0
SEQEND
  5
559
  8
NOTE
  6
CONTINUOUS
 62
     4
  0
POLYLINE
  5
55A
  8
NOTE
  6
CONTINUOUS
 62
     4
 66
     1
 10
0.0
 20
0.0
 30
0.0
  0
VERTEX
  5
55B
  8
NOTE
  6
CONTINUOUS
 62
     4
 10
-789.0
 20
325.0
 30
0.0
  0
VERTEX
  5
55C
  8
NOTE
  6
CONTINUOUS
 62
     4
 10
-1103.147894
 20
783.45585
 30
0.0
  0
SEQEND
  5
55D
  8
NOTE
  6
CONTINUOUS
 62
     4
  0
LINE
  5
55E
  8
SIZE
  6
CONTINUOUS
 62
    30
 10
-755.0
 20
491.0
 30
0.0
 11
-755.0
 21
765.936636
 31
0.0
  0
LINE
  5
55F
  8
SIZE
  6
CONTINUOUS
 62
    30
 10
-802.0
 20
264.94
 30
0.0
 11
-802.0
 21
765.936636
 31
0.0
  0
LINE
  5
560
  8
SIZE
  6
CONTINUOUS
 62
    30
 10
-755.0
 20
491.0
 30
0.0
 11
-755.0
 21
676.966096
 31
0.0
  0
LINE
  5
561
  8
SIZE
  6
CONTINUOUS
 62
    30
 10
-794.0
 20
289.76
 30
0.0
 11
-794.0
 21
676.966096
 31
0.0
  0
TEXT
  5
562
  8
SIZE
  6
CONTINUOUS
 62
    30
 10
-922.0
 20
577.505166
 30
0.0
 40
50.0
  1
34
 41
0.9
 72
     1
 11
-884.5
 21
577.505166
 31
0.0
  0
LINE
  5
563
  8
SIZE
  6
CONTINUOUS
 62
    30
 10
-771.0
 20
481.699485
 30
0.0
 11
-771.0
 21
857.981979
 31
0.0
  0
LINE
  5
564
  8
SIZE
  6
CONTINUOUS
 62
    30
 10
-755.0
 20
491.0
 30
0.0
 11
-755.0
 21
857.981979
 31
0.0
  0
LINE
  5
565
  8
SIZE
  6
CONTINUOUS
 62
    30
 10
-755.0
 20
491.0
 30
0.0
 11
-755.0
 21
857.981979
 31
0.0
  0
LINE
  5
566
  8
SIZE
  6
CONTINUOUS
 62
    30
 10
-455.0
 20
475.014371
 30
0.0
 11
-455.0
 21
752.411052
 31
0.0
  0
LINE
  5
567
  8
SIZE
  6
CONTINUOUS
 62
    30
 10
-771.0
 20
491.699485
 30
0.0
 11
-771.0
 21
1099.862027
 31
0.0
  0
LINE
  5
568
  8
SIZE
  6
CONTINUOUS
 62
    30
 10
-771.0
 20
486.699485
 30
0.0
 11
-771.0
 21
969.488623
 31
0.0
  0
LINE
  5
569
  8
SIZE
  6
CONTINUOUS
 62
    30
 10
-748.0
 20
516.002395
 30
0.0
 11
-748.0
 21
969.488623
 31
0.0
  0
LINE
  5
56A
  8
SIZE
  6
CONTINUOUS
 62
    30
 10
-748.0
 20
511.002395
 30
0.0
 11
-748.0
 21
969.488623
 31
0.0
  0
LINE
  5
56B
  8
NOTE
  6
CONTINUOUS
 62
     4
 10
-783.209123
 20
155.005291
 30
0.0
 11
-755.0
 21
168.0
 31
0.0
  0
POLYLINE
  5
56C
  8
NOTE
  6
CONTINUOUS
 62
     4
 66
     1
 10
0.0
 20
0.0
 30
0.0
  0
VERTEX
  5
56D
  8
NOTE
  6
CONTINUOUS
 62
     4
 10
-755.0
 20
168.0
 30
0.0
  0
VERTEX
  5
56E
  8
NOTE
  6
CONTINUOUS
 62
     4
 10
-880.004716
 20
64.095724
 30
0.0
  0
SEQEND
  5
56F
  8
NOTE
  6
CONTINUOUS
 62
     4
  0
LINE
  5
570
  8
OUTLINE
  6
CONTINUOUS
 62
     3
 10
-739.0885
 20
0.0
 30
0.0
 11
-795.0
 21
0.0
 31
0.0
  0
LINE
  5
571
  8
SIZE
  6
CONTINUOUS
 62
    30
 10
-755.0
 20
559.505166
 30
0.0
 11
-789.0
 21
559.505166
 31
0.0
  0
LINE
  5
572
  8
NOTE
  6
CONTINUOUS
 62
     4
 10
-775.0
 20
1.0
 30
0.0
 11
-876.307449
 21
1.0
 31
0.0
  0
LINE
  5
573
  8
NOTE
  6
CONTINUOUS
 62
     4
 10
-775.0
 20
21.0
 30
0.0
 11
-876.307449
 21
21.0
 31
0.0
  0
LINE
  5
574
  8
DETAIL
  6
CONTINUOUS
 62
     5
 10
-802.0
 20
231.06
 30
0.0
 11
-755.0
 21
231.06
 31
0.0
  0
LINE
  5
575
  8
DETAIL
  6
CONTINUOUS
 62
     5
 10
-755.0
 20
246.94
 30
0.0
 11
-802.0
 21
246.94
 31
0.0
  0
LINE
  5
576
  8
DETAIL
  6
CONTINUOUS
 62
     5
 10
-794.0
 20
262.24
 30
0.0
 11
-755.0
 21
262.24
 31
0.0
  0
LINE
  5
577
  8
DETAIL
  6
CONTINUOUS
 62
     5
 10
-755.0
 20
271.76
 30
0.0
 11
-794.0
 21
271.76
 31
0.0
  0
LINE
  5
578
  8
DETAIL
  6
CONTINUOUS
 62
     5
 10
-789.0
 20
341.0
 30
0.0
 11
-755.0
 21
341.0
 31
0.0
  0
LINE
  5
579
  8
DETAIL
  6
CONTINUOUS
 62
     5
 10
-789.0
 20
309.0
 30
0.0
 11
-755.0
 21
309.0
 31
0.0
  0
LINE
  5
57A
  8
NOTE
  6
CONTINUOUS
 62
     4
 10
-828.661335
 20
239.0
 30
0.0
 11
-775.338665
 21
239.0
 31
0.0
  0
LINE
  5
57B
  8
NOTE
  6
CONTINUOUS
 62
     4
 10
-815.002089
 20
267.0
 30
0.0
 11
-772.997911
 21
267.0
 31
0.0
  0
LINE
  5
57C
  8
NOTE
  6
CONTINUOUS
 62
     4
 10
-808.668335
 20
325.0
 30
0.0
 11
-769.331665
 21
325.0
 31
0.0
  0
POLYLINE
  5
57D
  8
NOTE
  6
CONTINUOUS
 62
     4
 66
     1
 10
0.0
 20
0.0
 30
0.0
  0
VERTEX
  5
57E
  8
NOTE
  6
CONTINUOUS
 62
     4
 10
-802.0
 20
239.0
 30
0.0
  0
VERTEX
  5
57F
  8
NOTE
  6
CONTINUOUS
 62
     4
 10
-1095.674455
 20
530.751907
 30
0.0
  0
SEQEND
  5
580
  8
NOTE
  6
CONTINUOUS
 62
     4
  0
LINE
  5
581
  8
NOTE
  6
CONTINUOUS
 62
     4
 10
-815.265008
 20
1.0
 30
0.0
 11
-795.265008
 21
21.0
 31
0.0
  0
LINE
  5
582
  8
NOTE
  6
CONTINUOUS
 62
     4
 10
-820.265008
 20
1.0
 30
0.0
 11
-800.265008
 21
21.0
 31
0.0
  0
LINE
  5
583
  8
NOTE
  6
CONTINUOUS
 62
     4
 10
-825.265008
 20
1.0
 30
0.0
 11
-805.265008
 21
21.0
 31
0.0
  0
LINE
  5
584
  8
NOTE
  6
CONTINUOUS
 62
     4
 10
-855.265008
 20
1.0
 30
0.0
 11
-835.265008
 21
21.0
 31
0.0
  0
LINE
  5
585
  8
NOTE
  6
CONTINUOUS
 62
     4
 10
-860.265008
 20
1.0
 30
0.0
 11
-840.265008
 21
21.0
 31
0.0
  0
LINE
  5
586
  8
NOTE
  6
CONTINUOUS
 62
     4
 10
-865.265008
 20
1.0
 30
0.0
 11
-845.265008
 21
21.0
 31
0.0
  0
LINE
  5
587
  8
NOTE
  6
CONTINUOUS
 62
     4
 10
-802.0
 20
219.0
 30
0.0
 11
-802.0
 21
259.0
 31
0.0
  0
LINE
  5
588
  8
NOTE
  6
CONTINUOUS
 62
     4
 10
-794.0
 20
247.0
 30
0.0
 11
-794.0
 21
287.0
 31
0.0
  0
LINE
  5
589
  8
NOTE
  6
CONTINUOUS
 62
     4
 10
-802.0
 20
239.0
 30
0.0
 11
-828.810106
 21
254.679136
 31
0.0
  0
LINE
  5
58A
  8
NOTE
  6
CONTINUOUS
 62
     4
 10
-817.378665
 20
265.983583
 30
0.0
 11
-802.0
 21
239.0
 31
0.0
  0
LINE
  5
58B
  8
NOTE
  6
CONTINUOUS
 62
     4
 10
-794.0
 20
267.0
 30
0.0
 11
-819.28878
 21
285.030383
 31
0.0
  0
LINE
  5
58C
  8
NOTE
  6
CONTINUOUS
 62
     4
 10
-806.885534
 20
295.25916
 30
0.0
 11
-794.0
 21
267.0
 31
0.0
  0
POINT
  5
58D
  8
DEFPOINTS
  6
CONTINUOUS
 62
     7
 10
-802.0
 20
246.94
 30
0.0
  0
POINT
  5
58E
  8
DEFPOINTS
  6
CONTINUOUS
 62
     7
 10
-794.0
 20
271.76
 30
0.0
  0
POINT
  5
58F
  8
DEFPOINTS
  6
CONTINUOUS
 62
     7
 10
-828.661335
 20
239.0
 30
0.0
  0
POINT
  5
590
  8
DEFPOINTS
  6
CONTINUOUS
 62
     7
 10
-815.002089
 20
267.0
 30
0.0
  0
POINT
  5
591
  8
DEFPOINTS
  6
CONTINUOUS
 62
     7
 10
-815.002089
 20
267.0
 30
0.0
  0
LINE
  5
592
  8
DETAIL
  6
CONTINUOUS
 62
     5
 10
-802.0
 20
246.94
 30
0.0
 11
-802.0
 21
231.06
 31
0.0
  0
LINE
  5
593
  8
DETAIL
  6
CONTINUOUS
 62
     5
 10
-794.0
 20
271.76
 30
0.0
 11
-794.0
 21
262.24
 31
0.0
  0
LINE
  5
594
  8
SIZE
  6
CONTINUOUS
 62
    30
 10
-789.0
 20
359.0
 30
0.0
 11
-789.0
 21
589.505166
 31
0.0
  0
LINE
  5
595
  8
NOTE
  6
CONTINUOUS
 62
     4
 10
-789.0
 20
305.0
 30
0.0
 11
-789.0
 21
345.0
 31
0.0
  0
LINE
  5
596
  8
NOTE
  6
CONTINUOUS
 62
     4
 10
-789.0
 20
325.0
 30
0.0
 11
-812.167465
 21
345.685397
 31
0.0
  0
LINE
  5
597
  8
NOTE
  6
CONTINUOUS
 62
     4
 10
-798.720915
 20
354.497812
 30
0.0
 11
-789.0
 21
325.0
 31
0.0
  0
POINT
  5
598
  8
DEFPOINTS
  6
CONTINUOUS
 62
     7
 10
-789.0
 20
341.0
 30
0.0
  0
POINT
  5
599
  8
DEFPOINTS
  6
CONTINUOUS
 62
     7
 10
-808.668335
 20
325.0
 30
0.0
  0
LINE
  5
59A
  8
DETAIL
  6
CONTINUOUS
 62
     5
 10
-789.0
 20
341.0
 30
0.0
 11
-789.0
 21
309.0
 31
0.0
  0
LINE
  5
59B
  8
SIZE
  6
CONTINUOUS
 62
    30
 10
-809.0
 20
559.505166
 30
0.0
 11
-940.0
 21
559.505166
 31
0.0
  0
POINT
  5
59C
  8
DEFPOINTS
  6
CONTINUOUS
 62
     7
 10
-789.0
 20
559.505166
 30
0.0
  0
LINE
  5
59D
  8
SIZE
  6
CONTINUOUS
 62
    30
 10
-799.0
 20
559.505166
 30
0.0
 11
-809.0
 21
559.505166
 31
0.0
  0
CIRCLE
  5
59E
  8
SIZE
  6
CONTINUOUS
 62
    30
 10
-789.0
 20
559.505166
 30
0.0
 40
10.0
  0
LINE
  5
59F
  8
OUTLINE
  6
CONTINUOUS
 62
     3
 10
-755.0
 20
473.0
 30
0.0
 11
-755.0
 21
140.0
 31
0.0
  0
CIRCLE
  5
5A0
  8
DETAIL
  6
CONTINUOUS
 62
     5
 10
-455.0
 20
337.0
 30
0.0
 40
85.5
  0
CIRCLE
  5
5A1
  8
DETAIL
  6
CONTINUOUS
 62
     5
 10
-455.0
 20
337.0
 30
0.0
 40
100.0
  0
LINE
  5
5A2
  8
DETAIL
  6
CONTINUOUS
 62
     5
 10
-755.0
 20
473.0
 30
0.0
 11
-755.0
 21
140.0
 31
0.0
  0
LINE
  5
5A3
  8
NOTE
  6
CONTINUOUS
 62
     4
 10
-455.0
 20
457.014371
 30
0.0
 11
-455.0
 21
216.985629
 31
0.0
  0
LINE
  5
5A4
  8
DETAIL
  6
CONTINUOUS
 62
     5
 10
-722.996168
 20
238.988264
 30
0.0
 11
-722.996168
 21
435.011736
 31
0.0
  0
LINE
  5
5A5
  8
NOTE
  6
CONTINUOUS
 62
     4
 10
-755.0
 20
168.0
 30
0.0
 11
-772.932463
 21
142.641691
 31
0.0
  0
LINE
  5
5A6
  8
DETAIL
  6
CONTINUOUS
 62
     5
 10
-739.998204
 20
152.001437
 30
0.0
 11
-739.998204
 21
140.0
 31
0.0
  0
LINE
  5
5A7
  8
OUTLINE
  6
CONTINUOUS
 62
     3
 10
-739.0885
 20
0.0
 30
0.0
 11
-739.0885
 21
47.0
 31
0.0
  0
POINT
  5
5A8
  8
DEFPOINTS
  6
CONTINUOUS
 62
     7
 10
-775.0
 20
1.0
 30
0.0
  0
POINT
  5
5A9
  8
DEFPOINTS
  6
CONTINUOUS
 62
     7
 10
-755.0
 20
140.0
 30
0.0
  0
POINT
  5
5AA
  8
DEFPOINTS
  6
CONTINUOUS
 62
     7
 10
-775.0
 20
1.0
 30
0.0
  0
POINT
  5
5AB
  8
DEFPOINTS
  6
CONTINUOUS
 62
     7
 10
-775.0
 20
1.0
 30
0.0
  0
LINE
  5
5AC
  8
NOTE
  6
CONTINUOUS
 62
     4
 10
-775.0
 20
1.0
 30
0.0
 11
-775.0
 21
21.0
 31
0.0
  0
LINE
  5
5AD
  8
DETAIL
  6
CONTINUOUS
 62
     5
 10
-739.0885
 20
0.0
 30
0.0
 11
-739.0885
 21
47.0
 31
0.0
  0
POINT
  5
5AE
  8
DEFPOINTS
  6
CONTINUOUS
 62
     7
 10
-760.5
 20
168.0
 30
0.0
  0
LINE
  5
5AF
  8
NOTE
  6
CONTINUOUS
 62
     4
 10
-755.0
 20
173.499992
 30
0.0
 11
-755.0
 21
162.500008
 31
0.0
  0
LINE
  5
5B0
  8
NOTE
  6
CONTINUOUS
 62
     4
 10
-749.5
 20
168.0
 30
0.0
 11
-760.5
 21
168.0
 31
0.0
  0
LINE
  5
5B1
  8
DETAIL
  6
CONTINUOUS
 62
     5
 10
-736.997844
 20
155.001796
 30
0.0
 11
-739.998204
 21
152.001437
 31
0.0
  0
ARC
  5
5B2
  8
DETAIL
  6
CONTINUOUS
 62
     5
 10
-749.999401
 20
172.40388
 30
0.0
 40
5.000599
 50
180.0
 51
270.0
  0
ARC
  5
5B3
  8
DETAIL
  6
CONTINUOUS
 62
     5
 10
-712.99497
 20
238.988264
 30
0.0
 40
10.001198
 50
180.0
 51
270.0
  0
LINE
  5
5B4
  8
NOTE
  6
CONTINUOUS
 62
     4
 10
-334.985629
 20
337.0
 30
0.0
 11
-575.014371
 21
337.0
 31
0.0
  0
LINE
  5
5B5
  8
SIZE
  6
CONTINUOUS
 62
    30
 10
-613.701879
 20
463.0
 30
0.0
 11
-613.701879
 21
453.0
 31
0.0
  0
CIRCLE
  5
5B6
  8
FIX
  6
CONTINUOUS
 62
    11
 10
-748.0
 20
473.0
 30
0.0
 40
18.598564
  0
LINE
  5
5B7
  8
NOTE
  6
CONTINUOUS
 62
     4
 10
-748.0
 20
452.997605
 30
0.0
 11
-748.0
 21
493.002395
 31
0.0
  0
TEXT
  5
5B8
  8
SIZE
  6
CONTINUOUS
 62
    30
 10
-631.701879
 20
314.781408
 30
0.0
 40
55.0
  1
136
 50
90.0
 41
0.9
 72
     1
 11
-631.701879
 21
372.531408
 31
0.0
  0
ARC
  5
5B9
  8
DETAIL
  6
CONTINUOUS
 62
     5
 10
-712.99497
 20
435.011736
 30
0.0
 40
10.001198
 50
90.0
 51
180.0
  0
POINT
  5
5BA
  8
DEFPOINTS
  6
CONTINUOUS
 62
     7
 10
-613.701879
 20
337.0
 30
0.0
  0
POINT
  5
5BB
  8
DEFPOINTS
  6
CONTINUOUS
 62
     7
 10
-575.014371
 20
337.0
 30
0.0
  0
LINE
  5
5BC
  8
SIZE
  6
CONTINUOUS
 62
    30
 10
-613.701879
 20
347.0
 30
0.0
 11
-613.701879
 21
357.0
 31
0.0
  0
CIRCLE
  5
5BD
  8
SIZE
  6
CONTINUOUS
 62
    30
 10
-613.701879
 20
337.0
 30
0.0
 40
10.0
  0
LINE
  5
5BE
  8
SIZE
  6
CONTINUOUS
 62
    30
 10
-613.701879
 20
453.0
 30
0.0
 11
-613.701879
 21
357.0
 31
0.0
  0
LINE
  5
5BF
  8
SIZE
  6
CONTINUOUS
 62
    30
 10
-595.014371
 20
337.0
 30
0.0
 11
-631.701879
 21
337.0
 31
0.0
  0
LINE
  5
5C0
  8
SIZE
  6
CONTINUOUS
 62
    30
 10
-735.0
 20
473.0
 30
0.0
 11
-595.701879
 21
473.0
 31
0.0
  0
POINT
  5
5C1
  8
DEFPOINTS
  6
CONTINUOUS
 62
     7
 10
-755.0
 20
473.0
 30
0.0
  0
POINT
  5
5C2
  8
DEFPOINTS
  6
CONTINUOUS
 62
     7
 10
-755.0
 20
473.0
 30
0.0
  0
POINT
  5
5C3
  8
DEFPOINTS
  6
CONTINUOUS
 62
     7
 10
-755.0
 20
473.0
 30
0.0
  0
POINT
  5
5C4
  8
DEFPOINTS
  6
CONTINUOUS
 62
     7
 10
-755.0
 20
473.0
 30
0.0
  0
LINE
  5
5C5
  8
SIZE
  6
CONTINUOUS
 62
    30
 10
-745.0
 20
559.505166
 30
0.0
 11
-735.0
 21
559.505166
 31
0.0
  0
CIRCLE
  5
5C6
  8
SIZE
  6
CONTINUOUS
 62
    30
 10
-755.0
 20
559.505166
 30
0.0
 40
10.0
  0
LINE
  5
5C7
  8
SIZE
  6
CONTINUOUS
 62
    30
 10
-735.0
 20
559.505166
 30
0.0
 11
-715.0
 21
559.505166
 31
0.0
  0
LINE
  5
5C8
  8
SIZE
  6
CONTINUOUS
 62
    30
 10
-755.0
 20
491.0
 30
0.0
 11
-755.0
 21
589.505166
 31
0.0
  0
POINT
  5
5C9
  8
DEFPOINTS
  6
CONTINUOUS
 62
     7
 10
-755.0
 20
473.0
 30
0.0
  0
POINT
  5
5CA
  8
DEFPOINTS
  6
CONTINUOUS
 62
     7
 10
-755.0
 20
473.0
 30
0.0
  0
POINT
  5
5CB
  8
DEFPOINTS
  6
CONTINUOUS
 62
     7
 10
-755.0
 20
473.0
 30
0.0
  0
POINT
  5
5CC
  8
DEFPOINTS
  6
CONTINUOUS
 62
     7
 10
-771.0
 20
463.699485
 30
0.0
  0
POINT
  5
5CD
  8
DEFPOINTS
  6
CONTINUOUS
 62
     7
 10
-755.0
 20
473.0
 30
0.0
  0
POINT
  5
5CE
  8
DEFPOINTS
  6
CONTINUOUS
 62
     7
 10
-755.0
 20
473.0
 30
0.0
  0
POINT
  5
5CF
  8
DEFPOINTS
  6
CONTINUOUS
 62
     7
 10
-771.0
 20
473.699485
 30
0.0
  0
POINT
  5
5D0
  8
DEFPOINTS
  6
CONTINUOUS
 62
     7
 10
-771.0
 20
468.699485
 30
0.0
  0
POINT
  5
5D1
  8
DEFPOINTS
  6
CONTINUOUS
 62
     7
 10
-748.0
 20
498.002395
 30
0.0
  0
POINT
  5
5D2
  8
DEFPOINTS
  6
CONTINUOUS
 62
     7
 10
-748.0
 20
493.002395
 30
0.0
  0
ARC
  5
5D3
  8
DETAIL
  6
CONTINUOUS
 62
     5
 10
-766.699725
 20
468.699725
 30
0.0
 40
2.0
 50
90.0
 51
180.0
  0
LINE
  5
5D4
  8
NOTE
  6
CONTINUOUS
 62
     4
 10
-768.000958
 20
473.0
 30
0.0
 11
-727.999042
 21
473.0
 31
0.0
  0
LINE
  5
5D5
  8
DETAIL
  6
CONTINUOUS
 62
     5
 10
-755.0
 20
470.699725
 30
0.0
 11
-766.699725
 21
470.699725
 31
0.0
  0
LINE
  5
5D6
  8
DETAIL
  6
CONTINUOUS
 62
     5
 10
-755.0
 20
473.0
 30
0.0
 11
-766.699485
 21
473.0
 31
0.0
  0
LINE
  5
5D7
  8
DETAIL
  6
CONTINUOUS
 62
     5
 10
-768.699725
 20
460.998563
 30
0.0
 11
-771.0
 21
460.998563
 31
0.0
  0
LINE
  5
5D8
  8
DETAIL
  6
CONTINUOUS
 62
     5
 10
-768.699725
 20
468.699725
 30
0.0
 11
-768.699725
 21
460.998563
 31
0.0
  0
LINE
  5
5D9
  8
DETAIL
  6
CONTINUOUS
 62
     5
 10
-771.0
 20
468.699485
 30
0.0
 11
-771.0
 21
460.998563
 31
0.0
  0
ARC
  5
5DA
  8
DETAIL
  6
CONTINUOUS
 62
     5
 10
-766.699485
 20
468.699485
 30
0.0
 40
4.300515
 50
90.0
 51
180.0
  0
CIRCLE
  5
5DB
  8
SIZE
  6
CONTINUOUS
 62
    30
 10
-613.701879
 20
473.0
 30
0.0
 40
10.0
  0
LINE
  5
5DC
  8
NOTE
  6
CONTINUOUS
 62
     4
 10
-455.0
 20
337.0
 30
0.0
 11
-452.65596
 21
306.030296
 31
0.0
  0
LINE
  5
5DD
  8
NOTE
  6
CONTINUOUS
 62
     4
 10
-468.454854
 20
309.00743
 30
0.0
 11
-455.0
 21
337.0
 31
0.0
  0
POINT
  5
5DE
  8
DEFPOINTS
  6
CONTINUOUS
 62
     7
 10
-455.0
 20
457.014371
 30
0.0
  0
LINE
  5
5DF
  8
SIZE
  6
CONTINUOUS
 62
    30
 10
-755.0
 20
735.936636
 30
0.0
 11
-802.0
 21
735.936636
 31
0.0
  0
LINE
  5
5E0
  8
SIZE
  6
CONTINUOUS
 62
    30
 10
-755.0
 20
646.966096
 30
0.0
 11
-794.0
 21
646.966096
 31
0.0
  0
CIRCLE
  5
5E1
  8
SIZE
  6
CONTINUOUS
 62
    30
 10
-771.0
 20
827.981979
 30
0.0
 40
10.0
  0
CIRCLE
  5
5E2
  8
SIZE
  6
CONTINUOUS
 62
    30
 10
-771.0
 20
1069.862027
 30
0.0
 40
10.0
  0
CIRCLE
  5
5E3
  8
SIZE
  6
CONTINUOUS
 62
    30
 10
-771.0
 20
939.488623
 30
0.0
 40
10.0
  0
TEXT
  5
5E4
  8
SIZE
  6
CONTINUOUS
 62
    30
 10
-932.857142
 20
753.936636
 30
0.0
 40
50.0
  1
47
 41
0.9
 72
     1
 11
-896.428571
 21
753.936636
 31
0.0
  0
LINE
  5
5E5
  8
SIZE
  6
CONTINUOUS
 62
    30
 10
-822.0
 20
735.936636
 30
0.0
 11
-950.857143
 21
735.936636
 31
0.0
  0
TEXT
  5
5E6
  8
SIZE
  6
CONTINUOUS
 62
    30
 10
-922.714286
 20
664.966096
 30
0.0
 40
50.0
  1
39
 41
0.9
 72
     1
 11
-887.357143
 21
664.966096
 31
0.0
  0
LINE
  5
5E7
  8
SIZE
  6
CONTINUOUS
 62
    30
 10
-814.0
 20
646.966096
 30
0.0
 11
-940.714286
 21
646.966096
 31
0.0
  0
LINE
  5
5E8
  8
SIZE
  6
CONTINUOUS
 62
    30
 10
-812.0
 20
735.936636
 30
0.0
 11
-822.0
 21
735.936636
 31
0.0
  0
CIRCLE
  5
5E9
  8
SIZE
  6
CONTINUOUS
 62
    30
 10
-802.0
 20
735.936636
 30
0.0
 40
10.0
  0
LINE
  5
5EA
  8
SIZE
  6
CONTINUOUS
 62
    30
 10
-804.0
 20
646.966096
 30
0.0
 11
-814.0
 21
646.966096
 31
0.0
  0
CIRCLE
  5
5EB
  8
SIZE
  6
CONTINUOUS
 62
    30
 10
-794.0
 20
646.966096
 30
0.0
 40
10.0
  0
TEXT
  5
5EC
  8
SIZE
  6
CONTINUOUS
 62
    30
 10
-891.142858
 20
845.981979
 30
0.0
 40
50.0
  1
16
 41
0.9
 72
     1
 11
-860.071429
 21
845.981979
 31
0.0
  0
LINE
  5
5ED
  8
SIZE
  6
CONTINUOUS
 62
    30
 10
-791.0
 20
827.981979
 30
0.0
 11
-909.142857
 21
827.981979
 31
0.0
  0
LINE
  5
5EE
  8
SIZE
  6
CONTINUOUS
 62
    30
 10
-781.0
 20
827.981979
 30
0.0
 11
-791.0
 21
827.981979
 31
0.0
  0
TEXT
  5
5EF
  8
SIZE
  6
CONTINUOUS
 62
    30
 10
-901.857142
 20
957.488623
 30
0.0
 40
50.0
  1
23
 41
0.9
 72
     1
 11
-865.428571
 21
957.488623
 31
0.0
  0
LINE
  5
5F0
  8
SIZE
  6
CONTINUOUS
 62
    30
 10
-791.0
 20
939.488623
 30
0.0
 11
-919.857143
 21
939.488623
 31
0.0
  0
LINE
  5
5F1
  8
SIZE
  6
CONTINUOUS
 62
    30
 10
-781.0
 20
939.488623
 30
0.0
 11
-791.0
 21
939.488623
 31
0.0
  0
POINT
  5
5F2
  8
DEFPOINTS
  6
CONTINUOUS
 62
     7
 10
-755.0
 20
735.936636
 30
0.0
  0
LINE
  5
5F3
  8
SIZE
  6
CONTINUOUS
 62
    30
 10
-745.0
 20
735.936636
 30
0.0
 11
-735.0
 21
735.936636
 31
0.0
  0
CIRCLE
  5
5F4
  8
SIZE
  6
CONTINUOUS
 62
    30
 10
-755.0
 20
735.936636
 30
0.0
 40
10.0
  0
LINE
  5
5F5
  8
SIZE
  6
CONTINUOUS
 62
    30
 10
-735.0
 20
735.936636
 30
0.0
 11
-715.0
 21
735.936636
 31
0.0
  0
POINT
  5
5F6
  8
DEFPOINTS
  6
CONTINUOUS
 62
     7
 10
-755.0
 20
646.966096
 30
0.0
  0
LINE
  5
5F7
  8
SIZE
  6
CONTINUOUS
 62
    30
 10
-745.0
 20
646.966096
 30
0.0
 11
-735.0
 21
646.966096
 31
0.0
  0
CIRCLE
  5
5F8
  8
SIZE
  6
CONTINUOUS
 62
    30
 10
-755.0
 20
646.966096
 30
0.0
 40
10.0
  0
LINE
  5
5F9
  8
SIZE
  6
CONTINUOUS
 62
    30
 10
-735.0
 20
646.966096
 30
0.0
 11
-715.0
 21
646.966096
 31
0.0
  0
POINT
  5
5FA
  8
DEFPOINTS
  6
CONTINUOUS
 62
     7
 10
-771.0
 20
827.981979
 30
0.0
  0
LINE
  5
5FB
  8
SIZE
  6
CONTINUOUS
 62
    30
 10
-745.0
 20
827.981979
 30
0.0
 11
-735.0
 21
827.981979
 31
0.0
  0
CIRCLE
  5
5FC
  8
SIZE
  6
CONTINUOUS
 62
    30
 10
-755.0
 20
827.981979
 30
0.0
 40
10.0
  0
LINE
  5
5FD
  8
SIZE
  6
CONTINUOUS
 62
    30
 10
-755.0
 20
827.981979
 30
0.0
 11
-771.0
 21
827.981979
 31
0.0
  0
LINE
  5
5FE
  8
SIZE
  6
CONTINUOUS
 62
    30
 10
-735.0
 20
827.981979
 30
0.0
 11
-715.0
 21
827.981979
 31
0.0
  0
POINT
  5
5FF
  8
DEFPOINTS
  6
CONTINUOUS
 62
     7
 10
-755.0
 20
827.981979
 30
0.0
  0
LINE
  5
600
  8
SIZE
  6
CONTINUOUS
 62
    30
 10
-745.0
 20
827.981979
 30
0.0
 11
-735.0
 21
827.981979
 31
0.0
  0
CIRCLE
  5
601
  8
SIZE
  6
CONTINUOUS
 62
    30
 10
-755.0
 20
827.981979
 30
0.0
 40
10.0
  0
LINE
  5
602
  8
SIZE
  6
CONTINUOUS
 62
    30
 10
-445.0
 20
722.411052
 30
0.0
 11
-435.0
 21
722.411052
 31
0.0
  0
POINT
  5
603
  8
DEFPOINTS
  6
CONTINUOUS
 62
     7
 10
-455.0
 20
722.411052
 30
0.0
  0
CIRCLE
  5
604
  8
SIZE
  6
CONTINUOUS
 62
    30
 10
-455.0
 20
722.411052
 30
0.0
 40
10.0
  0
POINT
  5
605
  8
DEFPOINTS
  6
CONTINUOUS
 62
     7
 10
-771.0
 20
939.488623
 30
0.0
  0
LINE
  5
606
  8
SIZE
  6
CONTINUOUS
 62
    30
 10
-738.0
 20
939.488623
 30
0.0
 11
-728.0
 21
939.488623
 31
0.0
  0
CIRCLE
  5
607
  8
SIZE
  6
CONTINUOUS
 62
    30
 10
-748.0
 20
939.488623
 30
0.0
 40
10.0
  0
LINE
  5
608
  8
SIZE
  6
CONTINUOUS
 62
    30
 10
-748.0
 20
939.488623
 30
0.0
 11
-771.0
 21
939.488623
 31
0.0
  0
LINE
  5
609
  8
SIZE
  6
CONTINUOUS
 62
    30
 10
-728.0
 20
939.488623
 30
0.0
 11
-708.0
 21
939.488623
 31
0.0
  0
POINT
  5
60A
  8
DEFPOINTS
  6
CONTINUOUS
 62
     7
 10
-748.0
 20
939.488623
 30
0.0
  0
LINE
  5
60B
  8
SIZE
  6
CONTINUOUS
 62
    30
 10
-738.0
 20
939.488623
 30
0.0
 11
-728.0
 21
939.488623
 31
0.0
  0
CIRCLE
  5
60C
  8
SIZE
  6
CONTINUOUS
 62
    30
 10
-748.0
 20
939.488623
 30
0.0
 40
10.0
  0
LINE
  5
60D
  8
SIZE
  6
CONTINUOUS
 62
    30
 10
-761.0
 20
1069.862027
 30
0.0
 11
-751.0
 21
1069.862027
 31
0.0
  0
LINE
  5
60E
  8
BASIS
  6
DASHDOT
 62
     6
 10
0.0
 20
-58.000958
 30
0.0
 11
0.0
 21
530.015928
 31
0.0
  0
CIRCLE
  5
60F
  8
ARRANGE
  6
CONTINUOUS
 62
     1
 10
0.0
 20
0.0
 30
0.0
 40
50.0
  0
LINE
  5
610
  8
OUTLINE
  6
CONTINUOUS
 62
     3
 10
795.0
 20
-4.006988
 30
0.0
 11
795.0
 21
0.0
 31
0.0
  0
CIRCLE
  5
611
  8
SIZE
  6
CONTINUOUS
 62
    30
 10
1269.577746
 20
0.0
 30
0.0
 40
10.0
  0
LINE
  5
612
  8
SIZE
  6
CONTINUOUS
 62
    30
 10
1269.577746
 20
0.0
 30
0.0
 11
1269.577746
 21
-347.428571
 31
0.0
  0
CIRCLE
  5
613
  8
SIZE
  6
CONTINUOUS
 62
    30
 10
962.921587
 20
0.0
 30
0.0
 40
10.0
  0
CIRCLE
  5
614
  8
SIZE
  6
CONTINUOUS
 62
    30
 10
962.921587
 20
-8.0
 30
0.0
 40
10.0
  0
CIRCLE
  5
615
  8
SIZE
  6
CONTINUOUS
 62
    30
 10
962.921587
 20
0.0
 30
0.0
 40
10.0
  0
LINE
  5
616
  8
SIZE
  6
CONTINUOUS
 62
    30
 10
962.921587
 20
0.0
 30
0.0
 11
962.921587
 21
-8.0
 31
0.0
  0
LINE
  5
617
  8
SIZE
  6
CONTINUOUS
 62
    30
 10
755.0
 20
122.0
 30
0.0
 11
755.0
 21
-176.609394
 31
0.0
  0
LINE
  5
618
  8
ARRANGE
  6
CONTINUOUS
 62
     1
 10
-50.03735
 20
-49.522353
 30
0.0
 11
50.03735
 21
49.522353
 31
0.0
  0
LINE
  5
619
  8
ARRANGE
  6
CONTINUOUS
 62
     1
 10
-49.963763
 20
49.596595
 30
0.0
 11
49.963763
 21
-49.596595
 31
0.0
  0
LINE
  5
61A
  8
DETAIL
  6
CONTINUOUS
 62
     5
 10
795.0
 20
-4.006988
 30
0.0
 11
795.0
 21
0.0
 31
0.0
  0
LINE
  5
61B
  8
SIZE
  6
CONTINUOUS
 62
    30
 10
735.0
 20
-146.609394
 30
0.0
 11
402.142857
 21
-146.609394
 31
0.0
  0
TEXT
  5
61C
  8
SIZE
  6
CONTINUOUS
 62
    30
 10
-279.428571
 20
-221.598057
 30
0.0
 40
50.0
  1
1550（天井開口寸法）
 41
0.9
 72
     1
 11
0.0
 21
-221.598057
 31
0.0
  0
TEXT
  5
61D
  8
SIZE
  6
CONTINUOUS
 62
    30
 10
-75.0
 20
-319.28945
 30
0.0
 40
50.0
  1
1590
 41
0.9
 72
     1
 11
0.0
 21
-319.28945
 31
0.0
  0
TEXT
  5
61E
  8
SIZE
  6
CONTINUOUS
 62
    30
 10
420.142858
 20
-128.609394
 30
0.0
 40
50.0
  1
20
 41
0.9
 72
     1
 11
456.571429
 21
-128.609394
 31
0.0
  0
LINE
  5
61F
  8
SIZE
  6
CONTINUOUS
 62
    30
 10
795.0
 20
-22.006988
 30
0.0
 11
795.0
 21
-367.28945
 31
0.0
  0
CIRCLE
  5
620
  8
SIZE
  6
CONTINUOUS
 62
    30
 10
795.0
 20
-337.28945
 30
0.0
 40
10.0
  0
LINE
  5
621
  8
SIZE
  6
CONTINUOUS
 62
    30
 10
785.0
 20
-337.28945
 30
0.0
 11
775.0
 21
-337.28945
 31
0.0
  0
POINT
  5
622
  8
DEFPOINTS
  6
CONTINUOUS
 62
     7
 10
795.0
 20
-337.28945
 30
0.0
  0
ARC
  5
623
  8
OUTLINE
  6
CONTINUOUS
 62
     3
 10
764.296323
 20
112.013413
 30
0.0
 40
120.014371
 50
269.771063
 51
284.82297
  0
LINE
  5
624
  8
SIZE
  6
CONTINUOUS
 62
    30
 10
781.816783
 20
-8.0
 30
0.0
 11
992.921587
 21
-8.0
 31
0.0
  0
LINE
  5
625
  8
SIZE
  6
CONTINUOUS
 62
    30
 10
785.0
 20
-146.609394
 30
0.0
 11
795.0
 21
-146.609394
 31
0.0
  0
CIRCLE
  5
626
  8
SIZE
  6
CONTINUOUS
 62
    30
 10
795.0
 20
-239.598057
 30
0.0
 40
10.0
  0
LINE
  5
627
  8
SIZE
  6
CONTINUOUS
 62
    30
 10
775.0
 20
-239.598057
 30
0.0
 11
795.0
 21
-239.598057
 31
0.0
  0
ARC
  5
628
  8
DETAIL
  6
CONTINUOUS
 62
     5
 10
764.296323
 20
112.013413
 30
0.0
 40
120.014371
 50
269.771063
 51
284.82297
  0
CIRCLE
  5
629
  8
SIZE
  6
CONTINUOUS
 62
    30
 10
755.0
 20
-146.609394
 30
0.0
 40
10.0
  0
CIRCLE
  5
62A
  8
SIZE
  6
CONTINUOUS
 62
    30
 10
775.0
 20
-146.609394
 30
0.0
 40
10.0
  0
LINE
  5
62B
  8
SIZE
  6
CONTINUOUS
 62
    30
 10
775.0
 20
-17.0
 30
0.0
 11
775.0
 21
-176.609394
 31
0.0
  0
LINE
  5
62C
  8
SIZE
  6
CONTINUOUS
 62
    30
 10
775.0
 20
-17.0
 30
0.0
 11
775.0
 21
-269.598057
 31
0.0
  0
LINE
  5
62D
  8
SIZE
  6
CONTINUOUS
 62
    30
 10
775.0
 20
-17.0
 30
0.0
 11
775.0
 21
-269.598057
 31
0.0
  0
LINE
  5
62E
  8
SIZE
  6
CONTINUOUS
 62
    30
 10
765.0
 20
-239.598057
 30
0.0
 11
755.0
 21
-239.598057
 31
0.0
  0
CIRCLE
  5
62F
  8
SIZE
  6
CONTINUOUS
 62
    30
 10
775.0
 20
-239.598057
 30
0.0
 40
10.0
  0
LINE
  5
630
  8
SIZE
  6
CONTINUOUS
 62
    30
 10
765.0
 20
-239.598057
 30
0.0
 11
755.0
 21
-239.598057
 31
0.0
  0
CIRCLE
  5
631
  8
SIZE
  6
CONTINUOUS
 62
    30
 10
775.0
 20
-239.598057
 30
0.0
 40
10.0
  0
LINE
  5
632
  8
SIZE
  6
CONTINUOUS
 62
    30
 10
755.0
 20
-239.598057
 30
0.0
 11
735.0
 21
-239.598057
 31
0.0
  0
POINT
  5
633
  8
DEFPOINTS
  6
CONTINUOUS
 62
     7
 10
763.816783
 20
-8.0
 30
0.0
  0
POINT
  5
634
  8
DEFPOINTS
  6
CONTINUOUS
 62
     7
 10
775.0
 20
-146.609394
 30
0.0
  0
LINE
  5
635
  8
SIZE
  6
CONTINUOUS
 62
    30
 10
745.0
 20
-146.609394
 30
0.0
 11
735.0
 21
-146.609394
 31
0.0
  0
LINE
  5
636
  8
SIZE
  6
CONTINUOUS
 62
    30
 10
775.0
 20
-146.609394
 30
0.0
 11
755.0
 21
-146.609394
 31
0.0
  0
LINE
  5
637
  8
SIZE
  6
CONTINUOUS
 62
    30
 10
795.0
 20
-22.006988
 30
0.0
 11
795.0
 21
-269.598057
 31
0.0
  0
TEXT
  5
638
  8
SIZE
  6
CONTINUOUS
 62
    30
 10
853.0
 20
-221.598057
 30
0.0
 40
50.0
  1
20
 41
0.9
 72
     1
 11
889.428571
 21
-221.598057
 31
0.0
  0
LINE
  5
639
  8
SIZE
  6
CONTINUOUS
 62
    30
 10
815.0
 20
-239.598057
 30
0.0
 11
943.857143
 21
-239.598057
 31
0.0
  0
POINT
  5
63A
  8
DEFPOINTS
  6
CONTINUOUS
 62
     7
 10
795.0
 20
-239.598057
 30
0.0
  0
LINE
  5
63B
  8
SIZE
  6
CONTINUOUS
 62
    30
 10
805.0
 20
-239.598057
 30
0.0
 11
815.0
 21
-239.598057
 31
0.0
  0
TEXT
  5
63C
  8
SIZE
  6
CONTINUOUS
 62
    30
 10
944.921587
 20
-96.0
 30
0.0
 40
50.0
  1
8
 50
90.0
 41
0.9
 72
     1
 11
944.921587
 21
-81.0
 31
0.0
  0
LINE
  5
63D
  8
SIZE
  6
CONTINUOUS
 62
    30
 10
795.0
 20
-146.609394
 30
0.0
 11
815.0
 21
-146.609394
 31
0.0
  0
POINT
  5
63E
  8
DEFPOINTS
  6
CONTINUOUS
 62
     7
 10
795.0
 20
-4.006988
 30
0.0
  0
POINT
  5
63F
  8
DEFPOINTS
  6
CONTINUOUS
 62
     7
 10
795.0
 20
-4.006988
 30
0.0
  0
LINE
  5
640
  8
SIZE
  6
CONTINUOUS
 62
    30
 10
962.921587
 20
-10.0
 30
0.0
 11
962.921587
 21
-20.0
 31
0.0
  0
LINE
  5
641
  8
SIZE
  6
CONTINUOUS
 62
    30
 10
962.921587
 20
-20.0
 30
0.0
 11
962.921587
 21
-40.0
 31
0.0
  0
POINT
  5
642
  8
DEFPOINTS
  6
CONTINUOUS
 62
     7
 10
962.921587
 20
-8.0
 30
0.0
  0
LINE
  5
643
  8
SIZE
  6
CONTINUOUS
 62
    30
 10
962.921587
 20
-18.0
 30
0.0
 11
962.921587
 21
-28.0
 31
0.0
  0
LINE
  5
644
  8
SIZE
  6
CONTINUOUS
 62
    30
 10
962.921587
 20
-28.0
 30
0.0
 11
962.921587
 21
-114.0
 31
0.0
  0
TEXT
  5
645
  8
SIZE
  6
CONTINUOUS
 62
    30
 10
1251.577746
 20
-329.428572
 30
0.0
 40
50.0
  1
140-300
 50
90.0
 41
0.9
 72
     1
 11
1251.577746
 21
-183.714286
 31
0.0
  0
TEXT
  5
646
  8
SIZE
  6
CONTINUOUS
 62
    30
 10
1379.599542
 20
-367.282479
 30
0.0
 40
55.0
  1
パネル直付時
 50
90.0
 41
0.9
 72
     1
 11
1379.599542
 21
-195.682479
 31
0.0
  0
CIRCLE
  5
647
  8
DETAIL
  6
CONTINUOUS
 62
     5
 10
505.0
 20
337.0
 30
0.0
 40
85.5
  0
CIRCLE
  5
648
  8
DETAIL
  6
CONTINUOUS
 62
     5
 10
505.0
 20
337.0
 30
0.0
 40
100.0
  0
LINE
  5
649
  8
SIZE
  6
CONTINUOUS
 62
    30
 10
735.0
 20
722.411052
 30
0.0
 11
525.0
 21
722.411052
 31
0.0
  0
LINE
  5
64A
  8
NOTE
  6
CONTINUOUS
 62
     4
 10
625.014371
 20
337.0
 30
0.0
 11
384.985629
 21
337.0
 31
0.0
  0
LINE
  5
64B
  8
SIZE
  6
CONTINUOUS
 62
    30
 10
-135.0
 20
475.014371
 30
0.0
 11
-135.0
 21
752.411052
 31
0.0
  0
LINE
  5
64C
  8
SIZE
  6
CONTINUOUS
 62
    30
 10
-135.0
 20
475.014371
 30
0.0
 11
-135.0
 21
752.411052
 31
0.0
  0
LINE
  5
64D
  8
SIZE
  6
CONTINUOUS
 62
    30
 10
185.0
 20
475.014371
 30
0.0
 11
185.0
 21
752.411052
 31
0.0
  0
LINE
  5
64E
  8
SIZE
  6
CONTINUOUS
 62
    30
 10
185.0
 20
475.014371
 30
0.0
 11
185.0
 21
752.411052
 31
0.0
  0
LINE
  5
64F
  8
SIZE
  6
CONTINUOUS
 62
    30
 10
505.0
 20
475.014371
 30
0.0
 11
505.0
 21
752.411052
 31
0.0
  0
LINE
  5
650
  8
SIZE
  6
CONTINUOUS
 62
    30
 10
505.0
 20
475.014371
 30
0.0
 11
505.0
 21
752.411052
 31
0.0
  0
CIRCLE
  5
651
  8
DETAIL
  6
CONTINUOUS
 62
     5
 10
185.0
 20
337.0
 30
0.0
 40
85.5
  0
CIRCLE
  5
652
  8
DETAIL
  6
CONTINUOUS
 62
     5
 10
185.0
 20
337.0
 30
0.0
 40
100.0
  0
LINE
  5
653
  8
NOTE
  6
CONTINUOUS
 62
     4
 10
305.014371
 20
337.0
 30
0.0
 11
64.985629
 21
337.0
 31
0.0
  0
CIRCLE
  5
654
  8
DETAIL
  6
CONTINUOUS
 62
     5
 10
-135.0
 20
337.0
 30
0.0
 40
85.5
  0
CIRCLE
  5
655
  8
DETAIL
  6
CONTINUOUS
 62
     5
 10
-135.0
 20
337.0
 30
0.0
 40
100.0
  0
LINE
  5
656
  8
NOTE
  6
CONTINUOUS
 62
     4
 10
-135.0
 20
457.014371
 30
0.0
 11
-135.0
 21
216.985629
 31
0.0
  0
LINE
  5
657
  8
NOTE
  6
CONTINUOUS
 62
     4
 10
-14.985629
 20
337.0
 30
0.0
 11
-255.014371
 21
337.0
 31
0.0
  0
POINT
  5
658
  8
DEFPOINTS
  6
CONTINUOUS
 62
     7
 10
-135.0
 20
457.014371
 30
0.0
  0
POINT
  5
659
  8
DEFPOINTS
  6
CONTINUOUS
 62
     7
 10
-135.0
 20
457.014371
 30
0.0
  0
LINE
  5
65A
  8
NOTE
  6
CONTINUOUS
 62
     4
 10
505.0
 20
457.014371
 30
0.0
 11
505.0
 21
216.985629
 31
0.0
  0
LINE
  5
65B
  8
NOTE
  6
CONTINUOUS
 62
     4
 10
185.0
 20
457.014371
 30
0.0
 11
185.0
 21
216.985629
 31
0.0
  0
POINT
  5
65C
  8
DEFPOINTS
  6
CONTINUOUS
 62
     7
 10
185.0
 20
457.014371
 30
0.0
  0
POINT
  5
65D
  8
DEFPOINTS
  6
CONTINUOUS
 62
     7
 10
185.0
 20
457.014371
 30
0.0
  0
POINT
  5
65E
  8
DEFPOINTS
  6
CONTINUOUS
 62
     7
 10
505.0
 20
457.014371
 30
0.0
  0
POINT
  5
65F
  8
DEFPOINTS
  6
CONTINUOUS
 62
     7
 10
505.0
 20
457.014371
 30
0.0
  0
LINE
  5
660
  8
SIZE
  6
CONTINUOUS
 62
    30
 10
165.0
 20
722.411052
 30
0.0
 11
-115.0
 21
722.411052
 31
0.0
  0
TEXT
  5
661
  8
SIZE
  6
CONTINUOUS
 62
    30
 10
-319.928571
 20
970.583861
 30
0.0
 40
50.0
  1
1496(吊りボルトピッチ)
 41
0.9
 72
     1
 11
0.0
 21
970.583861
 31
0.0
  0
LINE
  5
662
  8
SIZE
  6
CONTINUOUS
 62
    30
 10
-145.0
 20
722.411052
 30
0.0
 11
-155.0
 21
722.411052
 31
0.0
  0
CIRCLE
  5
663
  8
SIZE
  6
CONTINUOUS
 62
    30
 10
-135.0
 20
722.411052
 30
0.0
 40
10.0
  0
POINT
  5
664
  8
DEFPOINTS
  6
CONTINUOUS
 62
     7
 10
-135.0
 20
722.411052
 30
0.0
  0
LINE
  5
665
  8
SIZE
  6
CONTINUOUS
 62
    30
 10
-125.0
 20
722.411052
 30
0.0
 11
-115.0
 21
722.411052
 31
0.0
  0
CIRCLE
  5
666
  8
SIZE
  6
CONTINUOUS
 62
    30
 10
-135.0
 20
722.411052
 30
0.0
 40
10.0
  0
TEXT
  5
667
  8
SIZE
  6
CONTINUOUS
 62
    30
 10
-32.857143
 20
740.411052
 30
0.0
 40
50.0
  1
320
 41
0.9
 72
     1
 11
25.0
 21
740.411052
 31
0.0
  0
TEXT
  5
668
  8
SIZE
  6
CONTINUOUS
 62
    30
 10
-70.714286
 20
845.981979
 30
0.0
 40
50.0
  1
1510
 41
0.9
 72
     1
 11
0.0
 21
845.981979
 31
0.0
  0
TEXT
  5
669
  8
SIZE
  6
CONTINUOUS
 62
    30
 10
-75.0
 20
1087.862027
 30
0.0
 40
50.0
  1
1542
 41
0.9
 72
     1
 11
0.0
 21
1087.862027
 31
0.0
  0
TEXT
  5
66A
  8
SIZE
  6
CONTINUOUS
 62
    30
 10
287.142857
 20
740.411052
 30
0.0
 40
50.0
  1
320
 41
0.9
 72
     1
 11
345.0
 21
740.411052
 31
0.0
  0
LINE
  5
66B
  8
SIZE
  6
CONTINUOUS
 62
    30
 10
485.0
 20
722.411052
 30
0.0
 11
205.0
 21
722.411052
 31
0.0
  0
LINE
  5
66C
  8
SIZE
  6
CONTINUOUS
 62
    30
 10
175.0
 20
722.411052
 30
0.0
 11
165.0
 21
722.411052
 31
0.0
  0
CIRCLE
  5
66D
  8
SIZE
  6
CONTINUOUS
 62
    30
 10
185.0
 20
722.411052
 30
0.0
 40
10.0
  0
POINT
  5
66E
  8
DEFPOINTS
  6
CONTINUOUS
 62
     7
 10
185.0
 20
722.411052
 30
0.0
  0
LINE
  5
66F
  8
SIZE
  6
CONTINUOUS
 62
    30
 10
195.0
 20
722.411052
 30
0.0
 11
205.0
 21
722.411052
 31
0.0
  0
CIRCLE
  5
670
  8
SIZE
  6
CONTINUOUS
 62
    30
 10
185.0
 20
722.411052
 30
0.0
 40
10.0
  0
LINE
  5
671
  8
SIZE
  6
CONTINUOUS
 62
    30
 10
495.0
 20
722.411052
 30
0.0
 11
485.0
 21
722.411052
 31
0.0
  0
CIRCLE
  5
672
  8
SIZE
  6
CONTINUOUS
 62
    30
 10
505.0
 20
722.411052
 30
0.0
 40
10.0
  0
POINT
  5
673
  8
DEFPOINTS
  6
CONTINUOUS
 62
     7
 10
505.0
 20
722.411052
 30
0.0
  0
LINE
  5
674
  8
SIZE
  6
CONTINUOUS
 62
    30
 10
515.0
 20
722.411052
 30
0.0
 11
525.0
 21
722.411052
 31
0.0
  0
CIRCLE
  5
675
  8
SIZE
  6
CONTINUOUS
 62
    30
 10
505.0
 20
722.411052
 30
0.0
 40
10.0
  0
LINE
  5
676
  8
SIZE
  6
CONTINUOUS
 62
    30
 10
755.0
 20
491.0
 30
0.0
 11
755.0
 21
857.981979
 31
0.0
  0
LINE
  5
677
  8
SIZE
  6
CONTINUOUS
 62
    30
 10
755.0
 20
491.0
 30
0.0
 11
755.0
 21
752.411052
 31
0.0
  0
LINE
  5
678
  8
SIZE
  6
CONTINUOUS
 62
    30
 10
771.0
 20
481.699485
 30
0.0
 11
771.0
 21
857.981979
 31
0.0
  0
LINE
  5
679
  8
SIZE
  6
CONTINUOUS
 62
    30
 10
755.0
 20
491.0
 30
0.0
 11
755.0
 21
857.981979
 31
0.0
  0
LINE
  5
67A
  8
SIZE
  6
CONTINUOUS
 62
    30
 10
771.0
 20
486.699485
 30
0.0
 11
771.0
 21
1099.862027
 31
0.0
  0
LINE
  5
67B
  8
SIZE
  6
CONTINUOUS
 62
    30
 10
748.0
 20
503.702395
 30
0.0
 11
748.0
 21
969.488623
 31
0.0
  0
LINE
  5
67C
  8
SIZE
  6
CONTINUOUS
 62
    30
 10
748.0
 20
511.002395
 30
0.0
 11
748.0
 21
969.488623
 31
0.0
  0
LINE
  5
67D
  8
SIZE
  6
CONTINUOUS
 62
    30
 10
771.0
 20
486.699485
 30
0.0
 11
771.0
 21
969.488623
 31
0.0
  0
POLYLINE
  5
67E
  8
NOTE
  6
CONTINUOUS
 62
     4
 66
     1
 10
0.0
 20
0.0
 30
0.0
  0
VERTEX
  5
67F
  8
NOTE
  6
CONTINUOUS
 62
     4
 10
755.0
 20
337.0
 30
0.0
  0
VERTEX
  5
680
  8
NOTE
  6
CONTINUOUS
 62
     4
 10
1108.386688
 20
587.268529
 30
0.0
  0
SEQEND
  5
681
  8
NOTE
  6
CONTINUOUS
 62
     4
  0
LINE
  5
682
  8
SIZE
  6
CONTINUOUS
 62
    30
 10
813.0
 20
0.0
 30
0.0
 11
1299.577746
 21
0.0
 31
0.0
  0
LINE
  5
683
  8
SIZE
  6
CONTINUOUS
 62
    30
 10
773.0
 20
140.0
 30
0.0
 11
1299.577746
 21
140.0
 31
0.0
  0
LINE
  5
684
  8
SIZE
  6
CONTINUOUS
 62
    30
 10
757.998204
 20
140.0
 30
0.0
 11
1299.637315
 21
140.0
 31
0.0
  0
LINE
  5
685
  8
SIZE
  6
CONTINUOUS
 62
    30
 10
773.0
 20
473.0
 30
0.0
 11
1299.637315
 21
473.0
 31
0.0
  0
TEXT
  5
686
  8
SIZE
  6
CONTINUOUS
 62
    30
 10
1059.68075
 20
194.0
 30
0.0
 40
50.0
  1
136
 50
90.0
 41
0.9
 72
     1
 11
1059.68075
 21
246.5
 31
0.0
  0
LINE
  5
687
  8
SIZE
  6
CONTINUOUS
 62
    30
 10
793.076405
 20
337.0
 30
0.0
 11
1107.68075
 21
337.0
 31
0.0
  0
LINE
  5
688
  8
SIZE
  6
CONTINUOUS
 62
    30
 10
773.0
 20
473.0
 30
0.0
 11
1107.68075
 21
473.0
 31
0.0
  0
LINE
  5
689
  8
OUTLINE
  6
CONTINUOUS
 62
     3
 10
755.0
 20
473.0
 30
0.0
 11
755.0
 21
140.0
 31
0.0
  0
LINE
  5
68A
  8
DETAIL
  6
CONTINUOUS
 62
     5
 10
755.0
 20
473.0
 30
0.0
 11
755.0
 21
221.786204
 31
0.0
  0
LINE
  5
68B
  8
DETAIL
  6
CONTINUOUS
 62
     5
 10
723.026107
 20
238.988264
 30
0.0
 11
723.026107
 21
435.011736
 31
0.0
  0
LINE
  5
68C
  8
OUTLINE
  6
CONTINUOUS
 62
     3
 10
795.0
 20
0.0
 30
0.0
 11
739.0885
 21
0.0
 31
0.0
  0
LINE
  5
68D
  8
SIZE
  6
CONTINUOUS
 62
    30
 10
757.0885
 20
47.0
 30
0.0
 11
992.921587
 21
47.0
 31
0.0
  0
LINE
  5
68E
  8
NOTE
  6
CONTINUOUS
 62
     4
 10
775.0
 20
1.0
 30
0.0
 11
876.307449
 21
1.0
 31
0.0
  0
LINE
  5
68F
  8
NOTE
  6
CONTINUOUS
 62
     4
 10
775.0
 20
21.0
 30
0.0
 11
876.307449
 21
21.0
 31
0.0
  0
LINE
  5
690
  8
DETAIL
  6
CONTINUOUS
 62
     5
 10
755.0
 20
221.786204
 30
0.0
 11
755.0
 21
140.0
 31
0.0
  0
LINE
  5
691
  8
DETAIL
  6
CONTINUOUS
 62
     5
 10
739.998204
 20
152.001437
 30
0.0
 11
739.998204
 21
140.0
 31
0.0
  0
LINE
  5
692
  8
OUTLINE
  6
CONTINUOUS
 62
     3
 10
739.0885
 20
0.0
 30
0.0
 11
739.0885
 21
47.0
 31
0.0
  0
POINT
  5
693
  8
DEFPOINTS
  6
CONTINUOUS
 62
     7
 10
755.0
 20
140.0
 30
0.0
  0
POINT
  5
694
  8
DEFPOINTS
  6
CONTINUOUS
 62
     7
 10
739.998204
 20
140.0
 30
0.0
  0
POINT
  5
695
  8
DEFPOINTS
  6
CONTINUOUS
 62
     7
 10
739.0885
 20
47.0
 30
0.0
  0
POINT
  5
696
  8
DEFPOINTS
  6
CONTINUOUS
 62
     7
 10
775.0
 20
1.0
 30
0.0
  0
POINT
  5
697
  8
DEFPOINTS
  6
CONTINUOUS
 62
     7
 10
755.0
 20
140.0
 30
0.0
  0
POINT
  5
698
  8
DEFPOINTS
  6
CONTINUOUS
 62
     7
 10
775.0
 20
1.0
 30
0.0
  0
POINT
  5
699
  8
DEFPOINTS
  6
CONTINUOUS
 62
     7
 10
775.0
 20
1.0
 30
0.0
  0
LINE
  5
69A
  8
NOTE
  6
CONTINUOUS
 62
     4
 10
775.0
 20
1.0
 30
0.0
 11
775.0
 21
21.0
 31
0.0
  0
LINE
  5
69B
  8
DETAIL
  6
CONTINUOUS
 62
     5
 10
739.0885
 20
0.0
 30
0.0
 11
739.0885
 21
47.0
 31
0.0
  0
LINE
  5
69C
  8
DETAIL
  6
CONTINUOUS
 62
     5
 10
739.998204
 20
152.001437
 30
0.0
 11
736.997844
 21
155.001796
 31
0.0
  0
ARC
  5
69D
  8
DETAIL
  6
CONTINUOUS
 62
     5
 10
749.999401
 20
172.40388
 30
0.0
 40
5.000599
 50
270.0
 51
0.0
  0
ARC
  5
69E
  8
DETAIL
  6
CONTINUOUS
 62
     5
 10
713.024909
 20
238.988264
 30
0.0
 40
10.001198
 50
270.0
 51
0.0
  0
LINE
  5
69F
  8
SIZE
  6
CONTINUOUS
 62
    30
 10
962.921587
 20
67.0
 30
0.0
 11
962.921587
 21
256.850402
 31
0.0
  0
LINE
  5
6A0
  8
SIZE
  6
CONTINUOUS
 62
    30
 10
813.0
 20
0.0
 30
0.0
 11
992.921587
 21
0.0
 31
0.0
  0
LINE
  5
6A1
  8
SIZE
  6
CONTINUOUS
 62
    30
 10
813.0
 20
0.0
 30
0.0
 11
992.921587
 21
0.0
 31
0.0
  0
POINT
  5
6A2
  8
DEFPOINTS
  6
CONTINUOUS
 62
     7
 10
795.0
 20
0.0
 30
0.0
  0
POINT
  5
6A3
  8
DEFPOINTS
  6
CONTINUOUS
 62
     7
 10
795.0
 20
0.0
 30
0.0
  0
POINT
  5
6A4
  8
DEFPOINTS
  6
CONTINUOUS
 62
     7
 10
795.0
 20
0.0
 30
0.0
  0
LINE
  5
6A5
  8
NOTE
  6
CONTINUOUS
 62
     4
 10
865.265008
 20
1.0
 30
0.0
 11
845.265008
 21
21.0
 31
0.0
  0
LINE
  5
6A6
  8
NOTE
  6
CONTINUOUS
 62
     4
 10
860.265008
 20
1.0
 30
0.0
 11
840.265008
 21
21.0
 31
0.0
  0
LINE
  5
6A7
  8
NOTE
  6
CONTINUOUS
 62
     4
 10
855.265008
 20
1.0
 30
0.0
 11
835.265008
 21
21.0
 31
0.0
  0
LINE
  5
6A8
  8
NOTE
  6
CONTINUOUS
 62
     4
 10
825.265008
 20
1.0
 30
0.0
 11
805.265008
 21
21.0
 31
0.0
  0
LINE
  5
6A9
  8
NOTE
  6
CONTINUOUS
 62
     4
 10
820.265008
 20
1.0
 30
0.0
 11
800.265008
 21
21.0
 31
0.0
  0
LINE
  5
6AA
  8
NOTE
  6
CONTINUOUS
 62
     4
 10
815.265008
 20
1.0
 30
0.0
 11
795.265008
 21
21.0
 31
0.0
  0
POINT
  5
6AB
  8
DEFPOINTS
  6
CONTINUOUS
 62
     7
 10
962.921587
 20
47.0
 30
0.0
  0
LINE
  5
6AC
  8
SIZE
  6
CONTINUOUS
 62
    30
 10
962.921587
 20
57.0
 30
0.0
 11
962.921587
 21
67.0
 31
0.0
  0
CIRCLE
  5
6AD
  8
SIZE
  6
CONTINUOUS
 62
    30
 10
962.921587
 20
47.0
 30
0.0
 40
10.0
  0
LINE
  5
6AE
  8
SIZE
  6
CONTINUOUS
 62
    30
 10
962.921587
 20
0.0
 30
0.0
 11
962.921587
 21
47.0
 31
0.0
  0
LINE
  5
6AF
  8
SIZE
  6
CONTINUOUS
 62
    30
 10
962.921587
 20
10.0
 30
0.0
 11
962.921587
 21
20.0
 31
0.0
  0
LINE
  5
6B0
  8
SIZE
  6
CONTINUOUS
 62
    30
 10
962.921587
 20
20.0
 30
0.0
 11
962.921587
 21
40.0
 31
0.0
  0
TEXT
  5
6B1
  8
SIZE
  6
CONTINUOUS
 62
    30
 10
944.921587
 20
165.993259
 30
0.0
 40
50.0
  1
47
 50
90.0
 41
0.9
 72
     1
 11
944.921587
 21
202.42183
 31
0.0
  0
CIRCLE
  5
6B2
  8
FIX
  6
CONTINUOUS
 62
    11
 10
748.0
 20
473.0
 30
0.0
 40
18.598564
  0
LINE
  5
6B3
  8
NOTE
  6
CONTINUOUS
 62
     4
 10
748.0
 20
452.997605
 30
0.0
 11
748.0
 21
493.002395
 31
0.0
  0
LINE
  5
6B4
  8
NOTE
  6
CONTINUOUS
 62
     4
 10
755.0
 20
337.0
 30
0.0
 11
774.836475
 21
360.898355
 31
0.0
  0
LINE
  5
6B5
  8
NOTE
  6
CONTINUOUS
 62
     4
 10
784.128068
 20
347.778345
 30
0.0
 11
755.0
 21
337.0
 31
0.0
  0
LINE
  5
6B6
  8
NOTE
  6
CONTINUOUS
 62
     4
 10
755.0
 20
317.0
 30
0.0
 11
755.0
 21
357.0
 31
0.0
  0
LINE
  5
6B7
  8
NOTE
  6
CONTINUOUS
 62
     4
 10
734.923595
 20
337.0
 30
0.0
 11
775.076405
 21
337.0
 31
0.0
  0
POINT
  5
6B8
  8
DEFPOINTS
  6
CONTINUOUS
 62
     7
 10
775.076405
 20
337.0
 30
0.0
  0
ARC
  5
6B9
  8
DETAIL
  6
CONTINUOUS
 62
     5
 10
713.024909
 20
435.011736
 30
0.0
 40
10.001198
 50
0.0
 51
90.0
  0
POINT
  5
6BA
  8
DEFPOINTS
  6
CONTINUOUS
 62
     7
 10
755.0
 20
473.0
 30
0.0
  0
POINT
  5
6BB
  8
DEFPOINTS
  6
CONTINUOUS
 62
     7
 10
755.0
 20
473.0
 30
0.0
  0
POINT
  5
6BC
  8
DEFPOINTS
  6
CONTINUOUS
 62
     7
 10
755.0
 20
473.0
 30
0.0
  0
POINT
  5
6BD
  8
DEFPOINTS
  6
CONTINUOUS
 62
     7
 10
755.0
 20
473.0
 30
0.0
  0
POINT
  5
6BE
  8
DEFPOINTS
  6
CONTINUOUS
 62
     7
 10
771.0
 20
463.699485
 30
0.0
  0
POINT
  5
6BF
  8
DEFPOINTS
  6
CONTINUOUS
 62
     7
 10
755.0
 20
473.0
 30
0.0
  0
POINT
  5
6C0
  8
DEFPOINTS
  6
CONTINUOUS
 62
     7
 10
771.0
 20
468.699485
 30
0.0
  0
POINT
  5
6C1
  8
DEFPOINTS
  6
CONTINUOUS
 62
     7
 10
748.0
 20
485.702395
 30
0.0
  0
POINT
  5
6C2
  8
DEFPOINTS
  6
CONTINUOUS
 62
     7
 10
748.0
 20
493.002395
 30
0.0
  0
POINT
  5
6C3
  8
DEFPOINTS
  6
CONTINUOUS
 62
     7
 10
771.0
 20
468.699485
 30
0.0
  0
ARC
  5
6C4
  8
DETAIL
  6
CONTINUOUS
 62
     5
 10
766.699725
 20
468.699725
 30
0.0
 40
2.0
 50
0.0
 51
90.0
  0
LINE
  5
6C5
  8
NOTE
  6
CONTINUOUS
 62
     4
 10
727.999042
 20
473.0
 30
0.0
 11
768.000958
 21
473.0
 31
0.0
  0
LINE
  5
6C6
  8
DETAIL
  6
CONTINUOUS
 62
     5
 10
755.0
 20
470.699725
 30
0.0
 11
766.699725
 21
470.699725
 31
0.0
  0
LINE
  5
6C7
  8
DETAIL
  6
CONTINUOUS
 62
     5
 10
755.0
 20
473.0
 30
0.0
 11
766.699485
 21
473.0
 31
0.0
  0
LINE
  5
6C8
  8
DETAIL
  6
CONTINUOUS
 62
     5
 10
768.699725
 20
460.998563
 30
0.0
 11
771.0
 21
460.998563
 31
0.0
  0
LINE
  5
6C9
  8
DETAIL
  6
CONTINUOUS
 62
     5
 10
768.699725
 20
468.699725
 30
0.0
 11
768.699725
 21
460.998563
 31
0.0
  0
LINE
  5
6CA
  8
DETAIL
  6
CONTINUOUS
 62
     5
 10
771.0
 20
468.699485
 30
0.0
 11
771.0
 21
460.998563
 31
0.0
  0
ARC
  5
6CB
  8
DETAIL
  6
CONTINUOUS
 62
     5
 10
766.699485
 20
468.699485
 30
0.0
 40
4.300515
 50
0.0
 51
90.0
  0
TEXT
  5
6CC
  8
SIZE
  6
CONTINUOUS
 62
    30
 10
1251.637315
 20
248.642857
 30
0.0
 40
50.0
  1
333
 50
90.0
 41
0.9
 72
     1
 11
1251.637315
 21
306.5
 31
0.0
  0
LINE
  5
6CD
  8
SIZE
  6
CONTINUOUS
 62
    30
 10
1269.637315
 20
453.0
 30
0.0
 11
1269.637315
 21
160.0
 31
0.0
  0
LINE
  5
6CE
  8
SIZE
  6
CONTINUOUS
 62
    30
 10
1077.68075
 20
337.0
 30
0.0
 11
1077.68075
 21
176.0
 31
0.0
  0
LINE
  5
6CF
  8
SIZE
  6
CONTINUOUS
 62
    30
 10
1269.637315
 20
150.0
 30
0.0
 11
1269.637315
 21
160.0
 31
0.0
  0
POINT
  5
6D0
  8
DEFPOINTS
  6
CONTINUOUS
 62
     7
 10
1269.577746
 20
0.0
 30
0.0
  0
LINE
  5
6D1
  8
SIZE
  6
CONTINUOUS
 62
    30
 10
1269.577746
 20
10.0
 30
0.0
 11
1269.577746
 21
20.0
 31
0.0
  0
LINE
  5
6D2
  8
SIZE
  6
CONTINUOUS
 62
    30
 10
1269.577746
 20
130.0
 30
0.0
 11
1269.577746
 21
120.0
 31
0.0
  0
CIRCLE
  5
6D3
  8
SIZE
  6
CONTINUOUS
 62
    30
 10
1269.577746
 20
140.0
 30
0.0
 40
10.0
  0
LINE
  5
6D4
  8
SIZE
  6
CONTINUOUS
 62
    30
 10
1269.577746
 20
120.0
 30
0.0
 11
1269.577746
 21
20.0
 31
0.0
  0
POINT
  5
6D5
  8
DEFPOINTS
  6
CONTINUOUS
 62
     7
 10
1269.637315
 20
140.0
 30
0.0
  0
CIRCLE
  5
6D6
  8
SIZE
  6
CONTINUOUS
 62
    30
 10
1269.637315
 20
140.0
 30
0.0
 40
10.0
  0
LINE
  5
6D7
  8
SIZE
  6
CONTINUOUS
 62
    30
 10
1077.68075
 20
463.0
 30
0.0
 11
1077.68075
 21
453.0
 31
0.0
  0
POINT
  5
6D8
  8
DEFPOINTS
  6
CONTINUOUS
 62
     7
 10
1077.68075
 20
337.0
 30
0.0
  0
LINE
  5
6D9
  8
SIZE
  6
CONTINUOUS
 62
    30
 10
1077.68075
 20
347.0
 30
0.0
 11
1077.68075
 21
357.0
 31
0.0
  0
CIRCLE
  5
6DA
  8
SIZE
  6
CONTINUOUS
 62
    30
 10
1077.68075
 20
337.0
 30
0.0
 40
10.0
  0
LINE
  5
6DB
  8
SIZE
  6
CONTINUOUS
 62
    30
 10
1077.68075
 20
453.0
 30
0.0
 11
1077.68075
 21
357.0
 31
0.0
  0
CIRCLE
  5
6DC
  8
SIZE
  6
CONTINUOUS
 62
    30
 10
1077.68075
 20
473.0
 30
0.0
 40
10.0
  0
LINE
  5
6DD
  8
SIZE
  6
CONTINUOUS
 62
    30
 10
1269.637315
 20
463.0
 30
0.0
 11
1269.637315
 21
453.0
 31
0.0
  0
CIRCLE
  5
6DE
  8
SIZE
  6
CONTINUOUS
 62
    30
 10
1269.637315
 20
473.0
 30
0.0
 40
10.0
  0
LINE
  5
6DF
  8
SIZE
  6
CONTINUOUS
 62
    30
 10
781.0
 20
827.981979
 30
0.0
 11
791.0
 21
827.981979
 31
0.0
  0
TEXT
  5
6E0
  8
SIZE
  6
CONTINUOUS
 62
    30
 10
572.142857
 20
740.411052
 30
0.0
 40
50.0
  1
250
 41
0.9
 72
     1
 11
630.0
 21
740.411052
 31
0.0
  0
LINE
  5
6E1
  8
SIZE
  6
CONTINUOUS
 62
    30
 10
745.0
 20
722.411052
 30
0.0
 11
735.0
 21
722.411052
 31
0.0
  0
CIRCLE
  5
6E2
  8
SIZE
  6
CONTINUOUS
 62
    30
 10
755.0
 20
722.411052
 30
0.0
 40
10.0
  0
LINE
  5
6E3
  8
SIZE
  6
CONTINUOUS
 62
    30
 10
745.0
 20
827.981979
 30
0.0
 11
735.0
 21
827.981979
 31
0.0
  0
CIRCLE
  5
6E4
  8
SIZE
  6
CONTINUOUS
 62
    30
 10
755.0
 20
827.981979
 30
0.0
 40
10.0
  0
POINT
  5
6E5
  8
DEFPOINTS
  6
CONTINUOUS
 62
     7
 10
771.0
 20
827.981979
 30
0.0
  0
CIRCLE
  5
6E6
  8
SIZE
  6
CONTINUOUS
 62
    30
 10
771.0
 20
827.981979
 30
0.0
 40
10.0
  0
LINE
  5
6E7
  8
SIZE
  6
CONTINUOUS
 62
    30
 10
745.0
 20
827.981979
 30
0.0
 11
735.0
 21
827.981979
 31
0.0
  0
CIRCLE
  5
6E8
  8
SIZE
  6
CONTINUOUS
 62
    30
 10
755.0
 20
827.981979
 30
0.0
 40
10.0
  0
LINE
  5
6E9
  8
SIZE
  6
CONTINUOUS
 62
    30
 10
755.0
 20
827.981979
 30
0.0
 11
771.0
 21
827.981979
 31
0.0
  0
LINE
  5
6EA
  8
SIZE
  6
CONTINUOUS
 62
    30
 10
735.0
 20
827.981979
 30
0.0
 11
715.0
 21
827.981979
 31
0.0
  0
LINE
  5
6EB
  8
SIZE
  6
CONTINUOUS
 62
    30
 10
791.0
 20
827.981979
 30
0.0
 11
909.142857
 21
827.981979
 31
0.0
  0
TEXT
  5
6EC
  8
SIZE
  6
CONTINUOUS
 62
    30
 10
829.0
 20
845.981979
 30
0.0
 40
50.0
  1
16
 41
0.9
 72
     1
 11
860.071429
 21
845.981979
 31
0.0
  0
LINE
  5
6ED
  8
SIZE
  6
CONTINUOUS
 62
    30
 10
781.0
 20
939.488623
 30
0.0
 11
791.0
 21
939.488623
 31
0.0
  0
CIRCLE
  5
6EE
  8
SIZE
  6
CONTINUOUS
 62
    30
 10
771.0
 20
1069.862027
 30
0.0
 40
10.0
  0
LINE
  5
6EF
  8
SIZE
  6
CONTINUOUS
 62
    30
 10
738.0
 20
939.488623
 30
0.0
 11
728.0
 21
939.488623
 31
0.0
  0
CIRCLE
  5
6F0
  8
SIZE
  6
CONTINUOUS
 62
    30
 10
748.0
 20
939.488623
 30
0.0
 40
10.0
  0
POINT
  5
6F1
  8
DEFPOINTS
  6
CONTINUOUS
 62
     7
 10
748.0
 20
939.488623
 30
0.0
  0
CIRCLE
  5
6F2
  8
SIZE
  6
CONTINUOUS
 62
    30
 10
771.0
 20
939.488623
 30
0.0
 40
10.0
  0
LINE
  5
6F3
  8
SIZE
  6
CONTINUOUS
 62
    30
 10
738.0
 20
939.488623
 30
0.0
 11
728.0
 21
939.488623
 31
0.0
  0
CIRCLE
  5
6F4
  8
SIZE
  6
CONTINUOUS
 62
    30
 10
748.0
 20
939.488623
 30
0.0
 40
10.0
  0
LINE
  5
6F5
  8
SIZE
  6
CONTINUOUS
 62
    30
 10
748.0
 20
939.488623
 30
0.0
 11
771.0
 21
939.488623
 31
0.0
  0
LINE
  5
6F6
  8
SIZE
  6
CONTINUOUS
 62
    30
 10
728.0
 20
939.488623
 30
0.0
 11
708.0
 21
939.488623
 31
0.0
  0
POINT
  5
6F7
  8
DEFPOINTS
  6
CONTINUOUS
 62
     7
 10
771.0
 20
1069.862027
 30
0.0
  0
LINE
  5
6F8
  8
SIZE
  6
CONTINUOUS
 62
    30
 10
761.0
 20
1069.862027
 30
0.0
 11
751.0
 21
1069.862027
 31
0.0
  0
LINE
  5
6F9
  8
SIZE
  6
CONTINUOUS
 62
    30
 10
791.0
 20
939.488623
 30
0.0
 11
919.857143
 21
939.488623
 31
0.0
  0
TEXT
  5
6FA
  8
SIZE
  6
CONTINUOUS
 62
    30
 10
829.0
 20
957.488623
 30
0.0
 40
50.0
  1
23
 41
0.9
 72
     1
 11
865.428571
 21
957.488623
 31
0.0
  0
TEXT
  5
6FB
  8
NOTE
  6
CONTINUOUS
 62
     4
 10
1123.990268
 20
675.58836
 30
0.0
 40
60.0
  1
外気取入口
 50
0.000003
 41
0.7
  7
STANDARD1
  0
ENDSEC
  0
EOF
