  0
SECTION
  2
HEADER
  9
$ACADVER
  1
AC1009
  9
$INSBASE
 10
0.0
 20
0.0
 30
0.0
  9
$EXTMIN
 10
-1797.982682
 20
-400.256374
 30
0.0
  9
$EXTMAX
 10
2002.017259
 20
1214.165017
 30
0.0
  9
$LIMMIN
 10
-4267.152221
 20
-2696.08321
  9
$LIMMAX
 10
7190.717423
 20
5141.155364
  9
$ORTHOMODE
 70
     0
  9
$REGENMODE
 70
     1
  9
$FILLMODE
 70
     1
  9
$QTEXTMODE
 70
     0
  9
$MIRRTEXT
 70
     0
  9
$DRAGMODE
 70
     2
  9
$LTSCALE
 40
20.0
  9
$OSMODE
 70
    37
  9
$ATTMODE
 70
     1
  9
$TEXTSIZE
 40
64.0
  9
$TRACEWID
 40
0.05
  9
$TEXTSTYLE
  7
STANDARD1
  9
$CLAYER
  8
NOTE
  9
$CELTYPE
  6
CONTINUOUS
  9
$CECOLOR
 62
     7
  9
$DIMSCALE
 40
1.0
  9
$DIMASZ
 40
20.0
  9
$DIMEXO
 40
20.0
  9
$DIMDLI
 40
80.0
  9
$DIMRND
 40
0.0
  9
$DIMDLE
 40
0.0
  9
$DIMEXE
 40
18.0
  9
$DIMTP
 40
0.0
  9
$DIMTM
 40
0.0
  9
$DIMTXT
 40
55.0
  9
$DIMCEN
 40
0.09
  9
$DIMTSZ
 40
0.0
  9
$DIMTOL
 70
     0
  9
$DIMLIM
 70
     0
  9
$DIMTIH
 70
     0
  9
$DIMTOH
 70
     0
  9
$DIMSE1
 70
     0
  9
$DIMSE2
 70
     0
  9
$DIMTAD
 70
     1
  9
$DIMZIN
 70
     8
  9
$DIMBLK
  1
_ORIGIN
  9
$DIMASO
 70
     1
  9
$DIMSHO
 70
     0
  9
$DIMPOST
  1

  9
$DIMAPOST
  1

  9
$DIMALT
 70
     0
  9
$DIMALTD
 70
     2
  9
$DIMALTF
 40
25.4
  9
$DIMLFAC
 40
1.0
  9
$DIMTOFL
 70
     0
  9
$DIMTVP
 40
0.0
  9
$DIMTIX
 70
     0
  9
$DIMSOXD
 70
     0
  9
$DIMSAH
 70
     0
  9
$DIMBLK1
  1

  9
$DIMBLK2
  1

  9
$DIMSTYLE
  2
STANDARD
  9
$DIMCLRD
 70
     0
  9
$DIMCLRE
 70
     0
  9
$DIMCLRT
 70
     0
  9
$DIMTFAC
 40
1.0
  9
$DIMGAP
 40
0.09
  9
$LUNITS
 70
     2
  9
$LUPREC
 70
     4
  9
$SKETCHINC
 40
0.1
  9
$FILLETRAD
 40
0.8
  9
$AUNITS
 70
     1
  9
$AUPREC
 70
     3
  9
$MENU
  1
ACAD
  9
$ELEVATION
 40
0.0
  9
$PELEVATION
 40
0.0
  9
$THICKNESS
 40
0.0
  9
$LIMCHECK
 70
     0
  9
$BLIPMODE
 70
     0
  9
$CHAMFERA
 40
0.0
  9
$CHAMFERB
 40
0.0
  9
$SKPOLY
 70
     0
  9
$TDCREATE
 40
2450330.439931
  9
$TDUPDATE
 40
2454503.674758
  9
$TDINDWG
 40
3.674411
  9
$TDUSRTIMER
 40
3.674411
  9
$USRTIMER
 70
     1
  9
$ANGBASE
 50
0.0
  9
$ANGDIR
 70
     0
  9
$PDMODE
 70
     3
  9
$PDSIZE
 40
-2.0
  9
$PLINEWID
 40
0.0
  9
$COORDS
 70
     1
  9
$SPLFRAME
 70
     0
  9
$SPLINETYPE
 70
     6
  9
$SPLINESEGS
 70
     8
  9
$ATTDIA
 70
     0
  9
$ATTREQ
 70
     1
  9
$HANDLING
 70
     1
  9
$HANDSEED
  5
628
  9
$SURFTAB1
 70
     6
  9
$SURFTAB2
 70
     6
  9
$SURFTYPE
 70
     6
  9
$SURFU
 70
     6
  9
$SURFV
 70
     6
  9
$UCSNAME
  2

  9
$UCSORG
 10
0.0
 20
0.0
 30
0.0
  9
$UCSXDIR
 10
1.0
 20
0.0
 30
0.0
  9
$UCSYDIR
 10
0.0
 20
1.0
 30
0.0
  9
$PUCSNAME
  2

  9
$PUCSORG
 10
0.0
 20
0.0
 30
0.0
  9
$PUCSXDIR
 10
1.0
 20
0.0
 30
0.0
  9
$PUCSYDIR
 10
0.0
 20
1.0
 30
0.0
  9
$USERI1
 70
     0
  9
$USERI2
 70
     0
  9
$USERI3
 70
     0
  9
$USERI4
 70
     0
  9
$USERI5
 70
     0
  9
$USERR1
 40
20.0
  9
$USERR2
 40
0.0
  9
$USERR3
 40
0.0
  9
$USERR4
 40
0.0
  9
$USERR5
 40
0.0
  9
$WORLDVIEW
 70
     1
  9
$SHADEDGE
 70
     3
  9
$SHADEDIF
 70
    70
  9
$TILEMODE
 70
     1
  9
$MAXACTVP
 70
    48
  9
$PLIMCHECK
 70
     0
  9
$PEXTMIN
 10
1.000000E+020
 20
1.000000E+020
 30
1.000000E+020
  9
$PEXTMAX
 10
-1.000000E+020
 20
-1.000000E+020
 30
-1.000000E+020
  9
$PLIMMIN
 10
0.0
 20
0.0
  9
$PLIMMAX
 10
12.0
 20
9.0
  9
$UNITMODE
 70
     0
  9
$VISRETAIN
 70
     1
  9
$PLINEGEN
 70
     0
  9
$PSLTSCALE
 70
     1
  0
ENDSEC
  0
SECTION
  2
TABLES
  0
TABLE
  2
VPORT
 70
     3
  0
VPORT
  2
*ACTIVE
 70
     0
 10
0.0
 20
0.0
 11
1.0
 21
1.0
 12
1645.853864
 22
1222.536077
 13
0.0
 23
0.0
 14
50.0
 24
50.0
 15
100.0
 25
100.0
 16
0.0
 26
0.0
 36
1.0
 17
0.0
 27
0.0
 37
0.0
 40
7837.238574
 41
1.508951
 42
50.0
 43
0.0
 44
0.0
 50
0.0
 51
0.0
 71
     0
 72
  1000
 73
     1
 74
     0
 75
     0
 76
     0
 77
     0
 78
     0
  0
ENDTAB
  0
TABLE
  2
LTYPE
 70
     2
  0
LTYPE
  2
CONTINUOUS
 70
     0
  3
実線
 72
    65
 73
     0
 40
0.0
  0
LTYPE
  2
DASHDOT
 70
     0
  3
____ _ ____ _ ____ _ ____ _ ____ _ ____ _ ____
 72
    65
 73
     4
 40
5.5
 49
4.0
 49
-0.6
 49
0.3
 49
-0.6
  0
ENDTAB
  0
TABLE
  2
LAYER
 70
    12
  0
LAYER
  2
0
 70
     0
 62
     7
  6
CONTINUOUS
  0
LAYER
  2
NOTE
 70
     0
 62
     4
  6
CONTINUOUS
  0
LAYER
  2
OUTLINE
 70
     0
 62
     3
  6
CONTINUOUS
  0
LAYER
  2
DETAIL
 70
     0
 62
     5
  6
CONTINUOUS
  0
LAYER
  2
BASIS
 70
     0
 62
     6
  6
DASHDOT
  0
LAYER
  2
SIZE
 70
     0
 62
    30
  6
CONTINUOUS
  0
LAYER
  2
ARRANGE
 70
     0
 62
     1
  6
CONTINUOUS
  0
LAYER
  2
FIX
 70
     0
 62
    11
  6
CONTINUOUS
  0
LAYER
  2
SERVICESPACE
 70
     0
 62
     2
  6
DASHDOT
  0
LAYER
  2
ETC
 70
     0
 62
    61
  6
CONTINUOUS
  0
LAYER
  2
SYMBOLLINE
 70
     0
 62
    15
  6
CONTINUOUS
  0
LAYER
  2
DEFPOINTS
 70
     0
 62
     7
  6
CONTINUOUS
  0
ENDTAB
  0
TABLE
  2
STYLE
 70
     3
  0
STYLE
  2
STANDARD
 70
     0
 40
0.0
 41
0.9
 50
0.0
 71
     0
 42
64.0
  3
SIMPLEX
  4
BIGFONT
  0
STYLE
  2
STANDARD1
 70
     0
 40
0.0
 41
1.0
 50
0.0
 71
     0
 42
64.0
  3
MONOTXT
  4
BIGFONT
  0
STYLE
  2

 70
     1
 40
0.0
 41
1.0
 50
0.0
 71
     0
 42
64.0
  3
ltypeshp.shx
  4

  0
ENDTAB
  0
TABLE
  2
VIEW
 70
     1
  0
VIEW
  2
ALL
 70
     0
 40
9000.0
 10
241.506647
 20
0.0
 41
12483.01
 11
0.0
 21
0.0
 31
1.0
 12
0.0
 22
0.0
 32
0.0
 42
50.0
 43
0.0
 44
0.0
 50
0.0
 71
     0
  0
ENDTAB
  0
TABLE
  2
UCS
 70
     0
  0
ENDTAB
  0
TABLE
  2
APPID
 70
     1
  0
APPID
  2
ACAD
 70
     0
  0
ENDTAB
  0
TABLE
  2
DIMSTYLE
 70
     1
  0
DIMSTYLE
  2
STANDARD
 70
     0
  3

  4

  5

  6

  7

 40
1.0
 41
0.18
 42
0.0625
 43
0.38
 44
0.18
 45
0.0
 46
0.0
 47
0.0
 48
0.0
140
0.18
141
0.09
142
0.0
143
25.4
144
1.0
145
0.0
146
1.0
147
0.09
 71
     0
 72
     0
 73
     1
 74
     1
 75
     0
 76
     0
 77
     0
 78
     0
170
     0
171
     2
172
     0
173
     0
174
     0
175
     0
176
     0
177
     0
178
     0
  0
ENDTAB
  0
ENDSEC
  0
SECTION
  2
BLOCKS
  0
BLOCK
  8
0
  2
$MODEL_SPACE
 70
     0
 10
0.0
 20
0.0
 30
0.0
  3
$MODEL_SPACE
  1

  0
ENDBLK
  5
239
  8
0
  0
BLOCK
 67
     1
  8
0
  2
$PAPER_SPACE
 70
     0
 10
0.0
 20
0.0
 30
0.0
  3
$PAPER_SPACE
  1

  0
ENDBLK
  5
236
 67
     1
  8
0
  0
BLOCK
  8
0
  2
_ORIGIN
 70
     0
 10
0.0
 20
0.0
 30
0.0
  3
_ORIGIN
  1

  0
CIRCLE
  5
34
  8
0
  6
CONTINUOUS
 62
     7
 10
0.0
 20
0.0
 30
0.0
 40
0.5
  0
LINE
  5
35
  8
0
  6
CONTINUOUS
 62
     7
 10
-0.5
 20
0.0
 30
0.0
 11
-1.0
 21
0.0
 31
0.0
  0
ENDBLK
  5
36
  8
0
  0
BLOCK
  8
0
 62
     7
  2
A$C1C635C38
 70
     0
 10
0.0
 20
0.0
 30
0.0
  3
A$C1C635C38
  1

  0
LINE
  5
25A
  8
SIZE
  6
CONTINUOUS
 62
    30
 10
2623.892624
 20
723.787592
 30
0.0
 11
3275.114234
 21
723.787592
 31
0.0
  0
LINE
  5
25B
  8
SIZE
  6
CONTINUOUS
 62
    30
 10
2570.224289
 20
871.787592
 30
0.0
 11
3275.114234
 21
871.787592
 31
0.0
  0
LINE
  5
25C
  8
SIZE
  6
CONTINUOUS
 62
    30
 10
2630.226378
 20
665.787592
 30
0.0
 11
3389.744659
 21
665.787592
 31
0.0
  0
LINE
  5
25D
  8
SIZE
  6
CONTINUOUS
 62
    30
 10
2570.224289
 20
871.787592
 30
0.0
 11
3389.744659
 21
871.787592
 31
0.0
  0
LINE
  5
25E
  8
SIZE
  6
CONTINUOUS
 62
    30
 10
2643.885624
 20
637.787592
 30
0.0
 11
3389.744659
 21
637.787592
 31
0.0
  0
LINE
  5
25F
  8
SIZE
  6
CONTINUOUS
 62
    30
 10
2630.226378
 20
665.787592
 30
0.0
 11
3389.744659
 21
665.787592
 31
0.0
  0
LINE
  5
260
  8
NOTE
  6
CONTINUOUS
 62
     4
 10
3420.719854
 20
177.148456
 30
0.0
 11
2980.266776
 21
177.148456
 31
0.0
  0
TEXT
  5
261
  8
NOTE
  6
CONTINUOUS
 62
     4
 10
3001.942047
 20
192.974987
 30
0.0
 40
60.0
  1
D2（自然排水口）
 50
0.000003
 41
0.7
  7
STANDARD1
  0
LINE
  5
262
  8
SIZE
  6
CONTINUOUS
 62
    30
 10
2570.224289
 20
871.787592
 30
0.0
 11
3497.210668
 21
871.787592
 31
0.0
  0
LINE
  5
263
  8
SIZE
  6
CONTINUOUS
 62
    30
 10
2575.724289
 20
566.787592
 30
0.0
 11
3497.210668
 21
566.787592
 31
0.0
  0
LINE
  5
264
  8
SIZE
  6
CONTINUOUS
 62
    30
 10
2555.222493
 20
538.787592
 30
0.0
 11
3609.452965
 21
538.787592
 31
0.0
  0
LINE
  5
265
  8
SIZE
  6
CONTINUOUS
 62
    30
 10
2570.224289
 20
871.787592
 30
0.0
 11
3609.452965
 21
871.787592
 31
0.0
  0
LINE
  5
266
  8
SIZE
  6
CONTINUOUS
 62
    30
 10
2860.224289
 20
398.787592
 30
0.0
 11
3609.452965
 21
398.787592
 31
0.0
  0
LINE
  5
267
  8
SIZE
  6
CONTINUOUS
 62
    30
 10
2555.222493
 20
538.787592
 30
0.0
 11
3609.452965
 21
538.787592
 31
0.0
  0
LINE
  5
268
  8
DETAIL
  6
CONTINUOUS
 62
     5
 10
1002.224289
 20
398.787592
 30
0.0
 11
2592.224289
 21
398.787592
 31
0.0
  0
LINE
  5
269
  8
OUTLINE
  6
CONTINUOUS
 62
     3
 10
1058.135789
 20
445.787592
 30
0.0
 11
2536.312789
 21
445.787592
 31
0.0
  0
LINE
  5
26A
  8
OUTLINE
  6
CONTINUOUS
 62
     3
 10
1033.407506
 20
390.787592
 30
0.0
 11
2561.041072
 21
390.787592
 31
0.0
  0
LINE
  5
26B
  8
SIZE
  6
CONTINUOUS
 62
    30
 10
1042.224289
 20
159.189535
 30
0.0
 11
2552.224289
 21
159.189535
 31
0.0
  0
LINE
  5
26C
  8
SIZE
  6
CONTINUOUS
 62
    30
 10
2572.224289
 20
61.498142
 30
0.0
 11
1022.224289
 21
61.498142
 31
0.0
  0
LINE
  5
26D
  8
DETAIL
  6
CONTINUOUS
 62
     5
 10
1033.407506
 20
390.787592
 30
0.0
 11
2561.041072
 21
390.787592
 31
0.0
  0
LINE
  5
26E
  8
DETAIL
  6
CONTINUOUS
 62
     5
 10
1058.135789
 20
445.787592
 30
0.0
 11
2536.312789
 21
445.787592
 31
0.0
  0
LINE
  5
26F
  8
OUTLINE
  6
CONTINUOUS
 62
     3
 10
2552.224289
 20
871.787592
 30
0.0
 11
1042.224289
 21
871.787592
 31
0.0
  0
LINE
  5
270
  8
OUTLINE
  6
CONTINUOUS
 62
     3
 10
2552.224289
 20
538.787592
 30
0.0
 11
1042.224289
 21
538.787592
 31
0.0
  0
LINE
  5
271
  8
DETAIL
  6
CONTINUOUS
 62
     5
 10
1084.19938
 20
843.800526
 30
0.0
 11
2510.219259
 21
843.800526
 31
0.0
  0
LINE
  5
272
  8
DETAIL
  6
CONTINUOUS
 62
     5
 10
1047.224888
 20
566.190873
 30
0.0
 11
2547.22369
 21
566.190873
 31
0.0
  0
LINE
  5
273
  8
DETAIL
  6
CONTINUOUS
 62
     5
 10
1084.19938
 20
627.774658
 30
0.0
 11
2510.219259
 21
627.774658
 31
0.0
  0
LINE
  5
274
  8
DETAIL
  6
CONTINUOUS
 62
     5
 10
2537.222493
 20
538.787592
 30
0.0
 11
1057.226085
 21
538.787592
 31
0.0
  0
LINE
  5
275
  8
DETAIL
  6
CONTINUOUS
 62
     5
 10
2534.222133
 20
553.789388
 30
0.0
 11
1060.226445
 21
553.789388
 31
0.0
  0
LINE
  5
276
  8
DETAIL
  6
CONTINUOUS
 62
     5
 10
2552.224289
 20
871.787592
 30
0.0
 11
1042.224289
 21
871.787592
 31
0.0
  0
LINE
  5
277
  8
SIZE
  6
CONTINUOUS
 62
    30
 10
1069.224289
 20
1331.013271
 30
0.0
 11
2525.224289
 21
1331.013271
 31
0.0
  0
LINE
  5
278
  8
SIZE
  6
CONTINUOUS
 62
    30
 10
2548.224289
 20
1444.894855
 30
0.0
 11
1046.224289
 21
1444.894855
 31
0.0
  0
LINE
  5
279
  8
SIZE
  6
CONTINUOUS
 62
    30
 10
1062.224289
 20
1226.769571
 30
0.0
 11
2532.224289
 21
1226.769571
 31
0.0
  0
LINE
  5
27A
  8
OUTLINE
  6
CONTINUOUS
 62
     3
 10
1002.224289
 20
394.780604
 30
0.0
 11
1002.224289
 21
398.787592
 31
0.0
  0
CIRCLE
  5
27B
  8
SIZE
  6
CONTINUOUS
 62
    30
 10
834.302702
 20
398.787592
 30
0.0
 40
10.0
  0
CIRCLE
  5
27C
  8
SIZE
  6
CONTINUOUS
 62
    30
 10
834.302702
 20
390.787592
 30
0.0
 40
10.0
  0
CIRCLE
  5
27D
  8
SIZE
  6
CONTINUOUS
 62
    30
 10
834.302702
 20
398.787592
 30
0.0
 40
10.0
  0
LINE
  5
27E
  8
SIZE
  6
CONTINUOUS
 62
    30
 10
834.302702
 20
398.787592
 30
0.0
 11
834.302702
 21
390.787592
 31
0.0
  0
LINE
  5
27F
  8
SIZE
  6
CONTINUOUS
 62
    30
 10
1042.224289
 20
520.787592
 30
0.0
 11
1042.224289
 21
222.178198
 31
0.0
  0
LINE
  5
280
  8
DETAIL
  6
CONTINUOUS
 62
     5
 10
1002.224289
 20
394.780604
 30
0.0
 11
1002.224289
 21
398.787592
 31
0.0
  0
ARC
  5
281
  8
OUTLINE
  6
CONTINUOUS
 62
     3
 10
1032.927966
 20
510.801005
 30
0.0
 40
120.014371
 50
255.17703
 51
270.228937
  0
CIRCLE
  5
282
  8
SIZE
  6
CONTINUOUS
 62
    30
 10
1022.224289
 20
252.178198
 30
0.0
 40
10.0
  0
CIRCLE
  5
283
  8
SIZE
  6
CONTINUOUS
 62
    30
 10
1022.224289
 20
159.189535
 30
0.0
 40
10.0
  0
CIRCLE
  5
284
  8
SIZE
  6
CONTINUOUS
 62
    30
 10
1022.224289
 20
159.189535
 30
0.0
 40
10.0
  0
LINE
  5
285
  8
SIZE
  6
CONTINUOUS
 62
    30
 10
1022.224289
 20
159.189535
 30
0.0
 11
1002.224289
 21
159.189535
 31
0.0
  0
LINE
  5
286
  8
SIZE
  6
CONTINUOUS
 62
    30
 10
1012.224289
 20
61.498142
 30
0.0
 11
1022.224289
 21
61.498142
 31
0.0
  0
ARC
  5
287
  8
DETAIL
  6
CONTINUOUS
 62
     5
 10
1032.927966
 20
510.801005
 30
0.0
 40
120.014371
 50
255.17703
 51
270.228937
  0
LINE
  5
288
  8
SIZE
  6
CONTINUOUS
 62
    30
 10
1002.224289
 20
376.780604
 30
0.0
 11
1002.224289
 21
31.498142
 31
0.0
  0
POINT
  5
289
  8
DEFPOINTS
  6
CONTINUOUS
 62
     7
 10
1002.224289
 20
61.498142
 30
0.0
  0
CIRCLE
  5
28A
  8
SIZE
  6
CONTINUOUS
 62
    30
 10
1002.224289
 20
61.498142
 30
0.0
 40
10.0
  0
TEXT
  5
28B
  8
SIZE
  6
CONTINUOUS
 62
    30
 10
816.302702
 20
302.787592
 30
0.0
 40
50.0
  1
8
 50
90.0
 41
0.9
 72
     1
 11
816.302702
 21
317.787592
 31
0.0
  0
LINE
  5
28C
  8
SIZE
  6
CONTINUOUS
 62
    30
 10
1002.224289
 20
376.780604
 30
0.0
 11
1002.224289
 21
129.189535
 31
0.0
  0
TEXT
  5
28D
  8
SIZE
  6
CONTINUOUS
 62
    30
 10
871.367147
 20
177.189535
 30
0.0
 40
50.0
  1
20
 41
0.9
 72
     1
 11
907.795718
 21
177.189535
 31
0.0
  0
LINE
  5
28E
  8
SIZE
  6
CONTINUOUS
 62
    30
 10
982.224289
 20
159.189535
 30
0.0
 11
853.367146
 21
159.189535
 31
0.0
  0
POINT
  5
28F
  8
DEFPOINTS
  6
CONTINUOUS
 62
     7
 10
1002.224289
 20
159.189535
 30
0.0
  0
LINE
  5
290
  8
SIZE
  6
CONTINUOUS
 62
    30
 10
992.224289
 20
159.189535
 30
0.0
 11
982.224289
 21
159.189535
 31
0.0
  0
CIRCLE
  5
291
  8
SIZE
  6
CONTINUOUS
 62
    30
 10
1002.224289
 20
159.189535
 30
0.0
 40
10.0
  0
LINE
  5
292
  8
SIZE
  6
CONTINUOUS
 62
    30
 10
1015.407506
 20
390.787592
 30
0.0
 11
804.302702
 21
390.787592
 31
0.0
  0
LINE
  5
293
  8
SIZE
  6
CONTINUOUS
 62
    30
 10
834.302702
 20
388.787592
 30
0.0
 11
834.302702
 21
378.787592
 31
0.0
  0
LINE
  5
294
  8
SIZE
  6
CONTINUOUS
 62
    30
 10
834.302702
 20
378.787592
 30
0.0
 11
834.302702
 21
358.787592
 31
0.0
  0
POINT
  5
295
  8
DEFPOINTS
  6
CONTINUOUS
 62
     7
 10
834.302702
 20
390.787592
 30
0.0
  0
LINE
  5
296
  8
SIZE
  6
CONTINUOUS
 62
    30
 10
834.302702
 20
380.787592
 30
0.0
 11
834.302702
 21
370.787592
 31
0.0
  0
LINE
  5
297
  8
SIZE
  6
CONTINUOUS
 62
    30
 10
834.302702
 20
370.787592
 30
0.0
 11
834.302702
 21
284.787592
 31
0.0
  0
LINE
  5
298
  8
SIZE
  6
CONTINUOUS
 62
    30
 10
1012.224289
 20
252.178198
 30
0.0
 11
1002.224289
 21
252.178198
 31
0.0
  0
LINE
  5
299
  8
SIZE
  6
CONTINUOUS
 62
    30
 10
1002.224289
 20
252.178198
 30
0.0
 11
982.224289
 21
252.178198
 31
0.0
  0
POINT
  5
29A
  8
DEFPOINTS
  6
CONTINUOUS
 62
     7
 10
1002.224289
 20
394.780604
 30
0.0
  0
POINT
  5
29B
  8
DEFPOINTS
  6
CONTINUOUS
 62
     7
 10
1002.224289
 20
394.780604
 30
0.0
  0
LINE
  5
29C
  8
SIZE
  6
CONTINUOUS
 62
    30
 10
1062.224289
 20
252.178198
 30
0.0
 11
1395.081432
 21
252.178198
 31
0.0
  0
CIRCLE
  5
29D
  8
SIZE
  6
CONTINUOUS
 62
    30
 10
1042.224289
 20
252.178198
 30
0.0
 40
10.0
  0
LINE
  5
29E
  8
SIZE
  6
CONTINUOUS
 62
    30
 10
1022.224289
 20
381.787592
 30
0.0
 11
1022.224289
 21
222.178198
 31
0.0
  0
LINE
  5
29F
  8
SIZE
  6
CONTINUOUS
 62
    30
 10
1022.224289
 20
381.787592
 30
0.0
 11
1022.224289
 21
129.189535
 31
0.0
  0
LINE
  5
2A0
  8
SIZE
  6
CONTINUOUS
 62
    30
 10
1022.224289
 20
381.787592
 30
0.0
 11
1022.224289
 21
129.189535
 31
0.0
  0
LINE
  5
2A1
  8
SIZE
  6
CONTINUOUS
 62
    30
 10
1032.224289
 20
159.189535
 30
0.0
 11
1042.224289
 21
159.189535
 31
0.0
  0
LINE
  5
2A2
  8
SIZE
  6
CONTINUOUS
 62
    30
 10
1032.224289
 20
159.189535
 30
0.0
 11
1042.224289
 21
159.189535
 31
0.0
  0
LINE
  5
2A3
  8
SIZE
  6
CONTINUOUS
 62
    30
 10
1042.224289
 20
159.189535
 30
0.0
 11
1062.224289
 21
159.189535
 31
0.0
  0
POINT
  5
2A4
  8
DEFPOINTS
  6
CONTINUOUS
 62
     7
 10
1033.407506
 20
390.787592
 30
0.0
  0
POINT
  5
2A5
  8
DEFPOINTS
  6
CONTINUOUS
 62
     7
 10
1022.224289
 20
252.178198
 30
0.0
  0
LINE
  5
2A6
  8
SIZE
  6
CONTINUOUS
 62
    30
 10
1052.224289
 20
252.178198
 30
0.0
 11
1062.224289
 21
252.178198
 31
0.0
  0
LINE
  5
2A7
  8
SIZE
  6
CONTINUOUS
 62
    30
 10
1022.224289
 20
252.178198
 30
0.0
 11
1042.224289
 21
252.178198
 31
0.0
  0
TEXT
  5
2A8
  8
SIZE
  6
CONTINUOUS
 62
    30
 10
1304.224289
 20
270.178198
 30
0.0
 40
50.0
  1
20
 41
0.9
 72
     1
 11
1340.65286
 21
270.178198
 31
0.0
  0
TEXT
  5
2A9
  8
NOTE
  6
CONTINUOUS
 62
     4
 10
172.675435
 20
1214.678921
 30
0.0
 40
60.0
  1
AH 4-14×30長穴(M10)
 50
0.000003
 41
0.7
  7
STANDARD1
  0
LINE
  5
2AA
  8
NOTE
  6
CONTINUOUS
 62
     4
 10
159.650079
 20
1198.85236
 30
0.0
 11
888.750707
 21
1198.85236
 31
0.0
  0
TEXT
  5
2AB
  8
NOTE
  6
CONTINUOUS
 62
     4
 10
23.932355
 20
1003.695542
 30
0.0
 40
60.0
  1
外気取入口 %%C150（ノックアウト穴）
 50
0.000003
 41
0.7
  7
STANDARD1
  0
LINE
  5
2AC
  8
NOTE
  6
CONTINUOUS
 62
     4
 10
-0.000011
 20
986.056121
 30
0.0
 11
908.808868
 21
986.056121
 31
0.0
  0
TEXT
  5
2AD
  8
ETC
  6
CONTINUOUS
 62
    61
 10
150.148269
 20
1547.63125
 30
0.0
 40
65.0
  1
MPD-RP112_160FA3_3
 50
0.000003
 41
0.85
  7
STANDARD1
  0
POLYLINE
  5
2AE
  8
NOTE
  6
CONTINUOUS
 62
     4
 66
     1
 10
0.0
 20
0.0
 30
0.0
  0
VERTEX
  5
2AF
  8
NOTE
  6
CONTINUOUS
 62
     4
 10
1049.224289
 20
871.787592
 30
0.0
  0
VERTEX
  5
2B0
  8
NOTE
  6
CONTINUOUS
 62
     4
 10
888.750707
 20
1198.85236
 30
0.0
  0
SEQEND
  5
2B1
  8
NOTE
  6
CONTINUOUS
 62
     4
  0
LINE
  5
2B2
  8
SIZE
  6
CONTINUOUS
 62
    30
 10
1049.224289
 20
909.789987
 30
0.0
 11
1049.224289
 21
1361.013271
 31
0.0
  0
LINE
  5
2B3
  8
SIZE
  6
CONTINUOUS
 62
    30
 10
1026.224289
 20
885.487077
 30
0.0
 11
1026.224289
 21
1361.013271
 31
0.0
  0
LINE
  5
2B4
  8
SIZE
  6
CONTINUOUS
 62
    30
 10
1049.224289
 20
902.489987
 30
0.0
 11
1049.224289
 21
1361.013271
 31
0.0
  0
LINE
  5
2B5
  8
SIZE
  6
CONTINUOUS
 62
    30
 10
1026.224289
 20
885.487077
 30
0.0
 11
1026.224289
 21
1474.894855
 31
0.0
  0
LINE
  5
2B6
  8
SIZE
  6
CONTINUOUS
 62
    30
 10
1026.224289
 20
880.487077
 30
0.0
 11
1026.224289
 21
1256.769571
 31
0.0
  0
LINE
  5
2B7
  8
SIZE
  6
CONTINUOUS
 62
    30
 10
1042.224289
 20
889.787592
 30
0.0
 11
1042.224289
 21
1256.769571
 31
0.0
  0
LINE
  5
2B8
  8
SIZE
  6
CONTINUOUS
 62
    30
 10
1042.224289
 20
889.787592
 30
0.0
 11
1042.224289
 21
1256.769571
 31
0.0
  0
LINE
  5
2B9
  8
OUTLINE
  6
CONTINUOUS
 62
     3
 10
1002.224289
 20
398.787592
 30
0.0
 11
1058.135789
 21
398.787592
 31
0.0
  0
LINE
  5
2BA
  8
SIZE
  6
CONTINUOUS
 62
    30
 10
1040.135789
 20
445.787592
 30
0.0
 11
804.302702
 21
445.787592
 31
0.0
  0
LINE
  5
2BB
  8
NOTE
  6
CONTINUOUS
 62
     4
 10
1022.224289
 20
399.787592
 30
0.0
 11
920.91684
 21
399.787592
 31
0.0
  0
LINE
  5
2BC
  8
NOTE
  6
CONTINUOUS
 62
     4
 10
1022.224289
 20
419.787592
 30
0.0
 11
920.91684
 21
419.787592
 31
0.0
  0
LINE
  5
2BD
  8
NOTE
  6
CONTINUOUS
 62
     4
 10
1042.224289
 20
735.787592
 30
0.0
 11
1021.018184
 21
758.479402
 31
0.0
  0
POLYLINE
  5
2BE
  8
NOTE
  6
CONTINUOUS
 62
     4
 66
     1
 10
0.0
 20
0.0
 30
0.0
  0
VERTEX
  5
2BF
  8
NOTE
  6
CONTINUOUS
 62
     4
 10
1042.224289
 20
735.787592
 30
0.0
  0
VERTEX
  5
2C0
  8
NOTE
  6
CONTINUOUS
 62
     4
 10
908.808868
 20
986.056121
 30
0.0
  0
SEQEND
  5
2C1
  8
NOTE
  6
CONTINUOUS
 62
     4
  0
LINE
  5
2C2
  8
SIZE
  6
CONTINUOUS
 62
    30
 10
1024.224289
 20
871.787592
 30
0.0
 11
808.846315
 21
871.787592
 31
0.0
  0
TEXT
  5
2C3
  8
SIZE
  6
CONTINUOUS
 62
    30
 10
816.302702
 20
564.780851
 30
0.0
 40
50.0
  1
47
 50
90.0
 41
0.9
 72
     1
 11
816.302702
 21
601.209422
 31
0.0
  0
LINE
  5
2C4
  8
SIZE
  6
CONTINUOUS
 62
    30
 10
834.302702
 20
465.787592
 30
0.0
 11
834.302702
 21
655.637994
 31
0.0
  0
LINE
  5
2C5
  8
SIZE
  6
CONTINUOUS
 62
    30
 10
984.224289
 20
398.787592
 30
0.0
 11
804.302702
 21
398.787592
 31
0.0
  0
LINE
  5
2C6
  8
SIZE
  6
CONTINUOUS
 62
    30
 10
984.224289
 20
398.787592
 30
0.0
 11
804.302702
 21
398.787592
 31
0.0
  0
POINT
  5
2C7
  8
DEFPOINTS
  6
CONTINUOUS
 62
     7
 10
834.302702
 20
445.787592
 30
0.0
  0
LINE
  5
2C8
  8
SIZE
  6
CONTINUOUS
 62
    30
 10
834.302702
 20
455.787592
 30
0.0
 11
834.302702
 21
465.787592
 31
0.0
  0
CIRCLE
  5
2C9
  8
SIZE
  6
CONTINUOUS
 62
    30
 10
834.302702
 20
445.787592
 30
0.0
 40
10.0
  0
LINE
  5
2CA
  8
SIZE
  6
CONTINUOUS
 62
    30
 10
834.302702
 20
398.787592
 30
0.0
 11
834.302702
 21
445.787592
 31
0.0
  0
LINE
  5
2CB
  8
SIZE
  6
CONTINUOUS
 62
    30
 10
834.302702
 20
408.787592
 30
0.0
 11
834.302702
 21
418.787592
 31
0.0
  0
LINE
  5
2CC
  8
SIZE
  6
CONTINUOUS
 62
    30
 10
834.302702
 20
418.787592
 30
0.0
 11
834.302702
 21
438.787592
 31
0.0
  0
POINT
  5
2CD
  8
DEFPOINTS
  6
CONTINUOUS
 62
     7
 10
1002.224289
 20
398.787592
 30
0.0
  0
POINT
  5
2CE
  8
DEFPOINTS
  6
CONTINUOUS
 62
     7
 10
1002.224289
 20
398.787592
 30
0.0
  0
LINE
  5
2CF
  8
NOTE
  6
CONTINUOUS
 62
     4
 10
931.959281
 20
399.787592
 30
0.0
 11
951.959281
 21
419.787592
 31
0.0
  0
LINE
  5
2D0
  8
NOTE
  6
CONTINUOUS
 62
     4
 10
936.959281
 20
399.787592
 30
0.0
 11
956.959281
 21
419.787592
 31
0.0
  0
LINE
  5
2D1
  8
NOTE
  6
CONTINUOUS
 62
     4
 10
941.959281
 20
399.787592
 30
0.0
 11
961.959281
 21
419.787592
 31
0.0
  0
LINE
  5
2D2
  8
NOTE
  6
CONTINUOUS
 62
     4
 10
971.959281
 20
399.787592
 30
0.0
 11
991.959281
 21
419.787592
 31
0.0
  0
LINE
  5
2D3
  8
NOTE
  6
CONTINUOUS
 62
     4
 10
976.959281
 20
399.787592
 30
0.0
 11
996.959281
 21
419.787592
 31
0.0
  0
LINE
  5
2D4
  8
NOTE
  6
CONTINUOUS
 62
     4
 10
981.959281
 20
399.787592
 30
0.0
 11
1001.959281
 21
419.787592
 31
0.0
  0
TEXT
  5
2D5
  8
SIZE
  6
CONTINUOUS
 62
    30
 10
820.846315
 20
751.287592
 30
0.0
 40
50.0
  1
136
 50
90.0
 41
0.9
 72
     1
 11
820.846315
 21
803.787592
 31
0.0
  0
LINE
  5
2D6
  8
SIZE
  6
CONTINUOUS
 62
    30
 10
838.846315
 20
861.787592
 30
0.0
 11
838.846315
 21
851.787592
 31
0.0
  0
LINE
  5
2D7
  8
SIZE
  6
CONTINUOUS
 62
    30
 10
1004.147884
 20
735.787592
 30
0.0
 11
808.846315
 21
735.787592
 31
0.0
  0
POINT
  5
2D8
  8
DEFPOINTS
  6
CONTINUOUS
 62
     7
 10
838.846315
 20
735.787592
 30
0.0
  0
LINE
  5
2D9
  8
SIZE
  6
CONTINUOUS
 62
    30
 10
838.846315
 20
745.787592
 30
0.0
 11
838.846315
 21
755.787592
 31
0.0
  0
CIRCLE
  5
2DA
  8
SIZE
  6
CONTINUOUS
 62
    30
 10
838.846315
 20
735.787592
 30
0.0
 40
10.0
  0
LINE
  5
2DB
  8
SIZE
  6
CONTINUOUS
 62
    30
 10
838.846315
 20
851.787592
 30
0.0
 11
838.846315
 21
755.787592
 31
0.0
  0
CIRCLE
  5
2DC
  8
SIZE
  6
CONTINUOUS
 62
    30
 10
838.846315
 20
871.787592
 30
0.0
 40
10.0
  0
LINE
  5
2DD
  8
OUTLINE
  6
CONTINUOUS
 62
     3
 10
1042.224289
 20
871.787592
 30
0.0
 11
1042.224289
 21
538.787592
 31
0.0
  0
LINE
  5
2DE
  8
DETAIL
  6
CONTINUOUS
 62
     5
 10
1074.198182
 20
637.775856
 30
0.0
 11
1074.198182
 21
833.799328
 31
0.0
  0
LINE
  5
2DF
  8
DETAIL
  6
CONTINUOUS
 62
     5
 10
1042.224289
 20
871.787592
 30
0.0
 11
1042.224289
 21
620.573796
 31
0.0
  0
LINE
  5
2E0
  8
DETAIL
  6
CONTINUOUS
 62
     5
 10
1057.226085
 20
550.789029
 30
0.0
 11
1057.226085
 21
538.787592
 31
0.0
  0
LINE
  5
2E1
  8
DETAIL
  6
CONTINUOUS
 62
     5
 10
1042.224289
 20
620.573796
 30
0.0
 11
1042.224289
 21
539.587688
 31
0.0
  0
LINE
  5
2E2
  8
OUTLINE
  6
CONTINUOUS
 62
     3
 10
1058.135789
 20
398.787592
 30
0.0
 11
1058.135789
 21
445.787592
 31
0.0
  0
POINT
  5
2E3
  8
DEFPOINTS
  6
CONTINUOUS
 62
     7
 10
1058.135789
 20
445.787592
 30
0.0
  0
POINT
  5
2E4
  8
DEFPOINTS
  6
CONTINUOUS
 62
     7
 10
1022.224289
 20
399.787592
 30
0.0
  0
POINT
  5
2E5
  8
DEFPOINTS
  6
CONTINUOUS
 62
     7
 10
1042.224289
 20
538.787592
 30
0.0
  0
POINT
  5
2E6
  8
DEFPOINTS
  6
CONTINUOUS
 62
     7
 10
1022.224289
 20
399.787592
 30
0.0
  0
POINT
  5
2E7
  8
DEFPOINTS
  6
CONTINUOUS
 62
     7
 10
1022.224289
 20
399.787592
 30
0.0
  0
LINE
  5
2E8
  8
NOTE
  6
CONTINUOUS
 62
     4
 10
1022.224289
 20
399.787592
 30
0.0
 11
1022.224289
 21
419.787592
 31
0.0
  0
LINE
  5
2E9
  8
DETAIL
  6
CONTINUOUS
 62
     5
 10
1058.135789
 20
398.787592
 30
0.0
 11
1058.135789
 21
445.787592
 31
0.0
  0
LINE
  5
2EA
  8
DETAIL
  6
CONTINUOUS
 62
     5
 10
1057.226085
 20
539.587688
 30
0.0
 11
1042.224289
 21
539.587688
 31
0.0
  0
ARC
  5
2EB
  8
DETAIL
  6
CONTINUOUS
 62
     5
 10
1084.19938
 20
637.775856
 30
0.0
 40
10.001198
 50
180.0
 51
270.0
  0
ARC
  5
2EC
  8
DETAIL
  6
CONTINUOUS
 62
     5
 10
1047.224888
 20
571.191472
 30
0.0
 40
5.000599
 50
180.0
 51
270.0
  0
LINE
  5
2ED
  8
DETAIL
  6
CONTINUOUS
 62
     5
 10
1057.226085
 20
550.789029
 30
0.0
 11
1060.226445
 21
553.789388
 31
0.0
  0
LINE
  5
2EE
  8
NOTE
  6
CONTINUOUS
 62
     4
 10
1049.224289
 20
851.785197
 30
0.0
 11
1049.224289
 21
891.789987
 31
0.0
  0
CIRCLE
  5
2EF
  8
FIX
  6
CONTINUOUS
 62
    11
 10
1049.224289
 20
871.787592
 30
0.0
 40
18.598564
  0
LINE
  5
2F0
  8
NOTE
  6
CONTINUOUS
 62
     4
 10
1035.205168
 20
766.042328
 30
0.0
 11
1042.224289
 21
735.787592
 31
0.0
  0
ARC
  5
2F1
  8
DETAIL
  6
CONTINUOUS
 62
     5
 10
1084.19938
 20
833.799328
 30
0.0
 40
10.001198
 50
90.0
 51
180.0
  0
POINT
  5
2F2
  8
DEFPOINTS
  6
CONTINUOUS
 62
     7
 10
1022.147884
 20
735.787592
 30
0.0
  0
LINE
  5
2F3
  8
NOTE
  6
CONTINUOUS
 62
     4
 10
1062.300694
 20
735.787592
 30
0.0
 11
1022.147884
 21
735.787592
 31
0.0
  0
LINE
  5
2F4
  8
NOTE
  6
CONTINUOUS
 62
     4
 10
1042.224289
 20
715.787592
 30
0.0
 11
1042.224289
 21
755.787592
 31
0.0
  0
LINE
  5
2F5
  8
NOTE
  6
CONTINUOUS
 62
     4
 10
1049.224289
 20
871.787592
 30
0.0
 11
1030.285857
 21
891.682743
 31
0.0
  0
LINE
  5
2F6
  8
NOTE
  6
CONTINUOUS
 62
     4
 10
1045.217383
 20
897.642431
 30
0.0
 11
1049.224289
 21
871.787592
 31
0.0
  0
ARC
  5
2F7
  8
DETAIL
  6
CONTINUOUS
 62
     5
 10
1030.524804
 20
867.487077
 30
0.0
 40
4.300515
 50
90.0
 51
180.0
  0
LINE
  5
2F8
  8
DETAIL
  6
CONTINUOUS
 62
     5
 10
1026.224289
 20
867.487077
 30
0.0
 11
1026.224289
 21
859.786155
 31
0.0
  0
LINE
  5
2F9
  8
DETAIL
  6
CONTINUOUS
 62
     5
 10
1028.524564
 20
867.487317
 30
0.0
 11
1028.524564
 21
859.786155
 31
0.0
  0
LINE
  5
2FA
  8
DETAIL
  6
CONTINUOUS
 62
     5
 10
1028.524564
 20
859.786155
 30
0.0
 11
1026.224289
 21
859.786155
 31
0.0
  0
LINE
  5
2FB
  8
DETAIL
  6
CONTINUOUS
 62
     5
 10
1042.224289
 20
871.787592
 30
0.0
 11
1030.524804
 21
871.787592
 31
0.0
  0
LINE
  5
2FC
  8
DETAIL
  6
CONTINUOUS
 62
     5
 10
1042.224289
 20
869.487317
 30
0.0
 11
1030.524564
 21
869.487317
 31
0.0
  0
LINE
  5
2FD
  8
NOTE
  6
CONTINUOUS
 62
     4
 10
1069.225247
 20
871.787592
 30
0.0
 11
1029.223331
 21
871.787592
 31
0.0
  0
ARC
  5
2FE
  8
DETAIL
  6
CONTINUOUS
 62
     5
 10
1030.524564
 20
867.487317
 30
0.0
 40
2.0
 50
90.0
 51
180.0
  0
POINT
  5
2FF
  8
DEFPOINTS
  6
CONTINUOUS
 62
     7
 10
1049.224289
 20
891.789987
 30
0.0
  0
POINT
  5
300
  8
DEFPOINTS
  6
CONTINUOUS
 62
     7
 10
1026.224289
 20
867.487077
 30
0.0
  0
POINT
  5
301
  8
DEFPOINTS
  6
CONTINUOUS
 62
     7
 10
1049.224289
 20
884.489987
 30
0.0
  0
POINT
  5
302
  8
DEFPOINTS
  6
CONTINUOUS
 62
     7
 10
1026.224289
 20
867.487077
 30
0.0
  0
POINT
  5
303
  8
DEFPOINTS
  6
CONTINUOUS
 62
     7
 10
1026.224289
 20
862.487077
 30
0.0
  0
POINT
  5
304
  8
DEFPOINTS
  6
CONTINUOUS
 62
     7
 10
1042.224289
 20
871.787592
 30
0.0
  0
POINT
  5
305
  8
DEFPOINTS
  6
CONTINUOUS
 62
     7
 10
1042.224289
 20
871.787592
 30
0.0
  0
POINT
  5
306
  8
DEFPOINTS
  6
CONTINUOUS
 62
     7
 10
1042.224289
 20
871.787592
 30
0.0
  0
CIRCLE
  5
307
  8
SIZE
  6
CONTINUOUS
 62
    30
 10
1026.224289
 20
1331.013271
 30
0.0
 40
10.0
  0
CIRCLE
  5
308
  8
SIZE
  6
CONTINUOUS
 62
    30
 10
1026.224289
 20
1444.894855
 30
0.0
 40
10.0
  0
CIRCLE
  5
309
  8
SIZE
  6
CONTINUOUS
 62
    30
 10
1026.224289
 20
1226.769571
 30
0.0
 40
10.0
  0
TEXT
  5
30A
  8
SIZE
  6
CONTINUOUS
 62
    30
 10
906.081431
 20
1244.769571
 30
0.0
 40
50.0
  1
16
 41
0.9
 72
     1
 11
937.15286
 21
1244.769571
 31
0.0
  0
LINE
  5
30B
  8
SIZE
  6
CONTINUOUS
 62
    30
 10
1006.224289
 20
1226.769571
 30
0.0
 11
888.081432
 21
1226.769571
 31
0.0
  0
LINE
  5
30C
  8
SIZE
  6
CONTINUOUS
 62
    30
 10
1016.224289
 20
1226.769571
 30
0.0
 11
1006.224289
 21
1226.769571
 31
0.0
  0
TEXT
  5
30D
  8
SIZE
  6
CONTINUOUS
 62
    30
 10
895.367147
 20
1349.013271
 30
0.0
 40
50.0
  1
23
 41
0.9
 72
     1
 11
931.795718
 21
1349.013271
 31
0.0
  0
LINE
  5
30E
  8
SIZE
  6
CONTINUOUS
 62
    30
 10
1006.224289
 20
1331.013271
 30
0.0
 11
877.367146
 21
1331.013271
 31
0.0
  0
LINE
  5
30F
  8
SIZE
  6
CONTINUOUS
 62
    30
 10
1016.224289
 20
1331.013271
 30
0.0
 11
1006.224289
 21
1331.013271
 31
0.0
  0
POINT
  5
310
  8
DEFPOINTS
  6
CONTINUOUS
 62
     7
 10
1026.224289
 20
1226.769571
 30
0.0
  0
LINE
  5
311
  8
SIZE
  6
CONTINUOUS
 62
    30
 10
1052.224289
 20
1226.769571
 30
0.0
 11
1062.224289
 21
1226.769571
 31
0.0
  0
CIRCLE
  5
312
  8
SIZE
  6
CONTINUOUS
 62
    30
 10
1042.224289
 20
1226.769571
 30
0.0
 40
10.0
  0
LINE
  5
313
  8
SIZE
  6
CONTINUOUS
 62
    30
 10
1042.224289
 20
1226.769571
 30
0.0
 11
1026.224289
 21
1226.769571
 31
0.0
  0
LINE
  5
314
  8
SIZE
  6
CONTINUOUS
 62
    30
 10
1062.224289
 20
1226.769571
 30
0.0
 11
1082.224289
 21
1226.769571
 31
0.0
  0
LINE
  5
315
  8
SIZE
  6
CONTINUOUS
 62
    30
 10
1052.224289
 20
1226.769571
 30
0.0
 11
1062.224289
 21
1226.769571
 31
0.0
  0
CIRCLE
  5
316
  8
SIZE
  6
CONTINUOUS
 62
    30
 10
1042.224289
 20
1226.769571
 30
0.0
 40
10.0
  0
POINT
  5
317
  8
DEFPOINTS
  6
CONTINUOUS
 62
     7
 10
1049.224289
 20
1331.013271
 30
0.0
  0
LINE
  5
318
  8
SIZE
  6
CONTINUOUS
 62
    30
 10
1059.224289
 20
1331.013271
 30
0.0
 11
1069.224289
 21
1331.013271
 31
0.0
  0
CIRCLE
  5
319
  8
SIZE
  6
CONTINUOUS
 62
    30
 10
1049.224289
 20
1331.013271
 30
0.0
 40
10.0
  0
LINE
  5
31A
  8
SIZE
  6
CONTINUOUS
 62
    30
 10
1049.224289
 20
1331.013271
 30
0.0
 11
1026.224289
 21
1331.013271
 31
0.0
  0
LINE
  5
31B
  8
SIZE
  6
CONTINUOUS
 62
    30
 10
1069.224289
 20
1331.013271
 30
0.0
 11
1089.224289
 21
1331.013271
 31
0.0
  0
LINE
  5
31C
  8
SIZE
  6
CONTINUOUS
 62
    30
 10
1059.224289
 20
1331.013271
 30
0.0
 11
1069.224289
 21
1331.013271
 31
0.0
  0
CIRCLE
  5
31D
  8
SIZE
  6
CONTINUOUS
 62
    30
 10
1049.224289
 20
1331.013271
 30
0.0
 40
10.0
  0
POINT
  5
31E
  8
DEFPOINTS
  6
CONTINUOUS
 62
     7
 10
1026.224289
 20
1444.894855
 30
0.0
  0
LINE
  5
31F
  8
SIZE
  6
CONTINUOUS
 62
    30
 10
1036.224289
 20
1444.894855
 30
0.0
 11
1046.224289
 21
1444.894855
 31
0.0
  0
LINE
  5
320
  8
BASIS
  6
DASHDOT
 62
     6
 10
1797.224289
 20
340.786634
 30
0.0
 11
1797.224289
 21
928.80352
 31
0.0
  0
CIRCLE
  5
321
  8
ARRANGE
  6
CONTINUOUS
 62
     1
 10
1797.224289
 20
398.787592
 30
0.0
 40
50.0
  0
LINE
  5
322
  8
OUTLINE
  6
CONTINUOUS
 62
     3
 10
2592.224289
 20
394.780604
 30
0.0
 11
2592.224289
 21
398.787592
 31
0.0
  0
LINE
  5
323
  8
SIZE
  6
CONTINUOUS
 62
    30
 10
2552.224289
 20
520.787592
 30
0.0
 11
2552.224289
 21
210.126439
 31
0.0
  0
LINE
  5
324
  8
DETAIL
  6
CONTINUOUS
 62
     5
 10
2592.224289
 20
394.780604
 30
0.0
 11
2592.224289
 21
398.787592
 31
0.0
  0
POLYLINE
  5
325
  8
NOTE
  6
CONTINUOUS
 62
     4
 66
     1
 10
0.0
 20
0.0
 30
0.0
  0
VERTEX
  5
326
  8
NOTE
  6
CONTINUOUS
 62
     4
 10
2552.224289
 20
566.787592
 30
0.0
  0
VERTEX
  5
327
  8
NOTE
  6
CONTINUOUS
 62
     4
 10
2980.266776
 20
177.148456
 30
0.0
  0
SEQEND
  5
328
  8
NOTE
  6
CONTINUOUS
 62
     4
  0
LINE
  5
329
  8
ARRANGE
  6
CONTINUOUS
 62
     1
 10
1847.188052
 20
448.384187
 30
0.0
 11
1747.260526
 21
349.190997
 31
0.0
  0
LINE
  5
32A
  8
ARRANGE
  6
CONTINUOUS
 62
     1
 10
1847.261639
 20
349.265239
 30
0.0
 11
1747.186939
 21
448.309945
 31
0.0
  0
TEXT
  5
32B
  8
SIZE
  6
CONTINUOUS
 62
    30
 10
1517.795718
 20
177.189535
 30
0.0
 40
50.0
  1
1550（天井開口寸法）
 41
0.9
 72
     1
 11
1797.224289
 21
177.189535
 31
0.0
  0
TEXT
  5
32C
  8
SIZE
  6
CONTINUOUS
 62
    30
 10
1722.224289
 20
79.498142
 30
0.0
 40
50.0
  1
1590
 41
0.9
 72
     1
 11
1797.224289
 21
79.498142
 31
0.0
  0
LINE
  5
32D
  8
SIZE
  6
CONTINUOUS
 62
    30
 10
2592.224289
 20
376.780604
 30
0.0
 11
2592.224289
 21
31.498142
 31
0.0
  0
CIRCLE
  5
32E
  8
SIZE
  6
CONTINUOUS
 62
    30
 10
2592.224289
 20
61.498142
 30
0.0
 40
10.0
  0
LINE
  5
32F
  8
SIZE
  6
CONTINUOUS
 62
    30
 10
2582.224289
 20
61.498142
 30
0.0
 11
2572.224289
 21
61.498142
 31
0.0
  0
ARC
  5
330
  8
OUTLINE
  6
CONTINUOUS
 62
     3
 10
2561.520612
 20
510.801005
 30
0.0
 40
120.014371
 50
269.771063
 51
284.82297
  0
LINE
  5
331
  8
SIZE
  6
CONTINUOUS
 62
    30
 10
2582.224289
 20
240.126439
 30
0.0
 11
2592.224289
 21
240.126439
 31
0.0
  0
CIRCLE
  5
332
  8
SIZE
  6
CONTINUOUS
 62
    30
 10
2592.224289
 20
159.189535
 30
0.0
 40
10.0
  0
LINE
  5
333
  8
SIZE
  6
CONTINUOUS
 62
    30
 10
2572.224289
 20
159.189535
 30
0.0
 11
2592.224289
 21
159.189535
 31
0.0
  0
ARC
  5
334
  8
DETAIL
  6
CONTINUOUS
 62
     5
 10
2561.520612
 20
510.801005
 30
0.0
 40
120.014371
 50
269.771063
 51
284.82297
  0
CIRCLE
  5
335
  8
SIZE
  6
CONTINUOUS
 62
    30
 10
2572.224289
 20
240.126439
 30
0.0
 40
10.0
  0
CIRCLE
  5
336
  8
SIZE
  6
CONTINUOUS
 62
    30
 10
2552.224289
 20
240.126439
 30
0.0
 40
10.0
  0
LINE
  5
337
  8
SIZE
  6
CONTINUOUS
 62
    30
 10
2572.224289
 20
381.787592
 30
0.0
 11
2572.224289
 21
210.126439
 31
0.0
  0
LINE
  5
338
  8
SIZE
  6
CONTINUOUS
 62
    30
 10
2572.224289
 20
381.787592
 30
0.0
 11
2572.224289
 21
129.189535
 31
0.0
  0
LINE
  5
339
  8
SIZE
  6
CONTINUOUS
 62
    30
 10
2572.224289
 20
381.787592
 30
0.0
 11
2572.224289
 21
129.189535
 31
0.0
  0
POINT
  5
33A
  8
DEFPOINTS
  6
CONTINUOUS
 62
     7
 10
2572.224289
 20
240.126439
 30
0.0
  0
LINE
  5
33B
  8
SIZE
  6
CONTINUOUS
 62
    30
 10
2542.224289
 20
240.126439
 30
0.0
 11
2532.224289
 21
240.126439
 31
0.0
  0
LINE
  5
33C
  8
SIZE
  6
CONTINUOUS
 62
    30
 10
2552.224289
 20
240.126439
 30
0.0
 11
2572.224289
 21
240.126439
 31
0.0
  0
LINE
  5
33D
  8
SIZE
  6
CONTINUOUS
 62
    30
 10
2532.224289
 20
240.126439
 30
0.0
 11
2512.224289
 21
240.126439
 31
0.0
  0
POINT
  5
33E
  8
DEFPOINTS
  6
CONTINUOUS
 62
     7
 10
2572.224289
 20
159.189535
 30
0.0
  0
LINE
  5
33F
  8
SIZE
  6
CONTINUOUS
 62
    30
 10
2562.224289
 20
159.189535
 30
0.0
 11
2552.224289
 21
159.189535
 31
0.0
  0
CIRCLE
  5
340
  8
SIZE
  6
CONTINUOUS
 62
    30
 10
2572.224289
 20
159.189535
 30
0.0
 40
10.0
  0
LINE
  5
341
  8
SIZE
  6
CONTINUOUS
 62
    30
 10
2562.224289
 20
159.189535
 30
0.0
 11
2552.224289
 21
159.189535
 31
0.0
  0
CIRCLE
  5
342
  8
SIZE
  6
CONTINUOUS
 62
    30
 10
2572.224289
 20
159.189535
 30
0.0
 40
10.0
  0
LINE
  5
343
  8
SIZE
  6
CONTINUOUS
 62
    30
 10
2552.224289
 20
159.189535
 30
0.0
 11
2532.224289
 21
159.189535
 31
0.0
  0
LINE
  5
344
  8
SIZE
  6
CONTINUOUS
 62
    30
 10
2592.224289
 20
376.780604
 30
0.0
 11
2592.224289
 21
129.189535
 31
0.0
  0
LINE
  5
345
  8
SIZE
  6
CONTINUOUS
 62
    30
 10
2592.224289
 20
240.126439
 30
0.0
 11
2721.081432
 21
240.126439
 31
0.0
  0
TEXT
  5
346
  8
SIZE
  6
CONTINUOUS
 62
    30
 10
2650.224289
 20
177.189535
 30
0.0
 40
50.0
  1
20
 41
0.9
 72
     1
 11
2686.65286
 21
177.189535
 31
0.0
  0
LINE
  5
347
  8
SIZE
  6
CONTINUOUS
 62
    30
 10
2612.224289
 20
159.189535
 30
0.0
 11
2741.081432
 21
159.189535
 31
0.0
  0
POINT
  5
348
  8
DEFPOINTS
  6
CONTINUOUS
 62
     7
 10
2592.224289
 20
159.189535
 30
0.0
  0
LINE
  5
349
  8
SIZE
  6
CONTINUOUS
 62
    30
 10
2602.224289
 20
159.189535
 30
0.0
 11
2612.224289
 21
159.189535
 31
0.0
  0
TEXT
  5
34A
  8
SIZE
  6
CONTINUOUS
 62
    30
 10
2630.224289
 20
258.126439
 30
0.0
 40
50.0
  1
20
 41
0.9
 72
     1
 11
2666.65286
 21
258.126439
 31
0.0
  0
POINT
  5
34B
  8
DEFPOINTS
  6
CONTINUOUS
 62
     7
 10
2592.224289
 20
394.780604
 30
0.0
  0
POINT
  5
34C
  8
DEFPOINTS
  6
CONTINUOUS
 62
     7
 10
2592.224289
 20
394.780604
 30
0.0
  0
TEXT
  5
34D
  8
SIZE
  6
CONTINUOUS
 62
    30
 10
1477.295718
 20
1362.108509
 30
0.0
 40
50.0
  1
1496(吊りボルトピッチ)
 41
0.9
 72
     1
 11
1797.224289
 21
1362.108509
 31
0.0
  0
TEXT
  5
34E
  8
SIZE
  6
CONTINUOUS
 62
    30
 10
1726.510003
 20
1244.769571
 30
0.0
 40
50.0
  1
1510
 41
0.9
 72
     1
 11
1797.224289
 21
1244.769571
 31
0.0
  0
TEXT
  5
34F
  8
SIZE
  6
CONTINUOUS
 62
    30
 10
1722.224289
 20
1462.894855
 30
0.0
 40
50.0
  1
1542
 41
0.9
 72
     1
 11
1797.224289
 21
1462.894855
 31
0.0
  0
POLYLINE
  5
350
  8
NOTE
  6
CONTINUOUS
 62
     4
 66
     1
 10
0.0
 20
0.0
 30
0.0
  0
VERTEX
  5
351
  8
NOTE
  6
CONTINUOUS
 62
     4
 10
2591.224289
 20
665.787592
 30
0.0
  0
VERTEX
  5
352
  8
NOTE
  6
CONTINUOUS
 62
     4
 10
2768.388851
 20
1042.56251
 30
0.0
  0
SEQEND
  5
353
  8
NOTE
  6
CONTINUOUS
 62
     4
  0
POLYLINE
  5
354
  8
NOTE
  6
CONTINUOUS
 62
     4
 66
     1
 10
0.0
 20
0.0
 30
0.0
  0
VERTEX
  5
355
  8
NOTE
  6
CONTINUOUS
 62
     4
 10
2586.224289
 20
723.787592
 30
0.0
  0
VERTEX
  5
356
  8
NOTE
  6
CONTINUOUS
 62
     4
 10
2772.686692
 20
1182.243442
 30
0.0
  0
SEQEND
  5
357
  8
NOTE
  6
CONTINUOUS
 62
     4
  0
LINE
  5
358
  8
SIZE
  6
CONTINUOUS
 62
    30
 10
2545.224289
 20
909.789987
 30
0.0
 11
2545.224289
 21
1361.013271
 31
0.0
  0
LINE
  5
359
  8
SIZE
  6
CONTINUOUS
 62
    30
 10
2568.224289
 20
880.487077
 30
0.0
 11
2568.224289
 21
1361.013271
 31
0.0
  0
LINE
  5
35A
  8
SIZE
  6
CONTINUOUS
 62
    30
 10
2545.224289
 20
909.789987
 30
0.0
 11
2545.224289
 21
1361.013271
 31
0.0
  0
LINE
  5
35B
  8
SIZE
  6
CONTINUOUS
 62
    30
 10
2568.224289
 20
885.487077
 30
0.0
 11
2568.224289
 21
1474.894855
 31
0.0
  0
LINE
  5
35C
  8
SIZE
  6
CONTINUOUS
 62
    30
 10
2552.224289
 20
889.787592
 30
0.0
 11
2552.224289
 21
1256.769571
 31
0.0
  0
LINE
  5
35D
  8
SIZE
  6
CONTINUOUS
 62
    30
 10
2568.224289
 20
880.487077
 30
0.0
 11
2568.224289
 21
1256.769571
 31
0.0
  0
LINE
  5
35E
  8
SIZE
  6
CONTINUOUS
 62
    30
 10
2552.224289
 20
889.787592
 30
0.0
 11
2552.224289
 21
1256.769571
 31
0.0
  0
LINE
  5
35F
  8
SIZE
  6
CONTINUOUS
 62
    30
 10
2552.224289
 20
889.787592
 30
0.0
 11
2552.224289
 21
1062.46238
 31
0.0
  0
LINE
  5
360
  8
SIZE
  6
CONTINUOUS
 62
    30
 10
2591.224289
 20
688.547592
 30
0.0
 11
2591.224289
 21
1062.46238
 31
0.0
  0
LINE
  5
361
  8
SIZE
  6
CONTINUOUS
 62
    30
 10
2552.224289
 20
889.787592
 30
0.0
 11
2552.224289
 21
1154.724228
 31
0.0
  0
LINE
  5
362
  8
SIZE
  6
CONTINUOUS
 62
    30
 10
2599.224289
 20
663.727592
 30
0.0
 11
2599.224289
 21
1154.724228
 31
0.0
  0
TEXT
  5
363
  8
NOTE
  6
CONTINUOUS
 62
     4
 10
2779.020273
 20
940.308522
 30
0.0
 40
60.0
  1
RG %%C15.88
 50
0.000003
 41
0.7
  7
STANDARD1
  0
LINE
  5
364
  8
NOTE
  6
CONTINUOUS
 62
     4
 10
3139.294115
 20
929.539499
 30
0.0
 11
2765.213253
 21
929.539499
 31
0.0
  0
POLYLINE
  5
365
  8
NOTE
  6
CONTINUOUS
 62
     4
 66
     1
 10
0.0
 20
0.0
 30
0.0
  0
VERTEX
  5
366
  8
NOTE
  6
CONTINUOUS
 62
     4
 10
2599.224289
 20
637.787592
 30
0.0
  0
VERTEX
  5
367
  8
NOTE
  6
CONTINUOUS
 62
     4
 10
2765.213253
 20
929.539499
 30
0.0
  0
SEQEND
  5
368
  8
NOTE
  6
CONTINUOUS
 62
     4
  0
LINE
  5
369
  8
OUTLINE
  6
CONTINUOUS
 62
     3
 10
2552.224289
 20
871.787592
 30
0.0
 11
2552.224289
 21
538.787592
 31
0.0
  0
LINE
  5
36A
  8
DETAIL
  6
CONTINUOUS
 62
     5
 10
2520.220457
 20
637.775856
 30
0.0
 11
2520.220457
 21
833.799328
 31
0.0
  0
LINE
  5
36B
  8
DETAIL
  6
CONTINUOUS
 62
     5
 10
2552.224289
 20
871.787592
 30
0.0
 11
2552.224289
 21
539.587688
 31
0.0
  0
LINE
  5
36C
  8
OUTLINE
  6
CONTINUOUS
 62
     3
 10
2536.312789
 20
398.787592
 30
0.0
 11
2592.224289
 21
398.787592
 31
0.0
  0
LINE
  5
36D
  8
NOTE
  6
CONTINUOUS
 62
     4
 10
2572.224289
 20
399.787592
 30
0.0
 11
2673.531738
 21
399.787592
 31
0.0
  0
LINE
  5
36E
  8
NOTE
  6
CONTINUOUS
 62
     4
 10
2572.224289
 20
419.787592
 30
0.0
 11
2673.531738
 21
419.787592
 31
0.0
  0
LINE
  5
36F
  8
NOTE
  6
CONTINUOUS
 62
     4
 10
2612.226378
 20
665.787592
 30
0.0
 11
2570.2222
 21
665.787592
 31
0.0
  0
LINE
  5
370
  8
NOTE
  6
CONTINUOUS
 62
     4
 10
2625.885624
 20
637.787592
 30
0.0
 11
2572.562954
 21
637.787592
 31
0.0
  0
LINE
  5
371
  8
DETAIL
  6
CONTINUOUS
 62
     5
 10
2552.224289
 20
670.547592
 30
0.0
 11
2591.224289
 21
670.547592
 31
0.0
  0
LINE
  5
372
  8
DETAIL
  6
CONTINUOUS
 62
     5
 10
2591.224289
 20
661.027592
 30
0.0
 11
2552.224289
 21
661.027592
 31
0.0
  0
LINE
  5
373
  8
DETAIL
  6
CONTINUOUS
 62
     5
 10
2552.224289
 20
645.727592
 30
0.0
 11
2599.224289
 21
645.727592
 31
0.0
  0
LINE
  5
374
  8
DETAIL
  6
CONTINUOUS
 62
     5
 10
2599.224289
 20
629.847592
 30
0.0
 11
2552.224289
 21
629.847592
 31
0.0
  0
LINE
  5
375
  8
NOTE
  6
CONTINUOUS
 62
     4
 10
2568.971499
 20
541.431464
 30
0.0
 11
2552.224289
 21
566.787592
 31
0.0
  0
LINE
  5
376
  8
DETAIL
  6
CONTINUOUS
 62
     5
 10
2537.222493
 20
550.789029
 30
0.0
 11
2537.222493
 21
538.787592
 31
0.0
  0
LINE
  5
377
  8
OUTLINE
  6
CONTINUOUS
 62
     3
 10
2536.312789
 20
398.787592
 30
0.0
 11
2536.312789
 21
445.787592
 31
0.0
  0
POINT
  5
378
  8
DEFPOINTS
  6
CONTINUOUS
 62
     7
 10
2572.224289
 20
399.787592
 30
0.0
  0
POINT
  5
379
  8
DEFPOINTS
  6
CONTINUOUS
 62
     7
 10
2552.224289
 20
538.787592
 30
0.0
  0
POINT
  5
37A
  8
DEFPOINTS
  6
CONTINUOUS
 62
     7
 10
2572.224289
 20
399.787592
 30
0.0
  0
POINT
  5
37B
  8
DEFPOINTS
  6
CONTINUOUS
 62
     7
 10
2572.224289
 20
399.787592
 30
0.0
  0
LINE
  5
37C
  8
NOTE
  6
CONTINUOUS
 62
     4
 10
2572.224289
 20
399.787592
 30
0.0
 11
2572.224289
 21
419.787592
 31
0.0
  0
LINE
  5
37D
  8
DETAIL
  6
CONTINUOUS
 62
     5
 10
2536.312789
 20
398.787592
 30
0.0
 11
2536.312789
 21
445.787592
 31
0.0
  0
LINE
  5
37E
  8
DETAIL
  6
CONTINUOUS
 62
     5
 10
2552.224289
 20
539.587688
 30
0.0
 11
2537.222493
 21
539.587688
 31
0.0
  0
POINT
  5
37F
  8
DEFPOINTS
  6
CONTINUOUS
 62
     7
 10
2537.222493
 20
538.787592
 30
0.0
  0
POINT
  5
380
  8
DEFPOINTS
  6
CONTINUOUS
 62
     7
 10
2537.222493
 20
538.787592
 30
0.0
  0
LINE
  5
381
  8
NOTE
  6
CONTINUOUS
 62
     4
 10
2552.224289
 20
566.787592
 30
0.0
 11
2579.80591
 21
553.309339
 31
0.0
  0
ARC
  5
382
  8
DETAIL
  6
CONTINUOUS
 62
     5
 10
2510.219259
 20
637.775856
 30
0.0
 40
10.001198
 50
270.0
 51
0.0
  0
ARC
  5
383
  8
DETAIL
  6
CONTINUOUS
 62
     5
 10
2547.22369
 20
571.191472
 30
0.0
 40
5.000599
 50
270.0
 51
0.0
  0
LINE
  5
384
  8
DETAIL
  6
CONTINUOUS
 62
     5
 10
2534.222133
 20
553.789388
 30
0.0
 11
2537.222493
 21
550.789029
 31
0.0
  0
LINE
  5
385
  8
NOTE
  6
CONTINUOUS
 62
     4
 10
2546.724289
 20
566.787592
 30
0.0
 11
2557.724289
 21
566.787592
 31
0.0
  0
LINE
  5
386
  8
NOTE
  6
CONTINUOUS
 62
     4
 10
2552.224289
 20
572.287584
 30
0.0
 11
2552.224289
 21
561.2876
 31
0.0
  0
POINT
  5
387
  8
DEFPOINTS
  6
CONTINUOUS
 62
     7
 10
2557.724289
 20
566.787592
 30
0.0
  0
LINE
  5
388
  8
NOTE
  6
CONTINUOUS
 62
     4
 10
2612.489297
 20
399.787592
 30
0.0
 11
2592.489297
 21
419.787592
 31
0.0
  0
LINE
  5
389
  8
NOTE
  6
CONTINUOUS
 62
     4
 10
2617.489297
 20
399.787592
 30
0.0
 11
2597.489297
 21
419.787592
 31
0.0
  0
LINE
  5
38A
  8
NOTE
  6
CONTINUOUS
 62
     4
 10
2622.489297
 20
399.787592
 30
0.0
 11
2602.489297
 21
419.787592
 31
0.0
  0
LINE
  5
38B
  8
NOTE
  6
CONTINUOUS
 62
     4
 10
2652.489297
 20
399.787592
 30
0.0
 11
2632.489297
 21
419.787592
 31
0.0
  0
LINE
  5
38C
  8
NOTE
  6
CONTINUOUS
 62
     4
 10
2657.489297
 20
399.787592
 30
0.0
 11
2637.489297
 21
419.787592
 31
0.0
  0
LINE
  5
38D
  8
NOTE
  6
CONTINUOUS
 62
     4
 10
2662.489297
 20
399.787592
 30
0.0
 11
2642.489297
 21
419.787592
 31
0.0
  0
LINE
  5
38E
  8
NOTE
  6
CONTINUOUS
 62
     4
 10
2599.224289
 20
617.787592
 30
0.0
 11
2599.224289
 21
657.787592
 31
0.0
  0
LINE
  5
38F
  8
NOTE
  6
CONTINUOUS
 62
     4
 10
2591.224289
 20
645.787592
 30
0.0
 11
2591.224289
 21
685.787592
 31
0.0
  0
LINE
  5
390
  8
NOTE
  6
CONTINUOUS
 62
     4
 10
2591.224289
 20
665.787592
 30
0.0
 11
2596.715451
 21
696.3566
 31
0.0
  0
LINE
  5
391
  8
NOTE
  6
CONTINUOUS
 62
     4
 10
2611.264279
 20
689.515548
 30
0.0
 11
2591.224289
 21
665.787592
 31
0.0
  0
LINE
  5
392
  8
NOTE
  6
CONTINUOUS
 62
     4
 10
2599.224289
 20
637.787592
 30
0.0
 11
2607.072656
 21
667.837887
 31
0.0
  0
LINE
  5
393
  8
NOTE
  6
CONTINUOUS
 62
     4
 10
2621.046322
 20
659.887727
 30
0.0
 11
2599.224289
 21
637.787592
 31
0.0
  0
LINE
  5
394
  8
DETAIL
  6
CONTINUOUS
 62
     5
 10
2591.224289
 20
670.547592
 30
0.0
 11
2591.224289
 21
661.027592
 31
0.0
  0
LINE
  5
395
  8
DETAIL
  6
CONTINUOUS
 62
     5
 10
2599.224289
 20
645.727592
 30
0.0
 11
2599.224289
 21
629.847592
 31
0.0
  0
POINT
  5
396
  8
DEFPOINTS
  6
CONTINUOUS
 62
     7
 10
2612.226378
 20
665.787592
 30
0.0
  0
POINT
  5
397
  8
DEFPOINTS
  6
CONTINUOUS
 62
     7
 10
2625.885624
 20
637.787592
 30
0.0
  0
POINT
  5
398
  8
DEFPOINTS
  6
CONTINUOUS
 62
     7
 10
2612.226378
 20
665.787592
 30
0.0
  0
POINT
  5
399
  8
DEFPOINTS
  6
CONTINUOUS
 62
     7
 10
2591.224289
 20
670.547592
 30
0.0
  0
POINT
  5
39A
  8
DEFPOINTS
  6
CONTINUOUS
 62
     7
 10
2599.224289
 20
645.727592
 30
0.0
  0
LINE
  5
39B
  8
NOTE
  6
CONTINUOUS
 62
     4
 10
2586.224289
 20
723.787592
 30
0.0
 11
2590.080608
 21
754.60554
 31
0.0
  0
LINE
  5
39C
  8
NOTE
  6
CONTINUOUS
 62
     4
 10
2604.972933
 20
748.548558
 30
0.0
 11
2586.224289
 21
723.787592
 31
0.0
  0
LINE
  5
39D
  8
NOTE
  6
CONTINUOUS
 62
     4
 10
2605.892624
 20
723.787592
 30
0.0
 11
2566.555954
 21
723.787592
 31
0.0
  0
CIRCLE
  5
39E
  8
SIZE
  6
CONTINUOUS
 62
    30
 10
2586.224289
 20
940.86053
 30
0.0
 40
10.0
  0
LINE
  5
39F
  8
NOTE
  6
CONTINUOUS
 62
     4
 10
2545.224289
 20
851.785197
 30
0.0
 11
2545.224289
 21
891.789987
 31
0.0
  0
CIRCLE
  5
3A0
  8
FIX
  6
CONTINUOUS
 62
    11
 10
2545.224289
 20
871.787592
 30
0.0
 40
18.598564
  0
LINE
  5
3A1
  8
SIZE
  6
CONTINUOUS
 62
    30
 10
2586.224289
 20
757.787592
 30
0.0
 11
2586.224289
 21
970.86053
 31
0.0
  0
LINE
  5
3A2
  8
NOTE
  6
CONTINUOUS
 62
     4
 10
2586.224289
 20
703.787592
 30
0.0
 11
2586.224289
 21
743.787592
 31
0.0
  0
ARC
  5
3A3
  8
DETAIL
  6
CONTINUOUS
 62
     5
 10
2510.219259
 20
833.799328
 30
0.0
 40
10.001198
 50
0.0
 51
90.0
  0
LINE
  5
3A4
  8
DETAIL
  6
CONTINUOUS
 62
     5
 10
2586.224289
 20
707.787592
 30
0.0
 11
2552.224289
 21
707.787592
 31
0.0
  0
LINE
  5
3A5
  8
DETAIL
  6
CONTINUOUS
 62
     5
 10
2586.224289
 20
739.787592
 30
0.0
 11
2552.224289
 21
739.787592
 31
0.0
  0
LINE
  5
3A6
  8
DETAIL
  6
CONTINUOUS
 62
     5
 10
2586.224289
 20
739.787592
 30
0.0
 11
2586.224289
 21
707.787592
 31
0.0
  0
POINT
  5
3A7
  8
DEFPOINTS
  6
CONTINUOUS
 62
     7
 10
2586.224289
 20
739.787592
 30
0.0
  0
TEXT
  5
3A8
  8
SIZE
  6
CONTINUOUS
 62
    30
 10
2419.224289
 20
958.86053
 30
0.0
 40
50.0
  1
34
 41
0.9
 72
     1
 11
2456.724289
 21
958.86053
 31
0.0
  0
LINE
  5
3A9
  8
SIZE
  6
CONTINUOUS
 62
    30
 10
2532.224289
 20
940.86053
 30
0.0
 11
2401.224289
 21
940.86053
 31
0.0
  0
ARC
  5
3AA
  8
DETAIL
  6
CONTINUOUS
 62
     5
 10
2563.923774
 20
867.487077
 30
0.0
 40
4.300515
 50
0.0
 51
90.0
  0
LINE
  5
3AB
  8
DETAIL
  6
CONTINUOUS
 62
     5
 10
2568.224289
 20
867.487077
 30
0.0
 11
2568.224289
 21
859.786155
 31
0.0
  0
LINE
  5
3AC
  8
DETAIL
  6
CONTINUOUS
 62
     5
 10
2565.924014
 20
867.487317
 30
0.0
 11
2565.924014
 21
859.786155
 31
0.0
  0
LINE
  5
3AD
  8
DETAIL
  6
CONTINUOUS
 62
     5
 10
2565.924014
 20
859.786155
 30
0.0
 11
2568.224289
 21
859.786155
 31
0.0
  0
LINE
  5
3AE
  8
DETAIL
  6
CONTINUOUS
 62
     5
 10
2552.224289
 20
871.787592
 30
0.0
 11
2563.923774
 21
871.787592
 31
0.0
  0
LINE
  5
3AF
  8
DETAIL
  6
CONTINUOUS
 62
     5
 10
2552.224289
 20
869.487317
 30
0.0
 11
2563.924014
 21
869.487317
 31
0.0
  0
LINE
  5
3B0
  8
NOTE
  6
CONTINUOUS
 62
     4
 10
2565.225247
 20
871.787592
 30
0.0
 11
2525.223331
 21
871.787592
 31
0.0
  0
ARC
  5
3B1
  8
DETAIL
  6
CONTINUOUS
 62
     5
 10
2563.924014
 20
867.487317
 30
0.0
 40
2.0
 50
0.0
 51
90.0
  0
POINT
  5
3B2
  8
DEFPOINTS
  6
CONTINUOUS
 62
     7
 10
2545.224289
 20
891.789987
 30
0.0
  0
POINT
  5
3B3
  8
DEFPOINTS
  6
CONTINUOUS
 62
     7
 10
2568.224289
 20
862.487077
 30
0.0
  0
POINT
  5
3B4
  8
DEFPOINTS
  6
CONTINUOUS
 62
     7
 10
2545.224289
 20
891.789987
 30
0.0
  0
POINT
  5
3B5
  8
DEFPOINTS
  6
CONTINUOUS
 62
     7
 10
2568.224289
 20
867.487077
 30
0.0
  0
POINT
  5
3B6
  8
DEFPOINTS
  6
CONTINUOUS
 62
     7
 10
2552.224289
 20
871.787592
 30
0.0
  0
POINT
  5
3B7
  8
DEFPOINTS
  6
CONTINUOUS
 62
     7
 10
2568.224289
 20
862.487077
 30
0.0
  0
POINT
  5
3B8
  8
DEFPOINTS
  6
CONTINUOUS
 62
     7
 10
2552.224289
 20
871.787592
 30
0.0
  0
POINT
  5
3B9
  8
DEFPOINTS
  6
CONTINUOUS
 62
     7
 10
2552.224289
 20
871.787592
 30
0.0
  0
POINT
  5
3BA
  8
DEFPOINTS
  6
CONTINUOUS
 62
     7
 10
2552.224289
 20
871.787592
 30
0.0
  0
POINT
  5
3BB
  8
DEFPOINTS
  6
CONTINUOUS
 62
     7
 10
2586.224289
 20
940.86053
 30
0.0
  0
POINT
  5
3BC
  8
DEFPOINTS
  6
CONTINUOUS
 62
     7
 10
2552.224289
 20
871.787592
 30
0.0
  0
LINE
  5
3BD
  8
SIZE
  6
CONTINUOUS
 62
    30
 10
2542.224289
 20
940.86053
 30
0.0
 11
2532.224289
 21
940.86053
 31
0.0
  0
CIRCLE
  5
3BE
  8
SIZE
  6
CONTINUOUS
 62
    30
 10
2552.224289
 20
940.86053
 30
0.0
 40
10.0
  0
LINE
  5
3BF
  8
SIZE
  6
CONTINUOUS
 62
    30
 10
2586.224289
 20
940.86053
 30
0.0
 11
2552.224289
 21
940.86053
 31
0.0
  0
LINE
  5
3C0
  8
SIZE
  6
CONTINUOUS
 62
    30
 10
2552.224289
 20
889.787592
 30
0.0
 11
2552.224289
 21
970.86053
 31
0.0
  0
POINT
  5
3C1
  8
DEFPOINTS
  6
CONTINUOUS
 62
     7
 10
2552.224289
 20
871.787592
 30
0.0
  0
POINT
  5
3C2
  8
DEFPOINTS
  6
CONTINUOUS
 62
     7
 10
2552.224289
 20
871.787592
 30
0.0
  0
POINT
  5
3C3
  8
DEFPOINTS
  6
CONTINUOUS
 62
     7
 10
2552.224289
 20
871.787592
 30
0.0
  0
POINT
  5
3C4
  8
DEFPOINTS
  6
CONTINUOUS
 62
     7
 10
2552.224289
 20
871.787592
 30
0.0
  0
POINT
  5
3C5
  8
DEFPOINTS
  6
CONTINUOUS
 62
     7
 10
2605.892624
 20
723.787592
 30
0.0
  0
LINE
  5
3C6
  8
SIZE
  6
CONTINUOUS
 62
    30
 10
2596.224289
 20
940.86053
 30
0.0
 11
2606.224289
 21
940.86053
 31
0.0
  0
LINE
  5
3C7
  8
SIZE
  6
CONTINUOUS
 62
    30
 10
2606.224289
 20
940.86053
 30
0.0
 11
2626.224289
 21
940.86053
 31
0.0
  0
POINT
  5
3C8
  8
DEFPOINTS
  6
CONTINUOUS
 62
     7
 10
2842.224289
 20
398.787592
 30
0.0
  0
LINE
  5
3C9
  8
SIZE
  6
CONTINUOUS
 62
    30
 10
3245.114234
 20
861.787592
 30
0.0
 11
3245.114234
 21
851.787592
 31
0.0
  0
POINT
  5
3CA
  8
DEFPOINTS
  6
CONTINUOUS
 62
     7
 10
3245.114234
 20
723.787592
 30
0.0
  0
TEXT
  5
3CB
  8
SIZE
  6
CONTINUOUS
 62
    30
 10
3227.114234
 20
744.216163
 30
0.0
 40
50.0
  1
148
 50
90.0
 41
0.9
 72
     1
 11
3227.114234
 21
797.787592
 31
0.0
  0
LINE
  5
3CC
  8
SIZE
  6
CONTINUOUS
 62
    30
 10
3245.114234
 20
733.787592
 30
0.0
 11
3245.114234
 21
743.787592
 31
0.0
  0
CIRCLE
  5
3CD
  8
SIZE
  6
CONTINUOUS
 62
    30
 10
3245.114234
 20
723.787592
 30
0.0
 40
10.0
  0
LINE
  5
3CE
  8
SIZE
  6
CONTINUOUS
 62
    30
 10
3245.114234
 20
851.787592
 30
0.0
 11
3245.114234
 21
743.787592
 31
0.0
  0
CIRCLE
  5
3CF
  8
SIZE
  6
CONTINUOUS
 62
    30
 10
3245.114234
 20
871.787592
 30
0.0
 40
10.0
  0
LINE
  5
3D0
  8
NOTE
  6
CONTINUOUS
 62
     4
 10
2768.388851
 20
1042.56251
 30
0.0
 11
3112.102433
 21
1042.56251
 31
0.0
  0
TEXT
  5
3D1
  8
NOTE
  6
CONTINUOUS
 62
     4
 10
2785.227161
 20
1058.389054
 30
0.0
 40
60.0
  1
RL %%C9.52
 50
0.000003
 41
0.7
  7
STANDARD1
  0
LINE
  5
3D2
  8
NOTE
  6
CONTINUOUS
 62
     4
 10
2772.686692
 20
1182.243442
 30
0.0
 11
3119.500553
 21
1182.243442
 31
0.0
  0
TEXT
  5
3D3
  8
NOTE
  6
CONTINUOUS
 62
     4
 10
2792.625281
 20
1198.069986
 30
0.0
 40
60.0
  1
D1 VP-25
 50
0.000003
 41
0.7
  7
STANDARD1
  0
LINE
  5
3D4
  8
SIZE
  6
CONTINUOUS
 62
    30
 10
2578.224289
 20
1226.769571
 30
0.0
 11
2588.224289
 21
1226.769571
 31
0.0
  0
CIRCLE
  5
3D5
  8
SIZE
  6
CONTINUOUS
 62
    30
 10
2591.224289
 20
1032.46238
 30
0.0
 40
10.0
  0
LINE
  5
3D6
  8
SIZE
  6
CONTINUOUS
 62
    30
 10
2591.224289
 20
1032.46238
 30
0.0
 11
2552.224289
 21
1032.46238
 31
0.0
  0
LINE
  5
3D7
  8
SIZE
  6
CONTINUOUS
 62
    30
 10
2599.224289
 20
1124.724228
 30
0.0
 11
2552.224289
 21
1124.724228
 31
0.0
  0
TEXT
  5
3D8
  8
SIZE
  6
CONTINUOUS
 62
    30
 10
2421.367147
 20
1142.724228
 30
0.0
 40
50.0
  1
47
 41
0.9
 72
     1
 11
2457.795718
 21
1142.724228
 31
0.0
  0
TEXT
  5
3D9
  8
SIZE
  6
CONTINUOUS
 62
    30
 10
2423.510003
 20
1050.46238
 30
0.0
 40
50.0
  1
39
 41
0.9
 72
     1
 11
2458.867146
 21
1050.46238
 31
0.0
  0
LINE
  5
3DA
  8
SIZE
  6
CONTINUOUS
 62
    30
 10
2532.224289
 20
1032.46238
 30
0.0
 11
2405.510003
 21
1032.46238
 31
0.0
  0
LINE
  5
3DB
  8
SIZE
  6
CONTINUOUS
 62
    30
 10
2532.224289
 20
1124.724228
 30
0.0
 11
2403.367146
 21
1124.724228
 31
0.0
  0
POINT
  5
3DC
  8
DEFPOINTS
  6
CONTINUOUS
 62
     7
 10
2552.224289
 20
1032.46238
 30
0.0
  0
LINE
  5
3DD
  8
SIZE
  6
CONTINUOUS
 62
    30
 10
2542.224289
 20
1032.46238
 30
0.0
 11
2532.224289
 21
1032.46238
 31
0.0
  0
CIRCLE
  5
3DE
  8
SIZE
  6
CONTINUOUS
 62
    30
 10
2552.224289
 20
1032.46238
 30
0.0
 40
10.0
  0
POINT
  5
3DF
  8
DEFPOINTS
  6
CONTINUOUS
 62
     7
 10
2552.224289
 20
1124.724228
 30
0.0
  0
LINE
  5
3E0
  8
SIZE
  6
CONTINUOUS
 62
    30
 10
2542.224289
 20
1124.724228
 30
0.0
 11
2532.224289
 21
1124.724228
 31
0.0
  0
CIRCLE
  5
3E1
  8
SIZE
  6
CONTINUOUS
 62
    30
 10
2552.224289
 20
1124.724228
 30
0.0
 40
10.0
  0
POINT
  5
3E2
  8
DEFPOINTS
  6
CONTINUOUS
 62
     7
 10
2552.224289
 20
1226.769571
 30
0.0
  0
LINE
  5
3E3
  8
SIZE
  6
CONTINUOUS
 62
    30
 10
2542.224289
 20
1226.769571
 30
0.0
 11
2532.224289
 21
1226.769571
 31
0.0
  0
CIRCLE
  5
3E4
  8
SIZE
  6
CONTINUOUS
 62
    30
 10
2552.224289
 20
1226.769571
 30
0.0
 40
10.0
  0
POINT
  5
3E5
  8
DEFPOINTS
  6
CONTINUOUS
 62
     7
 10
2568.224289
 20
1226.769571
 30
0.0
  0
CIRCLE
  5
3E6
  8
SIZE
  6
CONTINUOUS
 62
    30
 10
2568.224289
 20
1226.769571
 30
0.0
 40
10.0
  0
LINE
  5
3E7
  8
SIZE
  6
CONTINUOUS
 62
    30
 10
2542.224289
 20
1226.769571
 30
0.0
 11
2532.224289
 21
1226.769571
 31
0.0
  0
CIRCLE
  5
3E8
  8
SIZE
  6
CONTINUOUS
 62
    30
 10
2552.224289
 20
1226.769571
 30
0.0
 40
10.0
  0
LINE
  5
3E9
  8
SIZE
  6
CONTINUOUS
 62
    30
 10
2552.224289
 20
1226.769571
 30
0.0
 11
2568.224289
 21
1226.769571
 31
0.0
  0
LINE
  5
3EA
  8
SIZE
  6
CONTINUOUS
 62
    30
 10
2532.224289
 20
1226.769571
 30
0.0
 11
2512.224289
 21
1226.769571
 31
0.0
  0
LINE
  5
3EB
  8
SIZE
  6
CONTINUOUS
 62
    30
 10
2601.224289
 20
1032.46238
 30
0.0
 11
2611.224289
 21
1032.46238
 31
0.0
  0
LINE
  5
3EC
  8
SIZE
  6
CONTINUOUS
 62
    30
 10
2611.224289
 20
1032.46238
 30
0.0
 11
2631.224289
 21
1032.46238
 31
0.0
  0
LINE
  5
3ED
  8
SIZE
  6
CONTINUOUS
 62
    30
 10
2609.224289
 20
1124.724228
 30
0.0
 11
2619.224289
 21
1124.724228
 31
0.0
  0
CIRCLE
  5
3EE
  8
SIZE
  6
CONTINUOUS
 62
    30
 10
2599.224289
 20
1124.724228
 30
0.0
 40
10.0
  0
LINE
  5
3EF
  8
SIZE
  6
CONTINUOUS
 62
    30
 10
2619.224289
 20
1124.724228
 30
0.0
 11
2639.224289
 21
1124.724228
 31
0.0
  0
LINE
  5
3F0
  8
SIZE
  6
CONTINUOUS
 62
    30
 10
2588.224289
 20
1226.769571
 30
0.0
 11
2708.547721
 21
1226.769571
 31
0.0
  0
TEXT
  5
3F1
  8
SIZE
  6
CONTINUOUS
 62
    30
 10
2628.404863
 20
1244.769571
 30
0.0
 40
50.0
  1
16
 41
0.9
 72
     1
 11
2659.476292
 21
1244.769571
 31
0.0
  0
LINE
  5
3F2
  8
SIZE
  6
CONTINUOUS
 62
    30
 10
2578.224289
 20
1331.013271
 30
0.0
 11
2588.224289
 21
1331.013271
 31
0.0
  0
POINT
  5
3F3
  8
DEFPOINTS
  6
CONTINUOUS
 62
     7
 10
2545.224289
 20
1331.013271
 30
0.0
  0
LINE
  5
3F4
  8
SIZE
  6
CONTINUOUS
 62
    30
 10
2535.224289
 20
1331.013271
 30
0.0
 11
2525.224289
 21
1331.013271
 31
0.0
  0
CIRCLE
  5
3F5
  8
SIZE
  6
CONTINUOUS
 62
    30
 10
2545.224289
 20
1331.013271
 30
0.0
 40
10.0
  0
POINT
  5
3F6
  8
DEFPOINTS
  6
CONTINUOUS
 62
     7
 10
2568.224289
 20
1331.013271
 30
0.0
  0
CIRCLE
  5
3F7
  8
SIZE
  6
CONTINUOUS
 62
    30
 10
2568.224289
 20
1331.013271
 30
0.0
 40
10.0
  0
LINE
  5
3F8
  8
SIZE
  6
CONTINUOUS
 62
    30
 10
2535.224289
 20
1331.013271
 30
0.0
 11
2525.224289
 21
1331.013271
 31
0.0
  0
CIRCLE
  5
3F9
  8
SIZE
  6
CONTINUOUS
 62
    30
 10
2545.224289
 20
1331.013271
 30
0.0
 40
10.0
  0
LINE
  5
3FA
  8
SIZE
  6
CONTINUOUS
 62
    30
 10
2545.224289
 20
1331.013271
 30
0.0
 11
2568.224289
 21
1331.013271
 31
0.0
  0
LINE
  5
3FB
  8
SIZE
  6
CONTINUOUS
 62
    30
 10
2525.224289
 20
1331.013271
 30
0.0
 11
2505.224289
 21
1331.013271
 31
0.0
  0
LINE
  5
3FC
  8
SIZE
  6
CONTINUOUS
 62
    30
 10
2558.224289
 20
1444.894855
 30
0.0
 11
2548.224289
 21
1444.894855
 31
0.0
  0
CIRCLE
  5
3FD
  8
SIZE
  6
CONTINUOUS
 62
    30
 10
2568.224289
 20
1444.894855
 30
0.0
 40
10.0
  0
LINE
  5
3FE
  8
SIZE
  6
CONTINUOUS
 62
    30
 10
2588.224289
 20
1331.013271
 30
0.0
 11
2717.081432
 21
1331.013271
 31
0.0
  0
TEXT
  5
3FF
  8
SIZE
  6
CONTINUOUS
 62
    30
 10
2626.224289
 20
1349.013271
 30
0.0
 40
50.0
  1
23
 41
0.9
 72
     1
 11
2662.65286
 21
1349.013271
 31
0.0
  0
POLYLINE
  5
400
  8
SIZE
  6
CONTINUOUS
 62
    30
 66
     1
 10
0.0
 20
0.0
 30
0.0
  0
VERTEX
  5
401
  8
SIZE
  6
CONTINUOUS
 62
    30
 10
3796.995536
 20
394.590102
 30
0.0
 42
0.186174
  0
VERTEX
  5
402
  8
SIZE
  6
CONTINUOUS
 62
    30
 10
3788.145687
 20
415.53959
 30
0.0
 42
0.082105
  0
VERTEX
  5
403
  8
SIZE
  6
CONTINUOUS
 62
    30
 10
3772.443185
 20
427.714151
 30
0.0
 42
0.058826
  0
VERTEX
  5
404
  8
SIZE
  6
CONTINUOUS
 62
    30
 10
3750.657127
 20
436.489078
 30
0.0
 42
0.067494
  0
VERTEX
  5
405
  8
SIZE
  6
CONTINUOUS
 62
    30
 10
3713.168567
 20
441.434581
 30
0.0
 42
0.067494
  0
VERTEX
  5
406
  8
SIZE
  6
CONTINUOUS
 62
    30
 10
3675.680008
 20
436.489078
 30
0.0
 42
0.058826
  0
VERTEX
  5
407
  8
SIZE
  6
CONTINUOUS
 62
    30
 10
3653.89395
 20
427.714151
 30
0.0
 42
0.082105
  0
VERTEX
  5
408
  8
SIZE
  6
CONTINUOUS
 62
    30
 10
3638.191448
 20
415.53959
 30
0.0
 42
0.186174
  0
VERTEX
  5
409
  8
SIZE
  6
CONTINUOUS
 62
    30
 10
3629.341599
 20
394.590102
 30
0.0
 42
0.186174
  0
SEQEND
  5
40A
  8
SIZE
  6
CONTINUOUS
 62
    30
  0
CIRCLE
  5
40B
  8
SIZE
  6
CONTINUOUS
 62
    30
 10
3579.452965
 20
398.787592
 30
0.0
 40
10.0
  0
LINE
  5
40C
  8
SIZE
  6
CONTINUOUS
 62
    30
 10
3579.452965
 20
398.787592
 30
0.0
 11
3579.452965
 21
51.359021
 31
0.0
  0
POLYLINE
  5
40D
  8
SIZE
  6
CONTINUOUS
 62
    30
 66
     1
 10
0.0
 20
0.0
 30
0.0
  0
VERTEX
  5
40E
  8
SIZE
  6
CONTINUOUS
 62
    30
 10
3629.341599
 20
46.844476
 30
0.0
 42
0.186174
  0
VERTEX
  5
40F
  8
SIZE
  6
CONTINUOUS
 62
    30
 10
3638.191448
 20
25.894988
 30
0.0
 42
0.082105
  0
VERTEX
  5
410
  8
SIZE
  6
CONTINUOUS
 62
    30
 10
3653.89395
 20
13.720427
 30
0.0
 42
0.058826
  0
VERTEX
  5
411
  8
SIZE
  6
CONTINUOUS
 62
    30
 10
3675.680008
 20
4.9455
 30
0.0
 42
0.067494
  0
VERTEX
  5
412
  8
SIZE
  6
CONTINUOUS
 62
    30
 10
3713.168567
 20
-0.000004
 30
0.0
 42
0.067494
  0
VERTEX
  5
413
  8
SIZE
  6
CONTINUOUS
 62
    30
 10
3750.657127
 20
4.9455
 30
0.0
 42
0.058826
  0
VERTEX
  5
414
  8
SIZE
  6
CONTINUOUS
 62
    30
 10
3772.443185
 20
13.720427
 30
0.0
 42
0.082105
  0
VERTEX
  5
415
  8
SIZE
  6
CONTINUOUS
 62
    30
 10
3788.145687
 20
25.894988
 30
0.0
 42
0.186174
  0
VERTEX
  5
416
  8
SIZE
  6
CONTINUOUS
 62
    30
 10
3796.995536
 20
46.844476
 30
0.0
 42
0.186174
  0
VERTEX
  5
417
  8
SIZE
  6
CONTINUOUS
 62
    30
 10
3796.995536
 20
46.844476
 30
0.0
 42
0.186174
  0
SEQEND
  5
418
  8
SIZE
  6
CONTINUOUS
 62
    30
  0
TEXT
  5
419
  8
SIZE
  6
CONTINUOUS
 62
    30
 10
3705.534064
 20
50.28317
 30
0.0
 40
55.0
  1
パネル直付時
 50
90.0
 41
0.9
 72
     1
 11
3705.534064
 21
221.88317
 31
0.0
  0
TEXT
  5
41A
  8
SIZE
  6
CONTINUOUS
 62
    30
 10
3561.452965
 20
69.35902
 30
0.0
 40
50.0
  1
140-300
 50
90.0
 41
0.9
 72
     1
 11
3561.452965
 21
215.073306
 31
0.0
  0
TEXT
  5
41B
  8
SIZE
  6
CONTINUOUS
 62
    30
 10
3789.283842
 20
106.198964
 30
0.0
 40
55.0
  1
50-60
 50
90.0
 41
0.9
 72
     1
 11
3789.283842
 21
224.056107
 31
0.0
  0
LINE
  5
41C
  8
SIZE
  6
CONTINUOUS
 62
    30
 10
3359.744659
 20
851.787592
 30
0.0
 11
3359.744659
 21
685.787592
 31
0.0
  0
LINE
  5
41D
  8
SIZE
  6
CONTINUOUS
 62
    30
 10
3359.744659
 20
685.787592
 30
0.0
 11
3359.744659
 21
705.787592
 31
0.0
  0
TEXT
  5
41E
  8
SIZE
  6
CONTINUOUS
 62
    30
 10
3449.210668
 20
661.430449
 30
0.0
 40
50.0
  1
305
 50
90.0
 41
0.9
 72
     1
 11
3449.210668
 21
719.287592
 31
0.0
  0
LINE
  5
41F
  8
SIZE
  6
CONTINUOUS
 62
    30
 10
3467.210668
 20
586.787592
 30
0.0
 11
3467.210668
 21
851.787592
 31
0.0
  0
TEXT
  5
420
  8
SIZE
  6
CONTINUOUS
 62
    30
 10
3561.452965
 20
647.430449
 30
0.0
 40
50.0
  1
333
 50
90.0
 41
0.9
 72
     1
 11
3561.452965
 21
705.287592
 31
0.0
  0
LINE
  5
421
  8
SIZE
  6
CONTINUOUS
 62
    30
 10
3579.452965
 20
851.787592
 30
0.0
 11
3579.452965
 21
558.787592
 31
0.0
  0
LINE
  5
422
  8
SIZE
  6
CONTINUOUS
 62
    30
 10
3359.744659
 20
617.787592
 30
0.0
 11
3359.744659
 21
417.744495
 31
0.0
  0
TEXT
  5
423
  8
SIZE
  6
CONTINUOUS
 62
    30
 10
3341.744659
 20
435.744495
 30
0.0
 40
50.0
  1
28
 50
90.0
 41
0.9
 72
     1
 11
3341.744659
 21
472.173066
 31
0.0
  0
POINT
  5
424
  8
DEFPOINTS
  6
CONTINUOUS
 62
     7
 10
3359.744659
 20
665.787592
 30
0.0
  0
LINE
  5
425
  8
SIZE
  6
CONTINUOUS
 62
    30
 10
3359.744659
 20
675.787592
 30
0.0
 11
3359.744659
 21
685.787592
 31
0.0
  0
CIRCLE
  5
426
  8
SIZE
  6
CONTINUOUS
 62
    30
 10
3359.744659
 20
665.787592
 30
0.0
 40
10.0
  0
POINT
  5
427
  8
DEFPOINTS
  6
CONTINUOUS
 62
     7
 10
3359.744659
 20
637.787592
 30
0.0
  0
LINE
  5
428
  8
SIZE
  6
CONTINUOUS
 62
    30
 10
3359.744659
 20
627.787592
 30
0.0
 11
3359.744659
 21
617.787592
 31
0.0
  0
CIRCLE
  5
429
  8
SIZE
  6
CONTINUOUS
 62
    30
 10
3359.744659
 20
637.787592
 30
0.0
 40
10.0
  0
LINE
  5
42A
  8
SIZE
  6
CONTINUOUS
 62
    30
 10
3359.744659
 20
675.787592
 30
0.0
 11
3359.744659
 21
685.787592
 31
0.0
  0
CIRCLE
  5
42B
  8
SIZE
  6
CONTINUOUS
 62
    30
 10
3359.744659
 20
665.787592
 30
0.0
 40
10.0
  0
LINE
  5
42C
  8
SIZE
  6
CONTINUOUS
 62
    30
 10
3359.744659
 20
665.787592
 30
0.0
 11
3359.744659
 21
637.787592
 31
0.0
  0
LINE
  5
42D
  8
SIZE
  6
CONTINUOUS
 62
    30
 10
3467.210668
 20
576.787592
 30
0.0
 11
3467.210668
 21
586.787592
 31
0.0
  0
CIRCLE
  5
42E
  8
SIZE
  6
CONTINUOUS
 62
    30
 10
3467.210668
 20
566.787592
 30
0.0
 40
10.0
  0
LINE
  5
42F
  8
SIZE
  6
CONTINUOUS
 62
    30
 10
3579.452965
 20
548.787592
 30
0.0
 11
3579.452965
 21
558.787592
 31
0.0
  0
POINT
  5
430
  8
DEFPOINTS
  6
CONTINUOUS
 62
     7
 10
3579.452965
 20
538.787592
 30
0.0
  0
CIRCLE
  5
431
  8
SIZE
  6
CONTINUOUS
 62
    30
 10
3579.452965
 20
538.787592
 30
0.0
 40
10.0
  0
POINT
  5
432
  8
DEFPOINTS
  6
CONTINUOUS
 62
     7
 10
3579.452965
 20
398.787592
 30
0.0
  0
LINE
  5
433
  8
SIZE
  6
CONTINUOUS
 62
    30
 10
3579.452965
 20
408.787592
 30
0.0
 11
3579.452965
 21
418.787592
 31
0.0
  0
LINE
  5
434
  8
SIZE
  6
CONTINUOUS
 62
    30
 10
3579.452965
 20
528.787592
 30
0.0
 11
3579.452965
 21
518.787592
 31
0.0
  0
CIRCLE
  5
435
  8
SIZE
  6
CONTINUOUS
 62
    30
 10
3579.452965
 20
538.787592
 30
0.0
 40
10.0
  0
LINE
  5
436
  8
SIZE
  6
CONTINUOUS
 62
    30
 10
3579.452965
 20
518.787592
 30
0.0
 11
3579.452965
 21
418.787592
 31
0.0
  0
LINE
  5
437
  8
SIZE
  6
CONTINUOUS
 62
    30
 10
3359.744659
 20
861.787592
 30
0.0
 11
3359.744659
 21
851.787592
 31
0.0
  0
LINE
  5
438
  8
SIZE
  6
CONTINUOUS
 62
    30
 10
3467.210668
 20
861.787592
 30
0.0
 11
3467.210668
 21
851.787592
 31
0.0
  0
TEXT
  5
439
  8
SIZE
  6
CONTINUOUS
 62
    30
 10
3341.744659
 20
712.001878
 30
0.0
 40
50.0
  1
206
 50
90.0
 41
0.9
 72
     1
 11
3341.744659
 21
768.787592
 31
0.0
  0
CIRCLE
  5
43A
  8
SIZE
  6
CONTINUOUS
 62
    30
 10
3359.744659
 20
871.787592
 30
0.0
 40
10.0
  0
POINT
  5
43B
  8
DEFPOINTS
  6
CONTINUOUS
 62
     7
 10
3467.210668
 20
871.787592
 30
0.0
  0
CIRCLE
  5
43C
  8
SIZE
  6
CONTINUOUS
 62
    30
 10
3467.210668
 20
871.787592
 30
0.0
 40
10.0
  0
LINE
  5
43D
  8
SIZE
  6
CONTINUOUS
 62
    30
 10
3579.452965
 20
861.787592
 30
0.0
 11
3579.452965
 21
851.787592
 31
0.0
  0
CIRCLE
  5
43E
  8
SIZE
  6
CONTINUOUS
 62
    30
 10
3579.452965
 20
871.787592
 30
0.0
 40
10.0
  0
ENDBLK
  5
440
  8
0
 62
     7
  0
ENDSEC
  0
SECTION
  2
ENTITIES
  0
LINE
  5
442
  8
SIZE
  6
CONTINUOUS
 62
    30
 10
826.668335
 20
325.0
 30
0.0
 11
1477.889945
 21
325.0
 31
0.0
  0
LINE
  5
443
  8
SIZE
  6
CONTINUOUS
 62
    30
 10
773.0
 20
473.0
 30
0.0
 11
1477.889945
 21
473.0
 31
0.0
  0
LINE
  5
444
  8
SIZE
  6
CONTINUOUS
 62
    30
 10
833.002089
 20
267.0
 30
0.0
 11
1592.52037
 21
267.0
 31
0.0
  0
LINE
  5
445
  8
SIZE
  6
CONTINUOUS
 62
    30
 10
773.0
 20
473.0
 30
0.0
 11
1592.52037
 21
473.0
 31
0.0
  0
LINE
  5
446
  8
SIZE
  6
CONTINUOUS
 62
    30
 10
846.661335
 20
239.0
 30
0.0
 11
1592.52037
 21
239.0
 31
0.0
  0
LINE
  5
447
  8
SIZE
  6
CONTINUOUS
 62
    30
 10
833.002089
 20
267.0
 30
0.0
 11
1592.52037
 21
267.0
 31
0.0
  0
LINE
  5
448
  8
NOTE
  6
CONTINUOUS
 62
     4
 10
1623.495565
 20
-221.639136
 30
0.0
 11
1183.042487
 21
-221.639136
 31
0.0
  0
TEXT
  5
449
  8
NOTE
  6
CONTINUOUS
 62
     4
 10
1204.717758
 20
-205.812605
 30
0.0
 40
60.0
  1
D2（自然排水口）
 50
0.000003
 41
0.7
  7
STANDARD1
  0
LINE
  5
44A
  8
SIZE
  6
CONTINUOUS
 62
    30
 10
773.0
 20
473.0
 30
0.0
 11
1699.986379
 21
473.0
 31
0.0
  0
LINE
  5
44B
  8
SIZE
  6
CONTINUOUS
 62
    30
 10
778.5
 20
168.0
 30
0.0
 11
1699.986379
 21
168.0
 31
0.0
  0
LINE
  5
44C
  8
SIZE
  6
CONTINUOUS
 62
    30
 10
757.998204
 20
140.0
 30
0.0
 11
1812.228676
 21
140.0
 31
0.0
  0
LINE
  5
44D
  8
SIZE
  6
CONTINUOUS
 62
    30
 10
773.0
 20
473.0
 30
0.0
 11
1812.228676
 21
473.0
 31
0.0
  0
LINE
  5
44E
  8
SIZE
  6
CONTINUOUS
 62
    30
 10
1063.0
 20
0.0
 30
0.0
 11
1812.228676
 21
0.0
 31
0.0
  0
LINE
  5
44F
  8
SIZE
  6
CONTINUOUS
 62
    30
 10
757.998204
 20
140.0
 30
0.0
 11
1812.228676
 21
140.0
 31
0.0
  0
LINE
  5
450
  8
DETAIL
  6
CONTINUOUS
 62
     5
 10
-795.0
 20
0.0
 30
0.0
 11
795.0
 21
0.0
 31
0.0
  0
LINE
  5
451
  8
OUTLINE
  6
CONTINUOUS
 62
     3
 10
-739.0885
 20
47.0
 30
0.0
 11
739.0885
 21
47.0
 31
0.0
  0
LINE
  5
452
  8
OUTLINE
  6
CONTINUOUS
 62
     3
 10
-763.816783
 20
-8.0
 30
0.0
 11
763.816783
 21
-8.0
 31
0.0
  0
LINE
  5
453
  8
SIZE
  6
CONTINUOUS
 62
    30
 10
-755.0
 20
-239.598057
 30
0.0
 11
755.0
 21
-239.598057
 31
0.0
  0
LINE
  5
454
  8
SIZE
  6
CONTINUOUS
 62
    30
 10
775.0
 20
-337.28945
 30
0.0
 11
-775.0
 21
-337.28945
 31
0.0
  0
LINE
  5
455
  8
DETAIL
  6
CONTINUOUS
 62
     5
 10
-763.816783
 20
-8.0
 30
0.0
 11
763.816783
 21
-8.0
 31
0.0
  0
LINE
  5
456
  8
DETAIL
  6
CONTINUOUS
 62
     5
 10
-739.0885
 20
47.0
 30
0.0
 11
739.0885
 21
47.0
 31
0.0
  0
LINE
  5
457
  8
OUTLINE
  6
CONTINUOUS
 62
     3
 10
755.0
 20
473.0
 30
0.0
 11
-755.0
 21
473.0
 31
0.0
  0
LINE
  5
458
  8
OUTLINE
  6
CONTINUOUS
 62
     3
 10
755.0
 20
140.0
 30
0.0
 11
-755.0
 21
140.0
 31
0.0
  0
LINE
  5
459
  8
DETAIL
  6
CONTINUOUS
 62
     5
 10
-713.024909
 20
445.012934
 30
0.0
 11
712.99497
 21
445.012934
 31
0.0
  0
LINE
  5
45A
  8
DETAIL
  6
CONTINUOUS
 62
     5
 10
-749.999401
 20
167.403281
 30
0.0
 11
749.999401
 21
167.403281
 31
0.0
  0
LINE
  5
45B
  8
DETAIL
  6
CONTINUOUS
 62
     5
 10
-713.024909
 20
228.987066
 30
0.0
 11
712.99497
 21
228.987066
 31
0.0
  0
LINE
  5
45C
  8
DETAIL
  6
CONTINUOUS
 62
     5
 10
739.998204
 20
140.0
 30
0.0
 11
-739.998204
 21
140.0
 31
0.0
  0
LINE
  5
45D
  8
DETAIL
  6
CONTINUOUS
 62
     5
 10
736.997844
 20
155.001796
 30
0.0
 11
-736.997844
 21
155.001796
 31
0.0
  0
LINE
  5
45E
  8
DETAIL
  6
CONTINUOUS
 62
     5
 10
755.0
 20
473.0
 30
0.0
 11
-755.0
 21
473.0
 31
0.0
  0
LINE
  5
45F
  8
SIZE
  6
CONTINUOUS
 62
    30
 10
-728.0
 20
932.225679
 30
0.0
 11
728.0
 21
932.225679
 31
0.0
  0
LINE
  5
460
  8
SIZE
  6
CONTINUOUS
 62
    30
 10
751.0
 20
1046.107263
 30
0.0
 11
-751.0
 21
1046.107263
 31
0.0
  0
LINE
  5
461
  8
SIZE
  6
CONTINUOUS
 62
    30
 10
-735.0
 20
827.981979
 30
0.0
 11
735.0
 21
827.981979
 31
0.0
  0
LINE
  5
462
  8
OUTLINE
  6
CONTINUOUS
 62
     3
 10
-795.0
 20
-4.006988
 30
0.0
 11
-795.0
 21
0.0
 31
0.0
  0
CIRCLE
  5
463
  8
SIZE
  6
CONTINUOUS
 62
    30
 10
-962.921587
 20
0.0
 30
0.0
 40
10.0
  0
CIRCLE
  5
464
  8
SIZE
  6
CONTINUOUS
 62
    30
 10
-962.921587
 20
-8.0
 30
0.0
 40
10.0
  0
CIRCLE
  5
465
  8
SIZE
  6
CONTINUOUS
 62
    30
 10
-962.921587
 20
0.0
 30
0.0
 40
10.0
  0
LINE
  5
466
  8
SIZE
  6
CONTINUOUS
 62
    30
 10
-962.921587
 20
0.0
 30
0.0
 11
-962.921587
 21
-8.0
 31
0.0
  0
LINE
  5
467
  8
SIZE
  6
CONTINUOUS
 62
    30
 10
-755.0
 20
122.0
 30
0.0
 11
-755.0
 21
-176.609394
 31
0.0
  0
LINE
  5
468
  8
DETAIL
  6
CONTINUOUS
 62
     5
 10
-795.0
 20
-4.006988
 30
0.0
 11
-795.0
 21
0.0
 31
0.0
  0
ARC
  5
469
  8
OUTLINE
  6
CONTINUOUS
 62
     3
 10
-764.296323
 20
112.013413
 30
0.0
 40
120.014371
 50
255.17703
 51
270.228937
  0
CIRCLE
  5
46A
  8
SIZE
  6
CONTINUOUS
 62
    30
 10
-775.0
 20
-146.609394
 30
0.0
 40
10.0
  0
CIRCLE
  5
46B
  8
SIZE
  6
CONTINUOUS
 62
    30
 10
-775.0
 20
-239.598057
 30
0.0
 40
10.0
  0
CIRCLE
  5
46C
  8
SIZE
  6
CONTINUOUS
 62
    30
 10
-775.0
 20
-239.598057
 30
0.0
 40
10.0
  0
LINE
  5
46D
  8
SIZE
  6
CONTINUOUS
 62
    30
 10
-775.0
 20
-239.598057
 30
0.0
 11
-795.0
 21
-239.598057
 31
0.0
  0
LINE
  5
46E
  8
SIZE
  6
CONTINUOUS
 62
    30
 10
-785.0
 20
-337.28945
 30
0.0
 11
-775.0
 21
-337.28945
 31
0.0
  0
ARC
  5
46F
  8
DETAIL
  6
CONTINUOUS
 62
     5
 10
-764.296323
 20
112.013413
 30
0.0
 40
120.014371
 50
255.17703
 51
270.228937
  0
LINE
  5
470
  8
SIZE
  6
CONTINUOUS
 62
    30
 10
-795.0
 20
-22.006988
 30
0.0
 11
-795.0
 21
-367.28945
 31
0.0
  0
POINT
  5
471
  8
DEFPOINTS
  6
CONTINUOUS
 62
     7
 10
-795.0
 20
-337.28945
 30
0.0
  0
CIRCLE
  5
472
  8
SIZE
  6
CONTINUOUS
 62
    30
 10
-795.0
 20
-337.28945
 30
0.0
 40
10.0
  0
TEXT
  5
473
  8
SIZE
  6
CONTINUOUS
 62
    30
 10
-980.921587
 20
-96.0
 30
0.0
 40
50.0
  1
8
 50
90.0
 41
0.9
 72
     1
 11
-980.921587
 21
-81.0
 31
0.0
  0
LINE
  5
474
  8
SIZE
  6
CONTINUOUS
 62
    30
 10
-795.0
 20
-22.006988
 30
0.0
 11
-795.0
 21
-269.598057
 31
0.0
  0
TEXT
  5
475
  8
SIZE
  6
CONTINUOUS
 62
    30
 10
-925.857142
 20
-221.598057
 30
0.0
 40
50.0
  1
20
 41
0.9
 72
     1
 11
-889.428571
 21
-221.598057
 31
0.0
  0
LINE
  5
476
  8
SIZE
  6
CONTINUOUS
 62
    30
 10
-815.0
 20
-239.598057
 30
0.0
 11
-943.857143
 21
-239.598057
 31
0.0
  0
POINT
  5
477
  8
DEFPOINTS
  6
CONTINUOUS
 62
     7
 10
-795.0
 20
-239.598057
 30
0.0
  0
LINE
  5
478
  8
SIZE
  6
CONTINUOUS
 62
    30
 10
-805.0
 20
-239.598057
 30
0.0
 11
-815.0
 21
-239.598057
 31
0.0
  0
CIRCLE
  5
479
  8
SIZE
  6
CONTINUOUS
 62
    30
 10
-795.0
 20
-239.598057
 30
0.0
 40
10.0
  0
LINE
  5
47A
  8
SIZE
  6
CONTINUOUS
 62
    30
 10
-781.816783
 20
-8.0
 30
0.0
 11
-992.921587
 21
-8.0
 31
0.0
  0
LINE
  5
47B
  8
SIZE
  6
CONTINUOUS
 62
    30
 10
-962.921587
 20
-10.0
 30
0.0
 11
-962.921587
 21
-20.0
 31
0.0
  0
LINE
  5
47C
  8
SIZE
  6
CONTINUOUS
 62
    30
 10
-962.921587
 20
-20.0
 30
0.0
 11
-962.921587
 21
-40.0
 31
0.0
  0
POINT
  5
47D
  8
DEFPOINTS
  6
CONTINUOUS
 62
     7
 10
-962.921587
 20
-8.0
 30
0.0
  0
LINE
  5
47E
  8
SIZE
  6
CONTINUOUS
 62
    30
 10
-962.921587
 20
-18.0
 30
0.0
 11
-962.921587
 21
-28.0
 31
0.0
  0
LINE
  5
47F
  8
SIZE
  6
CONTINUOUS
 62
    30
 10
-962.921587
 20
-28.0
 30
0.0
 11
-962.921587
 21
-114.0
 31
0.0
  0
LINE
  5
480
  8
SIZE
  6
CONTINUOUS
 62
    30
 10
-785.0
 20
-146.609394
 30
0.0
 11
-795.0
 21
-146.609394
 31
0.0
  0
LINE
  5
481
  8
SIZE
  6
CONTINUOUS
 62
    30
 10
-795.0
 20
-146.609394
 30
0.0
 11
-815.0
 21
-146.609394
 31
0.0
  0
POINT
  5
482
  8
DEFPOINTS
  6
CONTINUOUS
 62
     7
 10
-795.0
 20
-4.006988
 30
0.0
  0
POINT
  5
483
  8
DEFPOINTS
  6
CONTINUOUS
 62
     7
 10
-795.0
 20
-4.006988
 30
0.0
  0
LINE
  5
484
  8
SIZE
  6
CONTINUOUS
 62
    30
 10
-735.0
 20
-146.609394
 30
0.0
 11
-402.142857
 21
-146.609394
 31
0.0
  0
CIRCLE
  5
485
  8
SIZE
  6
CONTINUOUS
 62
    30
 10
-755.0
 20
-146.609394
 30
0.0
 40
10.0
  0
LINE
  5
486
  8
SIZE
  6
CONTINUOUS
 62
    30
 10
-775.0
 20
-17.0
 30
0.0
 11
-775.0
 21
-176.609394
 31
0.0
  0
LINE
  5
487
  8
SIZE
  6
CONTINUOUS
 62
    30
 10
-775.0
 20
-17.0
 30
0.0
 11
-775.0
 21
-269.598057
 31
0.0
  0
LINE
  5
488
  8
SIZE
  6
CONTINUOUS
 62
    30
 10
-775.0
 20
-17.0
 30
0.0
 11
-775.0
 21
-269.598057
 31
0.0
  0
LINE
  5
489
  8
SIZE
  6
CONTINUOUS
 62
    30
 10
-765.0
 20
-239.598057
 30
0.0
 11
-755.0
 21
-239.598057
 31
0.0
  0
LINE
  5
48A
  8
SIZE
  6
CONTINUOUS
 62
    30
 10
-765.0
 20
-239.598057
 30
0.0
 11
-755.0
 21
-239.598057
 31
0.0
  0
LINE
  5
48B
  8
SIZE
  6
CONTINUOUS
 62
    30
 10
-755.0
 20
-239.598057
 30
0.0
 11
-735.0
 21
-239.598057
 31
0.0
  0
POINT
  5
48C
  8
DEFPOINTS
  6
CONTINUOUS
 62
     7
 10
-763.816783
 20
-8.0
 30
0.0
  0
POINT
  5
48D
  8
DEFPOINTS
  6
CONTINUOUS
 62
     7
 10
-775.0
 20
-146.609394
 30
0.0
  0
LINE
  5
48E
  8
SIZE
  6
CONTINUOUS
 62
    30
 10
-745.0
 20
-146.609394
 30
0.0
 11
-735.0
 21
-146.609394
 31
0.0
  0
LINE
  5
48F
  8
SIZE
  6
CONTINUOUS
 62
    30
 10
-775.0
 20
-146.609394
 30
0.0
 11
-755.0
 21
-146.609394
 31
0.0
  0
TEXT
  5
490
  8
SIZE
  6
CONTINUOUS
 62
    30
 10
-493.0
 20
-128.609394
 30
0.0
 40
50.0
  1
20
 41
0.9
 72
     1
 11
-456.571429
 21
-128.609394
 31
0.0
  0
TEXT
  5
491
  8
NOTE
  6
CONTINUOUS
 62
     4
 10
-1624.548854
 20
815.891329
 30
0.0
 40
60.0
  1
AH 4-14×30長穴(M10)
 50
0.000003
 41
0.7
  7
STANDARD1
  0
LINE
  5
492
  8
NOTE
  6
CONTINUOUS
 62
     4
 10
-1637.57421
 20
800.064768
 30
0.0
 11
-908.473582
 21
800.064768
 31
0.0
  0
TEXT
  5
493
  8
NOTE
  6
CONTINUOUS
 62
     4
 10
-1773.291934
 20
604.90795
 30
0.0
 40
60.0
  1
外気取入口 %%C150（ノックアウト穴）
 50
0.000003
 41
0.7
  7
STANDARD1
  0
LINE
  5
494
  8
NOTE
  6
CONTINUOUS
 62
     4
 10
-1797.2243
 20
587.268529
 30
0.0
 11
-888.415421
 21
587.268529
 31
0.0
  0
TEXT
  5
495
  8
ETC
  6
CONTINUOUS
 62
    61
 10
-1647.07602
 20
1148.843658
 30
0.0
 40
65.0
  1
MPD-RP112_160FA3_3
 50
0.000003
 41
0.85
  7
STANDARD1
  0
POLYLINE
  5
496
  8
NOTE
  6
CONTINUOUS
 62
     4
 66
     1
 10
0.0
 20
0.0
 30
0.0
  0
VERTEX
  5
497
  8
NOTE
  6
CONTINUOUS
 62
     4
 10
-748.0
 20
473.0
 30
0.0
  0
VERTEX
  5
498
  8
NOTE
  6
CONTINUOUS
 62
     4
 10
-908.473582
 20
800.064768
 30
0.0
  0
SEQEND
  5
499
  8
NOTE
  6
CONTINUOUS
 62
     4
  0
LINE
  5
49A
  8
SIZE
  6
CONTINUOUS
 62
    30
 10
-748.0
 20
511.002395
 30
0.0
 11
-748.0
 21
962.225679
 31
0.0
  0
LINE
  5
49B
  8
SIZE
  6
CONTINUOUS
 62
    30
 10
-771.0
 20
486.699485
 30
0.0
 11
-771.0
 21
962.225679
 31
0.0
  0
LINE
  5
49C
  8
SIZE
  6
CONTINUOUS
 62
    30
 10
-748.0
 20
503.702395
 30
0.0
 11
-748.0
 21
962.225679
 31
0.0
  0
LINE
  5
49D
  8
SIZE
  6
CONTINUOUS
 62
    30
 10
-771.0
 20
486.699485
 30
0.0
 11
-771.0
 21
1076.107263
 31
0.0
  0
LINE
  5
49E
  8
SIZE
  6
CONTINUOUS
 62
    30
 10
-771.0
 20
481.699485
 30
0.0
 11
-771.0
 21
857.981979
 31
0.0
  0
LINE
  5
49F
  8
SIZE
  6
CONTINUOUS
 62
    30
 10
-755.0
 20
491.0
 30
0.0
 11
-755.0
 21
857.981979
 31
0.0
  0
LINE
  5
4A0
  8
SIZE
  6
CONTINUOUS
 62
    30
 10
-755.0
 20
491.0
 30
0.0
 11
-755.0
 21
857.981979
 31
0.0
  0
LINE
  5
4A1
  8
OUTLINE
  6
CONTINUOUS
 62
     3
 10
-795.0
 20
0.0
 30
0.0
 11
-739.0885
 21
0.0
 31
0.0
  0
LINE
  5
4A2
  8
SIZE
  6
CONTINUOUS
 62
    30
 10
-757.0885
 20
47.0
 30
0.0
 11
-992.921587
 21
47.0
 31
0.0
  0
LINE
  5
4A3
  8
NOTE
  6
CONTINUOUS
 62
     4
 10
-775.0
 20
1.0
 30
0.0
 11
-876.307449
 21
1.0
 31
0.0
  0
LINE
  5
4A4
  8
NOTE
  6
CONTINUOUS
 62
     4
 10
-775.0
 20
21.0
 30
0.0
 11
-876.307449
 21
21.0
 31
0.0
  0
LINE
  5
4A5
  8
NOTE
  6
CONTINUOUS
 62
     4
 10
-755.0
 20
337.0
 30
0.0
 11
-776.206105
 21
359.69181
 31
0.0
  0
POLYLINE
  5
4A6
  8
NOTE
  6
CONTINUOUS
 62
     4
 66
     1
 10
0.0
 20
0.0
 30
0.0
  0
VERTEX
  5
4A7
  8
NOTE
  6
CONTINUOUS
 62
     4
 10
-755.0
 20
337.0
 30
0.0
  0
VERTEX
  5
4A8
  8
NOTE
  6
CONTINUOUS
 62
     4
 10
-888.415421
 20
587.268529
 30
0.0
  0
SEQEND
  5
4A9
  8
NOTE
  6
CONTINUOUS
 62
     4
  0
LINE
  5
4AA
  8
SIZE
  6
CONTINUOUS
 62
    30
 10
-773.0
 20
473.0
 30
0.0
 11
-988.377974
 21
473.0
 31
0.0
  0
TEXT
  5
4AB
  8
SIZE
  6
CONTINUOUS
 62
    30
 10
-980.921587
 20
165.993259
 30
0.0
 40
50.0
  1
47
 50
90.0
 41
0.9
 72
     1
 11
-980.921587
 21
202.42183
 31
0.0
  0
LINE
  5
4AC
  8
SIZE
  6
CONTINUOUS
 62
    30
 10
-962.921587
 20
67.0
 30
0.0
 11
-962.921587
 21
256.850402
 31
0.0
  0
LINE
  5
4AD
  8
SIZE
  6
CONTINUOUS
 62
    30
 10
-813.0
 20
0.0
 30
0.0
 11
-992.921587
 21
0.0
 31
0.0
  0
LINE
  5
4AE
  8
SIZE
  6
CONTINUOUS
 62
    30
 10
-813.0
 20
0.0
 30
0.0
 11
-992.921587
 21
0.0
 31
0.0
  0
POINT
  5
4AF
  8
DEFPOINTS
  6
CONTINUOUS
 62
     7
 10
-962.921587
 20
47.0
 30
0.0
  0
LINE
  5
4B0
  8
SIZE
  6
CONTINUOUS
 62
    30
 10
-962.921587
 20
57.0
 30
0.0
 11
-962.921587
 21
67.0
 31
0.0
  0
CIRCLE
  5
4B1
  8
SIZE
  6
CONTINUOUS
 62
    30
 10
-962.921587
 20
47.0
 30
0.0
 40
10.0
  0
LINE
  5
4B2
  8
SIZE
  6
CONTINUOUS
 62
    30
 10
-962.921587
 20
0.0
 30
0.0
 11
-962.921587
 21
47.0
 31
0.0
  0
LINE
  5
4B3
  8
SIZE
  6
CONTINUOUS
 62
    30
 10
-962.921587
 20
10.0
 30
0.0
 11
-962.921587
 21
20.0
 31
0.0
  0
LINE
  5
4B4
  8
SIZE
  6
CONTINUOUS
 62
    30
 10
-962.921587
 20
20.0
 30
0.0
 11
-962.921587
 21
40.0
 31
0.0
  0
POINT
  5
4B5
  8
DEFPOINTS
  6
CONTINUOUS
 62
     7
 10
-795.0
 20
0.0
 30
0.0
  0
POINT
  5
4B6
  8
DEFPOINTS
  6
CONTINUOUS
 62
     7
 10
-795.0
 20
0.0
 30
0.0
  0
LINE
  5
4B7
  8
NOTE
  6
CONTINUOUS
 62
     4
 10
-865.265008
 20
1.0
 30
0.0
 11
-845.265008
 21
21.0
 31
0.0
  0
LINE
  5
4B8
  8
NOTE
  6
CONTINUOUS
 62
     4
 10
-860.265008
 20
1.0
 30
0.0
 11
-840.265008
 21
21.0
 31
0.0
  0
LINE
  5
4B9
  8
NOTE
  6
CONTINUOUS
 62
     4
 10
-855.265008
 20
1.0
 30
0.0
 11
-835.265008
 21
21.0
 31
0.0
  0
LINE
  5
4BA
  8
NOTE
  6
CONTINUOUS
 62
     4
 10
-825.265008
 20
1.0
 30
0.0
 11
-805.265008
 21
21.0
 31
0.0
  0
LINE
  5
4BB
  8
NOTE
  6
CONTINUOUS
 62
     4
 10
-820.265008
 20
1.0
 30
0.0
 11
-800.265008
 21
21.0
 31
0.0
  0
LINE
  5
4BC
  8
NOTE
  6
CONTINUOUS
 62
     4
 10
-815.265008
 20
1.0
 30
0.0
 11
-795.265008
 21
21.0
 31
0.0
  0
TEXT
  5
4BD
  8
SIZE
  6
CONTINUOUS
 62
    30
 10
-976.377974
 20
352.5
 30
0.0
 40
50.0
  1
136
 50
90.0
 41
0.9
 72
     1
 11
-976.377974
 21
405.0
 31
0.0
  0
LINE
  5
4BE
  8
SIZE
  6
CONTINUOUS
 62
    30
 10
-958.377974
 20
463.0
 30
0.0
 11
-958.377974
 21
453.0
 31
0.0
  0
LINE
  5
4BF
  8
SIZE
  6
CONTINUOUS
 62
    30
 10
-793.076405
 20
337.0
 30
0.0
 11
-988.377974
 21
337.0
 31
0.0
  0
POINT
  5
4C0
  8
DEFPOINTS
  6
CONTINUOUS
 62
     7
 10
-958.377974
 20
337.0
 30
0.0
  0
LINE
  5
4C1
  8
SIZE
  6
CONTINUOUS
 62
    30
 10
-958.377974
 20
347.0
 30
0.0
 11
-958.377974
 21
357.0
 31
0.0
  0
CIRCLE
  5
4C2
  8
SIZE
  6
CONTINUOUS
 62
    30
 10
-958.377974
 20
337.0
 30
0.0
 40
10.0
  0
LINE
  5
4C3
  8
SIZE
  6
CONTINUOUS
 62
    30
 10
-958.377974
 20
453.0
 30
0.0
 11
-958.377974
 21
357.0
 31
0.0
  0
CIRCLE
  5
4C4
  8
SIZE
  6
CONTINUOUS
 62
    30
 10
-958.377974
 20
473.0
 30
0.0
 40
10.0
  0
LINE
  5
4C5
  8
OUTLINE
  6
CONTINUOUS
 62
     3
 10
-755.0
 20
473.0
 30
0.0
 11
-755.0
 21
140.0
 31
0.0
  0
LINE
  5
4C6
  8
DETAIL
  6
CONTINUOUS
 62
     5
 10
-723.026107
 20
238.988264
 30
0.0
 11
-723.026107
 21
435.011736
 31
0.0
  0
LINE
  5
4C7
  8
DETAIL
  6
CONTINUOUS
 62
     5
 10
-755.0
 20
473.0
 30
0.0
 11
-755.0
 21
221.786204
 31
0.0
  0
LINE
  5
4C8
  8
DETAIL
  6
CONTINUOUS
 62
     5
 10
-739.998204
 20
152.001437
 30
0.0
 11
-739.998204
 21
140.0
 31
0.0
  0
LINE
  5
4C9
  8
DETAIL
  6
CONTINUOUS
 62
     5
 10
-755.0
 20
221.786204
 30
0.0
 11
-755.0
 21
140.800096
 31
0.0
  0
LINE
  5
4CA
  8
OUTLINE
  6
CONTINUOUS
 62
     3
 10
-739.0885
 20
0.0
 30
0.0
 11
-739.0885
 21
47.0
 31
0.0
  0
POINT
  5
4CB
  8
DEFPOINTS
  6
CONTINUOUS
 62
     7
 10
-739.0885
 20
47.0
 30
0.0
  0
POINT
  5
4CC
  8
DEFPOINTS
  6
CONTINUOUS
 62
     7
 10
-775.0
 20
1.0
 30
0.0
  0
POINT
  5
4CD
  8
DEFPOINTS
  6
CONTINUOUS
 62
     7
 10
-755.0
 20
140.0
 30
0.0
  0
POINT
  5
4CE
  8
DEFPOINTS
  6
CONTINUOUS
 62
     7
 10
-775.0
 20
1.0
 30
0.0
  0
POINT
  5
4CF
  8
DEFPOINTS
  6
CONTINUOUS
 62
     7
 10
-775.0
 20
1.0
 30
0.0
  0
LINE
  5
4D0
  8
NOTE
  6
CONTINUOUS
 62
     4
 10
-775.0
 20
1.0
 30
0.0
 11
-775.0
 21
21.0
 31
0.0
  0
LINE
  5
4D1
  8
DETAIL
  6
CONTINUOUS
 62
     5
 10
-739.0885
 20
0.0
 30
0.0
 11
-739.0885
 21
47.0
 31
0.0
  0
LINE
  5
4D2
  8
DETAIL
  6
CONTINUOUS
 62
     5
 10
-739.998204
 20
140.800096
 30
0.0
 11
-755.0
 21
140.800096
 31
0.0
  0
ARC
  5
4D3
  8
DETAIL
  6
CONTINUOUS
 62
     5
 10
-713.024909
 20
238.988264
 30
0.0
 40
10.001198
 50
180.0
 51
270.0
  0
ARC
  5
4D4
  8
DETAIL
  6
CONTINUOUS
 62
     5
 10
-749.999401
 20
172.40388
 30
0.0
 40
5.000599
 50
180.0
 51
270.0
  0
LINE
  5
4D5
  8
DETAIL
  6
CONTINUOUS
 62
     5
 10
-739.998204
 20
152.001437
 30
0.0
 11
-736.997844
 21
155.001796
 31
0.0
  0
LINE
  5
4D6
  8
NOTE
  6
CONTINUOUS
 62
     4
 10
-748.0
 20
452.997605
 30
0.0
 11
-748.0
 21
493.002395
 31
0.0
  0
CIRCLE
  5
4D7
  8
FIX
  6
CONTINUOUS
 62
    11
 10
-748.0
 20
473.0
 30
0.0
 40
18.598564
  0
LINE
  5
4D8
  8
NOTE
  6
CONTINUOUS
 62
     4
 10
-762.019121
 20
367.254736
 30
0.0
 11
-755.0
 21
337.0
 31
0.0
  0
ARC
  5
4D9
  8
DETAIL
  6
CONTINUOUS
 62
     5
 10
-713.024909
 20
435.011736
 30
0.0
 40
10.001198
 50
90.0
 51
180.0
  0
POINT
  5
4DA
  8
DEFPOINTS
  6
CONTINUOUS
 62
     7
 10
-775.076405
 20
337.0
 30
0.0
  0
LINE
  5
4DB
  8
NOTE
  6
CONTINUOUS
 62
     4
 10
-734.923595
 20
337.0
 30
0.0
 11
-775.076405
 21
337.0
 31
0.0
  0
LINE
  5
4DC
  8
NOTE
  6
CONTINUOUS
 62
     4
 10
-755.0
 20
317.0
 30
0.0
 11
-755.0
 21
357.0
 31
0.0
  0
LINE
  5
4DD
  8
NOTE
  6
CONTINUOUS
 62
     4
 10
-748.0
 20
473.0
 30
0.0
 11
-766.938432
 21
492.895151
 31
0.0
  0
LINE
  5
4DE
  8
NOTE
  6
CONTINUOUS
 62
     4
 10
-752.006906
 20
498.854839
 30
0.0
 11
-748.0
 21
473.0
 31
0.0
  0
ARC
  5
4DF
  8
DETAIL
  6
CONTINUOUS
 62
     5
 10
-766.699485
 20
468.699485
 30
0.0
 40
4.300515
 50
90.0
 51
180.0
  0
LINE
  5
4E0
  8
DETAIL
  6
CONTINUOUS
 62
     5
 10
-771.0
 20
468.699485
 30
0.0
 11
-771.0
 21
460.998563
 31
0.0
  0
LINE
  5
4E1
  8
DETAIL
  6
CONTINUOUS
 62
     5
 10
-768.699725
 20
468.699725
 30
0.0
 11
-768.699725
 21
460.998563
 31
0.0
  0
LINE
  5
4E2
  8
DETAIL
  6
CONTINUOUS
 62
     5
 10
-768.699725
 20
460.998563
 30
0.0
 11
-771.0
 21
460.998563
 31
0.0
  0
LINE
  5
4E3
  8
DETAIL
  6
CONTINUOUS
 62
     5
 10
-755.0
 20
473.0
 30
0.0
 11
-766.699485
 21
473.0
 31
0.0
  0
LINE
  5
4E4
  8
DETAIL
  6
CONTINUOUS
 62
     5
 10
-755.0
 20
470.699725
 30
0.0
 11
-766.699725
 21
470.699725
 31
0.0
  0
LINE
  5
4E5
  8
NOTE
  6
CONTINUOUS
 62
     4
 10
-727.999042
 20
473.0
 30
0.0
 11
-768.000958
 21
473.0
 31
0.0
  0
ARC
  5
4E6
  8
DETAIL
  6
CONTINUOUS
 62
     5
 10
-766.699725
 20
468.699725
 30
0.0
 40
2.0
 50
90.0
 51
180.0
  0
POINT
  5
4E7
  8
DEFPOINTS
  6
CONTINUOUS
 62
     7
 10
-748.0
 20
493.002395
 30
0.0
  0
POINT
  5
4E8
  8
DEFPOINTS
  6
CONTINUOUS
 62
     7
 10
-771.0
 20
468.699485
 30
0.0
  0
POINT
  5
4E9
  8
DEFPOINTS
  6
CONTINUOUS
 62
     7
 10
-748.0
 20
485.702395
 30
0.0
  0
POINT
  5
4EA
  8
DEFPOINTS
  6
CONTINUOUS
 62
     7
 10
-771.0
 20
468.699485
 30
0.0
  0
POINT
  5
4EB
  8
DEFPOINTS
  6
CONTINUOUS
 62
     7
 10
-771.0
 20
463.699485
 30
0.0
  0
POINT
  5
4EC
  8
DEFPOINTS
  6
CONTINUOUS
 62
     7
 10
-755.0
 20
473.0
 30
0.0
  0
POINT
  5
4ED
  8
DEFPOINTS
  6
CONTINUOUS
 62
     7
 10
-755.0
 20
473.0
 30
0.0
  0
POINT
  5
4EE
  8
DEFPOINTS
  6
CONTINUOUS
 62
     7
 10
-755.0
 20
473.0
 30
0.0
  0
CIRCLE
  5
4EF
  8
SIZE
  6
CONTINUOUS
 62
    30
 10
-771.0
 20
932.225679
 30
0.0
 40
10.0
  0
CIRCLE
  5
4F0
  8
SIZE
  6
CONTINUOUS
 62
    30
 10
-771.0
 20
1046.107263
 30
0.0
 40
10.0
  0
CIRCLE
  5
4F1
  8
SIZE
  6
CONTINUOUS
 62
    30
 10
-771.0
 20
827.981979
 30
0.0
 40
10.0
  0
TEXT
  5
4F2
  8
SIZE
  6
CONTINUOUS
 62
    30
 10
-891.142858
 20
845.981979
 30
0.0
 40
50.0
  1
16
 41
0.9
 72
     1
 11
-860.071429
 21
845.981979
 31
0.0
  0
LINE
  5
4F3
  8
SIZE
  6
CONTINUOUS
 62
    30
 10
-791.0
 20
827.981979
 30
0.0
 11
-909.142857
 21
827.981979
 31
0.0
  0
LINE
  5
4F4
  8
SIZE
  6
CONTINUOUS
 62
    30
 10
-781.0
 20
827.981979
 30
0.0
 11
-791.0
 21
827.981979
 31
0.0
  0
TEXT
  5
4F5
  8
SIZE
  6
CONTINUOUS
 62
    30
 10
-901.857142
 20
950.225679
 30
0.0
 40
50.0
  1
23
 41
0.9
 72
     1
 11
-865.428571
 21
950.225679
 31
0.0
  0
LINE
  5
4F6
  8
SIZE
  6
CONTINUOUS
 62
    30
 10
-791.0
 20
932.225679
 30
0.0
 11
-919.857143
 21
932.225679
 31
0.0
  0
LINE
  5
4F7
  8
SIZE
  6
CONTINUOUS
 62
    30
 10
-781.0
 20
932.225679
 30
0.0
 11
-791.0
 21
932.225679
 31
0.0
  0
POINT
  5
4F8
  8
DEFPOINTS
  6
CONTINUOUS
 62
     7
 10
-771.0
 20
827.981979
 30
0.0
  0
LINE
  5
4F9
  8
SIZE
  6
CONTINUOUS
 62
    30
 10
-745.0
 20
827.981979
 30
0.0
 11
-735.0
 21
827.981979
 31
0.0
  0
CIRCLE
  5
4FA
  8
SIZE
  6
CONTINUOUS
 62
    30
 10
-755.0
 20
827.981979
 30
0.0
 40
10.0
  0
LINE
  5
4FB
  8
SIZE
  6
CONTINUOUS
 62
    30
 10
-755.0
 20
827.981979
 30
0.0
 11
-771.0
 21
827.981979
 31
0.0
  0
LINE
  5
4FC
  8
SIZE
  6
CONTINUOUS
 62
    30
 10
-735.0
 20
827.981979
 30
0.0
 11
-715.0
 21
827.981979
 31
0.0
  0
LINE
  5
4FD
  8
SIZE
  6
CONTINUOUS
 62
    30
 10
-745.0
 20
827.981979
 30
0.0
 11
-735.0
 21
827.981979
 31
0.0
  0
CIRCLE
  5
4FE
  8
SIZE
  6
CONTINUOUS
 62
    30
 10
-755.0
 20
827.981979
 30
0.0
 40
10.0
  0
POINT
  5
4FF
  8
DEFPOINTS
  6
CONTINUOUS
 62
     7
 10
-748.0
 20
932.225679
 30
0.0
  0
LINE
  5
500
  8
SIZE
  6
CONTINUOUS
 62
    30
 10
-738.0
 20
932.225679
 30
0.0
 11
-728.0
 21
932.225679
 31
0.0
  0
CIRCLE
  5
501
  8
SIZE
  6
CONTINUOUS
 62
    30
 10
-748.0
 20
932.225679
 30
0.0
 40
10.0
  0
LINE
  5
502
  8
SIZE
  6
CONTINUOUS
 62
    30
 10
-748.0
 20
932.225679
 30
0.0
 11
-771.0
 21
932.225679
 31
0.0
  0
LINE
  5
503
  8
SIZE
  6
CONTINUOUS
 62
    30
 10
-728.0
 20
932.225679
 30
0.0
 11
-708.0
 21
932.225679
 31
0.0
  0
LINE
  5
504
  8
SIZE
  6
CONTINUOUS
 62
    30
 10
-738.0
 20
932.225679
 30
0.0
 11
-728.0
 21
932.225679
 31
0.0
  0
CIRCLE
  5
505
  8
SIZE
  6
CONTINUOUS
 62
    30
 10
-748.0
 20
932.225679
 30
0.0
 40
10.0
  0
POINT
  5
506
  8
DEFPOINTS
  6
CONTINUOUS
 62
     7
 10
-771.0
 20
1046.107263
 30
0.0
  0
LINE
  5
507
  8
SIZE
  6
CONTINUOUS
 62
    30
 10
-761.0
 20
1046.107263
 30
0.0
 11
-751.0
 21
1046.107263
 31
0.0
  0
LINE
  5
508
  8
BASIS
  6
DASHDOT
 62
     6
 10
0.0
 20
-58.000958
 30
0.0
 11
0.0
 21
530.015928
 31
0.0
  0
CIRCLE
  5
509
  8
ARRANGE
  6
CONTINUOUS
 62
     1
 10
0.0
 20
0.0
 30
0.0
 40
50.0
  0
LINE
  5
50A
  8
OUTLINE
  6
CONTINUOUS
 62
     3
 10
795.0
 20
-4.006988
 30
0.0
 11
795.0
 21
0.0
 31
0.0
  0
LINE
  5
50B
  8
SIZE
  6
CONTINUOUS
 62
    30
 10
755.0
 20
122.0
 30
0.0
 11
755.0
 21
-188.661153
 31
0.0
  0
LINE
  5
50C
  8
DETAIL
  6
CONTINUOUS
 62
     5
 10
795.0
 20
-4.006988
 30
0.0
 11
795.0
 21
0.0
 31
0.0
  0
POLYLINE
  5
50D
  8
NOTE
  6
CONTINUOUS
 62
     4
 66
     1
 10
0.0
 20
0.0
 30
0.0
  0
VERTEX
  5
50E
  8
NOTE
  6
CONTINUOUS
 62
     4
 10
755.0
 20
168.0
 30
0.0
  0
VERTEX
  5
50F
  8
NOTE
  6
CONTINUOUS
 62
     4
 10
1183.042487
 20
-221.639136
 30
0.0
  0
SEQEND
  5
510
  8
NOTE
  6
CONTINUOUS
 62
     4
  0
LINE
  5
511
  8
ARRANGE
  6
CONTINUOUS
 62
     1
 10
49.963763
 20
49.596595
 30
0.0
 11
-49.963763
 21
-49.596595
 31
0.0
  0
LINE
  5
512
  8
ARRANGE
  6
CONTINUOUS
 62
     1
 10
50.03735
 20
-49.522353
 30
0.0
 11
-50.03735
 21
49.522353
 31
0.0
  0
TEXT
  5
513
  8
SIZE
  6
CONTINUOUS
 62
    30
 10
-279.428571
 20
-221.598057
 30
0.0
 40
50.0
  1
1550（天井開口寸法）
 41
0.9
 72
     1
 11
0.0
 21
-221.598057
 31
0.0
  0
TEXT
  5
514
  8
SIZE
  6
CONTINUOUS
 62
    30
 10
-75.0
 20
-319.28945
 30
0.0
 40
50.0
  1
1590
 41
0.9
 72
     1
 11
0.0
 21
-319.28945
 31
0.0
  0
LINE
  5
515
  8
SIZE
  6
CONTINUOUS
 62
    30
 10
795.0
 20
-22.006988
 30
0.0
 11
795.0
 21
-367.28945
 31
0.0
  0
CIRCLE
  5
516
  8
SIZE
  6
CONTINUOUS
 62
    30
 10
795.0
 20
-337.28945
 30
0.0
 40
10.0
  0
LINE
  5
517
  8
SIZE
  6
CONTINUOUS
 62
    30
 10
785.0
 20
-337.28945
 30
0.0
 11
775.0
 21
-337.28945
 31
0.0
  0
ARC
  5
518
  8
OUTLINE
  6
CONTINUOUS
 62
     3
 10
764.296323
 20
112.013413
 30
0.0
 40
120.014371
 50
269.771063
 51
284.82297
  0
LINE
  5
519
  8
SIZE
  6
CONTINUOUS
 62
    30
 10
785.0
 20
-158.661153
 30
0.0
 11
795.0
 21
-158.661153
 31
0.0
  0
CIRCLE
  5
51A
  8
SIZE
  6
CONTINUOUS
 62
    30
 10
795.0
 20
-239.598057
 30
0.0
 40
10.0
  0
LINE
  5
51B
  8
SIZE
  6
CONTINUOUS
 62
    30
 10
775.0
 20
-239.598057
 30
0.0
 11
795.0
 21
-239.598057
 31
0.0
  0
ARC
  5
51C
  8
DETAIL
  6
CONTINUOUS
 62
     5
 10
764.296323
 20
112.013413
 30
0.0
 40
120.014371
 50
269.771063
 51
284.82297
  0
CIRCLE
  5
51D
  8
SIZE
  6
CONTINUOUS
 62
    30
 10
775.0
 20
-158.661153
 30
0.0
 40
10.0
  0
CIRCLE
  5
51E
  8
SIZE
  6
CONTINUOUS
 62
    30
 10
755.0
 20
-158.661153
 30
0.0
 40
10.0
  0
LINE
  5
51F
  8
SIZE
  6
CONTINUOUS
 62
    30
 10
775.0
 20
-17.0
 30
0.0
 11
775.0
 21
-188.661153
 31
0.0
  0
LINE
  5
520
  8
SIZE
  6
CONTINUOUS
 62
    30
 10
775.0
 20
-17.0
 30
0.0
 11
775.0
 21
-269.598057
 31
0.0
  0
LINE
  5
521
  8
SIZE
  6
CONTINUOUS
 62
    30
 10
775.0
 20
-17.0
 30
0.0
 11
775.0
 21
-269.598057
 31
0.0
  0
POINT
  5
522
  8
DEFPOINTS
  6
CONTINUOUS
 62
     7
 10
775.0
 20
-158.661153
 30
0.0
  0
LINE
  5
523
  8
SIZE
  6
CONTINUOUS
 62
    30
 10
745.0
 20
-158.661153
 30
0.0
 11
735.0
 21
-158.661153
 31
0.0
  0
LINE
  5
524
  8
SIZE
  6
CONTINUOUS
 62
    30
 10
755.0
 20
-158.661153
 30
0.0
 11
775.0
 21
-158.661153
 31
0.0
  0
LINE
  5
525
  8
SIZE
  6
CONTINUOUS
 62
    30
 10
735.0
 20
-158.661153
 30
0.0
 11
715.0
 21
-158.661153
 31
0.0
  0
POINT
  5
526
  8
DEFPOINTS
  6
CONTINUOUS
 62
     7
 10
775.0
 20
-239.598057
 30
0.0
  0
LINE
  5
527
  8
SIZE
  6
CONTINUOUS
 62
    30
 10
765.0
 20
-239.598057
 30
0.0
 11
755.0
 21
-239.598057
 31
0.0
  0
CIRCLE
  5
528
  8
SIZE
  6
CONTINUOUS
 62
    30
 10
775.0
 20
-239.598057
 30
0.0
 40
10.0
  0
LINE
  5
529
  8
SIZE
  6
CONTINUOUS
 62
    30
 10
765.0
 20
-239.598057
 30
0.0
 11
755.0
 21
-239.598057
 31
0.0
  0
CIRCLE
  5
52A
  8
SIZE
  6
CONTINUOUS
 62
    30
 10
775.0
 20
-239.598057
 30
0.0
 40
10.0
  0
LINE
  5
52B
  8
SIZE
  6
CONTINUOUS
 62
    30
 10
755.0
 20
-239.598057
 30
0.0
 11
735.0
 21
-239.598057
 31
0.0
  0
LINE
  5
52C
  8
SIZE
  6
CONTINUOUS
 62
    30
 10
795.0
 20
-22.006988
 30
0.0
 11
795.0
 21
-269.598057
 31
0.0
  0
LINE
  5
52D
  8
SIZE
  6
CONTINUOUS
 62
    30
 10
795.0
 20
-158.661153
 30
0.0
 11
923.857143
 21
-158.661153
 31
0.0
  0
TEXT
  5
52E
  8
SIZE
  6
CONTINUOUS
 62
    30
 10
853.0
 20
-221.598057
 30
0.0
 40
50.0
  1
20
 41
0.9
 72
     1
 11
889.428571
 21
-221.598057
 31
0.0
  0
LINE
  5
52F
  8
SIZE
  6
CONTINUOUS
 62
    30
 10
815.0
 20
-239.598057
 30
0.0
 11
943.857143
 21
-239.598057
 31
0.0
  0
POINT
  5
530
  8
DEFPOINTS
  6
CONTINUOUS
 62
     7
 10
795.0
 20
-239.598057
 30
0.0
  0
LINE
  5
531
  8
SIZE
  6
CONTINUOUS
 62
    30
 10
805.0
 20
-239.598057
 30
0.0
 11
815.0
 21
-239.598057
 31
0.0
  0
TEXT
  5
532
  8
SIZE
  6
CONTINUOUS
 62
    30
 10
833.0
 20
-140.661153
 30
0.0
 40
50.0
  1
20
 41
0.9
 72
     1
 11
869.428571
 21
-140.661153
 31
0.0
  0
POINT
  5
533
  8
DEFPOINTS
  6
CONTINUOUS
 62
     7
 10
795.0
 20
-4.006988
 30
0.0
  0
POINT
  5
534
  8
DEFPOINTS
  6
CONTINUOUS
 62
     7
 10
795.0
 20
-4.006988
 30
0.0
  0
TEXT
  5
535
  8
SIZE
  6
CONTINUOUS
 62
    30
 10
-319.928571
 20
963.320917
 30
0.0
 40
50.0
  1
1496(吊りボルトピッチ)
 41
0.9
 72
     1
 11
0.0
 21
963.320917
 31
0.0
  0
TEXT
  5
536
  8
SIZE
  6
CONTINUOUS
 62
    30
 10
-70.714286
 20
845.981979
 30
0.0
 40
50.0
  1
1510
 41
0.9
 72
     1
 11
0.0
 21
845.981979
 31
0.0
  0
TEXT
  5
537
  8
SIZE
  6
CONTINUOUS
 62
    30
 10
-75.0
 20
1064.107263
 30
0.0
 40
50.0
  1
1542
 41
0.9
 72
     1
 11
0.0
 21
1064.107263
 31
0.0
  0
POLYLINE
  5
538
  8
NOTE
  6
CONTINUOUS
 62
     4
 66
     1
 10
0.0
 20
0.0
 30
0.0
  0
VERTEX
  5
539
  8
NOTE
  6
CONTINUOUS
 62
     4
 10
794.0
 20
267.0
 30
0.0
  0
VERTEX
  5
53A
  8
NOTE
  6
CONTINUOUS
 62
     4
 10
971.164562
 20
643.774918
 30
0.0
  0
SEQEND
  5
53B
  8
NOTE
  6
CONTINUOUS
 62
     4
  0
POLYLINE
  5
53C
  8
NOTE
  6
CONTINUOUS
 62
     4
 66
     1
 10
0.0
 20
0.0
 30
0.0
  0
VERTEX
  5
53D
  8
NOTE
  6
CONTINUOUS
 62
     4
 10
789.0
 20
325.0
 30
0.0
  0
VERTEX
  5
53E
  8
NOTE
  6
CONTINUOUS
 62
     4
 10
975.462403
 20
783.45585
 30
0.0
  0
SEQEND
  5
53F
  8
NOTE
  6
CONTINUOUS
 62
     4
  0
LINE
  5
540
  8
SIZE
  6
CONTINUOUS
 62
    30
 10
748.0
 20
511.002395
 30
0.0
 11
748.0
 21
962.225679
 31
0.0
  0
LINE
  5
541
  8
SIZE
  6
CONTINUOUS
 62
    30
 10
771.0
 20
481.699485
 30
0.0
 11
771.0
 21
962.225679
 31
0.0
  0
LINE
  5
542
  8
SIZE
  6
CONTINUOUS
 62
    30
 10
748.0
 20
511.002395
 30
0.0
 11
748.0
 21
962.225679
 31
0.0
  0
LINE
  5
543
  8
SIZE
  6
CONTINUOUS
 62
    30
 10
771.0
 20
486.699485
 30
0.0
 11
771.0
 21
1076.107263
 31
0.0
  0
LINE
  5
544
  8
SIZE
  6
CONTINUOUS
 62
    30
 10
755.0
 20
491.0
 30
0.0
 11
755.0
 21
857.981979
 31
0.0
  0
LINE
  5
545
  8
SIZE
  6
CONTINUOUS
 62
    30
 10
771.0
 20
481.699485
 30
0.0
 11
771.0
 21
857.981979
 31
0.0
  0
LINE
  5
546
  8
SIZE
  6
CONTINUOUS
 62
    30
 10
755.0
 20
491.0
 30
0.0
 11
755.0
 21
857.981979
 31
0.0
  0
LINE
  5
547
  8
SIZE
  6
CONTINUOUS
 62
    30
 10
755.0
 20
491.0
 30
0.0
 11
755.0
 21
663.674788
 31
0.0
  0
LINE
  5
548
  8
SIZE
  6
CONTINUOUS
 62
    30
 10
794.0
 20
289.76
 30
0.0
 11
794.0
 21
663.674788
 31
0.0
  0
LINE
  5
549
  8
SIZE
  6
CONTINUOUS
 62
    30
 10
755.0
 20
491.0
 30
0.0
 11
755.0
 21
755.936636
 31
0.0
  0
LINE
  5
54A
  8
SIZE
  6
CONTINUOUS
 62
    30
 10
802.0
 20
264.94
 30
0.0
 11
802.0
 21
755.936636
 31
0.0
  0
TEXT
  5
54B
  8
NOTE
  6
CONTINUOUS
 62
     4
 10
981.795984
 20
541.52093
 30
0.0
 40
60.0
  1
RG %%C15.88
 50
0.000003
 41
0.7
  7
STANDARD1
  0
LINE
  5
54C
  8
NOTE
  6
CONTINUOUS
 62
     4
 10
1342.069826
 20
530.751907
 30
0.0
 11
967.988964
 21
530.751907
 31
0.0
  0
POLYLINE
  5
54D
  8
NOTE
  6
CONTINUOUS
 62
     4
 66
     1
 10
0.0
 20
0.0
 30
0.0
  0
VERTEX
  5
54E
  8
NOTE
  6
CONTINUOUS
 62
     4
 10
802.0
 20
239.0
 30
0.0
  0
VERTEX
  5
54F
  8
NOTE
  6
CONTINUOUS
 62
     4
 10
967.988964
 20
530.751907
 30
0.0
  0
SEQEND
  5
550
  8
NOTE
  6
CONTINUOUS
 62
     4
  0
LINE
  5
551
  8
OUTLINE
  6
CONTINUOUS
 62
     3
 10
755.0
 20
473.0
 30
0.0
 11
755.0
 21
140.0
 31
0.0
  0
LINE
  5
552
  8
DETAIL
  6
CONTINUOUS
 62
     5
 10
722.996168
 20
238.988264
 30
0.0
 11
722.996168
 21
435.011736
 31
0.0
  0
LINE
  5
553
  8
DETAIL
  6
CONTINUOUS
 62
     5
 10
755.0
 20
473.0
 30
0.0
 11
755.0
 21
140.800096
 31
0.0
  0
LINE
  5
554
  8
OUTLINE
  6
CONTINUOUS
 62
     3
 10
739.0885
 20
0.0
 30
0.0
 11
795.0
 21
0.0
 31
0.0
  0
LINE
  5
555
  8
NOTE
  6
CONTINUOUS
 62
     4
 10
775.0
 20
1.0
 30
0.0
 11
876.307449
 21
1.0
 31
0.0
  0
LINE
  5
556
  8
NOTE
  6
CONTINUOUS
 62
     4
 10
775.0
 20
21.0
 30
0.0
 11
876.307449
 21
21.0
 31
0.0
  0
LINE
  5
557
  8
NOTE
  6
CONTINUOUS
 62
     4
 10
815.002089
 20
267.0
 30
0.0
 11
772.997911
 21
267.0
 31
0.0
  0
LINE
  5
558
  8
NOTE
  6
CONTINUOUS
 62
     4
 10
828.661335
 20
239.0
 30
0.0
 11
775.338665
 21
239.0
 31
0.0
  0
LINE
  5
559
  8
DETAIL
  6
CONTINUOUS
 62
     5
 10
755.0
 20
271.76
 30
0.0
 11
794.0
 21
271.76
 31
0.0
  0
LINE
  5
55A
  8
DETAIL
  6
CONTINUOUS
 62
     5
 10
794.0
 20
262.24
 30
0.0
 11
755.0
 21
262.24
 31
0.0
  0
LINE
  5
55B
  8
DETAIL
  6
CONTINUOUS
 62
     5
 10
755.0
 20
246.94
 30
0.0
 11
802.0
 21
246.94
 31
0.0
  0
LINE
  5
55C
  8
DETAIL
  6
CONTINUOUS
 62
     5
 10
802.0
 20
231.06
 30
0.0
 11
755.0
 21
231.06
 31
0.0
  0
LINE
  5
55D
  8
NOTE
  6
CONTINUOUS
 62
     4
 10
771.74721
 20
142.643872
 30
0.0
 11
755.0
 21
168.0
 31
0.0
  0
LINE
  5
55E
  8
DETAIL
  6
CONTINUOUS
 62
     5
 10
739.998204
 20
152.001437
 30
0.0
 11
739.998204
 21
140.0
 31
0.0
  0
LINE
  5
55F
  8
OUTLINE
  6
CONTINUOUS
 62
     3
 10
739.0885
 20
0.0
 30
0.0
 11
739.0885
 21
47.0
 31
0.0
  0
POINT
  5
560
  8
DEFPOINTS
  6
CONTINUOUS
 62
     7
 10
775.0
 20
1.0
 30
0.0
  0
POINT
  5
561
  8
DEFPOINTS
  6
CONTINUOUS
 62
     7
 10
755.0
 20
140.0
 30
0.0
  0
POINT
  5
562
  8
DEFPOINTS
  6
CONTINUOUS
 62
     7
 10
775.0
 20
1.0
 30
0.0
  0
POINT
  5
563
  8
DEFPOINTS
  6
CONTINUOUS
 62
     7
 10
775.0
 20
1.0
 30
0.0
  0
LINE
  5
564
  8
NOTE
  6
CONTINUOUS
 62
     4
 10
775.0
 20
1.0
 30
0.0
 11
775.0
 21
21.0
 31
0.0
  0
LINE
  5
565
  8
DETAIL
  6
CONTINUOUS
 62
     5
 10
739.0885
 20
0.0
 30
0.0
 11
739.0885
 21
47.0
 31
0.0
  0
LINE
  5
566
  8
DETAIL
  6
CONTINUOUS
 62
     5
 10
755.0
 20
140.800096
 30
0.0
 11
739.998204
 21
140.800096
 31
0.0
  0
POINT
  5
567
  8
DEFPOINTS
  6
CONTINUOUS
 62
     7
 10
739.998204
 20
140.0
 30
0.0
  0
POINT
  5
568
  8
DEFPOINTS
  6
CONTINUOUS
 62
     7
 10
739.998204
 20
140.0
 30
0.0
  0
LINE
  5
569
  8
NOTE
  6
CONTINUOUS
 62
     4
 10
755.0
 20
168.0
 30
0.0
 11
782.581621
 21
154.521747
 31
0.0
  0
ARC
  5
56A
  8
DETAIL
  6
CONTINUOUS
 62
     5
 10
712.99497
 20
238.988264
 30
0.0
 40
10.001198
 50
270.0
 51
0.0
  0
ARC
  5
56B
  8
DETAIL
  6
CONTINUOUS
 62
     5
 10
749.999401
 20
172.40388
 30
0.0
 40
5.000599
 50
270.0
 51
0.0
  0
LINE
  5
56C
  8
DETAIL
  6
CONTINUOUS
 62
     5
 10
736.997844
 20
155.001796
 30
0.0
 11
739.998204
 21
152.001437
 31
0.0
  0
LINE
  5
56D
  8
NOTE
  6
CONTINUOUS
 62
     4
 10
749.5
 20
168.0
 30
0.0
 11
760.5
 21
168.0
 31
0.0
  0
LINE
  5
56E
  8
NOTE
  6
CONTINUOUS
 62
     4
 10
755.0
 20
173.499992
 30
0.0
 11
755.0
 21
162.500008
 31
0.0
  0
POINT
  5
56F
  8
DEFPOINTS
  6
CONTINUOUS
 62
     7
 10
760.5
 20
168.0
 30
0.0
  0
LINE
  5
570
  8
NOTE
  6
CONTINUOUS
 62
     4
 10
815.265008
 20
1.0
 30
0.0
 11
795.265008
 21
21.0
 31
0.0
  0
LINE
  5
571
  8
NOTE
  6
CONTINUOUS
 62
     4
 10
820.265008
 20
1.0
 30
0.0
 11
800.265008
 21
21.0
 31
0.0
  0
LINE
  5
572
  8
NOTE
  6
CONTINUOUS
 62
     4
 10
825.265008
 20
1.0
 30
0.0
 11
805.265008
 21
21.0
 31
0.0
  0
LINE
  5
573
  8
NOTE
  6
CONTINUOUS
 62
     4
 10
855.265008
 20
1.0
 30
0.0
 11
835.265008
 21
21.0
 31
0.0
  0
LINE
  5
574
  8
NOTE
  6
CONTINUOUS
 62
     4
 10
860.265008
 20
1.0
 30
0.0
 11
840.265008
 21
21.0
 31
0.0
  0
LINE
  5
575
  8
NOTE
  6
CONTINUOUS
 62
     4
 10
865.265008
 20
1.0
 30
0.0
 11
845.265008
 21
21.0
 31
0.0
  0
LINE
  5
576
  8
NOTE
  6
CONTINUOUS
 62
     4
 10
802.0
 20
219.0
 30
0.0
 11
802.0
 21
259.0
 31
0.0
  0
LINE
  5
577
  8
NOTE
  6
CONTINUOUS
 62
     4
 10
794.0
 20
247.0
 30
0.0
 11
794.0
 21
287.0
 31
0.0
  0
LINE
  5
578
  8
NOTE
  6
CONTINUOUS
 62
     4
 10
794.0
 20
267.0
 30
0.0
 11
799.491162
 21
297.569008
 31
0.0
  0
LINE
  5
579
  8
NOTE
  6
CONTINUOUS
 62
     4
 10
814.03999
 20
290.727956
 30
0.0
 11
794.0
 21
267.0
 31
0.0
  0
LINE
  5
57A
  8
NOTE
  6
CONTINUOUS
 62
     4
 10
802.0
 20
239.0
 30
0.0
 11
809.848367
 21
269.050295
 31
0.0
  0
LINE
  5
57B
  8
NOTE
  6
CONTINUOUS
 62
     4
 10
823.822033
 20
261.100135
 30
0.0
 11
802.0
 21
239.0
 31
0.0
  0
LINE
  5
57C
  8
DETAIL
  6
CONTINUOUS
 62
     5
 10
794.0
 20
271.76
 30
0.0
 11
794.0
 21
262.24
 31
0.0
  0
LINE
  5
57D
  8
DETAIL
  6
CONTINUOUS
 62
     5
 10
802.0
 20
246.94
 30
0.0
 11
802.0
 21
231.06
 31
0.0
  0
POINT
  5
57E
  8
DEFPOINTS
  6
CONTINUOUS
 62
     7
 10
815.002089
 20
267.0
 30
0.0
  0
POINT
  5
57F
  8
DEFPOINTS
  6
CONTINUOUS
 62
     7
 10
828.661335
 20
239.0
 30
0.0
  0
POINT
  5
580
  8
DEFPOINTS
  6
CONTINUOUS
 62
     7
 10
815.002089
 20
267.0
 30
0.0
  0
POINT
  5
581
  8
DEFPOINTS
  6
CONTINUOUS
 62
     7
 10
794.0
 20
271.76
 30
0.0
  0
POINT
  5
582
  8
DEFPOINTS
  6
CONTINUOUS
 62
     7
 10
802.0
 20
246.94
 30
0.0
  0
LINE
  5
583
  8
NOTE
  6
CONTINUOUS
 62
     4
 10
789.0
 20
325.0
 30
0.0
 11
792.856319
 21
355.817948
 31
0.0
  0
LINE
  5
584
  8
NOTE
  6
CONTINUOUS
 62
     4
 10
807.748644
 20
349.760966
 30
0.0
 11
789.0
 21
325.0
 31
0.0
  0
LINE
  5
585
  8
NOTE
  6
CONTINUOUS
 62
     4
 10
808.668335
 20
325.0
 30
0.0
 11
769.331665
 21
325.0
 31
0.0
  0
CIRCLE
  5
586
  8
SIZE
  6
CONTINUOUS
 62
    30
 10
789.0
 20
542.072938
 30
0.0
 40
10.0
  0
LINE
  5
587
  8
NOTE
  6
CONTINUOUS
 62
     4
 10
748.0
 20
452.997605
 30
0.0
 11
748.0
 21
493.002395
 31
0.0
  0
CIRCLE
  5
588
  8
FIX
  6
CONTINUOUS
 62
    11
 10
748.0
 20
473.0
 30
0.0
 40
18.598564
  0
LINE
  5
589
  8
SIZE
  6
CONTINUOUS
 62
    30
 10
789.0
 20
359.0
 30
0.0
 11
789.0
 21
572.072938
 31
0.0
  0
LINE
  5
58A
  8
NOTE
  6
CONTINUOUS
 62
     4
 10
789.0
 20
305.0
 30
0.0
 11
789.0
 21
345.0
 31
0.0
  0
ARC
  5
58B
  8
DETAIL
  6
CONTINUOUS
 62
     5
 10
712.99497
 20
435.011736
 30
0.0
 40
10.001198
 50
0.0
 51
90.0
  0
LINE
  5
58C
  8
DETAIL
  6
CONTINUOUS
 62
     5
 10
789.0
 20
309.0
 30
0.0
 11
755.0
 21
309.0
 31
0.0
  0
LINE
  5
58D
  8
DETAIL
  6
CONTINUOUS
 62
     5
 10
789.0
 20
341.0
 30
0.0
 11
755.0
 21
341.0
 31
0.0
  0
LINE
  5
58E
  8
DETAIL
  6
CONTINUOUS
 62
     5
 10
789.0
 20
341.0
 30
0.0
 11
789.0
 21
309.0
 31
0.0
  0
POINT
  5
58F
  8
DEFPOINTS
  6
CONTINUOUS
 62
     7
 10
789.0
 20
341.0
 30
0.0
  0
TEXT
  5
590
  8
SIZE
  6
CONTINUOUS
 62
    30
 10
622.0
 20
560.072938
 30
0.0
 40
50.0
  1
34
 41
0.9
 72
     1
 11
659.5
 21
560.072938
 31
0.0
  0
LINE
  5
591
  8
SIZE
  6
CONTINUOUS
 62
    30
 10
735.0
 20
542.072938
 30
0.0
 11
604.0
 21
542.072938
 31
0.0
  0
ARC
  5
592
  8
DETAIL
  6
CONTINUOUS
 62
     5
 10
766.699485
 20
468.699485
 30
0.0
 40
4.300515
 50
0.0
 51
90.0
  0
LINE
  5
593
  8
DETAIL
  6
CONTINUOUS
 62
     5
 10
771.0
 20
468.699485
 30
0.0
 11
771.0
 21
460.998563
 31
0.0
  0
LINE
  5
594
  8
DETAIL
  6
CONTINUOUS
 62
     5
 10
768.699725
 20
468.699725
 30
0.0
 11
768.699725
 21
460.998563
 31
0.0
  0
LINE
  5
595
  8
DETAIL
  6
CONTINUOUS
 62
     5
 10
768.699725
 20
460.998563
 30
0.0
 11
771.0
 21
460.998563
 31
0.0
  0
LINE
  5
596
  8
DETAIL
  6
CONTINUOUS
 62
     5
 10
755.0
 20
473.0
 30
0.0
 11
766.699485
 21
473.0
 31
0.0
  0
LINE
  5
597
  8
DETAIL
  6
CONTINUOUS
 62
     5
 10
755.0
 20
470.699725
 30
0.0
 11
766.699725
 21
470.699725
 31
0.0
  0
LINE
  5
598
  8
NOTE
  6
CONTINUOUS
 62
     4
 10
768.000958
 20
473.0
 30
0.0
 11
727.999042
 21
473.0
 31
0.0
  0
ARC
  5
599
  8
DETAIL
  6
CONTINUOUS
 62
     5
 10
766.699725
 20
468.699725
 30
0.0
 40
2.0
 50
0.0
 51
90.0
  0
POINT
  5
59A
  8
DEFPOINTS
  6
CONTINUOUS
 62
     7
 10
748.0
 20
493.002395
 30
0.0
  0
POINT
  5
59B
  8
DEFPOINTS
  6
CONTINUOUS
 62
     7
 10
771.0
 20
463.699485
 30
0.0
  0
POINT
  5
59C
  8
DEFPOINTS
  6
CONTINUOUS
 62
     7
 10
748.0
 20
493.002395
 30
0.0
  0
POINT
  5
59D
  8
DEFPOINTS
  6
CONTINUOUS
 62
     7
 10
771.0
 20
468.699485
 30
0.0
  0
POINT
  5
59E
  8
DEFPOINTS
  6
CONTINUOUS
 62
     7
 10
755.0
 20
473.0
 30
0.0
  0
POINT
  5
59F
  8
DEFPOINTS
  6
CONTINUOUS
 62
     7
 10
771.0
 20
463.699485
 30
0.0
  0
POINT
  5
5A0
  8
DEFPOINTS
  6
CONTINUOUS
 62
     7
 10
755.0
 20
473.0
 30
0.0
  0
POINT
  5
5A1
  8
DEFPOINTS
  6
CONTINUOUS
 62
     7
 10
755.0
 20
473.0
 30
0.0
  0
POINT
  5
5A2
  8
DEFPOINTS
  6
CONTINUOUS
 62
     7
 10
755.0
 20
473.0
 30
0.0
  0
POINT
  5
5A3
  8
DEFPOINTS
  6
CONTINUOUS
 62
     7
 10
789.0
 20
542.072938
 30
0.0
  0
POINT
  5
5A4
  8
DEFPOINTS
  6
CONTINUOUS
 62
     7
 10
755.0
 20
473.0
 30
0.0
  0
LINE
  5
5A5
  8
SIZE
  6
CONTINUOUS
 62
    30
 10
745.0
 20
542.072938
 30
0.0
 11
735.0
 21
542.072938
 31
0.0
  0
CIRCLE
  5
5A6
  8
SIZE
  6
CONTINUOUS
 62
    30
 10
755.0
 20
542.072938
 30
0.0
 40
10.0
  0
LINE
  5
5A7
  8
SIZE
  6
CONTINUOUS
 62
    30
 10
789.0
 20
542.072938
 30
0.0
 11
755.0
 21
542.072938
 31
0.0
  0
LINE
  5
5A8
  8
SIZE
  6
CONTINUOUS
 62
    30
 10
755.0
 20
491.0
 30
0.0
 11
755.0
 21
572.072938
 31
0.0
  0
POINT
  5
5A9
  8
DEFPOINTS
  6
CONTINUOUS
 62
     7
 10
755.0
 20
473.0
 30
0.0
  0
POINT
  5
5AA
  8
DEFPOINTS
  6
CONTINUOUS
 62
     7
 10
755.0
 20
473.0
 30
0.0
  0
POINT
  5
5AB
  8
DEFPOINTS
  6
CONTINUOUS
 62
     7
 10
755.0
 20
473.0
 30
0.0
  0
POINT
  5
5AC
  8
DEFPOINTS
  6
CONTINUOUS
 62
     7
 10
755.0
 20
473.0
 30
0.0
  0
POINT
  5
5AD
  8
DEFPOINTS
  6
CONTINUOUS
 62
     7
 10
808.668335
 20
325.0
 30
0.0
  0
LINE
  5
5AE
  8
SIZE
  6
CONTINUOUS
 62
    30
 10
799.0
 20
542.072938
 30
0.0
 11
809.0
 21
542.072938
 31
0.0
  0
LINE
  5
5AF
  8
SIZE
  6
CONTINUOUS
 62
    30
 10
809.0
 20
542.072938
 30
0.0
 11
829.0
 21
542.072938
 31
0.0
  0
POINT
  5
5B0
  8
DEFPOINTS
  6
CONTINUOUS
 62
     7
 10
1045.0
 20
0.0
 30
0.0
  0
LINE
  5
5B1
  8
SIZE
  6
CONTINUOUS
 62
    30
 10
1447.889945
 20
463.0
 30
0.0
 11
1447.889945
 21
453.0
 31
0.0
  0
POINT
  5
5B2
  8
DEFPOINTS
  6
CONTINUOUS
 62
     7
 10
1447.889945
 20
325.0
 30
0.0
  0
TEXT
  5
5B3
  8
SIZE
  6
CONTINUOUS
 62
    30
 10
1429.889945
 20
345.428571
 30
0.0
 40
50.0
  1
148
 50
90.0
 41
0.9
 72
     1
 11
1429.889945
 21
399.0
 31
0.0
  0
LINE
  5
5B4
  8
SIZE
  6
CONTINUOUS
 62
    30
 10
1447.889945
 20
335.0
 30
0.0
 11
1447.889945
 21
345.0
 31
0.0
  0
CIRCLE
  5
5B5
  8
SIZE
  6
CONTINUOUS
 62
    30
 10
1447.889945
 20
325.0
 30
0.0
 40
10.0
  0
LINE
  5
5B6
  8
SIZE
  6
CONTINUOUS
 62
    30
 10
1447.889945
 20
453.0
 30
0.0
 11
1447.889945
 21
345.0
 31
0.0
  0
CIRCLE
  5
5B7
  8
SIZE
  6
CONTINUOUS
 62
    30
 10
1447.889945
 20
473.0
 30
0.0
 40
10.0
  0
LINE
  5
5B8
  8
NOTE
  6
CONTINUOUS
 62
     4
 10
971.164562
 20
643.774918
 30
0.0
 11
1314.878144
 21
643.774918
 31
0.0
  0
TEXT
  5
5B9
  8
NOTE
  6
CONTINUOUS
 62
     4
 10
988.002872
 20
659.601462
 30
0.0
 40
60.0
  1
RL %%C9.52
 50
0.000003
 41
0.7
  7
STANDARD1
  0
LINE
  5
5BA
  8
NOTE
  6
CONTINUOUS
 62
     4
 10
975.462403
 20
783.45585
 30
0.0
 11
1322.276264
 21
783.45585
 31
0.0
  0
TEXT
  5
5BB
  8
NOTE
  6
CONTINUOUS
 62
     4
 10
995.400992
 20
799.282394
 30
0.0
 40
60.0
  1
D1 VP-25
 50
0.000003
 41
0.7
  7
STANDARD1
  0
LINE
  5
5BC
  8
SIZE
  6
CONTINUOUS
 62
    30
 10
781.0
 20
827.981979
 30
0.0
 11
791.0
 21
827.981979
 31
0.0
  0
CIRCLE
  5
5BD
  8
SIZE
  6
CONTINUOUS
 62
    30
 10
794.0
 20
633.674788
 30
0.0
 40
10.0
  0
LINE
  5
5BE
  8
SIZE
  6
CONTINUOUS
 62
    30
 10
794.0
 20
633.674788
 30
0.0
 11
755.0
 21
633.674788
 31
0.0
  0
LINE
  5
5BF
  8
SIZE
  6
CONTINUOUS
 62
    30
 10
802.0
 20
725.936636
 30
0.0
 11
755.0
 21
725.936636
 31
0.0
  0
TEXT
  5
5C0
  8
SIZE
  6
CONTINUOUS
 62
    30
 10
624.142858
 20
743.936636
 30
0.0
 40
50.0
  1
47
 41
0.9
 72
     1
 11
660.571429
 21
743.936636
 31
0.0
  0
TEXT
  5
5C1
  8
SIZE
  6
CONTINUOUS
 62
    30
 10
626.285714
 20
651.674788
 30
0.0
 40
50.0
  1
39
 41
0.9
 72
     1
 11
661.642857
 21
651.674788
 31
0.0
  0
LINE
  5
5C2
  8
SIZE
  6
CONTINUOUS
 62
    30
 10
735.0
 20
633.674788
 30
0.0
 11
608.285714
 21
633.674788
 31
0.0
  0
LINE
  5
5C3
  8
SIZE
  6
CONTINUOUS
 62
    30
 10
735.0
 20
725.936636
 30
0.0
 11
606.142857
 21
725.936636
 31
0.0
  0
POINT
  5
5C4
  8
DEFPOINTS
  6
CONTINUOUS
 62
     7
 10
755.0
 20
633.674788
 30
0.0
  0
LINE
  5
5C5
  8
SIZE
  6
CONTINUOUS
 62
    30
 10
745.0
 20
633.674788
 30
0.0
 11
735.0
 21
633.674788
 31
0.0
  0
CIRCLE
  5
5C6
  8
SIZE
  6
CONTINUOUS
 62
    30
 10
755.0
 20
633.674788
 30
0.0
 40
10.0
  0
POINT
  5
5C7
  8
DEFPOINTS
  6
CONTINUOUS
 62
     7
 10
755.0
 20
725.936636
 30
0.0
  0
LINE
  5
5C8
  8
SIZE
  6
CONTINUOUS
 62
    30
 10
745.0
 20
725.936636
 30
0.0
 11
735.0
 21
725.936636
 31
0.0
  0
CIRCLE
  5
5C9
  8
SIZE
  6
CONTINUOUS
 62
    30
 10
755.0
 20
725.936636
 30
0.0
 40
10.0
  0
POINT
  5
5CA
  8
DEFPOINTS
  6
CONTINUOUS
 62
     7
 10
755.0
 20
827.981979
 30
0.0
  0
LINE
  5
5CB
  8
SIZE
  6
CONTINUOUS
 62
    30
 10
745.0
 20
827.981979
 30
0.0
 11
735.0
 21
827.981979
 31
0.0
  0
CIRCLE
  5
5CC
  8
SIZE
  6
CONTINUOUS
 62
    30
 10
755.0
 20
827.981979
 30
0.0
 40
10.0
  0
POINT
  5
5CD
  8
DEFPOINTS
  6
CONTINUOUS
 62
     7
 10
771.0
 20
827.981979
 30
0.0
  0
CIRCLE
  5
5CE
  8
SIZE
  6
CONTINUOUS
 62
    30
 10
771.0
 20
827.981979
 30
0.0
 40
10.0
  0
LINE
  5
5CF
  8
SIZE
  6
CONTINUOUS
 62
    30
 10
745.0
 20
827.981979
 30
0.0
 11
735.0
 21
827.981979
 31
0.0
  0
CIRCLE
  5
5D0
  8
SIZE
  6
CONTINUOUS
 62
    30
 10
755.0
 20
827.981979
 30
0.0
 40
10.0
  0
LINE
  5
5D1
  8
SIZE
  6
CONTINUOUS
 62
    30
 10
755.0
 20
827.981979
 30
0.0
 11
771.0
 21
827.981979
 31
0.0
  0
LINE
  5
5D2
  8
SIZE
  6
CONTINUOUS
 62
    30
 10
735.0
 20
827.981979
 30
0.0
 11
715.0
 21
827.981979
 31
0.0
  0
LINE
  5
5D3
  8
SIZE
  6
CONTINUOUS
 62
    30
 10
804.0
 20
633.674788
 30
0.0
 11
814.0
 21
633.674788
 31
0.0
  0
LINE
  5
5D4
  8
SIZE
  6
CONTINUOUS
 62
    30
 10
814.0
 20
633.674788
 30
0.0
 11
834.0
 21
633.674788
 31
0.0
  0
LINE
  5
5D5
  8
SIZE
  6
CONTINUOUS
 62
    30
 10
812.0
 20
725.936636
 30
0.0
 11
822.0
 21
725.936636
 31
0.0
  0
CIRCLE
  5
5D6
  8
SIZE
  6
CONTINUOUS
 62
    30
 10
802.0
 20
725.936636
 30
0.0
 40
10.0
  0
LINE
  5
5D7
  8
SIZE
  6
CONTINUOUS
 62
    30
 10
822.0
 20
725.936636
 30
0.0
 11
842.0
 21
725.936636
 31
0.0
  0
LINE
  5
5D8
  8
SIZE
  6
CONTINUOUS
 62
    30
 10
791.0
 20
827.981979
 30
0.0
 11
911.323432
 21
827.981979
 31
0.0
  0
TEXT
  5
5D9
  8
SIZE
  6
CONTINUOUS
 62
    30
 10
831.180574
 20
845.981979
 30
0.0
 40
50.0
  1
16
 41
0.9
 72
     1
 11
862.252003
 21
845.981979
 31
0.0
  0
LINE
  5
5DA
  8
SIZE
  6
CONTINUOUS
 62
    30
 10
781.0
 20
932.225679
 30
0.0
 11
791.0
 21
932.225679
 31
0.0
  0
POINT
  5
5DB
  8
DEFPOINTS
  6
CONTINUOUS
 62
     7
 10
748.0
 20
932.225679
 30
0.0
  0
LINE
  5
5DC
  8
SIZE
  6
CONTINUOUS
 62
    30
 10
738.0
 20
932.225679
 30
0.0
 11
728.0
 21
932.225679
 31
0.0
  0
CIRCLE
  5
5DD
  8
SIZE
  6
CONTINUOUS
 62
    30
 10
748.0
 20
932.225679
 30
0.0
 40
10.0
  0
POINT
  5
5DE
  8
DEFPOINTS
  6
CONTINUOUS
 62
     7
 10
771.0
 20
932.225679
 30
0.0
  0
CIRCLE
  5
5DF
  8
SIZE
  6
CONTINUOUS
 62
    30
 10
771.0
 20
932.225679
 30
0.0
 40
10.0
  0
LINE
  5
5E0
  8
SIZE
  6
CONTINUOUS
 62
    30
 10
738.0
 20
932.225679
 30
0.0
 11
728.0
 21
932.225679
 31
0.0
  0
CIRCLE
  5
5E1
  8
SIZE
  6
CONTINUOUS
 62
    30
 10
748.0
 20
932.225679
 30
0.0
 40
10.0
  0
LINE
  5
5E2
  8
SIZE
  6
CONTINUOUS
 62
    30
 10
748.0
 20
932.225679
 30
0.0
 11
771.0
 21
932.225679
 31
0.0
  0
LINE
  5
5E3
  8
SIZE
  6
CONTINUOUS
 62
    30
 10
728.0
 20
932.225679
 30
0.0
 11
708.0
 21
932.225679
 31
0.0
  0
LINE
  5
5E4
  8
SIZE
  6
CONTINUOUS
 62
    30
 10
761.0
 20
1046.107263
 30
0.0
 11
751.0
 21
1046.107263
 31
0.0
  0
CIRCLE
  5
5E5
  8
SIZE
  6
CONTINUOUS
 62
    30
 10
771.0
 20
1046.107263
 30
0.0
 40
10.0
  0
LINE
  5
5E6
  8
SIZE
  6
CONTINUOUS
 62
    30
 10
791.0
 20
932.225679
 30
0.0
 11
919.857143
 21
932.225679
 31
0.0
  0
TEXT
  5
5E7
  8
SIZE
  6
CONTINUOUS
 62
    30
 10
829.0
 20
950.225679
 30
0.0
 40
50.0
  1
23
 41
0.9
 72
     1
 11
865.428571
 21
950.225679
 31
0.0
  0
POLYLINE
  5
5E8
  8
SIZE
  6
CONTINUOUS
 62
    30
 66
     1
 10
0.0
 20
0.0
 30
0.0
  0
VERTEX
  5
5E9
  8
SIZE
  6
CONTINUOUS
 62
    30
 10
1999.771247
 20
-4.19749
 30
0.0
 42
0.186174
  0
VERTEX
  5
5EA
  8
SIZE
  6
CONTINUOUS
 62
    30
 10
1990.921398
 20
16.751998
 30
0.0
 42
0.082105
  0
VERTEX
  5
5EB
  8
SIZE
  6
CONTINUOUS
 62
    30
 10
1975.218896
 20
28.926559
 30
0.0
 42
0.058826
  0
VERTEX
  5
5EC
  8
SIZE
  6
CONTINUOUS
 62
    30
 10
1953.432838
 20
37.701486
 30
0.0
 42
0.067494
  0
VERTEX
  5
5ED
  8
SIZE
  6
CONTINUOUS
 62
    30
 10
1915.944278
 20
42.646989
 30
0.0
 42
0.067494
  0
VERTEX
  5
5EE
  8
SIZE
  6
CONTINUOUS
 62
    30
 10
1878.455719
 20
37.701486
 30
0.0
 42
0.058826
  0
VERTEX
  5
5EF
  8
SIZE
  6
CONTINUOUS
 62
    30
 10
1856.669661
 20
28.926559
 30
0.0
 42
0.082105
  0
VERTEX
  5
5F0
  8
SIZE
  6
CONTINUOUS
 62
    30
 10
1840.967159
 20
16.751998
 30
0.0
 42
0.186174
  0
VERTEX
  5
5F1
  8
SIZE
  6
CONTINUOUS
 62
    30
 10
1832.11731
 20
-4.19749
 30
0.0
 42
0.186174
  0
SEQEND
  5
5F2
  8
SIZE
  6
CONTINUOUS
 62
    30
  0
CIRCLE
  5
5F3
  8
SIZE
  6
CONTINUOUS
 62
    30
 10
1782.228676
 20
0.0
 30
0.0
 40
10.0
  0
LINE
  5
5F4
  8
SIZE
  6
CONTINUOUS
 62
    30
 10
1782.228676
 20
0.0
 30
0.0
 11
1782.228676
 21
-347.428571
 31
0.0
  0
POLYLINE
  5
5F5
  8
SIZE
  6
CONTINUOUS
 62
    30
 66
     1
 10
0.0
 20
0.0
 30
0.0
  0
VERTEX
  5
5F6
  8
SIZE
  6
CONTINUOUS
 62
    30
 10
1832.11731
 20
-351.943116
 30
0.0
 42
0.186174
  0
VERTEX
  5
5F7
  8
SIZE
  6
CONTINUOUS
 62
    30
 10
1840.967159
 20
-372.892604
 30
0.0
 42
0.082105
  0
VERTEX
  5
5F8
  8
SIZE
  6
CONTINUOUS
 62
    30
 10
1856.669661
 20
-385.067165
 30
0.0
 42
0.058826
  0
VERTEX
  5
5F9
  8
SIZE
  6
CONTINUOUS
 62
    30
 10
1878.455719
 20
-393.842092
 30
0.0
 42
0.067494
  0
VERTEX
  5
5FA
  8
SIZE
  6
CONTINUOUS
 62
    30
 10
1915.944278
 20
-398.787596
 30
0.0
 42
0.067494
  0
VERTEX
  5
5FB
  8
SIZE
  6
CONTINUOUS
 62
    30
 10
1953.432838
 20
-393.842092
 30
0.0
 42
0.058826
  0
VERTEX
  5
5FC
  8
SIZE
  6
CONTINUOUS
 62
    30
 10
1975.218896
 20
-385.067165
 30
0.0
 42
0.082105
  0
VERTEX
  5
5FD
  8
SIZE
  6
CONTINUOUS
 62
    30
 10
1990.921398
 20
-372.892604
 30
0.0
 42
0.186174
  0
VERTEX
  5
5FE
  8
SIZE
  6
CONTINUOUS
 62
    30
 10
1999.771247
 20
-351.943116
 30
0.0
 42
0.186174
  0
VERTEX
  5
5FF
  8
SIZE
  6
CONTINUOUS
 62
    30
 10
1999.771247
 20
-351.943116
 30
0.0
 42
0.186174
  0
SEQEND
  5
600
  8
SIZE
  6
CONTINUOUS
 62
    30
  0
TEXT
  5
601
  8
SIZE
  6
CONTINUOUS
 62
    30
 10
1908.309775
 20
-348.504422
 30
0.0
 40
55.0
  1
パネル直付時
 50
90.0
 41
0.9
 72
     1
 11
1908.309775
 21
-176.904422
 31
0.0
  0
TEXT
  5
602
  8
SIZE
  6
CONTINUOUS
 62
    30
 10
1764.228676
 20
-329.428572
 30
0.0
 40
50.0
  1
140-300
 50
90.0
 41
0.9
 72
     1
 11
1764.228676
 21
-183.714286
 31
0.0
  0
TEXT
  5
603
  8
SIZE
  6
CONTINUOUS
 62
    30
 10
1992.059553
 20
-292.588628
 30
0.0
 40
55.0
  1
50-60
 50
90.0
 41
0.9
 72
     1
 11
1992.059553
 21
-174.731485
 31
0.0
  0
LINE
  5
604
  8
SIZE
  6
CONTINUOUS
 62
    30
 10
1562.52037
 20
453.0
 30
0.0
 11
1562.52037
 21
287.0
 31
0.0
  0
LINE
  5
605
  8
SIZE
  6
CONTINUOUS
 62
    30
 10
1562.52037
 20
287.0
 30
0.0
 11
1562.52037
 21
307.0
 31
0.0
  0
TEXT
  5
606
  8
SIZE
  6
CONTINUOUS
 62
    30
 10
1651.986379
 20
262.642857
 30
0.0
 40
50.0
  1
305
 50
90.0
 41
0.9
 72
     1
 11
1651.986379
 21
320.5
 31
0.0
  0
LINE
  5
607
  8
SIZE
  6
CONTINUOUS
 62
    30
 10
1669.986379
 20
188.0
 30
0.0
 11
1669.986379
 21
453.0
 31
0.0
  0
TEXT
  5
608
  8
SIZE
  6
CONTINUOUS
 62
    30
 10
1764.228676
 20
248.642857
 30
0.0
 40
50.0
  1
333
 50
90.0
 41
0.9
 72
     1
 11
1764.228676
 21
306.5
 31
0.0
  0
LINE
  5
609
  8
SIZE
  6
CONTINUOUS
 62
    30
 10
1782.228676
 20
453.0
 30
0.0
 11
1782.228676
 21
160.0
 31
0.0
  0
LINE
  5
60A
  8
SIZE
  6
CONTINUOUS
 62
    30
 10
1562.52037
 20
219.0
 30
0.0
 11
1562.52037
 21
18.956903
 31
0.0
  0
TEXT
  5
60B
  8
SIZE
  6
CONTINUOUS
 62
    30
 10
1544.52037
 20
36.956903
 30
0.0
 40
50.0
  1
28
 50
90.0
 41
0.9
 72
     1
 11
1544.52037
 21
73.385474
 31
0.0
  0
POINT
  5
60C
  8
DEFPOINTS
  6
CONTINUOUS
 62
     7
 10
1562.52037
 20
267.0
 30
0.0
  0
LINE
  5
60D
  8
SIZE
  6
CONTINUOUS
 62
    30
 10
1562.52037
 20
277.0
 30
0.0
 11
1562.52037
 21
287.0
 31
0.0
  0
CIRCLE
  5
60E
  8
SIZE
  6
CONTINUOUS
 62
    30
 10
1562.52037
 20
267.0
 30
0.0
 40
10.0
  0
POINT
  5
60F
  8
DEFPOINTS
  6
CONTINUOUS
 62
     7
 10
1562.52037
 20
239.0
 30
0.0
  0
LINE
  5
610
  8
SIZE
  6
CONTINUOUS
 62
    30
 10
1562.52037
 20
229.0
 30
0.0
 11
1562.52037
 21
219.0
 31
0.0
  0
CIRCLE
  5
611
  8
SIZE
  6
CONTINUOUS
 62
    30
 10
1562.52037
 20
239.0
 30
0.0
 40
10.0
  0
LINE
  5
612
  8
SIZE
  6
CONTINUOUS
 62
    30
 10
1562.52037
 20
277.0
 30
0.0
 11
1562.52037
 21
287.0
 31
0.0
  0
CIRCLE
  5
613
  8
SIZE
  6
CONTINUOUS
 62
    30
 10
1562.52037
 20
267.0
 30
0.0
 40
10.0
  0
LINE
  5
614
  8
SIZE
  6
CONTINUOUS
 62
    30
 10
1562.52037
 20
267.0
 30
0.0
 11
1562.52037
 21
239.0
 31
0.0
  0
LINE
  5
615
  8
SIZE
  6
CONTINUOUS
 62
    30
 10
1669.986379
 20
178.0
 30
0.0
 11
1669.986379
 21
188.0
 31
0.0
  0
CIRCLE
  5
616
  8
SIZE
  6
CONTINUOUS
 62
    30
 10
1669.986379
 20
168.0
 30
0.0
 40
10.0
  0
LINE
  5
617
  8
SIZE
  6
CONTINUOUS
 62
    30
 10
1782.228676
 20
150.0
 30
0.0
 11
1782.228676
 21
160.0
 31
0.0
  0
POINT
  5
618
  8
DEFPOINTS
  6
CONTINUOUS
 62
     7
 10
1782.228676
 20
140.0
 30
0.0
  0
CIRCLE
  5
619
  8
SIZE
  6
CONTINUOUS
 62
    30
 10
1782.228676
 20
140.0
 30
0.0
 40
10.0
  0
POINT
  5
61A
  8
DEFPOINTS
  6
CONTINUOUS
 62
     7
 10
1782.228676
 20
0.0
 30
0.0
  0
LINE
  5
61B
  8
SIZE
  6
CONTINUOUS
 62
    30
 10
1782.228676
 20
10.0
 30
0.0
 11
1782.228676
 21
20.0
 31
0.0
  0
LINE
  5
61C
  8
SIZE
  6
CONTINUOUS
 62
    30
 10
1782.228676
 20
130.0
 30
0.0
 11
1782.228676
 21
120.0
 31
0.0
  0
CIRCLE
  5
61D
  8
SIZE
  6
CONTINUOUS
 62
    30
 10
1782.228676
 20
140.0
 30
0.0
 40
10.0
  0
LINE
  5
61E
  8
SIZE
  6
CONTINUOUS
 62
    30
 10
1782.228676
 20
120.0
 30
0.0
 11
1782.228676
 21
20.0
 31
0.0
  0
LINE
  5
61F
  8
SIZE
  6
CONTINUOUS
 62
    30
 10
1562.52037
 20
463.0
 30
0.0
 11
1562.52037
 21
453.0
 31
0.0
  0
LINE
  5
620
  8
SIZE
  6
CONTINUOUS
 62
    30
 10
1669.986379
 20
463.0
 30
0.0
 11
1669.986379
 21
453.0
 31
0.0
  0
TEXT
  5
621
  8
SIZE
  6
CONTINUOUS
 62
    30
 10
1544.52037
 20
313.214286
 30
0.0
 40
50.0
  1
206
 50
90.0
 41
0.9
 72
     1
 11
1544.52037
 21
370.0
 31
0.0
  0
CIRCLE
  5
622
  8
SIZE
  6
CONTINUOUS
 62
    30
 10
1562.52037
 20
473.0
 30
0.0
 40
10.0
  0
POINT
  5
623
  8
DEFPOINTS
  6
CONTINUOUS
 62
     7
 10
1669.986379
 20
473.0
 30
0.0
  0
CIRCLE
  5
624
  8
SIZE
  6
CONTINUOUS
 62
    30
 10
1669.986379
 20
473.0
 30
0.0
 40
10.0
  0
LINE
  5
625
  8
SIZE
  6
CONTINUOUS
 62
    30
 10
1782.228676
 20
463.0
 30
0.0
 11
1782.228676
 21
453.0
 31
0.0
  0
CIRCLE
  5
626
  8
SIZE
  6
CONTINUOUS
 62
    30
 10
1782.228676
 20
473.0
 30
0.0
 40
10.0
  0
ENDSEC
  0
EOF
