  0
SECTION
  2
HEADER
  9
$ACADVER
  1
AC1009
  9
$INSBASE
 10
0.0
 20
0.0
 30
0.0
  9
$EXTMIN
 10
-1919.601
 20
-697.761233
 30
0.0
  9
$EXTMAX
 10
2768.994143
 20
739.284117
 30
0.0
  9
$LIMMIN
 10
-2970.0
 20
-2100.0
  9
$LIMMAX
 10
2970.0
 20
2100.0
  9
$ORTHOMODE
 70
     0
  9
$REGENMODE
 70
     0
  9
$FILLMODE
 70
     1
  9
$QTEXTMODE
 70
     0
  9
$MIRRTEXT
 70
     0
  9
$DRAGMODE
 70
     2
  9
$LTSCALE
 40
20.0
  9
$OSMODE
 70
     0
  9
$ATTMODE
 70
     1
  9
$TEXTSIZE
 40
64.0
  9
$TRACEWID
 40
0.05
  9
$TEXTSTYLE
  7
STANDARD
  9
$CLAYER
  8
0
  9
$CELTYPE
  6
CONTINUOUS
  9
$CECOLOR
 62
     4
  9
$DIMSCALE
 40
1.0
  9
$DIMASZ
 40
2.0
  9
$DIMEXO
 40
20.0
  9
$DIMDLI
 40
200.0
  9
$DIMRND
 40
0.0
  9
$DIMDLE
 40
0.0
  9
$DIMEXE
 40
30.0
  9
$DIMTP
 40
0.0
  9
$DIMTM
 40
0.0
  9
$DIMTXT
 40
64.0
  9
$DIMCEN
 40
0.09
  9
$DIMTSZ
 40
0.0
  9
$DIMTOL
 70
     0
  9
$DIMLIM
 70
     0
  9
$DIMTIH
 70
     0
  9
$DIMTOH
 70
     0
  9
$DIMSE1
 70
     0
  9
$DIMSE2
 70
     0
  9
$DIMTAD
 70
     1
  9
$DIMZIN
 70
     8
  9
$DIMBLK
  1

  9
$DIMASO
 70
     1
  9
$DIMSHO
 70
     0
  9
$DIMPOST
  1

  9
$DIMAPOST
  1

  9
$DIMALT
 70
     0
  9
$DIMALTD
 70
     2
  9
$DIMALTF
 40
25.4
  9
$DIMLFAC
 40
1.0
  9
$DIMTOFL
 70
     1
  9
$DIMTVP
 40
0.0
  9
$DIMTIX
 70
     1
  9
$DIMSOXD
 70
     0
  9
$DIMSAH
 70
     0
  9
$DIMBLK1
  1

  9
$DIMBLK2
  1

  9
$DIMSTYLE
  2
STANDARD
  9
$DIMCLRD
 70
     0
  9
$DIMCLRE
 70
     0
  9
$DIMCLRT
 70
     0
  9
$DIMTFAC
 40
1.0
  9
$DIMGAP
 40
0.09
  9
$LUNITS
 70
     2
  9
$LUPREC
 70
     4
  9
$SKETCHINC
 40
0.1
  9
$FILLETRAD
 40
0.0
  9
$AUNITS
 70
     1
  9
$AUPREC
 70
     3
  9
$MENU
  1
ACAD
  9
$ELEVATION
 40
0.0
  9
$PELEVATION
 40
0.0
  9
$THICKNESS
 40
0.0
  9
$LIMCHECK
 70
     0
  9
$BLIPMODE
 70
     0
  9
$CHAMFERA
 40
0.0
  9
$CHAMFERB
 40
0.0
  9
$SKPOLY
 70
     0
  9
$TDCREATE
 40
2449763.779861
  9
$TDUPDATE
 40
2450781.53103
  9
$TDINDWG
 40
0.039444
  9
$TDUSRTIMER
 40
0.039444
  9
$USRTIMER
 70
     1
  9
$ANGBASE
 50
0.0
  9
$ANGDIR
 70
     0
  9
$PDMODE
 70
     3
  9
$PDSIZE
 40
-2.0
  9
$PLINEWID
 40
0.0
  9
$COORDS
 70
     2
  9
$SPLFRAME
 70
     0
  9
$SPLINETYPE
 70
     6
  9
$SPLINESEGS
 70
     8
  9
$ATTDIA
 70
     0
  9
$ATTREQ
 70
     1
  9
$HANDLING
 70
     1
  9
$HANDSEED
  5
14B
  9
$SURFTAB1
 70
     6
  9
$SURFTAB2
 70
     6
  9
$SURFTYPE
 70
     6
  9
$SURFU
 70
     6
  9
$SURFV
 70
     6
  9
$UCSNAME
  2

  9
$UCSORG
 10
0.0
 20
0.0
 30
0.0
  9
$UCSXDIR
 10
1.0
 20
0.0
 30
0.0
  9
$UCSYDIR
 10
0.0
 20
1.0
 30
0.0
  9
$PUCSNAME
  2

  9
$PUCSORG
 10
0.0
 20
0.0
 30
0.0
  9
$PUCSXDIR
 10
1.0
 20
0.0
 30
0.0
  9
$PUCSYDIR
 10
0.0
 20
1.0
 30
0.0
  9
$USERI1
 70
     0
  9
$USERI2
 70
     0
  9
$USERI3
 70
     0
  9
$USERI4
 70
     0
  9
$USERI5
 70
     0
  9
$USERR1
 40
20.0
  9
$USERR2
 40
0.0
  9
$USERR3
 40
0.0
  9
$USERR4
 40
0.0
  9
$USERR5
 40
0.0
  9
$WORLDVIEW
 70
     1
  9
$SHADEDGE
 70
     3
  9
$SHADEDIF
 70
    70
  9
$TILEMODE
 70
     1
  9
$MAXACTVP
 70
    48
  9
$PLIMCHECK
 70
     0
  9
$PEXTMIN
 10
1.000000E+020
 20
1.000000E+020
 30
1.000000E+020
  9
$PEXTMAX
 10
-1.000000E+020
 20
-1.000000E+020
 30
-1.000000E+020
  9
$PLIMMIN
 10
0.0
 20
0.0
  9
$PLIMMAX
 10
12.0
 20
9.0
  9
$UNITMODE
 70
     0
  9
$VISRETAIN
 70
     1
  9
$PLINEGEN
 70
     0
  9
$PSLTSCALE
 70
     1
  0
ENDSEC
  0
SECTION
  2
TABLES
  0
TABLE
  2
VPORT
 70
     2
  0
VPORT
  2
*ACTIVE
 70
     0
 10
0.0
 20
0.0
 11
1.0
 21
1.0
 12
886.0
 22
0.0
 13
0.0
 23
0.0
 14
50.0
 24
50.0
 15
100.0
 25
100.0
 16
0.0
 26
0.0
 36
1.0
 17
0.0
 27
0.0
 37
0.0
 40
4200.0
 41
1.83619
 42
50.0
 43
0.0
 44
0.0
 50
0.0
 51
0.0
 71
     0
 72
   500
 73
     1
 74
     0
 75
     0
 76
     0
 77
     0
 78
     0
  0
ENDTAB
  0
TABLE
  2
LTYPE
 70
     2
  0
LTYPE
  2
CONTINUOUS
 70
     0
  3
実線
 72
    65
 73
     0
 40
0.0
  0
LTYPE
  2
DASHDOT
 70
     0
  3
____ _ ____ _ ____ _ ____ _ ____ _ ____ _ ____
 72
    65
 73
     4
 40
5.5
 49
4.0
 49
-0.6
 49
0.3
 49
-0.6
  0
ENDTAB
  0
TABLE
  2
LAYER
 70
    12
  0
LAYER
  2
0
 70
     0
 62
     7
  6
CONTINUOUS
  0
LAYER
  2
OUTLINE
 70
     0
 62
     3
  6
CONTINUOUS
  0
LAYER
  2
DETAIL
 70
     0
 62
     5
  6
CONTINUOUS
  0
LAYER
  2
BASIS
 70
     0
 62
     6
  6
DASHDOT
  0
LAYER
  2
SIZE
 70
     0
 62
    30
  6
CONTINUOUS
  0
LAYER
  2
NOTE
 70
     0
 62
     4
  6
CONTINUOUS
  0
LAYER
  2
ARRANGE
 70
     0
 62
     1
  6
CONTINUOUS
  0
LAYER
  2
FIX
 70
     0
 62
    11
  6
CONTINUOUS
  0
LAYER
  2
SERVICESPACE
 70
     0
 62
     2
  6
DASHDOT
  0
LAYER
  2
ETC
 70
     0
 62
    61
  6
CONTINUOUS
  0
LAYER
  2
SYMBOLLINE
 70
     0
 62
    15
  6
CONTINUOUS
  0
LAYER
  2
DEFPOINTS
 70
     0
 62
     7
  6
CONTINUOUS
  0
ENDTAB
  0
TABLE
  2
STYLE
 70
     1
  0
STYLE
  2
STANDARD
 70
     0
 40
0.0
 41
0.9
 50
0.0
 71
     0
 42
64.0
  3
SIMPLEX
  4
BIGFONT
  0
ENDTAB
  0
TABLE
  2
VIEW
 70
     1
  0
VIEW
  2
ALL
 70
     0
 40
4282.62
 10
0.0
 20
41.309904
 41
5940.0
 11
0.0
 21
0.0
 31
1.0
 12
0.0
 22
0.0
 32
0.0
 42
50.0
 43
0.0
 44
0.0
 50
0.0
 71
     0
  0
ENDTAB
  0
TABLE
  2
UCS
 70
     0
  0
ENDTAB
  0
TABLE
  2
APPID
 70
     1
  0
APPID
  2
ACAD
 70
     0
  0
ENDTAB
  0
TABLE
  2
DIMSTYLE
 70
     1
  0
DIMSTYLE
  2
STANDARD
 70
     0
  3

  4

  5

  6

  7

 40
1.0
 41
0.18
 42
0.0625
 43
0.38
 44
0.18
 45
0.0
 46
0.0
 47
0.0
 48
0.0
140
0.18
141
0.09
142
0.0
143
25.4
144
1.0
145
0.0
146
1.0
147
0.09
 71
     0
 72
     0
 73
     1
 74
     1
 75
     0
 76
     0
 77
     0
 78
     0
170
     0
171
     2
172
     0
173
     0
174
     0
175
     0
176
     0
177
     0
178
     0
  0
ENDTAB
  0
ENDSEC
  0
SECTION
  2
BLOCKS
  0
BLOCK
  8
0
  2
$MODEL_SPACE
 70
     0
 10
0.0
 20
0.0
 30
0.0
  3
$MODEL_SPACE
  1

  0
ENDBLK
  5
131
  8
0
  0
BLOCK
 67
     1
  8
0
  2
$PAPER_SPACE
 70
     0
 10
0.0
 20
0.0
 30
0.0
  3
$PAPER_SPACE
  1

  0
ENDBLK
  5
12E
 67
     1
  8
0
  0
ENDSEC
  0
SECTION
  2
ENTITIES
  0
POINT
  5
2E
  8
ARRANGE
  6
CONTINUOUS
 62
     1
 10
0.0
 20
0.0
 30
0.0
  0
LINE
  5
2F
  8
DETAIL
  6
CONTINUOUS
 62
     5
 10
736.0
 20
359.0
 30
0.0
 11
736.0
 21
351.0
 31
0.0
  0
ARC
  5
30
  8
DETAIL
  6
CONTINUOUS
 62
     5
 10
743.0
 20
359.0
 30
0.0
 40
7.0
 50
0.0
 51
180.0
  0
LINE
  5
31
  8
DETAIL
  6
CONTINUOUS
 62
     5
 10
750.0
 20
359.0
 30
0.0
 11
750.0
 21
351.0
 31
0.0
  0
ARC
  5
32
  8
DETAIL
  6
CONTINUOUS
 62
     5
 10
743.0
 20
351.0
 30
0.0
 40
7.0
 50
180.0
 51
0.0
  0
ARC
  5
33
  8
DETAIL
  6
CONTINUOUS
 62
     5
 10
743.0
 20
-359.0
 30
0.0
 40
7.0
 50
180.0
 51
0.0
  0
LINE
  5
34
  8
DETAIL
  6
CONTINUOUS
 62
     5
 10
736.0
 20
-351.0
 30
0.0
 11
736.0
 21
-359.0
 31
0.0
  0
LINE
  5
35
  8
DETAIL
  6
CONTINUOUS
 62
     5
 10
750.0
 20
-351.0
 30
0.0
 11
750.0
 21
-359.0
 31
0.0
  0
ARC
  5
36
  8
DETAIL
  6
CONTINUOUS
 62
     5
 10
743.0
 20
-351.0
 30
0.0
 40
7.0
 50
0.0
 51
180.0
  0
ARC
  5
37
  8
DETAIL
  6
CONTINUOUS
 62
     5
 10
-743.0
 20
-359.0
 30
0.0
 40
7.0
 50
180.0
 51
0.0
  0
LINE
  5
38
  8
DETAIL
  6
CONTINUOUS
 62
     5
 10
-750.0
 20
-351.0
 30
0.0
 11
-750.0
 21
-359.0
 31
0.0
  0
LINE
  5
39
  8
DETAIL
  6
CONTINUOUS
 62
     5
 10
-736.0
 20
-351.0
 30
0.0
 11
-736.0
 21
-359.0
 31
0.0
  0
ARC
  5
3A
  8
DETAIL
  6
CONTINUOUS
 62
     5
 10
-743.0
 20
-351.0
 30
0.0
 40
7.0
 50
0.0
 51
180.0
  0
ARC
  5
3B
  8
DETAIL
  6
CONTINUOUS
 62
     5
 10
-743.0
 20
351.0
 30
0.0
 40
7.0
 50
180.0
 51
0.0
  0
ARC
  5
3C
  8
DETAIL
  6
CONTINUOUS
 62
     5
 10
-743.0
 20
359.0
 30
0.0
 40
7.0
 50
0.0
 51
180.0
  0
LINE
  5
3D
  8
DETAIL
  6
CONTINUOUS
 62
     5
 10
-750.0
 20
359.0
 30
0.0
 11
-750.0
 21
351.0
 31
0.0
  0
LINE
  5
3E
  8
DETAIL
  6
CONTINUOUS
 62
     5
 10
-736.0
 20
359.0
 30
0.0
 11
-736.0
 21
351.0
 31
0.0
  0
LINE
  5
3F
  8
NOTE
  6
CONTINUOUS
 62
     4
 10
-755.0
 20
-268.0
 30
0.0
 11
-814.256381
 21
-399.132044
 31
0.0
  0
LINE
  5
40
  8
NOTE
  6
CONTINUOUS
 62
     4
 10
-755.0
 20
-204.0
 30
0.0
 11
-641.868058
 21
-323.437408
 31
0.0
  0
LINE
  5
41
  8
NOTE
  6
CONTINUOUS
 62
     4
 10
-755.0
 20
-115.0
 30
0.0
 11
-644.664007
 21
-200.147672
 31
0.0
  0
LINE
  5
42
  8
NOTE
  6
CONTINUOUS
 62
     4
 10
-755.0
 20
161.0
 30
0.0
 11
-662.938469
 21
80.758547
 31
0.0
  0
LINE
  5
43
  8
NOTE
  6
CONTINUOUS
 62
     4
 10
-755.0
 20
341.0
 30
0.0
 11
-663.746282
 21
272.278291
 31
0.0
  0
LINE
  5
44
  8
NOTE
  6
CONTINUOUS
 62
     4
 10
-814.256381
 20
-399.132044
 30
0.0
 11
-952.958825
 21
-399.132044
 31
0.0
  0
TEXT
  5
45
  8
NOTE
  6
CONTINUOUS
 62
     4
 10
-931.800825
 20
-375.624858
 30
0.0
 40
64.0
  1
RG
 41
0.9
  0
TEXT
  5
46
  8
NOTE
  6
CONTINUOUS
 62
     4
 10
-632.464503
 20
-311.683816
 30
0.0
 40
64.0
  1
RL
 41
0.9
  0
LINE
  5
47
  8
NOTE
  6
CONTINUOUS
 62
     4
 10
-641.868058
 20
-323.437408
 30
0.0
 11
-519.621837
 21
-323.437408
 31
0.0
  0
TEXT
  5
48
  8
NOTE
  6
CONTINUOUS
 62
     4
 10
-623.506007
 20
-186.043361
 30
0.0
 40
64.0
  1
D
 41
0.9
  0
LINE
  5
49
  8
NOTE
  6
CONTINUOUS
 62
     4
 10
-644.664007
 20
-200.147672
 30
0.0
 11
-567.084674
 21
-200.147672
 31
0.0
  0
LINE
  5
4A
  8
NOTE
  6
CONTINUOUS
 62
     4
 10
-662.938469
 20
80.758547
 30
0.0
 11
-583.008247
 21
80.758547
 31
0.0
  0
TEXT
  5
4B
  8
NOTE
  6
CONTINUOUS
 62
     4
 10
-658.236691
 20
106.616451
 30
0.0
 40
64.0
  1
EL
 41
0.9
  0
LINE
  5
4C
  8
NOTE
  6
CONTINUOUS
 62
     4
 10
-663.746282
 20
272.278291
 30
0.0
 11
-520.342061
 21
272.278291
 31
0.0
  0
TEXT
  5
4D
  8
NOTE
  6
CONTINUOUS
 62
     4
 10
-633.184727
 20
293.434758
 30
0.0
 40
64.0
  1
CL
 41
0.9
  0
LINE
  5
4E
  8
BASIS
  6
DASHDOT
 62
     6
 10
0.0
 20
-472.290329
 30
0.0
 11
0.0
 21
523.015687
 31
0.0
  0
TEXT
  5
4F
  8
NOTE
  6
CONTINUOUS
 62
     4
 10
1204.3
 20
-339.067557
 30
0.0
 40
64.0
  1
（吊りボルトピッチ）
 50
90.0
 41
0.9
  0
TEXT
  5
50
  8
NOTE
  6
CONTINUOUS
 62
     4
 10
-360.806572
 20
-697.761233
 30
0.0
 40
64.0
  1
（吊りボルトピッチ）
 41
0.9
  0
LINE
  5
51
  8
DETAIL
  6
CONTINUOUS
 62
     5
 10
-355.0
 20
-419.0
 30
0.0
 11
-555.0
 21
-419.0
 31
0.0
  0
LINE
  5
52
  8
BASIS
  6
DASHDOT
 62
     6
 10
-455.0
 20
-486.213187
 30
0.0
 11
-455.0
 21
-362.74397
 31
0.0
  0
LINE
  5
53
  8
DETAIL
  6
CONTINUOUS
 62
     5
 10
-555.0
 20
-459.0
 30
0.0
 11
-555.0
 21
-389.0
 31
0.0
  0
LINE
  5
54
  8
DETAIL
  6
CONTINUOUS
 62
     5
 10
-355.0
 20
-459.0
 30
0.0
 11
-355.0
 21
-389.0
 31
0.0
  0
LINE
  5
55
  8
DETAIL
  6
CONTINUOUS
 62
     5
 10
-355.0
 20
-459.0
 30
0.0
 11
-555.0
 21
-459.0
 31
0.0
  0
LINE
  5
56
  8
DETAIL
  6
CONTINUOUS
 62
     5
 10
-35.0
 20
-459.0
 30
0.0
 11
-235.0
 21
-459.0
 31
0.0
  0
LINE
  5
57
  8
DETAIL
  6
CONTINUOUS
 62
     5
 10
-35.0
 20
-459.0
 30
0.0
 11
-35.0
 21
-389.0
 31
0.0
  0
LINE
  5
58
  8
DETAIL
  6
CONTINUOUS
 62
     5
 10
-235.0
 20
-459.0
 30
0.0
 11
-235.0
 21
-389.0
 31
0.0
  0
LINE
  5
59
  8
BASIS
  6
DASHDOT
 62
     6
 10
-135.0
 20
-486.213187
 30
0.0
 11
-135.0
 21
-362.74397
 31
0.0
  0
LINE
  5
5A
  8
DETAIL
  6
CONTINUOUS
 62
     5
 10
-35.0
 20
-419.0
 30
0.0
 11
-235.0
 21
-419.0
 31
0.0
  0
LINE
  5
5B
  8
BASIS
  6
DASHDOT
 62
     6
 10
185.0
 20
-486.213187
 30
0.0
 11
185.0
 21
-362.74397
 31
0.0
  0
LINE
  5
5C
  8
DETAIL
  6
CONTINUOUS
 62
     5
 10
285.0
 20
-459.0
 30
0.0
 11
85.0
 21
-459.0
 31
0.0
  0
LINE
  5
5D
  8
DETAIL
  6
CONTINUOUS
 62
     5
 10
285.0
 20
-459.0
 30
0.0
 11
285.0
 21
-389.0
 31
0.0
  0
LINE
  5
5E
  8
DETAIL
  6
CONTINUOUS
 62
     5
 10
285.0
 20
-419.0
 30
0.0
 11
85.0
 21
-419.0
 31
0.0
  0
LINE
  5
5F
  8
DETAIL
  6
CONTINUOUS
 62
     5
 10
85.0
 20
-459.0
 30
0.0
 11
85.0
 21
-389.0
 31
0.0
  0
LINE
  5
60
  8
DETAIL
  6
CONTINUOUS
 62
     5
 10
405.0
 20
-459.0
 30
0.0
 11
405.0
 21
-389.0
 31
0.0
  0
LINE
  5
61
  8
DETAIL
  6
CONTINUOUS
 62
     5
 10
605.0
 20
-459.0
 30
0.0
 11
605.0
 21
-389.0
 31
0.0
  0
LINE
  5
62
  8
BASIS
  6
DASHDOT
 62
     6
 10
505.0
 20
-486.213187
 30
0.0
 11
505.0
 21
-362.74397
 31
0.0
  0
LINE
  5
63
  8
DETAIL
  6
CONTINUOUS
 62
     5
 10
605.0
 20
-419.0
 30
0.0
 11
405.0
 21
-419.0
 31
0.0
  0
LINE
  5
64
  8
DETAIL
  6
CONTINUOUS
 62
     5
 10
605.0
 20
-459.0
 30
0.0
 11
405.0
 21
-459.0
 31
0.0
  0
LINE
  5
65
  8
BASIS
  6
DASHDOT
 62
     6
 10
826.117348
 20
0.0
 30
0.0
 11
-845.829006
 21
0.0
 31
0.0
  0
LINE
  5
66
  8
DETAIL
  6
CONTINUOUS
 62
     5
 10
755.0
 20
-139.0
 30
0.0
 11
795.0
 21
-139.0
 31
0.0
  0
LINE
  5
67
  8
DETAIL
  6
CONTINUOUS
 62
     5
 10
-795.0
 20
-139.0
 30
0.0
 11
-795.0
 21
461.0
 31
0.0
  0
LINE
  5
68
  8
DETAIL
  6
CONTINUOUS
 62
     5
 10
795.0
 20
-139.0
 30
0.0
 11
795.0
 21
461.0
 31
0.0
  0
LINE
  5
69
  8
DETAIL
  6
CONTINUOUS
 62
     5
 10
-795.0
 20
-139.0
 30
0.0
 11
-755.0
 21
-139.0
 31
0.0
  0
LINE
  5
6A
  8
DETAIL
  6
CONTINUOUS
 62
     5
 10
-755.0
 20
386.0
 30
0.0
 11
-755.0
 21
-389.0
 31
0.0
  0
LINE
  5
6B
  8
DETAIL
  6
CONTINUOUS
 62
     5
 10
755.0
 20
386.0
 30
0.0
 11
755.0
 21
-389.0
 31
0.0
  0
LINE
  5
6C
  8
DETAIL
  6
CONTINUOUS
 62
     5
 10
-755.0
 20
386.0
 30
0.0
 11
755.0
 21
386.0
 31
0.0
  0
LINE
  5
6D
  8
DETAIL
  6
CONTINUOUS
 62
     5
 10
-795.0
 20
461.0
 30
0.0
 11
795.0
 21
461.0
 31
0.0
  0
LINE
  5
6E
  8
DETAIL
  6
CONTINUOUS
 62
     5
 10
-755.0
 20
-389.0
 30
0.0
 11
755.0
 21
-389.0
 31
0.0
  0
TEXT
  5
6F
  8
ETC
  6
CONTINUOUS
 62
    61
 10
1843.478
 20
-573.239626
 30
0.0
 40
64.0
  1
ＰＡＣ
 41
0.9
  0
TEXT
  5
70
  8
ETC
  6
CONTINUOUS
 62
    61
 10
1850.137
 20
-340.180941
 30
0.0
 40
64.0
  1
MPD-RP112_160FA_1
 41
0.9
  0
CIRCLE
  5
71
  8
ARRANGE
  6
CONTINUOUS
 62
     1
 10
0.0
 20
0.0
 30
0.0
 40
40.0
  0
LINE
  5
72
  8
NOTE
  6
CONTINUOUS
 62
     4
 10
-743.0
 20
375.0
 30
0.0
 11
-743.0
 21
335.0
 31
0.0
  0
LINE
  5
73
  8
NOTE
  6
CONTINUOUS
 62
     4
 10
-763.0
 20
355.0
 30
0.0
 11
-723.0
 21
355.0
 31
0.0
  0
LINE
  5
74
  8
NOTE
  6
CONTINUOUS
 62
     4
 10
743.0
 20
375.0
 30
0.0
 11
743.0
 21
335.0
 31
0.0
  0
LINE
  5
75
  8
NOTE
  6
CONTINUOUS
 62
     4
 10
723.0
 20
355.0
 30
0.0
 11
763.0
 21
355.0
 31
0.0
  0
LINE
  5
76
  8
NOTE
  6
CONTINUOUS
 62
     4
 10
743.0
 20
-335.0
 30
0.0
 11
743.0
 21
-375.0
 31
0.0
  0
LINE
  5
77
  8
NOTE
  6
CONTINUOUS
 62
     4
 10
723.0
 20
-355.0
 30
0.0
 11
763.0
 21
-355.0
 31
0.0
  0
LINE
  5
78
  8
NOTE
  6
CONTINUOUS
 62
     4
 10
-743.0
 20
-335.0
 30
0.0
 11
-743.0
 21
-375.0
 31
0.0
  0
LINE
  5
79
  8
NOTE
  6
CONTINUOUS
 62
     4
 10
-763.0
 20
-355.0
 30
0.0
 11
-723.0
 21
-355.0
 31
0.0
  0
LINE
  5
7A
  8
NOTE
  6
CONTINUOUS
 62
     4
 10
-755.0
 20
-248.0
 30
0.0
 11
-755.0
 21
-288.0
 31
0.0
  0
LINE
  5
7B
  8
NOTE
  6
CONTINUOUS
 62
     4
 10
-775.0
 20
-268.0
 30
0.0
 11
-735.0
 21
-268.0
 31
0.0
  0
LINE
  5
7C
  8
NOTE
  6
CONTINUOUS
 62
     4
 10
-755.0
 20
-184.0
 30
0.0
 11
-755.0
 21
-224.0
 31
0.0
  0
LINE
  5
7D
  8
NOTE
  6
CONTINUOUS
 62
     4
 10
-775.0
 20
-204.0
 30
0.0
 11
-735.0
 21
-204.0
 31
0.0
  0
LINE
  5
7E
  8
NOTE
  6
CONTINUOUS
 62
     4
 10
-755.0
 20
-95.0
 30
0.0
 11
-755.0
 21
-135.0
 31
0.0
  0
LINE
  5
7F
  8
NOTE
  6
CONTINUOUS
 62
     4
 10
-775.0
 20
-115.0
 30
0.0
 11
-735.0
 21
-115.0
 31
0.0
  0
LINE
  5
80
  8
NOTE
  6
CONTINUOUS
 62
     4
 10
-755.0
 20
361.0
 30
0.0
 11
-755.0
 21
321.0
 31
0.0
  0
LINE
  5
81
  8
NOTE
  6
CONTINUOUS
 62
     4
 10
-775.0
 20
341.0
 30
0.0
 11
-735.0
 21
341.0
 31
0.0
  0
LINE
  5
82
  8
NOTE
  6
CONTINUOUS
 62
     4
 10
-755.0
 20
181.0
 30
0.0
 11
-755.0
 21
141.0
 31
0.0
  0
LINE
  5
83
  8
NOTE
  6
CONTINUOUS
 62
     4
 10
-775.0
 20
161.0
 30
0.0
 11
-735.0
 21
161.0
 31
0.0
  0
CIRCLE
  5
84
  8
FIX
  6
CONTINUOUS
 62
    11
 10
-743.0
 20
355.0
 30
0.0
 40
40.0
  0
CIRCLE
  5
85
  8
FIX
  6
CONTINUOUS
 62
    11
 10
-743.0
 20
-355.0
 30
0.0
 40
40.0
  0
CIRCLE
  5
86
  8
FIX
  6
CONTINUOUS
 62
    11
 10
743.0
 20
-355.0
 30
0.0
 40
40.0
  0
CIRCLE
  5
87
  8
FIX
  6
CONTINUOUS
 62
    11
 10
743.0
 20
355.0
 30
0.0
 40
40.0
  0
LINE
  5
88
  8
OUTLINE
  6
CONTINUOUS
 62
     3
 10
-795.0
 20
461.0
 30
0.0
 11
795.0
 21
461.0
 31
0.0
  0
LINE
  5
89
  8
OUTLINE
  6
CONTINUOUS
 62
     3
 10
-795.0
 20
-139.0
 30
0.0
 11
-795.0
 21
461.0
 31
0.0
  0
LINE
  5
8A
  8
OUTLINE
  6
CONTINUOUS
 62
     3
 10
-795.0
 20
-139.0
 30
0.0
 11
-755.0
 21
-139.0
 31
0.0
  0
LINE
  5
8B
  8
OUTLINE
  6
CONTINUOUS
 62
     3
 10
-755.0
 20
-139.0
 30
0.0
 11
-755.0
 21
-389.0
 31
0.0
  0
LINE
  5
8C
  8
OUTLINE
  6
CONTINUOUS
 62
     3
 10
755.0
 20
-139.0
 30
0.0
 11
755.0
 21
-389.0
 31
0.0
  0
LINE
  5
8D
  8
OUTLINE
  6
CONTINUOUS
 62
     3
 10
795.0
 20
-139.0
 30
0.0
 11
795.0
 21
461.0
 31
0.0
  0
LINE
  5
8E
  8
OUTLINE
  6
CONTINUOUS
 62
     3
 10
755.0
 20
-139.0
 30
0.0
 11
795.0
 21
-139.0
 31
0.0
  0
LINE
  5
8F
  8
OUTLINE
  6
CONTINUOUS
 62
     3
 10
-755.0
 20
-389.0
 30
0.0
 11
755.0
 21
-389.0
 31
0.0
  0
LINE
  5
90
  8
SIZE
  6
CONTINUOUS
 62
    30
 10
-815.0
 20
461.0
 30
0.0
 11
-1853.601
 21
461.0
 31
0.0
  0
LINE
  5
91
  8
SIZE
  6
CONTINUOUS
 62
    30
 10
-575.0
 20
-459.0
 30
0.0
 11
-1853.601
 21
-459.0
 31
0.0
  0
LINE
  5
92
  8
SIZE
  6
CONTINUOUS
 62
    30
 10
-1823.601
 20
459.0
 30
0.0
 11
-1823.601
 21
-457.0
 31
0.0
  0
TEXT
  5
93
  8
SIZE
  6
CONTINUOUS
 62
    30
 10
-1855.601
 20
-73.057143
 30
0.0
 40
64.0
  1
920
 50
90.0
 41
0.9
  0
LINE
  5
94
  8
SIZE
  6
CONTINUOUS
 62
    30
 10
-775.0
 20
386.0
 30
0.0
 11
-1703.601
 21
386.0
 31
0.0
  0
LINE
  5
95
  8
SIZE
  6
CONTINUOUS
 62
    30
 10
-795.0
 20
-268.0
 30
0.0
 11
-1703.601
 21
-268.0
 31
0.0
  0
LINE
  5
96
  8
SIZE
  6
CONTINUOUS
 62
    30
 10
-1673.601
 20
384.0
 30
0.0
 11
-1673.601
 21
-266.0
 31
0.0
  0
TEXT
  5
97
  8
SIZE
  6
CONTINUOUS
 62
    30
 10
-1705.601
 20
-16.428571
 30
0.0
 40
64.0
  1
654
 50
90.0
 41
0.9
  0
LINE
  5
98
  8
SIZE
  6
CONTINUOUS
 62
    30
 10
-775.0
 20
386.0
 30
0.0
 11
-1553.601
 21
386.0
 31
0.0
  0
LINE
  5
99
  8
SIZE
  6
CONTINUOUS
 62
    30
 10
-795.0
 20
-204.0
 30
0.0
 11
-1553.601
 21
-204.0
 31
0.0
  0
LINE
  5
9A
  8
SIZE
  6
CONTINUOUS
 62
    30
 10
-1523.601
 20
384.0
 30
0.0
 11
-1523.601
 21
-202.0
 31
0.0
  0
TEXT
  5
9B
  8
SIZE
  6
CONTINUOUS
 62
    30
 10
-1555.601
 20
16.942857
 30
0.0
 40
64.0
  1
590
 50
90.0
 41
0.9
  0
LINE
  5
9C
  8
SIZE
  6
CONTINUOUS
 62
    30
 10
-775.0
 20
386.0
 30
0.0
 11
-1403.601
 21
386.0
 31
0.0
  0
LINE
  5
9D
  8
SIZE
  6
CONTINUOUS
 62
    30
 10
-795.0
 20
-115.0
 30
0.0
 11
-1403.601
 21
-115.0
 31
0.0
  0
LINE
  5
9E
  8
SIZE
  6
CONTINUOUS
 62
    30
 10
-1373.601
 20
384.0
 30
0.0
 11
-1373.601
 21
-113.0
 31
0.0
  0
TEXT
  5
9F
  8
SIZE
  6
CONTINUOUS
 62
    30
 10
-1405.601
 20
73.785714
 30
0.0
 40
64.0
  1
501
 50
90.0
 41
0.9
  0
LINE
  5
A0
  8
SIZE
  6
CONTINUOUS
 62
    30
 10
-775.0
 20
386.0
 30
0.0
 11
-1253.601
 21
386.0
 31
0.0
  0
LINE
  5
A1
  8
SIZE
  6
CONTINUOUS
 62
    30
 10
-795.0
 20
161.0
 30
0.0
 11
-1253.601
 21
161.0
 31
0.0
  0
LINE
  5
A2
  8
SIZE
  6
CONTINUOUS
 62
    30
 10
-1223.601
 20
384.0
 30
0.0
 11
-1223.601
 21
163.0
 31
0.0
  0
TEXT
  5
A3
  8
SIZE
  6
CONTINUOUS
 62
    30
 10
-1255.601
 20
199.442857
 30
0.0
 40
64.0
  1
225
 50
90.0
 41
0.9
  0
LINE
  5
A4
  8
SIZE
  6
CONTINUOUS
 62
    30
 10
-775.0
 20
386.0
 30
0.0
 11
-1103.601
 21
386.0
 31
0.0
  0
LINE
  5
A5
  8
SIZE
  6
CONTINUOUS
 62
    30
 10
-795.0
 20
341.0
 30
0.0
 11
-1103.601
 21
341.0
 31
0.0
  0
LINE
  5
A6
  8
SIZE
  6
CONTINUOUS
 62
    30
 10
-1073.601
 20
339.0
 30
0.0
 11
-1073.601
 21
337.0
 31
0.0
  0
LINE
  5
A7
  8
SIZE
  6
CONTINUOUS
 62
    30
 10
-1073.601
 20
388.0
 30
0.0
 11
-1073.601
 21
390.0
 31
0.0
  0
LINE
  5
A8
  8
SIZE
  6
CONTINUOUS
 62
    30
 10
-1073.601
 20
341.0
 30
0.0
 11
-1073.601
 21
386.0
 31
0.0
  0
TEXT
  5
A9
  8
SIZE
  6
CONTINUOUS
 62
    30
 10
-1105.601
 20
316.871429
 30
0.0
 40
64.0
  1
45
 50
90.0
 41
0.9
  0
LINE
  5
AA
  8
SIZE
  6
CONTINUOUS
 62
    30
 10
795.0
 20
481.0
 30
0.0
 11
795.0
 21
673.284117
 31
0.0
  0
LINE
  5
AB
  8
SIZE
  6
CONTINUOUS
 62
    30
 10
-795.0
 20
481.0
 30
0.0
 11
-795.0
 21
673.284117
 31
0.0
  0
LINE
  5
AC
  8
SIZE
  6
CONTINUOUS
 62
    30
 10
793.0
 20
643.284117
 30
0.0
 11
-793.0
 21
643.284117
 31
0.0
  0
TEXT
  5
AD
  8
SIZE
  6
CONTINUOUS
 62
    30
 10
-96.0
 20
675.284117
 30
0.0
 40
64.0
  1
1590
 41
0.9
  0
LINE
  5
AE
  8
SIZE
  6
CONTINUOUS
 62
    30
 10
755.0
 20
-409.0
 30
0.0
 11
755.0
 21
-643.61182
 31
0.0
  0
LINE
  5
AF
  8
SIZE
  6
CONTINUOUS
 62
    30
 10
743.0
 20
-395.0
 30
0.0
 11
743.0
 21
-643.61182
 31
0.0
  0
LINE
  5
B0
  8
SIZE
  6
CONTINUOUS
 62
    30
 10
753.0
 20
-613.61182
 30
0.0
 11
749.0
 21
-613.61182
 31
0.0
  0
LINE
  5
B1
  8
SIZE
  6
CONTINUOUS
 62
    30
 10
745.0
 20
-613.61182
 30
0.0
 11
749.0
 21
-613.61182
 31
0.0
  0
TEXT
  5
B2
  8
SIZE
  6
CONTINUOUS
 62
    30
 10
707.857143
 20
-581.61182
 30
0.0
 40
64.0
  1
12
 41
0.9
  0
LINE
  5
B3
  8
SIZE
  6
CONTINUOUS
 62
    30
 10
743.0
 20
-395.0
 30
0.0
 11
743.0
 21
-643.61182
 31
0.0
  0
LINE
  5
B4
  8
SIZE
  6
CONTINUOUS
 62
    30
 10
-743.0
 20
-395.0
 30
0.0
 11
-743.0
 21
-643.61182
 31
0.0
  0
LINE
  5
B5
  8
SIZE
  6
CONTINUOUS
 62
    30
 10
741.0
 20
-613.61182
 30
0.0
 11
0.0
 21
-613.61182
 31
0.0
  0
LINE
  5
B6
  8
SIZE
  6
CONTINUOUS
 62
    30
 10
-741.0
 20
-613.61182
 30
0.0
 11
0.0
 21
-613.61182
 31
0.0
  0
TEXT
  5
B7
  8
SIZE
  6
CONTINUOUS
 62
    30
 10
-94.628571
 20
-581.61182
 30
0.0
 40
64.0
  1
1486
 41
0.9
  0
LINE
  5
B8
  8
SIZE
  6
CONTINUOUS
 62
    30
 10
-743.0
 20
-395.0
 30
0.0
 11
-743.0
 21
-643.61182
 31
0.0
  0
LINE
  5
B9
  8
SIZE
  6
CONTINUOUS
 62
    30
 10
-755.0
 20
-409.0
 30
0.0
 11
-755.0
 21
-643.61182
 31
0.0
  0
LINE
  5
BA
  8
SIZE
  6
CONTINUOUS
 62
    30
 10
-745.0
 20
-613.61182
 30
0.0
 11
-749.0
 21
-613.61182
 31
0.0
  0
LINE
  5
BB
  8
SIZE
  6
CONTINUOUS
 62
    30
 10
-753.0
 20
-613.61182
 30
0.0
 11
-749.0
 21
-613.61182
 31
0.0
  0
TEXT
  5
BC
  8
SIZE
  6
CONTINUOUS
 62
    30
 10
-790.142857
 20
-581.61182
 30
0.0
 40
64.0
  1
12
 41
0.9
  0
LINE
  5
BD
  8
SIZE
  6
CONTINUOUS
 62
    30
 10
783.0
 20
355.0
 30
0.0
 11
1154.889
 21
355.0
 31
0.0
  0
LINE
  5
BE
  8
SIZE
  6
CONTINUOUS
 62
    30
 10
783.0
 20
-355.0
 30
0.0
 11
1154.889
 21
-355.0
 31
0.0
  0
LINE
  5
BF
  8
SIZE
  6
CONTINUOUS
 62
    30
 10
1124.889
 20
353.0
 30
0.0
 11
1124.889
 21
0.0
 31
0.0
  0
LINE
  5
C0
  8
SIZE
  6
CONTINUOUS
 62
    30
 10
1124.889
 20
-353.0
 30
0.0
 11
1124.889
 21
0.0
 31
0.0
  0
TEXT
  5
C1
  8
SIZE
  6
CONTINUOUS
 62
    30
 10
1092.889
 20
-74.50021
 30
0.0
 40
64.0
  1
710
 50
90.0
 41
0.9
  0
LINE
  5
C2
  8
SIZE
  6
CONTINUOUS
 62
    30
 10
815.0
 20
461.0
 30
0.0
 11
1388.761
 21
461.0
 31
0.0
  0
LINE
  5
C3
  8
SIZE
  6
CONTINUOUS
 62
    30
 10
815.0
 20
-139.0
 30
0.0
 11
1388.761
 21
-139.0
 31
0.0
  0
LINE
  5
C4
  8
SIZE
  6
CONTINUOUS
 62
    30
 10
1358.761
 20
459.0
 30
0.0
 11
1358.761
 21
161.0
 31
0.0
  0
LINE
  5
C5
  8
SIZE
  6
CONTINUOUS
 62
    30
 10
1358.761
 20
-137.0
 30
0.0
 11
1358.761
 21
161.0
 31
0.0
  0
TEXT
  5
C6
  8
SIZE
  6
CONTINUOUS
 62
    30
 10
1326.761
 20
78.049686
 30
0.0
 40
64.0
  1
600
 50
90.0
 41
0.9
  0
LINE
  5
C7
  8
SIZE
  6
CONTINUOUS
 62
    30
 10
815.0
 20
-139.0
 30
0.0
 11
1388.761
 21
-139.0
 31
0.0
  0
LINE
  5
C8
  8
SIZE
  6
CONTINUOUS
 62
    30
 10
775.0
 20
-389.0
 30
0.0
 11
1388.761
 21
-389.0
 31
0.0
  0
LINE
  5
C9
  8
SIZE
  6
CONTINUOUS
 62
    30
 10
1358.761
 20
-141.0
 30
0.0
 11
1358.761
 21
-264.0
 31
0.0
  0
LINE
  5
CA
  8
SIZE
  6
CONTINUOUS
 62
    30
 10
1358.761
 20
-387.0
 30
0.0
 11
1358.761
 21
-264.0
 31
0.0
  0
TEXT
  5
CB
  8
SIZE
  6
CONTINUOUS
 62
    30
 10
1326.761
 20
-346.950314
 30
0.0
 40
64.0
  1
250
 50
90.0
 41
0.9
  0
LINE
  5
CC
  8
SIZE
  6
CONTINUOUS
 62
    30
 10
783.0
 20
355.0
 30
0.0
 11
993.277325
 21
355.0
 31
0.0
  0
LINE
  5
CD
  8
SIZE
  6
CONTINUOUS
 62
    30
 10
846.117348
 20
0.0
 30
0.0
 11
993.277325
 21
0.0
 31
0.0
  0
LINE
  5
CE
  8
SIZE
  6
CONTINUOUS
 62
    30
 10
963.277325
 20
353.0
 30
0.0
 11
963.277325
 21
177.5
 31
0.0
  0
LINE
  5
CF
  8
SIZE
  6
CONTINUOUS
 62
    30
 10
963.277325
 20
2.0
 30
0.0
 11
963.277325
 21
177.5
 31
0.0
  0
TEXT
  5
D0
  8
SIZE
  6
CONTINUOUS
 62
    30
 10
931.277325
 20
97.514076
 30
0.0
 40
64.0
  1
355
 50
90.0
 41
0.9
  0
LINE
  5
D1
  8
SIZE
  6
CONTINUOUS
 62
    30
 10
625.0
 20
-419.0
 30
0.0
 11
993.277325
 21
-419.0
 31
0.0
  0
LINE
  5
D2
  8
SIZE
  6
CONTINUOUS
 62
    30
 10
625.0
 20
-459.0
 30
0.0
 11
993.277325
 21
-459.0
 31
0.0
  0
LINE
  5
D3
  8
SIZE
  6
CONTINUOUS
 62
    30
 10
963.277325
 20
-461.0
 30
0.0
 11
963.277325
 21
-463.0
 31
0.0
  0
LINE
  5
D4
  8
SIZE
  6
CONTINUOUS
 62
    30
 10
963.277325
 20
-417.0
 30
0.0
 11
963.277325
 21
-415.0
 31
0.0
  0
LINE
  5
D5
  8
SIZE
  6
CONTINUOUS
 62
    30
 10
963.277325
 20
-459.0
 30
0.0
 11
963.277325
 21
-419.0
 31
0.0
  0
TEXT
  5
D6
  8
SIZE
  6
CONTINUOUS
 62
    30
 10
931.277325
 20
-485.628571
 30
0.0
 40
64.0
  1
40
 50
90.0
 41
0.9
  0
LINE
  5
D7
  8
SIZE
  6
CONTINUOUS
 62
    30
 10
775.0
 20
386.0
 30
0.0
 11
1154.889
 21
386.0
 31
0.0
  0
LINE
  5
D8
  8
SIZE
  6
CONTINUOUS
 62
    30
 10
783.0
 20
355.0
 30
0.0
 11
1154.889
 21
355.0
 31
0.0
  0
LINE
  5
D9
  8
SIZE
  6
CONTINUOUS
 62
    30
 10
1124.889
 20
353.0
 30
0.0
 11
1124.889
 21
351.0
 31
0.0
  0
LINE
  5
DA
  8
SIZE
  6
CONTINUOUS
 62
    30
 10
1124.889
 20
388.0
 30
0.0
 11
1124.889
 21
390.0
 31
0.0
  0
LINE
  5
DB
  8
SIZE
  6
CONTINUOUS
 62
    30
 10
1124.889
 20
355.0
 30
0.0
 11
1124.889
 21
386.0
 31
0.0
  0
TEXT
  5
DC
  8
SIZE
  6
CONTINUOUS
 62
    30
 10
1092.889
 20
336.214286
 30
0.0
 40
64.0
  1
31
 50
90.0
 41
0.9
  0
CIRCLE
  5
DD
  8
SIZE
  6
CONTINUOUS
 62
    30
 10
1124.889
 20
386.0
 30
0.0
 40
6.0
  0
CIRCLE
  5
DE
  8
SIZE
  6
CONTINUOUS
 62
    30
 10
1124.889
 20
355.0
 30
0.0
 40
6.0
  0
CIRCLE
  5
DF
  8
SIZE
  6
CONTINUOUS
 62
    30
 10
963.277325
 20
-419.0
 30
0.0
 40
6.0
  0
CIRCLE
  5
E0
  8
SIZE
  6
CONTINUOUS
 62
    30
 10
963.277325
 20
-459.0
 30
0.0
 40
6.0
  0
CIRCLE
  5
E1
  8
SIZE
  6
CONTINUOUS
 62
    30
 10
963.277325
 20
0.0
 30
0.0
 40
6.0
  0
CIRCLE
  5
E2
  8
SIZE
  6
CONTINUOUS
 62
    30
 10
963.277325
 20
355.0
 30
0.0
 40
6.0
  0
CIRCLE
  5
E3
  8
SIZE
  6
CONTINUOUS
 62
    30
 10
1358.761
 20
-389.0
 30
0.0
 40
6.0
  0
CIRCLE
  5
E4
  8
SIZE
  6
CONTINUOUS
 62
    30
 10
1358.761
 20
-139.0
 30
0.0
 40
6.0
  0
CIRCLE
  5
E5
  8
SIZE
  6
CONTINUOUS
 62
    30
 10
1358.761
 20
-139.0
 30
0.0
 40
6.0
  0
CIRCLE
  5
E6
  8
SIZE
  6
CONTINUOUS
 62
    30
 10
1358.761
 20
461.0
 30
0.0
 40
6.0
  0
CIRCLE
  5
E7
  8
SIZE
  6
CONTINUOUS
 62
    30
 10
1124.889
 20
-355.0
 30
0.0
 40
6.0
  0
CIRCLE
  5
E8
  8
SIZE
  6
CONTINUOUS
 62
    30
 10
1124.889
 20
355.0
 30
0.0
 40
6.0
  0
CIRCLE
  5
E9
  8
SIZE
  6
CONTINUOUS
 62
    30
 10
-755.0
 20
-613.61182
 30
0.0
 40
6.0
  0
CIRCLE
  5
EA
  8
SIZE
  6
CONTINUOUS
 62
    30
 10
-743.0
 20
-613.61182
 30
0.0
 40
6.0
  0
CIRCLE
  5
EB
  8
SIZE
  6
CONTINUOUS
 62
    30
 10
-743.0
 20
-613.61182
 30
0.0
 40
6.0
  0
CIRCLE
  5
EC
  8
SIZE
  6
CONTINUOUS
 62
    30
 10
743.0
 20
-613.61182
 30
0.0
 40
6.0
  0
CIRCLE
  5
ED
  8
SIZE
  6
CONTINUOUS
 62
    30
 10
743.0
 20
-613.61182
 30
0.0
 40
6.0
  0
CIRCLE
  5
EE
  8
SIZE
  6
CONTINUOUS
 62
    30
 10
755.0
 20
-613.61182
 30
0.0
 40
6.0
  0
CIRCLE
  5
EF
  8
SIZE
  6
CONTINUOUS
 62
    30
 10
-795.0
 20
643.284117
 30
0.0
 40
6.0
  0
CIRCLE
  5
F0
  8
SIZE
  6
CONTINUOUS
 62
    30
 10
795.0
 20
643.284117
 30
0.0
 40
6.0
  0
CIRCLE
  5
F1
  8
SIZE
  6
CONTINUOUS
 62
    30
 10
-1073.601
 20
386.0
 30
0.0
 40
6.0
  0
CIRCLE
  5
F2
  8
SIZE
  6
CONTINUOUS
 62
    30
 10
-1073.601
 20
341.0
 30
0.0
 40
6.0
  0
CIRCLE
  5
F3
  8
SIZE
  6
CONTINUOUS
 62
    30
 10
-1223.601
 20
161.0
 30
0.0
 40
6.0
  0
CIRCLE
  5
F4
  8
SIZE
  6
CONTINUOUS
 62
    30
 10
-1223.601
 20
386.0
 30
0.0
 40
6.0
  0
CIRCLE
  5
F5
  8
SIZE
  6
CONTINUOUS
 62
    30
 10
-1373.601
 20
-115.0
 30
0.0
 40
6.0
  0
CIRCLE
  5
F6
  8
SIZE
  6
CONTINUOUS
 62
    30
 10
-1373.601
 20
386.0
 30
0.0
 40
6.0
  0
CIRCLE
  5
F7
  8
SIZE
  6
CONTINUOUS
 62
    30
 10
-1523.601
 20
-204.0
 30
0.0
 40
6.0
  0
CIRCLE
  5
F8
  8
SIZE
  6
CONTINUOUS
 62
    30
 10
-1523.601
 20
386.0
 30
0.0
 40
6.0
  0
CIRCLE
  5
F9
  8
SIZE
  6
CONTINUOUS
 62
    30
 10
-1673.601
 20
-268.0
 30
0.0
 40
6.0
  0
CIRCLE
  5
FA
  8
SIZE
  6
CONTINUOUS
 62
    30
 10
-1673.601
 20
386.0
 30
0.0
 40
6.0
  0
CIRCLE
  5
FB
  8
SIZE
  6
CONTINUOUS
 62
    30
 10
-1823.601
 20
-459.0
 30
0.0
 40
6.0
  0
CIRCLE
  5
FC
  8
SIZE
  6
CONTINUOUS
 62
    30
 10
-1823.601
 20
461.0
 30
0.0
 40
6.0
  0
POLYLINE
  5
FD
  8
NOTE
  6
CONTINUOUS
 62
     4
 66
     1
 10
0.0
 20
0.0
 30
0.0
  0
VERTEX
  5
FE
  8
NOTE
  6
CONTINUOUS
 62
     4
 10
-718.544242
 20
324.538599
 30
0.0
 50
140.6987
  0
VERTEX
  5
FF
  8
NOTE
  6
CONTINUOUS
 62
     4
 10
-755.0
 20
341.0
 30
0.0
 50
140.6987
  0
VERTEX
  5
100
  8
NOTE
  6
CONTINUOUS
 62
     4
 10
-731.659088
 20
308.516129
 30
0.0
 50
140.6987
  0
SEQEND
  5
101
  8
NOTE
  6
CONTINUOUS
 62
     4
  0
POLYLINE
  5
102
  8
NOTE
  6
CONTINUOUS
 62
     4
 66
     1
 10
0.0
 20
0.0
 30
0.0
  0
VERTEX
  5
103
  8
NOTE
  6
CONTINUOUS
 62
     4
 10
-719.045227
 20
143.471328
 30
0.0
 50
139.009839
  0
VERTEX
  5
104
  8
NOTE
  6
CONTINUOUS
 62
     4
 10
-755.0
 20
161.0
 30
0.0
 50
139.009839
  0
VERTEX
  5
105
  8
NOTE
  6
CONTINUOUS
 62
     4
 10
-732.626589
 20
127.842339
 30
0.0
 50
139.009839
  0
SEQEND
  5
106
  8
NOTE
  6
CONTINUOUS
 62
     4
  0
POLYLINE
  5
107
  8
NOTE
  6
CONTINUOUS
 62
     4
 66
     1
 10
0.0
 20
0.0
 30
0.0
  0
VERTEX
  5
108
  8
NOTE
  6
CONTINUOUS
 62
     4
 10
-718.75151
 20
-131.912922
 30
0.0
 50
139.987052
  0
VERTEX
  5
109
  8
NOTE
  6
CONTINUOUS
 62
     4
 10
-755.0
 20
-115.0
 30
0.0
 50
139.987052
  0
VERTEX
  5
10A
  8
NOTE
  6
CONTINUOUS
 62
     4
 10
-732.064348
 20
-147.771266
 30
0.0
 50
139.987052
  0
SEQEND
  5
10B
  8
NOTE
  6
CONTINUOUS
 62
     4
  0
POLYLINE
  5
10C
  8
NOTE
  6
CONTINUOUS
 62
     4
 66
     1
 10
0.0
 20
0.0
 30
0.0
  0
VERTEX
  5
10D
  8
NOTE
  6
CONTINUOUS
 62
     4
 10
-720.87154
 20
-224.862603
 30
0.0
 50
133.562707
  0
VERTEX
  5
10E
  8
NOTE
  6
CONTINUOUS
 62
     4
 10
-755.0
 20
-204.0
 30
0.0
 50
133.562707
  0
VERTEX
  5
10F
  8
NOTE
  6
CONTINUOUS
 62
     4
 10
-735.875188
 20
-239.131774
 30
0.0
 50
133.562707
  0
SEQEND
  5
110
  8
NOTE
  6
CONTINUOUS
 62
     4
  0
POLYLINE
  5
111
  8
NOTE
  6
CONTINUOUS
 62
     4
 66
     1
 10
0.0
 20
0.0
 30
0.0
  0
VERTEX
  5
112
  8
NOTE
  6
CONTINUOUS
 62
     4
 10
-761.652578
 20
-307.442911
 30
0.0
 50
65.426397
  0
VERTEX
  5
113
  8
NOTE
  6
CONTINUOUS
 62
     4
 10
-755.0
 20
-268.0
 30
0.0
 50
65.426397
  0
VERTEX
  5
114
  8
NOTE
  6
CONTINUOUS
 62
     4
 10
-780.482757
 20
-298.832273
 30
0.0
 50
65.426397
  0
SEQEND
  5
115
  8
NOTE
  6
CONTINUOUS
 62
     4
  0
ENDSEC
  0
EOF
