  0
SECTION
  2
HEADER
  9
$ACADVER
  1
AC1009
  9
$INSBASE
 10
0.0
 20
0.0
 30
0.0
  9
$EXTMIN
 10
-1540.977854
 20
-476.791907
 30
-0.001526
  9
$EXTMAX
 10
1692.562466
 20
1264.39146
 30
0.0
  9
$LIMMIN
 10
-4267.152221
 20
-2696.08321
  9
$LIMMAX
 10
7190.717423
 20
5141.155364
  9
$ORTHOMODE
 70
     0
  9
$REGENMODE
 70
     1
  9
$FILLMODE
 70
     1
  9
$QTEXTMODE
 70
     0
  9
$MIRRTEXT
 70
     0
  9
$DRAGMODE
 70
     2
  9
$LTSCALE
 40
20.0
  9
$OSMODE
 70
    37
  9
$ATTMODE
 70
     1
  9
$TEXTSIZE
 40
64.0
  9
$TRACEWID
 40
0.05
  9
$TEXTSTYLE
  7
STANDARD1
  9
$CLAYER
  8
NOTE
  9
$CELTYPE
  6
CONTINUOUS
  9
$CECOLOR
 62
     7
  9
$DIMSCALE
 40
1.0
  9
$DIMASZ
 40
30.0
  9
$DIMEXO
 40
15.0
  9
$DIMDLI
 40
80.0
  9
$DIMRND
 40
0.0
  9
$DIMDLE
 40
0.0
  9
$DIMEXE
 40
15.0
  9
$DIMTP
 40
0.0
  9
$DIMTM
 40
0.0
  9
$DIMTXT
 40
50.0
  9
$DIMCEN
 40
0.09
  9
$DIMTSZ
 40
0.0
  9
$DIMTOL
 70
     0
  9
$DIMLIM
 70
     0
  9
$DIMTIH
 70
     0
  9
$DIMTOH
 70
     0
  9
$DIMSE1
 70
     0
  9
$DIMSE2
 70
     0
  9
$DIMTAD
 70
     1
  9
$DIMZIN
 70
     8
  9
$DIMBLK
  1
_SMALL
  9
$DIMASO
 70
     1
  9
$DIMSHO
 70
     0
  9
$DIMPOST
  1

  9
$DIMAPOST
  1

  9
$DIMALT
 70
     0
  9
$DIMALTD
 70
     2
  9
$DIMALTF
 40
25.4
  9
$DIMLFAC
 40
1.0
  9
$DIMTOFL
 70
     1
  9
$DIMTVP
 40
0.0
  9
$DIMTIX
 70
     0
  9
$DIMSOXD
 70
     0
  9
$DIMSAH
 70
     0
  9
$DIMBLK1
  1

  9
$DIMBLK2
  1

  9
$DIMSTYLE
  2
STANDARD
  9
$DIMCLRD
 70
     0
  9
$DIMCLRE
 70
     0
  9
$DIMCLRT
 70
     0
  9
$DIMTFAC
 40
1.0
  9
$DIMGAP
 40
0.09
  9
$LUNITS
 70
     2
  9
$LUPREC
 70
     4
  9
$SKETCHINC
 40
0.1
  9
$FILLETRAD
 40
0.8
  9
$AUNITS
 70
     1
  9
$AUPREC
 70
     3
  9
$MENU
  1
ACAD
  9
$ELEVATION
 40
0.0
  9
$PELEVATION
 40
0.0
  9
$THICKNESS
 40
0.0
  9
$LIMCHECK
 70
     0
  9
$BLIPMODE
 70
     0
  9
$CHAMFERA
 40
0.0
  9
$CHAMFERB
 40
0.0
  9
$SKPOLY
 70
     0
  9
$TDCREATE
 40
2450330.439931
  9
$TDUPDATE
 40
2454645.623329
  9
$TDINDWG
 40
4.12993
  9
$TDUSRTIMER
 40
4.12993
  9
$USRTIMER
 70
     1
  9
$ANGBASE
 50
0.0
  9
$ANGDIR
 70
     0
  9
$PDMODE
 70
     3
  9
$PDSIZE
 40
-2.0
  9
$PLINEWID
 40
0.0
  9
$COORDS
 70
     0
  9
$SPLFRAME
 70
     0
  9
$SPLINETYPE
 70
     6
  9
$SPLINESEGS
 70
     8
  9
$ATTDIA
 70
     0
  9
$ATTREQ
 70
     1
  9
$HANDLING
 70
     1
  9
$HANDSEED
  5
272
  9
$SURFTAB1
 70
     6
  9
$SURFTAB2
 70
     6
  9
$SURFTYPE
 70
     6
  9
$SURFU
 70
     6
  9
$SURFV
 70
     6
  9
$UCSNAME
  2

  9
$UCSORG
 10
0.0
 20
0.0
 30
0.0
  9
$UCSXDIR
 10
1.0
 20
0.0
 30
0.0
  9
$UCSYDIR
 10
0.0
 20
1.0
 30
0.0
  9
$PUCSNAME
  2

  9
$PUCSORG
 10
0.0
 20
0.0
 30
0.0
  9
$PUCSXDIR
 10
1.0
 20
0.0
 30
0.0
  9
$PUCSYDIR
 10
0.0
 20
1.0
 30
0.0
  9
$USERI1
 70
     0
  9
$USERI2
 70
     0
  9
$USERI3
 70
     0
  9
$USERI4
 70
     0
  9
$USERI5
 70
     0
  9
$USERR1
 40
20.0
  9
$USERR2
 40
0.0
  9
$USERR3
 40
0.0
  9
$USERR4
 40
0.0
  9
$USERR5
 40
0.0
  9
$WORLDVIEW
 70
     1
  9
$SHADEDGE
 70
     3
  9
$SHADEDIF
 70
    70
  9
$TILEMODE
 70
     1
  9
$MAXACTVP
 70
    48
  9
$PLIMCHECK
 70
     0
  9
$PEXTMIN
 10
1.000000E+020
 20
1.000000E+020
 30
1.000000E+020
  9
$PEXTMAX
 10
-1.000000E+020
 20
-1.000000E+020
 30
-1.000000E+020
  9
$PLIMMIN
 10
0.0
 20
0.0
  9
$PLIMMAX
 10
12.0
 20
9.0
  9
$UNITMODE
 70
     0
  9
$VISRETAIN
 70
     1
  9
$PLINEGEN
 70
     0
  9
$PSLTSCALE
 70
     1
  0
ENDSEC
  0
SECTION
  2
TABLES
  0
TABLE
  2
VPORT
 70
     2
  0
VPORT
  2
*ACTIVE
 70
     0
 10
0.0
 20
0.0
 11
1.0
 21
1.0
 12
1829.622071
 22
1222.536077
 13
0.0
 23
0.0
 14
50.0
 24
50.0
 15
100.0
 25
100.0
 16
0.0
 26
0.0
 36
1.0
 17
0.0
 27
0.0
 37
0.0
 40
7837.238574
 41
1.555848
 42
50.0
 43
0.0
 44
0.0
 50
0.0
 51
0.0
 71
     0
 72
  1000
 73
     1
 74
     0
 75
     0
 76
     0
 77
     0
 78
     0
  0
ENDTAB
  0
TABLE
  2
LTYPE
 70
     2
  0
LTYPE
  2
CONTINUOUS
 70
     0
  3
実線
 72
    65
 73
     0
 40
0.0
  0
LTYPE
  2
DASHDOT
 70
     0
  3
____ _ ____ _ ____ _ ____ _ ____ _ ____ _ ____
 72
    65
 73
     4
 40
5.5
 49
4.0
 49
-0.6
 49
0.3
 49
-0.6
  0
ENDTAB
  0
TABLE
  2
LAYER
 70
    12
  0
LAYER
  2
0
 70
     0
 62
     7
  6
CONTINUOUS
  0
LAYER
  2
NOTE
 70
     0
 62
     4
  6
CONTINUOUS
  0
LAYER
  2
OUTLINE
 70
     0
 62
     3
  6
CONTINUOUS
  0
LAYER
  2
DETAIL
 70
     0
 62
     5
  6
CONTINUOUS
  0
LAYER
  2
BASIS
 70
     0
 62
     6
  6
DASHDOT
  0
LAYER
  2
SIZE
 70
     0
 62
    30
  6
CONTINUOUS
  0
LAYER
  2
ARRANGE
 70
     0
 62
     1
  6
CONTINUOUS
  0
LAYER
  2
FIX
 70
     0
 62
    11
  6
CONTINUOUS
  0
LAYER
  2
SERVICESPACE
 70
     0
 62
     2
  6
DASHDOT
  0
LAYER
  2
ETC
 70
     0
 62
    61
  6
CONTINUOUS
  0
LAYER
  2
SYMBOLLINE
 70
     0
 62
    15
  6
CONTINUOUS
  0
LAYER
  2
DEFPOINTS
 70
     0
 62
     7
  6
CONTINUOUS
  0
ENDTAB
  0
TABLE
  2
STYLE
 70
     3
  0
STYLE
  2
STANDARD
 70
     0
 40
0.0
 41
0.9
 50
0.0
 71
     0
 42
64.0
  3
SIMPLEX
  4
BIGFONT
  0
STYLE
  2
STANDARD1
 70
     0
 40
0.0
 41
1.0
 50
0.0
 71
     0
 42
64.0
  3
MONOTXT
  4
BIGFONT
  0
STYLE
  2

 70
     1
 40
0.0
 41
1.0
 50
0.0
 71
     0
 42
64.0
  3
ltypeshp.shx
  4

  0
ENDTAB
  0
TABLE
  2
VIEW
 70
     1
  0
VIEW
  2
ALL
 70
     0
 40
9000.0
 10
241.506647
 20
0.0
 41
12483.01
 11
0.0
 21
0.0
 31
1.0
 12
0.0
 22
0.0
 32
0.0
 42
50.0
 43
0.0
 44
0.0
 50
0.0
 71
     0
  0
ENDTAB
  0
TABLE
  2
UCS
 70
     0
  0
ENDTAB
  0
TABLE
  2
APPID
 70
     1
  0
APPID
  2
ACAD
 70
     0
  0
ENDTAB
  0
TABLE
  2
DIMSTYLE
 70
     1
  0
DIMSTYLE
  2
STANDARD
 70
     0
  3

  4

  5

  6

  7

 40
1.0
 41
0.18
 42
0.0625
 43
0.38
 44
0.18
 45
0.0
 46
0.0
 47
0.0
 48
0.0
140
0.18
141
0.09
142
0.0
143
25.4
144
1.0
145
0.0
146
1.0
147
0.09
 71
     0
 72
     0
 73
     1
 74
     1
 75
     0
 76
     0
 77
     0
 78
     0
170
     0
171
     2
172
     0
173
     0
174
     0
175
     0
176
     0
177
     0
178
     0
  0
ENDTAB
  0
ENDSEC
  0
SECTION
  2
BLOCKS
  0
BLOCK
  8
0
  2
$MODEL_SPACE
 70
     0
 10
0.0
 20
0.0
 30
0.0
  3
$MODEL_SPACE
  1

  0
ENDBLK
  5
1A
  8
0
  0
BLOCK
 67
     1
  8
0
  2
$PAPER_SPACE
 70
     0
 10
0.0
 20
0.0
 30
0.0
  3
$PAPER_SPACE
  1

  0
ENDBLK
  5
17
 67
     1
  8
0
  0
BLOCK
  8
0
  2
_SMALL
 70
     0
 10
0.0
 20
0.0
 30
0.0
  3
_SMALL
  1

  0
CIRCLE
  5
34
  8
0
  6
CONTINUOUS
 62
     7
 10
0.0
 20
0.0
 30
0.0
 40
0.25
  0
ENDBLK
  5
35
  8
0
  0
ENDSEC
  0
SECTION
  2
ENTITIES
  0
LINE
  5
37
  8
DETAIL
  6
CONTINUOUS
 62
     5
 10
580.0
 20
140.0
 30
0.0
 11
-580.0
 21
140.0
 31
0.0
  0
LINE
  5
39
  8
NOTE
  6
CONTINUOUS
 62
     4
 10
640.002089
 20
261.0
 30
0.0
 11
597.997911
 21
261.0
 31
0.0
  0
LINE
  5
3A
  8
NOTE
  6
CONTINUOUS
 62
     4
 10
642.661335
 20
233.0
 30
0.0
 11
589.338665
 21
233.0
 31
0.0
  0
ARC
  5
3B
  8
DETAIL
  6
CONTINUOUS
 62
     5
 10
-591.699485
 20
428.699485
 30
0.0
 40
4.300515
 50
90.0
 51
180.0
  0
LINE
  5
3C
  8
DETAIL
  6
CONTINUOUS
 62
     5
 10
-596.0
 20
428.699485
 30
0.0
 11
-596.0
 21
420.998563
 31
0.0
  0
LINE
  5
3D
  8
DETAIL
  6
CONTINUOUS
 62
     5
 10
-593.699725
 20
428.699725
 30
0.0
 11
-593.699725
 21
420.998563
 31
0.0
  0
LINE
  5
3E
  8
DETAIL
  6
CONTINUOUS
 62
     5
 10
-593.699725
 20
420.998563
 30
0.0
 11
-596.0
 21
420.998563
 31
0.0
  0
LINE
  5
3F
  8
DETAIL
  6
CONTINUOUS
 62
     5
 10
-580.0
 20
433.0
 30
0.0
 11
-591.699485
 21
433.0
 31
0.0
  0
LINE
  5
40
  8
DETAIL
  6
CONTINUOUS
 62
     5
 10
-580.0
 20
430.699725
 30
0.0
 11
-591.699725
 21
430.699725
 31
0.0
  0
ARC
  5
41
  8
DETAIL
  6
CONTINUOUS
 62
     5
 10
591.699485
 20
428.699485
 30
0.0
 40
4.300515
 50
0.0
 51
90.0
  0
LINE
  5
42
  8
DETAIL
  6
CONTINUOUS
 62
     5
 10
596.0
 20
428.699485
 30
0.0
 11
596.0
 21
420.998563
 31
0.0
  0
LINE
  5
43
  8
DETAIL
  6
CONTINUOUS
 62
     5
 10
593.699725
 20
428.699725
 30
0.0
 11
593.699725
 21
420.998563
 31
0.0
  0
LINE
  5
44
  8
DETAIL
  6
CONTINUOUS
 62
     5
 10
593.699725
 20
420.998563
 30
0.0
 11
596.0
 21
420.998563
 31
0.0
  0
LINE
  5
45
  8
DETAIL
  6
CONTINUOUS
 62
     5
 10
580.0
 20
433.0
 30
0.0
 11
591.699485
 21
433.0
 31
0.0
  0
LINE
  5
46
  8
DETAIL
  6
CONTINUOUS
 62
     5
 10
580.0
 20
430.699725
 30
0.0
 11
591.699725
 21
430.699725
 31
0.0
  0
LINE
  5
47
  8
DETAIL
  6
CONTINUOUS
 62
     5
 10
-580.0
 20
433.0
 30
0.0
 11
-580.0
 21
132.0
 31
0.0
  0
LINE
  5
48
  8
DETAIL
  6
CONTINUOUS
 62
     5
 10
580.0
 20
433.0
 30
0.0
 11
580.0
 21
132.0
 31
0.0
  0
LINE
  5
49
  8
NOTE
  6
CONTINUOUS
 62
     4
 10
-573.0
 20
412.997605
 30
0.0
 11
-573.0
 21
453.002395
 31
0.0
  0
LINE
  5
4A
  8
NOTE
  6
CONTINUOUS
 62
     4
 10
573.0
 20
412.997605
 30
0.0
 11
573.0
 21
453.002395
 31
0.0
  0
LINE
  5
4B
  8
DETAIL
  6
CONTINUOUS
 62
     5
 10
580.0
 20
433.0
 30
0.0
 11
-580.0
 21
433.0
 31
0.0
  0
LINE
  5
4C
  8
BASIS
  6
DASHDOT
 62
     6
 10
0.0
 20
-58.000958
 30
0.0
 11
0.0
 21
504.568065
 31
0.0
  0
TEXT
  5
4D
  8
ETC
  6
CONTINUOUS
 62
    61
 10
-1099.829982
 20
1199.104491
 30
0.0
 40
65.0
  1
MPD-RP71_80FA3(F-BOX)_3
 50
359.999997
 41
0.85
  7
STANDARD1
  0
LINE
  5
4E
  8
ARRANGE
  6
CONTINUOUS
 62
     1
 10
49.963763
 20
49.596595
 30
0.0
 11
-49.963763
 21
-49.596595
 31
0.0
  0
CIRCLE
  5
4F
  8
ARRANGE
  6
CONTINUOUS
 62
     1
 10
0.0
 20
0.0
 30
0.0
 40
50.0
  0
LINE
  5
50
  8
ARRANGE
  6
CONTINUOUS
 62
     1
 10
50.03735
 20
-49.522353
 30
0.0
 11
-50.03735
 21
49.522353
 31
0.0
  0
CIRCLE
  5
51
  8
FIX
  6
CONTINUOUS
 62
    11
 10
573.0
 20
433.0
 30
0.0
 40
18.598564
  0
LINE
  5
52
  8
NOTE
  6
CONTINUOUS
 62
     4
 10
593.000958
 20
433.0
 30
0.0
 11
552.999042
 21
433.0
 31
0.0
  0
CIRCLE
  5
53
  8
FIX
  6
CONTINUOUS
 62
    11
 10
-573.0
 20
433.0
 30
0.0
 40
18.598564
  0
LINE
  5
54
  8
NOTE
  6
CONTINUOUS
 62
     4
 10
-552.999042
 20
433.0
 30
0.0
 11
-593.000958
 21
433.0
 31
0.0
  0
ARC
  5
55
  8
DETAIL
  6
CONTINUOUS
 62
     5
 10
591.699725
 20
428.699725
 30
0.0
 40
2.0
 50
0.0
 51
90.0
  0
ARC
  5
56
  8
DETAIL
  6
CONTINUOUS
 62
     5
 10
-591.699725
 20
428.699725
 30
0.0
 40
2.0
 50
90.0
 51
180.0
  0
LINE
  5
57
  8
SIZE
  6
CONTINUOUS
 62
    30
 10
-596.0
 20
443.699485
 30
0.0
 11
-596.0
 21
914.488623
 31
0.0
  0
LINE
  5
58
  8
SIZE
  6
CONTINUOUS
 62
    30
 10
-573.0
 20
468.002395
 30
0.0
 11
-573.0
 21
914.488623
 31
0.0
  0
LINE
  5
59
  8
SIZE
  6
CONTINUOUS
 62
    30
 10
-573.0
 20
899.488623
 30
0.0
 11
-543.0
 21
899.488623
 31
0.0
  0
LINE
  5
5A
  8
SIZE
  6
CONTINUOUS
 62
    30
 10
-596.0
 20
899.488623
 30
0.0
 11
-758.857143
 21
899.488623
 31
0.0
  0
LINE
  5
5B
  8
SIZE
  6
CONTINUOUS
 62
    30
 10
-573.0
 20
899.488623
 30
0.0
 11
-596.0
 21
899.488623
 31
0.0
  0
CIRCLE
  5
5C
  8
SIZE
  6
CONTINUOUS
 62
    30
 10
-573.0
 20
899.488623
 30
0.0
 40
7.5
  0
CIRCLE
  5
5D
  8
SIZE
  6
CONTINUOUS
 62
    30
 10
-596.0
 20
899.488623
 30
0.0
 40
7.5
  0
TEXT
  5
5E
  8
SIZE
  6
CONTINUOUS
 62
    30
 10
-743.857143
 20
914.488623
 30
0.0
 40
50.0
  1
23
 41
0.9
 72
     1
 11
-707.428571
 21
914.488623
 31
0.0
  0
POINT
  5
5F
  8
DEFPOINTS
  6
CONTINUOUS
 62
     7
 10
-596.0
 20
428.699485
 30
0.0
  0
POINT
  5
60
  8
DEFPOINTS
  6
CONTINUOUS
 62
     7
 10
-573.0
 20
453.002395
 30
0.0
  0
POINT
  5
61
  8
DEFPOINTS
  6
CONTINUOUS
 62
     7
 10
-573.0
 20
899.488623
 30
0.0
  0
LINE
  5
62
  8
SIZE
  6
CONTINUOUS
 62
    30
 10
-573.0
 20
448.0
 30
0.0
 11
-573.0
 21
914.488623
 31
0.0
  0
LINE
  5
63
  8
SIZE
  6
CONTINUOUS
 62
    30
 10
573.0
 20
468.002395
 30
0.0
 11
573.0
 21
914.488623
 31
0.0
  0
LINE
  5
64
  8
SIZE
  6
CONTINUOUS
 62
    30
 10
-573.0
 20
899.488623
 30
0.0
 11
573.0
 21
899.488623
 31
0.0
  0
CIRCLE
  5
65
  8
SIZE
  6
CONTINUOUS
 62
    30
 10
-573.0
 20
899.488623
 30
0.0
 40
7.5
  0
CIRCLE
  5
66
  8
SIZE
  6
CONTINUOUS
 62
    30
 10
573.0
 20
899.488623
 30
0.0
 40
7.5
  0
TEXT
  5
67
  8
SIZE
  6
CONTINUOUS
 62
    30
 10
-315.642857
 20
927.583861
 30
0.0
 40
50.0
  1
1146(吊りボルトピッチ)
 41
0.9
 72
     1
 11
0.0
 21
927.583861
 31
0.0
  0
POINT
  5
68
  8
DEFPOINTS
  6
CONTINUOUS
 62
     7
 10
-573.0
 20
433.0
 30
0.0
  0
POINT
  5
69
  8
DEFPOINTS
  6
CONTINUOUS
 62
     7
 10
573.0
 20
453.002395
 30
0.0
  0
POINT
  5
6A
  8
DEFPOINTS
  6
CONTINUOUS
 62
     7
 10
573.0
 20
899.488623
 30
0.0
  0
LINE
  5
6B
  8
SIZE
  6
CONTINUOUS
 62
    30
 10
573.0
 20
473.002395
 30
0.0
 11
573.0
 21
914.488623
 31
0.0
  0
LINE
  5
6C
  8
SIZE
  6
CONTINUOUS
 62
    30
 10
596.0
 20
443.699485
 30
0.0
 11
596.0
 21
914.488623
 31
0.0
  0
LINE
  5
6D
  8
SIZE
  6
CONTINUOUS
 62
    30
 10
573.0
 20
899.488623
 30
0.0
 11
543.0
 21
899.488623
 31
0.0
  0
LINE
  5
6E
  8
SIZE
  6
CONTINUOUS
 62
    30
 10
596.0
 20
899.488623
 30
0.0
 11
758.857143
 21
899.488623
 31
0.0
  0
LINE
  5
6F
  8
SIZE
  6
CONTINUOUS
 62
    30
 10
573.0
 20
899.488623
 30
0.0
 11
596.0
 21
899.488623
 31
0.0
  0
CIRCLE
  5
70
  8
SIZE
  6
CONTINUOUS
 62
    30
 10
573.0
 20
899.488623
 30
0.0
 40
7.5
  0
CIRCLE
  5
71
  8
SIZE
  6
CONTINUOUS
 62
    30
 10
596.0
 20
899.488623
 30
0.0
 40
7.5
  0
TEXT
  5
72
  8
SIZE
  6
CONTINUOUS
 62
    30
 10
671.0
 20
914.488623
 30
0.0
 40
50.0
  1
23
 41
0.9
 72
     1
 11
707.428571
 21
914.488623
 31
0.0
  0
POINT
  5
73
  8
DEFPOINTS
  6
CONTINUOUS
 62
     7
 10
573.0
 20
458.002395
 30
0.0
  0
POINT
  5
74
  8
DEFPOINTS
  6
CONTINUOUS
 62
     7
 10
596.0
 20
428.699485
 30
0.0
  0
POINT
  5
75
  8
DEFPOINTS
  6
CONTINUOUS
 62
     7
 10
596.0
 20
899.488623
 30
0.0
  0
LINE
  5
76
  8
SIZE
  6
CONTINUOUS
 62
    30
 10
596.0
 20
448.699485
 30
0.0
 11
596.0
 21
1044.862027
 31
0.0
  0
LINE
  5
77
  8
SIZE
  6
CONTINUOUS
 62
    30
 10
-596.0
 20
443.699485
 30
0.0
 11
-596.0
 21
1044.862027
 31
0.0
  0
LINE
  5
78
  8
SIZE
  6
CONTINUOUS
 62
    30
 10
596.0
 20
1029.862027
 30
0.0
 11
-596.0
 21
1029.862027
 31
0.0
  0
CIRCLE
  5
79
  8
SIZE
  6
CONTINUOUS
 62
    30
 10
596.0
 20
1029.862027
 30
0.0
 40
7.5
  0
CIRCLE
  5
7A
  8
SIZE
  6
CONTINUOUS
 62
    30
 10
-596.0
 20
1029.862027
 30
0.0
 40
7.5
  0
TEXT
  5
7B
  8
SIZE
  6
CONTINUOUS
 62
    30
 10
-70.714286
 20
1044.862027
 30
0.0
 40
50.0
  1
1192
 41
0.9
 72
     1
 11
0.0
 21
1044.862027
 31
0.0
  0
POINT
  5
7C
  8
DEFPOINTS
  6
CONTINUOUS
 62
     7
 10
596.0
 20
433.699485
 30
0.0
  0
POINT
  5
7D
  8
DEFPOINTS
  6
CONTINUOUS
 62
     7
 10
-596.0
 20
428.699485
 30
0.0
  0
POINT
  5
7E
  8
DEFPOINTS
  6
CONTINUOUS
 62
     7
 10
-596.0
 20
1029.862027
 30
0.0
  0
LINE
  5
7F
  8
SIZE
  6
CONTINUOUS
 62
    30
 10
-580.0
 20
448.0
 30
0.0
 11
-580.0
 21
802.981979
 31
0.0
  0
LINE
  5
80
  8
SIZE
  6
CONTINUOUS
 62
    30
 10
-596.0
 20
438.699485
 30
0.0
 11
-596.0
 21
802.981979
 31
0.0
  0
LINE
  5
81
  8
SIZE
  6
CONTINUOUS
 62
    30
 10
-580.0
 20
787.981979
 30
0.0
 11
-550.0
 21
787.981979
 31
0.0
  0
LINE
  5
82
  8
SIZE
  6
CONTINUOUS
 62
    30
 10
-596.0
 20
787.981979
 30
0.0
 11
-748.142857
 21
787.981979
 31
0.0
  0
LINE
  5
83
  8
SIZE
  6
CONTINUOUS
 62
    30
 10
-580.0
 20
787.981979
 30
0.0
 11
-596.0
 21
787.981979
 31
0.0
  0
CIRCLE
  5
84
  8
SIZE
  6
CONTINUOUS
 62
    30
 10
-580.0
 20
787.981979
 30
0.0
 40
7.5
  0
CIRCLE
  5
85
  8
SIZE
  6
CONTINUOUS
 62
    30
 10
-596.0
 20
787.981979
 30
0.0
 40
7.5
  0
TEXT
  5
86
  8
SIZE
  6
CONTINUOUS
 62
    30
 10
-733.142857
 20
802.981979
 30
0.0
 40
50.0
  1
16
 41
0.9
 72
     1
 11
-702.071429
 21
802.981979
 31
0.0
  0
POINT
  5
87
  8
DEFPOINTS
  6
CONTINUOUS
 62
     7
 10
-580.0
 20
433.0
 30
0.0
  0
POINT
  5
88
  8
DEFPOINTS
  6
CONTINUOUS
 62
     7
 10
-596.0
 20
423.699485
 30
0.0
  0
POINT
  5
89
  8
DEFPOINTS
  6
CONTINUOUS
 62
     7
 10
-596.0
 20
787.981979
 30
0.0
  0
LINE
  5
8A
  8
SIZE
  6
CONTINUOUS
 62
    30
 10
-580.0
 20
448.0
 30
0.0
 11
-580.0
 21
802.981979
 31
0.0
  0
LINE
  5
8B
  8
SIZE
  6
CONTINUOUS
 62
    30
 10
580.0
 20
448.0
 30
0.0
 11
580.0
 21
802.981979
 31
0.0
  0
LINE
  5
8C
  8
SIZE
  6
CONTINUOUS
 62
    30
 10
-580.0
 20
787.981979
 30
0.0
 11
580.0
 21
787.981979
 31
0.0
  0
CIRCLE
  5
8D
  8
SIZE
  6
CONTINUOUS
 62
    30
 10
-580.0
 20
787.981979
 30
0.0
 40
7.5
  0
CIRCLE
  5
8E
  8
SIZE
  6
CONTINUOUS
 62
    30
 10
580.0
 20
787.981979
 30
0.0
 40
7.5
  0
TEXT
  5
8F
  8
SIZE
  6
CONTINUOUS
 62
    30
 10
-238.054682
 20
802.981979
 30
0.0
 40
50.0
  1
1160（ダクト外寸）
 41
0.9
 72
     1
 11
10.088176
 21
802.981979
 31
0.0
  0
POINT
  5
90
  8
DEFPOINTS
  6
CONTINUOUS
 62
     7
 10
-580.0
 20
433.0
 30
0.0
  0
POINT
  5
91
  8
DEFPOINTS
  6
CONTINUOUS
 62
     7
 10
580.0
 20
433.0
 30
0.0
  0
POINT
  5
92
  8
DEFPOINTS
  6
CONTINUOUS
 62
     7
 10
580.0
 20
787.981979
 30
0.0
  0
LINE
  5
93
  8
SIZE
  6
CONTINUOUS
 62
    30
 10
580.0
 20
448.0
 30
0.0
 11
580.0
 21
802.981979
 31
0.0
  0
LINE
  5
94
  8
SIZE
  6
CONTINUOUS
 62
    30
 10
596.0
 20
438.699485
 30
0.0
 11
596.0
 21
802.981979
 31
0.0
  0
LINE
  5
95
  8
SIZE
  6
CONTINUOUS
 62
    30
 10
580.0
 20
787.981979
 30
0.0
 11
550.0
 21
787.981979
 31
0.0
  0
LINE
  5
96
  8
SIZE
  6
CONTINUOUS
 62
    30
 10
596.0
 20
787.981979
 30
0.0
 11
748.142857
 21
787.981979
 31
0.0
  0
LINE
  5
97
  8
SIZE
  6
CONTINUOUS
 62
    30
 10
580.0
 20
787.981979
 30
0.0
 11
596.0
 21
787.981979
 31
0.0
  0
CIRCLE
  5
98
  8
SIZE
  6
CONTINUOUS
 62
    30
 10
580.0
 20
787.981979
 30
0.0
 40
7.5
  0
CIRCLE
  5
99
  8
SIZE
  6
CONTINUOUS
 62
    30
 10
596.0
 20
787.981979
 30
0.0
 40
7.5
  0
TEXT
  5
9A
  8
SIZE
  6
CONTINUOUS
 62
    30
 10
671.0
 20
802.981979
 30
0.0
 40
50.0
  1
16
 41
0.9
 72
     1
 11
702.071429
 21
802.981979
 31
0.0
  0
POINT
  5
9B
  8
DEFPOINTS
  6
CONTINUOUS
 62
     7
 10
580.0
 20
433.0
 30
0.0
  0
POINT
  5
9C
  8
DEFPOINTS
  6
CONTINUOUS
 62
     7
 10
596.0
 20
423.699485
 30
0.0
  0
POINT
  5
9D
  8
DEFPOINTS
  6
CONTINUOUS
 62
     7
 10
596.0
 20
787.981979
 30
0.0
  0
LINE
  5
9E
  8
SIZE
  6
CONTINUOUS
 62
    30
 10
595.0
 20
433.0
 30
0.0
 11
974.639462
 21
433.0
 31
0.0
  0
LINE
  5
9F
  8
SIZE
  6
CONTINUOUS
 62
    30
 10
655.002089
 20
261.0
 30
0.0
 11
974.639462
 21
261.0
 31
0.0
  0
LINE
  5
A0
  8
SIZE
  6
CONTINUOUS
 62
    30
 10
959.639462
 20
433.0
 30
0.0
 11
959.639462
 21
261.0
 31
0.0
  0
CIRCLE
  5
A1
  8
SIZE
  6
CONTINUOUS
 62
    30
 10
959.639462
 20
433.0
 30
0.0
 40
7.5
  0
CIRCLE
  5
A2
  8
SIZE
  6
CONTINUOUS
 62
    30
 10
959.639462
 20
261.0
 30
0.0
 40
7.5
  0
TEXT
  5
A3
  8
SIZE
  6
CONTINUOUS
 62
    30
 10
944.639462
 20
304.762725
 30
0.0
 40
50.0
  1
172
 50
90.0
 41
0.9
 72
     1
 11
944.639462
 21
358.334154
 31
0.0
  0
POINT
  5
A4
  8
DEFPOINTS
  6
CONTINUOUS
 62
     7
 10
580.0
 20
433.0
 30
0.0
  0
POINT
  5
A5
  8
DEFPOINTS
  6
CONTINUOUS
 62
     7
 10
640.002089
 20
261.0
 30
0.0
  0
POINT
  5
A6
  8
DEFPOINTS
  6
CONTINUOUS
 62
     7
 10
959.639462
 20
261.0
 30
0.0
  0
LINE
  5
A7
  8
SIZE
  6
CONTINUOUS
 62
    30
 10
655.002089
 20
261.0
 30
0.0
 11
974.639462
 21
261.0
 31
0.0
  0
LINE
  5
A8
  8
SIZE
  6
CONTINUOUS
 62
    30
 10
657.661335
 20
233.0
 30
0.0
 11
974.639462
 21
233.0
 31
0.0
  0
LINE
  5
A9
  8
SIZE
  6
CONTINUOUS
 62
    30
 10
959.639462
 20
261.0
 30
0.0
 11
959.639462
 21
291.0
 31
0.0
  0
LINE
  5
AA
  8
SIZE
  6
CONTINUOUS
 62
    30
 10
959.639462
 20
233.0
 30
0.0
 11
959.639462
 21
37.755768
 31
0.0
  0
LINE
  5
AB
  8
SIZE
  6
CONTINUOUS
 62
    30
 10
959.639462
 20
261.0
 30
0.0
 11
959.639462
 21
233.0
 31
0.0
  0
CIRCLE
  5
AC
  8
SIZE
  6
CONTINUOUS
 62
    30
 10
959.639462
 20
261.0
 30
0.0
 40
7.5
  0
CIRCLE
  5
AD
  8
SIZE
  6
CONTINUOUS
 62
    30
 10
959.639462
 20
233.0
 30
0.0
 40
7.5
  0
TEXT
  5
AE
  8
SIZE
  6
CONTINUOUS
 62
    30
 10
944.639462
 20
52.755768
 30
0.0
 40
50.0
  1
28
 50
90.0
 41
0.9
 72
     1
 11
944.639462
 21
89.184339
 31
0.0
  0
POINT
  5
AF
  8
DEFPOINTS
  6
CONTINUOUS
 62
     7
 10
640.002089
 20
261.0
 30
0.0
  0
POINT
  5
B0
  8
DEFPOINTS
  6
CONTINUOUS
 62
     7
 10
642.661335
 20
233.0
 30
0.0
  0
POINT
  5
B1
  8
DEFPOINTS
  6
CONTINUOUS
 62
     7
 10
959.639462
 20
233.0
 30
0.0
  0
LINE
  5
B2
  8
SIZE
  6
CONTINUOUS
 62
    30
 10
-595.0
 20
433.0
 30
0.0
 11
-717.95524
 21
433.0
 31
0.0
  0
LINE
  5
B3
  8
SIZE
  6
CONTINUOUS
 62
    30
 10
-615.076405
 20
297.0
 30
0.0
 11
-717.95524
 21
297.0
 31
0.0
  0
LINE
  5
B4
  8
SIZE
  6
CONTINUOUS
 62
    30
 10
-702.95524
 20
297.0
 30
0.0
 11
-702.95524
 21
433.0
 31
0.0
  0
LINE
  5
B5
  8
SIZE
  6
CONTINUOUS
 62
    30
 10
-702.95524
 20
433.0
 30
0.0
 11
-702.95524
 21
598.0
 31
0.0
  0
CIRCLE
  5
B6
  8
SIZE
  6
CONTINUOUS
 62
    30
 10
-702.95524
 20
297.0
 30
0.0
 40
7.5
  0
CIRCLE
  5
B7
  8
SIZE
  6
CONTINUOUS
 62
    30
 10
-702.95524
 20
433.0
 30
0.0
 40
7.5
  0
TEXT
  5
B8
  8
SIZE
  6
CONTINUOUS
 62
    30
 10
-717.95524
 20
478.0
 30
0.0
 40
50.0
  1
136
 50
90.0
 41
0.9
 72
     1
 11
-717.95524
 21
530.5
 31
0.0
  0
POINT
  5
B9
  8
DEFPOINTS
  6
CONTINUOUS
 62
     7
 10
-580.0
 20
433.0
 30
0.0
  0
POINT
  5
BA
  8
DEFPOINTS
  6
CONTINUOUS
 62
     7
 10
-600.076405
 20
297.0
 30
0.0
  0
POINT
  5
BB
  8
DEFPOINTS
  6
CONTINUOUS
 62
     7
 10
-702.95524
 20
297.0
 30
0.0
  0
LINE
  5
BC
  8
NOTE
  6
CONTINUOUS
 62
     4
 10
-559.923595
 20
297.0
 30
0.0
 11
-600.076405
 21
297.0
 31
0.0
  0
LINE
  5
BD
  8
NOTE
  6
CONTINUOUS
 62
     4
 10
-580.0
 20
277.0
 30
0.0
 11
-580.0
 21
317.0
 31
0.0
  0
LINE
  5
BE
  8
SIZE
  6
CONTINUOUS
 62
    30
 10
619.0
 20
296.0
 30
0.0
 11
619.0
 21
692.94072
 31
0.0
  0
LINE
  5
BF
  8
SIZE
  6
CONTINUOUS
 62
    30
 10
580.0
 20
448.0
 30
0.0
 11
580.0
 21
692.94072
 31
0.0
  0
LINE
  5
C0
  8
SIZE
  6
CONTINUOUS
 62
    30
 10
580.0
 20
677.94072
 30
0.0
 11
619.0
 21
677.94072
 31
0.0
  0
LINE
  5
C1
  8
SIZE
  6
CONTINUOUS
 62
    30
 10
619.0
 20
677.94072
 30
0.0
 11
759.597727
 21
677.94072
 31
0.0
  0
CIRCLE
  5
C2
  8
SIZE
  6
CONTINUOUS
 62
    30
 10
580.0
 20
677.94072
 30
0.0
 40
7.5
  0
CIRCLE
  5
C3
  8
SIZE
  6
CONTINUOUS
 62
    30
 10
619.0
 20
677.94072
 30
0.0
 40
7.5
  0
TEXT
  5
C4
  8
SIZE
  6
CONTINUOUS
 62
    30
 10
673.883441
 20
692.94072
 30
0.0
 40
50.0
  1
39
 41
0.9
 72
     1
 11
709.240584
 21
692.94072
 31
0.0
  0
POINT
  5
C5
  8
DEFPOINTS
  6
CONTINUOUS
 62
     7
 10
619.0
 20
281.0
 30
0.0
  0
POINT
  5
C6
  8
DEFPOINTS
  6
CONTINUOUS
 62
     7
 10
580.0
 20
433.0
 30
0.0
  0
POINT
  5
C7
  8
DEFPOINTS
  6
CONTINUOUS
 62
     7
 10
580.0
 20
677.94072
 30
0.0
  0
LINE
  5
C8
  8
SIZE
  6
CONTINUOUS
 62
    30
 10
616.0
 20
268.0
 30
0.0
 11
616.0
 21
577.063511
 31
0.0
  0
LINE
  5
C9
  8
SIZE
  6
CONTINUOUS
 62
    30
 10
580.0
 20
482.0
 30
0.0
 11
580.0
 21
577.063511
 31
0.0
  0
LINE
  5
CA
  8
SIZE
  6
CONTINUOUS
 62
    30
 10
580.0
 20
562.063511
 30
0.0
 11
616.0
 21
562.063511
 31
0.0
  0
LINE
  5
CB
  8
SIZE
  6
CONTINUOUS
 62
    30
 10
616.0
 20
562.063511
 30
0.0
 11
750.230101
 21
562.063511
 31
0.0
  0
CIRCLE
  5
CC
  8
SIZE
  6
CONTINUOUS
 62
    30
 10
580.0
 20
562.063511
 30
0.0
 40
7.5
  0
CIRCLE
  5
CD
  8
SIZE
  6
CONTINUOUS
 62
    30
 10
616.0
 20
562.063511
 30
0.0
 40
7.5
  0
TEXT
  5
CE
  8
SIZE
  6
CONTINUOUS
 62
    30
 10
664.515815
 20
577.063511
 30
0.0
 40
50.0
  1
36
 41
0.9
 72
     1
 11
699.872958
 21
577.063511
 31
0.0
  0
POINT
  5
CF
  8
DEFPOINTS
  6
CONTINUOUS
 62
     7
 10
616.0
 20
253.0
 30
0.0
  0
POINT
  5
D0
  8
DEFPOINTS
  6
CONTINUOUS
 62
     7
 10
580.0
 20
467.0
 30
0.0
  0
POINT
  5
D1
  8
DEFPOINTS
  6
CONTINUOUS
 62
     7
 10
580.0
 20
562.063511
 30
0.0
  0
LINE
  5
D2
  8
NOTE
  6
CONTINUOUS
 62
     4
 10
861.517073
 20
737.952664
 30
0.0
 11
1199.628123
 21
737.952664
 31
0.0
  0
TEXT
  5
D3
  8
NOTE
  6
CONTINUOUS
 62
     4
 10
885.449439
 20
755.592085
 30
0.0
 40
60.0
  1
RL %%C9.52
 50
359.999997
 41
0.7
  7
STANDARD1
  0
LINE
  5
D4
  8
NOTE
  6
CONTINUOUS
 62
     4
 10
870.806215
 20
567.279721
 30
0.0
 11
1244.887077
 21
567.279721
 31
0.0
  0
TEXT
  5
D5
  8
NOTE
  6
CONTINUOUS
 62
     4
 10
883.880057
 20
578.048759
 30
0.0
 40
60.0
  1
RG %%C15.88
 50
359.999997
 41
0.7
  7
STANDARD1
  0
LINE
  5
D6
  8
NOTE
  6
CONTINUOUS
 62
     4
 10
574.5
 20
168.0
 30
0.0
 11
585.5
 21
168.0
 31
0.0
  0
LINE
  5
D7
  8
NOTE
  6
CONTINUOUS
 62
     4
 10
580.0
 20
173.499992
 30
0.0
 11
580.0
 21
162.500008
 31
0.0
  0
LINE
  5
D8
  8
NOTE
  6
CONTINUOUS
 62
     4
 10
94.094161
 20
-113.522424
 30
0.0
 11
534.547239
 21
-113.522424
 31
0.0
  0
TEXT
  5
D9
  8
NOTE
  6
CONTINUOUS
 62
     4
 10
109.671968
 20
-97.695876
 30
0.0
 40
60.0
  1
D2（自然排水口）
 50
359.999997
 41
0.7
  7
STANDARD1
  0
LINE
  5
DA
  8
SIZE
  6
CONTINUOUS
 62
    30
 10
600.5
 20
168.0
 30
0.0
 11
1254.417371
 21
168.0
 31
0.0
  0
LINE
  5
DB
  8
SIZE
  6
CONTINUOUS
 62
    30
 10
595.0
 20
433.0
 30
0.0
 11
1254.417371
 21
433.0
 31
0.0
  0
LINE
  5
DC
  8
SIZE
  6
CONTINUOUS
 62
    30
 10
1239.417371
 20
168.0
 30
0.0
 11
1239.417371
 21
433.0
 31
0.0
  0
CIRCLE
  5
DD
  8
SIZE
  6
CONTINUOUS
 62
    30
 10
1239.417371
 20
168.0
 30
0.0
 40
7.5
  0
CIRCLE
  5
DE
  8
SIZE
  6
CONTINUOUS
 62
    30
 10
1239.417371
 20
433.0
 30
0.0
 40
7.5
  0
TEXT
  5
DF
  8
SIZE
  6
CONTINUOUS
 62
    30
 10
1224.417371
 20
217.981635
 30
0.0
 40
50.0
  1
265
 50
90.0
 41
0.9
 72
     1
 11
1224.417371
 21
275.838778
 31
0.0
  0
POINT
  5
E0
  8
DEFPOINTS
  6
CONTINUOUS
 62
     7
 10
585.5
 20
168.0
 30
0.0
  0
POINT
  5
E1
  8
DEFPOINTS
  6
CONTINUOUS
 62
     7
 10
580.0
 20
433.0
 30
0.0
  0
POINT
  5
E2
  8
DEFPOINTS
  6
CONTINUOUS
 62
     7
 10
1239.417371
 20
433.0
 30
0.0
  0
LINE
  5
E3
  8
SIZE
  6
CONTINUOUS
 62
    30
 10
-595.0
 20
433.0
 30
0.0
 11
-1245.171264
 21
433.0
 31
0.0
  0
LINE
  5
E4
  8
SIZE
  6
CONTINUOUS
 62
    30
 10
-595.0
 20
140.0
 30
0.0
 11
-1245.171264
 21
140.0
 31
0.0
  0
LINE
  5
E5
  8
SIZE
  6
CONTINUOUS
 62
    30
 10
-1230.171264
 20
433.0
 30
0.0
 11
-1230.171264
 21
140.0
 31
0.0
  0
CIRCLE
  5
E6
  8
SIZE
  6
CONTINUOUS
 62
    30
 10
-1230.171264
 20
433.0
 30
0.0
 40
7.5
  0
CIRCLE
  5
E7
  8
SIZE
  6
CONTINUOUS
 62
    30
 10
-1230.171264
 20
140.0
 30
0.0
 40
7.5
  0
TEXT
  5
E8
  8
SIZE
  6
CONTINUOUS
 62
    30
 10
-1245.171264
 20
211.870219
 30
0.0
 40
50.0
  1
293
 50
90.0
 41
0.9
 72
     1
 11
-1245.171264
 21
269.727361
 31
0.0
  0
POINT
  5
E9
  8
DEFPOINTS
  6
CONTINUOUS
 62
     7
 10
-580.0
 20
433.0
 30
0.0
  0
POINT
  5
EA
  8
DEFPOINTS
  6
CONTINUOUS
 62
     7
 10
-580.0
 20
140.0
 30
0.0
  0
POINT
  5
EB
  8
DEFPOINTS
  6
CONTINUOUS
 62
     7
 10
-1230.171264
 20
140.0
 30
0.0
  0
LINE
  5
EC
  8
SIZE
  6
CONTINUOUS
 62
    30
 10
-594.999904
 20
140.0
 30
0.0
 11
-1245.171264
 21
140.0
 31
0.0
  0
LINE
  5
ED
  8
SIZE
  6
CONTINUOUS
 62
    30
 10
-626.999936
 20
0.0
 30
0.0
 11
-1245.171264
 21
0.0
 31
0.0
  0
LINE
  5
EE
  8
SIZE
  6
CONTINUOUS
 62
    30
 10
-1230.171264
 20
140.0
 30
0.0
 11
-1230.171264
 21
0.0
 31
0.0
  0
LINE
  5
EF
  8
SIZE
  6
CONTINUOUS
 62
    30
 10
-1230.171264
 20
0.0
 30
0.0
 11
-1230.171264
 21
-351.428571
 31
0.0
  0
CIRCLE
  5
F0
  8
SIZE
  6
CONTINUOUS
 62
    30
 10
-1230.171264
 20
140.0
 30
0.0
 40
7.5
  0
CIRCLE
  5
F1
  8
SIZE
  6
CONTINUOUS
 62
    30
 10
-1230.171264
 20
0.0
 30
0.0
 40
7.5
  0
TEXT
  5
F2
  8
SIZE
  6
CONTINUOUS
 62
    30
 10
-1245.171264
 20
-336.428571
 30
0.0
 40
50.0
  1
140-300
 50
90.0
 41
0.9
 72
     1
 11
-1245.171264
 21
-190.714286
 31
0.0
  0
POINT
  5
F3
  8
DEFPOINTS
  6
CONTINUOUS
 62
     7
 10
-579.999904
 20
140.0
 30
0.0
  0
POINT
  5
F4
  8
DEFPOINTS
  6
CONTINUOUS
 62
     7
 10
-611.999936
 20
0.0
 30
0.0
  0
POINT
  5
F5
  8
DEFPOINTS
  6
CONTINUOUS
 62
     7
 10
-1230.171264
 20
0.0
 30
0.0
  0
LINE
  5
F6
  8
OUTLINE
  6
CONTINUOUS
 62
     3
 10
580.0
 20
433.0
 30
0.0
 11
-580.0
 21
433.0
 31
0.0
  0
LINE
  5
F7
  8
OUTLINE
  6
CONTINUOUS
 62
     3
 10
580.0
 20
132.0
 30
0.0
 11
-580.0
 21
132.0
 31
0.0
  0
LINE
  5
F8
  8
OUTLINE
  6
CONTINUOUS
 62
     3
 10
580.0
 20
433.0
 30
0.0
 11
580.0
 21
132.0
 31
0.0
  0
LINE
  5
F9
  8
OUTLINE
  6
CONTINUOUS
 62
     3
 10
-580.0
 20
433.0
 30
0.0
 11
-580.0
 21
132.0
 31
0.0
  0
LINE
  5
FA
  8
NOTE
  6
CONTINUOUS
 62
     4
 10
619.0
 20
241.0
 30
0.0
 11
619.0
 21
281.0
 31
0.0
  0
LINE
  5
FB
  8
NOTE
  6
CONTINUOUS
 62
     4
 10
616.0
 20
213.0
 30
0.0
 11
616.0
 21
253.0
 31
0.0
  0
LINE
  5
FC
  8
DETAIL
  6
CONTINUOUS
 62
     5
 10
690.0
 20
170.0
 30
0.0
 11
580.0
 21
170.0
 31
0.0
  0
LINE
  5
FD
  8
DETAIL
  6
CONTINUOUS
 62
     5
 10
690.0
 20
420.0
 30
0.0
 11
580.0
 21
420.0
 31
0.0
  0
LINE
  5
FE
  8
OUTLINE
  6
CONTINUOUS
 62
     3
 10
690.0
 20
420.0
 30
0.0
 11
690.0
 21
170.0
 31
0.0
  0
LINE
  5
FF
  8
DETAIL
  6
CONTINUOUS
 62
     5
 10
690.0
 20
170.0
 30
0.0
 11
690.0
 21
420.0
 31
0.0
  0
LINE
  5
100
  8
OUTLINE
  6
CONTINUOUS
 62
     3
 10
690.0
 20
420.0
 30
0.0
 11
580.0
 21
420.0
 31
0.0
  0
LINE
  5
101
  8
OUTLINE
  6
CONTINUOUS
 62
     3
 10
580.0
 20
170.0
 30
0.0
 11
690.0
 21
170.0
 31
0.0
  0
LINE
  5
102
  8
SIZE
  6
CONTINUOUS
 62
    30
 10
690.0
 20
155.0
 30
0.0
 11
690.0
 21
-104.000249
 31
0.0
  0
LINE
  5
103
  8
SIZE
  6
CONTINUOUS
 62
    30
 10
580.0
 20
117.0
 30
0.0
 11
580.0
 21
-104.000249
 31
0.0
  0
LINE
  5
104
  8
SIZE
  6
CONTINUOUS
 62
    30
 10
580.0
 20
-89.000249
 30
0.0
 11
690.0
 21
-89.000249
 31
0.0
  0
LINE
  5
105
  8
SIZE
  6
CONTINUOUS
 62
    30
 10
690.0
 20
-89.000249
 30
0.0
 11
958.608888
 21
-89.000249
 31
0.0
  0
CIRCLE
  5
106
  8
SIZE
  6
CONTINUOUS
 62
    30
 10
580.0
 20
-89.000249
 30
0.0
 40
7.5
  0
CIRCLE
  5
107
  8
SIZE
  6
CONTINUOUS
 62
    30
 10
690.0
 20
-89.000249
 30
0.0
 40
7.5
  0
TEXT
  5
108
  8
SIZE
  6
CONTINUOUS
 62
    30
 10
845.03746
 20
-74.000249
 30
0.0
 40
50.0
  1
110
 41
0.9
 72
     1
 11
894.323174
 21
-74.000249
 31
0.0
  0
POINT
  5
109
  8
DEFPOINTS
  6
CONTINUOUS
 62
     7
 10
690.0
 20
170.0
 30
0.0
  0
POINT
  5
10A
  8
DEFPOINTS
  6
CONTINUOUS
 62
     7
 10
580.0
 20
132.0
 30
0.0
  0
POINT
  5
10B
  8
DEFPOINTS
  6
CONTINUOUS
 62
     7
 10
580.0
 20
-89.000249
 30
0.0
  0
LINE
  5
10C
  8
SIZE
  6
CONTINUOUS
 62
    30
 10
705.0
 20
170.0
 30
0.0
 11
1130.062697
 21
170.0
 31
0.0
  0
LINE
  5
10D
  8
SIZE
  6
CONTINUOUS
 62
    30
 10
704.917321
 20
420.0
 30
0.0
 11
1130.062697
 21
420.0
 31
0.0
  0
LINE
  5
10E
  8
SIZE
  6
CONTINUOUS
 62
    30
 10
1115.062697
 20
170.0
 30
0.0
 11
1115.062697
 21
420.0
 31
0.0
  0
CIRCLE
  5
10F
  8
SIZE
  6
CONTINUOUS
 62
    30
 10
1115.062697
 20
170.0
 30
0.0
 40
7.5
  0
CIRCLE
  5
110
  8
SIZE
  6
CONTINUOUS
 62
    30
 10
1115.062697
 20
420.0
 30
0.0
 40
7.5
  0
TEXT
  5
111
  8
SIZE
  6
CONTINUOUS
 62
    30
 10
1100.062697
 20
276.883005
 30
0.0
 40
50.0
  1
250
 50
90.0
 41
0.9
 72
     1
 11
1100.062697
 21
334.740147
 31
0.0
  0
POINT
  5
112
  8
DEFPOINTS
  6
CONTINUOUS
 62
     7
 10
690.0
 20
170.0
 30
0.0
  0
POINT
  5
113
  8
DEFPOINTS
  6
CONTINUOUS
 62
     7
 10
689.917321
 20
420.0
 30
0.0
  0
POINT
  5
114
  8
DEFPOINTS
  6
CONTINUOUS
 62
     7
 10
1115.062697
 20
420.0
 30
0.0
  0
TEXT
  5
115
  8
NOTE
  6
CONTINUOUS
 62
     4
 10
-1527.455676
 20
791.025376
 30
0.0
 40
60.0
  1
AH 4-14×30長穴(M10)
 50
359.999997
 41
0.7
  7
STANDARD1
  0
LINE
  5
116
  8
NOTE
  6
CONTINUOUS
 62
     4
 10
-1540.481032
 20
775.198815
 30
0.0
 11
-811.380404
 21
775.198815
 31
0.0
  0
LINE
  5
117
  8
DETAIL
  6
CONTINUOUS
 62
     5
 10
-592.417901
 20
58.0
 30
0.0
 11
808.417965
 21
58.0
 31
0.0
  0
LINE
  5
118
  8
DETAIL
  6
CONTINUOUS
 62
     5
 10
-611.999936
 20
-2.0
 30
0.0
 11
828.0
 21
-2.0
 31
0.0
  0
LINE
  5
119
  8
DETAIL
  6
CONTINUOUS
 62
     5
 10
-611.999936
 20
0.0
 30
0.0
 11
828.0
 21
0.0
 31
0.0
  0
LINE
  5
11B
  8
NOTE
  6
CONTINUOUS
 62
     4
 10
821.0
 20
1.048503
 30
0.0
 11
946.610556
 21
1.048503
 31
0.0
  0
LINE
  5
11C
  8
NOTE
  6
CONTINUOUS
 62
     4
 10
821.0
 20
22.018562
 30
0.0
 11
946.610556
 21
22.018562
 31
0.0
  0
LINE
  5
11D
  8
NOTE
  6
CONTINUOUS
 62
     4
 10
938.077575
 20
1.048503
 30
0.0
 11
917.107516
 21
22.018562
 31
0.0
  0
LINE
  5
11E
  8
NOTE
  6
CONTINUOUS
 62
     4
 10
943.320089
 20
1.048503
 30
0.0
 11
922.35003
 21
22.018562
 31
0.0
  0
LINE
  5
11F
  8
NOTE
  6
CONTINUOUS
 62
     4
 10
946.610556
 20
3.000551
 30
0.0
 11
927.592545
 21
22.018562
 31
0.0
  0
LINE
  5
120
  8
NOTE
  6
CONTINUOUS
 62
     4
 10
821.0
 20
1.048503
 30
0.0
 11
821.0
 21
22.018562
 31
0.0
  0
LINE
  5
121
  8
NOTE
  6
CONTINUOUS
 62
     4
 10
906.622486
 20
1.048503
 30
0.0
 11
885.652427
 21
22.018562
 31
0.0
  0
LINE
  5
122
  8
NOTE
  6
CONTINUOUS
 62
     4
 10
864.682368
 20
1.048503
 30
0.0
 11
843.712309
 21
22.018562
 31
0.0
  0
LINE
  5
123
  8
NOTE
  6
CONTINUOUS
 62
     4
 10
901.379971
 20
1.048503
 30
0.0
 11
880.409912
 21
22.018562
 31
0.0
  0
LINE
  5
124
  8
NOTE
  6
CONTINUOUS
 62
     4
 10
859.439853
 20
1.048503
 30
0.0
 11
838.469794
 21
22.018562
 31
0.0
  0
LINE
  5
125
  8
NOTE
  6
CONTINUOUS
 62
     4
 10
896.137456
 20
1.048503
 30
0.0
 11
875.167397
 21
22.018562
 31
0.0
  0
LINE
  5
126
  8
NOTE
  6
CONTINUOUS
 62
     4
 10
854.197338
 20
1.048503
 30
0.0
 11
833.227279
 21
22.018562
 31
0.0
  0
LINE
  5
127
  8
DETAIL
  6
CONTINUOUS
 62
     5
 10
808.417965
 20
0.0
 30
0.0
 11
808.417965
 21
58.0
 31
0.0
  0
LINE
  5
128
  8
DETAIL
  6
CONTINUOUS
 62
     5
 10
828.0
 20
-2.0
 30
0.0
 11
828.0
 21
0.0
 31
0.0
  0
LINE
  5
12A
  8
NOTE
  6
CONTINUOUS
 62
     4
 10
-709.850232
 20
1.048503
 30
0.0
 11
-604.999936
 21
1.048503
 31
0.0
  0
LINE
  5
12B
  8
NOTE
  6
CONTINUOUS
 62
     4
 10
-709.850232
 20
22.018562
 30
0.0
 11
-604.999936
 21
22.018562
 31
0.0
  0
LINE
  5
12C
  8
NOTE
  6
CONTINUOUS
 62
     4
 10
-604.999936
 20
1.048503
 30
0.0
 11
-604.999936
 21
22.018562
 31
0.0
  0
LINE
  5
12D
  8
DETAIL
  6
CONTINUOUS
 62
     5
 10
-611.999936
 20
-2.0
 30
0.0
 11
-611.999936
 21
0.0
 31
0.0
  0
LINE
  5
12E
  8
DETAIL
  6
CONTINUOUS
 62
     5
 10
-592.417901
 20
0.0
 30
0.0
 11
-592.417901
 21
58.0
 31
0.0
  0
LINE
  5
130
  8
NOTE
  6
CONTINUOUS
 62
     4
 10
-624.227746
 20
1.048503
 30
0.0
 11
-645.197805
 21
22.018562
 31
0.0
  0
LINE
  5
131
  8
NOTE
  6
CONTINUOUS
 62
     4
 10
-666.167864
 20
1.048503
 30
0.0
 11
-687.137923
 21
22.018562
 31
0.0
  0
LINE
  5
132
  8
NOTE
  6
CONTINUOUS
 62
     4
 10
-629.47026
 20
1.048503
 30
0.0
 11
-650.44032
 21
22.018562
 31
0.0
  0
LINE
  5
133
  8
NOTE
  6
CONTINUOUS
 62
     4
 10
-671.410379
 20
1.048503
 30
0.0
 11
-692.380438
 21
22.018562
 31
0.0
  0
LINE
  5
134
  8
NOTE
  6
CONTINUOUS
 62
     4
 10
-634.712775
 20
1.048503
 30
0.0
 11
-655.682834
 21
22.018562
 31
0.0
  0
LINE
  5
135
  8
NOTE
  6
CONTINUOUS
 62
     4
 10
-676.652893
 20
1.048503
 30
0.0
 11
-697.622953
 21
22.018562
 31
0.0
  0
LINE
  5
136
  8
SIZE
  6
CONTINUOUS
 62
    30
 10
821.0
 20
-13.951497
 30
0.0
 11
821.0
 21
-319.574749
 31
0.0
  0
LINE
  5
137
  8
SIZE
  6
CONTINUOUS
 62
    30
 10
-605.0
 20
-13.951497
 30
0.0
 11
-605.0
 21
-319.574749
 31
0.0
  0
LINE
  5
138
  8
SIZE
  6
CONTINUOUS
 62
    30
 10
821.0
 20
-304.574749
 30
0.0
 11
-605.0
 21
-304.574749
 31
0.0
  0
CIRCLE
  5
139
  8
SIZE
  6
CONTINUOUS
 62
    30
 10
821.0
 20
-304.574749
 30
0.0
 40
7.5
  0
CIRCLE
  5
13A
  8
SIZE
  6
CONTINUOUS
 62
    30
 10
-605.0
 20
-304.574749
 30
0.0
 40
7.5
  0
TEXT
  5
13B
  8
SIZE
  6
CONTINUOUS
 62
    30
 10
-171.428571
 20
-289.574749
 30
0.0
 40
50.0
  1
1426（天井開口寸法）
 41
0.9
 72
     1
 11
108.0
 21
-289.574749
 31
0.0
  0
POINT
  5
13C
  8
DEFPOINTS
  6
CONTINUOUS
 62
     7
 10
821.0
 20
1.048503
 30
0.0
  0
POINT
  5
13D
  8
DEFPOINTS
  6
CONTINUOUS
 62
     7
 10
-605.0
 20
1.048503
 30
0.0
  0
POINT
  5
13E
  8
DEFPOINTS
  6
CONTINUOUS
 62
     7
 10
-605.0
 20
-304.574749
 30
0.0
  0
LINE
  5
13F
  8
SIZE
  6
CONTINUOUS
 62
    30
 10
821.0
 20
-13.951497
 30
0.0
 11
821.0
 21
-192.31535
 31
0.0
  0
LINE
  5
140
  8
SIZE
  6
CONTINUOUS
 62
    30
 10
828.0
 20
-17.0
 30
0.0
 11
828.0
 21
-192.31535
 31
0.0
  0
LINE
  5
141
  8
SIZE
  6
CONTINUOUS
 62
    30
 10
821.0
 20
-177.31535
 30
0.0
 11
791.0
 21
-177.31535
 31
0.0
  0
LINE
  5
142
  8
SIZE
  6
CONTINUOUS
 62
    30
 10
828.0
 20
-177.31535
 30
0.0
 11
948.0
 21
-177.31535
 31
0.0
  0
LINE
  5
143
  8
SIZE
  6
CONTINUOUS
 62
    30
 10
821.0
 20
-177.31535
 30
0.0
 11
828.0
 21
-177.31535
 31
0.0
  0
CIRCLE
  5
144
  8
SIZE
  6
CONTINUOUS
 62
    30
 10
821.0
 20
-177.31535
 30
0.0
 40
7.5
  0
CIRCLE
  5
145
  8
SIZE
  6
CONTINUOUS
 62
    30
 10
828.0
 20
-177.31535
 30
0.0
 40
7.5
  0
TEXT
  5
146
  8
SIZE
  6
CONTINUOUS
 62
    30
 10
903.0
 20
-162.31535
 30
0.0
 40
50.0
  1
7
 41
0.9
 72
     1
 11
918.0
 21
-162.31535
 31
0.0
  0
POINT
  5
147
  8
DEFPOINTS
  6
CONTINUOUS
 62
     7
 10
821.0
 20
1.048503
 30
0.0
  0
POINT
  5
148
  8
DEFPOINTS
  6
CONTINUOUS
 62
     7
 10
828.0
 20
-2.0
 30
0.0
  0
POINT
  5
149
  8
DEFPOINTS
  6
CONTINUOUS
 62
     7
 10
828.0
 20
-177.31535
 30
0.0
  0
LINE
  5
14A
  8
SIZE
  6
CONTINUOUS
 62
    30
 10
580.0
 20
117.0
 30
0.0
 11
580.0
 21
-192.31535
 31
0.0
  0
LINE
  5
14B
  8
SIZE
  6
CONTINUOUS
 62
    30
 10
821.0
 20
-13.951497
 30
0.0
 11
821.0
 21
-192.31535
 31
0.0
  0
LINE
  5
14C
  8
SIZE
  6
CONTINUOUS
 62
    30
 10
580.0
 20
-177.31535
 30
0.0
 11
821.0
 21
-177.31535
 31
0.0
  0
CIRCLE
  5
14D
  8
SIZE
  6
CONTINUOUS
 62
    30
 10
580.0
 20
-177.31535
 30
0.0
 40
7.5
  0
CIRCLE
  5
14E
  8
SIZE
  6
CONTINUOUS
 62
    30
 10
821.0
 20
-177.31535
 30
0.0
 40
7.5
  0
TEXT
  5
14F
  8
SIZE
  6
CONTINUOUS
 62
    30
 10
652.285714
 20
-162.31535
 30
0.0
 40
50.0
  1
241
 41
0.9
 72
     1
 11
700.5
 21
-162.31535
 31
0.0
  0
POINT
  5
150
  8
DEFPOINTS
  6
CONTINUOUS
 62
     7
 10
580.0
 20
132.0
 30
0.0
  0
POINT
  5
151
  8
DEFPOINTS
  6
CONTINUOUS
 62
     7
 10
821.0
 20
1.048503
 30
0.0
  0
POINT
  5
152
  8
DEFPOINTS
  6
CONTINUOUS
 62
     7
 10
821.0
 20
-177.31535
 30
0.0
  0
LINE
  5
153
  8
SERVICESPACE
  6
DASHDOT
 62
     2
 10
596.0
 20
0.0
 30
0.0
 11
1280.0
 21
0.0
 31
0.0
  0
LINE
  5
154
  8
SERVICESPACE
  6
DASHDOT
 62
     2
 10
1280.0
 20
0.0
 30
0.0
 11
1280.0
 21
433.0
 31
0.0
  0
LINE
  5
155
  8
SERVICESPACE
  6
DASHDOT
 62
     2
 10
596.0
 20
433.0
 30
0.0
 11
1280.0
 21
0.0
 31
0.0
  0
LINE
  5
156
  8
SERVICESPACE
  6
DASHDOT
 62
     2
 10
596.0
 20
433.0
 30
0.0
 11
1280.0
 21
433.0
 31
0.0
  0
LINE
  5
157
  8
SERVICESPACE
  6
DASHDOT
 62
     2
 10
1280.0
 20
433.0
 30
0.0
 11
596.0
 21
0.0
 31
0.0
  0
LINE
  5
158
  8
SERVICESPACE
  6
DASHDOT
 62
     2
 10
596.0
 20
0.0
 30
0.0
 11
596.0
 21
433.0
 31
0.0
  0
LINE
  5
159
  8
SIZE
  6
CONTINUOUS
 62
    30
 10
-626.999936
 20
-2.0
 30
0.0
 11
-896.360419
 21
-2.0
 31
0.0
  0
LINE
  5
15A
  8
SIZE
  6
CONTINUOUS
 62
    30
 10
-626.999936
 20
0.0
 30
0.0
 11
-896.360419
 21
0.0
 31
0.0
  0
LINE
  5
15B
  8
SIZE
  6
CONTINUOUS
 62
    30
 10
-881.360419
 20
0.0
 30
0.0
 11
-881.360419
 21
30.0
 31
0.0
  0
LINE
  5
15C
  8
SIZE
  6
CONTINUOUS
 62
    30
 10
-881.360419
 20
-2.0
 30
0.0
 11
-881.360419
 21
-122.0
 31
0.0
  0
LINE
  5
15D
  8
SIZE
  6
CONTINUOUS
 62
    30
 10
-881.360419
 20
0.0
 30
0.0
 11
-881.360419
 21
-2.0
 31
0.0
  0
CIRCLE
  5
15E
  8
SIZE
  6
CONTINUOUS
 62
    30
 10
-881.360419
 20
0.0
 30
0.0
 40
7.5
  0
CIRCLE
  5
15F
  8
SIZE
  6
CONTINUOUS
 62
    30
 10
-881.360419
 20
-2.0
 30
0.0
 40
7.5
  0
TEXT
  5
160
  8
SIZE
  6
CONTINUOUS
 62
    30
 10
-896.360419
 20
-107.0
 30
0.0
 40
50.0
  1
2
 50
90.0
 41
0.9
 72
     1
 11
-896.360419
 21
-92.0
 31
0.0
  0
POINT
  5
161
  8
DEFPOINTS
  6
CONTINUOUS
 62
     7
 10
-611.999936
 20
-2.0
 30
0.0
  0
POINT
  5
162
  8
DEFPOINTS
  6
CONTINUOUS
 62
     7
 10
-611.999936
 20
0.0
 30
0.0
  0
POINT
  5
163
  8
DEFPOINTS
  6
CONTINUOUS
 62
     7
 10
-881.360419
 20
0.0
 30
0.0
  0
LINE
  5
164
  8
SIZE
  6
CONTINUOUS
 62
    30
 10
-627.0
 20
0.0
 30
0.0
 11
-896.360419
 21
0.0
 31
0.0
  0
LINE
  5
165
  8
SIZE
  6
CONTINUOUS
 62
    30
 10
-607.417901
 20
58.0
 30
0.0
 11
-896.360419
 21
58.0
 31
0.0
  0
LINE
  5
166
  8
SIZE
  6
CONTINUOUS
 62
    30
 10
-881.360419
 20
0.0
 30
0.0
 11
-881.360419
 21
58.0
 31
0.0
  0
LINE
  5
167
  8
SIZE
  6
CONTINUOUS
 62
    30
 10
-881.360419
 20
29.0
 30
0.0
 11
-990.816287
 21
-49.15935
 31
0.0
  0
LINE
  5
168
  8
SIZE
  6
CONTINUOUS
 62
    30
 10
-990.816287
 20
-49.15935
 30
0.0
 11
-990.816287
 21
-152.016493
 31
0.0
  0
TEXT
  5
169
  8
SIZE
  6
CONTINUOUS
 62
    30
 10
-1005.816287
 20
-137.016493
 30
0.0
 40
50.0
  1
58
 50
90.0
 41
0.9
 72
     1
 11
-1005.816287
 21
-100.587921
 31
0.0
  0
CIRCLE
  5
16A
  8
SIZE
  6
CONTINUOUS
 62
    30
 10
-881.360419
 20
0.0
 30
0.0
 40
7.5
  0
CIRCLE
  5
16B
  8
SIZE
  6
CONTINUOUS
 62
    30
 10
-881.360419
 20
58.0
 30
0.0
 40
7.5
  0
POINT
  5
16C
  8
DEFPOINTS
  6
CONTINUOUS
 62
     7
 10
-612.0
 20
0.0
 30
0.0
  0
POINT
  5
16D
  8
DEFPOINTS
  6
CONTINUOUS
 62
     7
 10
-592.417901
 20
58.0
 30
0.0
  0
POINT
  5
16E
  8
DEFPOINTS
  6
CONTINUOUS
 62
     7
 10
-881.360419
 20
58.0
 30
0.0
  0
LINE
  5
16F
  8
SIZE
  6
CONTINUOUS
 62
    30
 10
1280.0
 20
448.0
 30
0.0
 11
1280.0
 21
1044.862027
 31
0.0
  0
LINE
  5
170
  8
SIZE
  6
CONTINUOUS
 62
    30
 10
596.0
 20
443.699485
 30
0.0
 11
596.0
 21
1044.862027
 31
0.0
  0
LINE
  5
171
  8
SIZE
  6
CONTINUOUS
 62
    30
 10
1280.0
 20
1029.862027
 30
0.0
 11
596.0
 21
1029.862027
 31
0.0
  0
CIRCLE
  5
172
  8
SIZE
  6
CONTINUOUS
 62
    30
 10
1280.0
 20
1029.862027
 30
0.0
 40
7.5
  0
CIRCLE
  5
173
  8
SIZE
  6
CONTINUOUS
 62
    30
 10
596.0
 20
1029.862027
 30
0.0
 40
7.5
  0
TEXT
  5
174
  8
SIZE
  6
CONTINUOUS
 62
    30
 10
879.071429
 20
1044.862027
 30
0.0
 40
50.0
  1
684
 41
0.9
 72
     1
 11
938.0
 21
1044.862027
 31
0.0
  0
POINT
  5
175
  8
DEFPOINTS
  6
CONTINUOUS
 62
     7
 10
1280.0
 20
433.0
 30
0.0
  0
POINT
  5
176
  8
DEFPOINTS
  6
CONTINUOUS
 62
     7
 10
596.0
 20
428.699485
 30
0.0
  0
POINT
  5
177
  8
DEFPOINTS
  6
CONTINUOUS
 62
     7
 10
596.0
 20
1029.862027
 30
0.0
  0
LINE
  5
178
  8
SIZE
  6
CONTINUOUS
 62
    30
 10
828.0
 20
-17.0
 30
0.0
 11
828.0
 21
-476.400181
 31
0.0
  0
LINE
  5
179
  8
SIZE
  6
CONTINUOUS
 62
    30
 10
-611.999936
 20
-17.0
 30
0.0
 11
-611.999936
 21
-476.400181
 31
0.0
  0
LINE
  5
17A
  8
SIZE
  6
CONTINUOUS
 62
    30
 10
828.0
 20
-461.400181
 30
0.0
 11
-611.999936
 21
-461.400181
 31
0.0
  0
CIRCLE
  5
17B
  8
SIZE
  6
CONTINUOUS
 62
    30
 10
828.0
 20
-461.400181
 30
0.0
 40
7.5
  0
CIRCLE
  5
17C
  8
SIZE
  6
CONTINUOUS
 62
    30
 10
-611.999936
 20
-461.400181
 30
0.0
 40
7.5
  0
TEXT
  5
17D
  8
SIZE
  6
CONTINUOUS
 62
    30
 10
33.000032
 20
-446.400181
 30
0.0
 40
50.0
  1
1440
 41
0.9
 72
     1
 11
108.000032
 21
-446.400181
 31
0.0
  0
POINT
  5
17E
  8
DEFPOINTS
  6
CONTINUOUS
 62
     7
 10
828.0
 20
-2.0
 30
0.0
  0
POINT
  5
17F
  8
DEFPOINTS
  6
CONTINUOUS
 62
     7
 10
-611.999936
 20
-2.0
 30
0.0
  0
POINT
  5
180
  8
DEFPOINTS
  6
CONTINUOUS
 62
     7
 10
-611.999936
 20
-461.400181
 30
0.0
  0
LINE
  5
181
  8
SIZE
  6
CONTINUOUS
 62
    30
 10
-604.999936
 20
-13.951497
 30
0.0
 11
-604.999936
 21
-192.31535
 31
0.0
  0
LINE
  5
182
  8
SIZE
  6
CONTINUOUS
 62
    30
 10
-611.999936
 20
-17.0
 30
0.0
 11
-611.999936
 21
-192.31535
 31
0.0
  0
LINE
  5
183
  8
SIZE
  6
CONTINUOUS
 62
    30
 10
-604.999936
 20
-177.31535
 30
0.0
 11
-574.999936
 21
-177.31535
 31
0.0
  0
LINE
  5
184
  8
SIZE
  6
CONTINUOUS
 62
    30
 10
-611.999936
 20
-177.31535
 30
0.0
 11
-731.999936
 21
-177.31535
 31
0.0
  0
LINE
  5
185
  8
SIZE
  6
CONTINUOUS
 62
    30
 10
-604.999936
 20
-177.31535
 30
0.0
 11
-611.999936
 21
-177.31535
 31
0.0
  0
CIRCLE
  5
186
  8
SIZE
  6
CONTINUOUS
 62
    30
 10
-604.999936
 20
-177.31535
 30
0.0
 40
7.5
  0
CIRCLE
  5
187
  8
SIZE
  6
CONTINUOUS
 62
    30
 10
-611.999936
 20
-177.31535
 30
0.0
 40
7.5
  0
TEXT
  5
188
  8
SIZE
  6
CONTINUOUS
 62
    30
 10
-716.999936
 20
-162.31535
 30
0.0
 40
50.0
  1
7
 41
0.9
 72
     1
 11
-701.999936
 21
-162.31535
 31
0.0
  0
POINT
  5
189
  8
DEFPOINTS
  6
CONTINUOUS
 62
     7
 10
-604.999936
 20
1.048503
 30
0.0
  0
POINT
  5
18A
  8
DEFPOINTS
  6
CONTINUOUS
 62
     7
 10
-611.999936
 20
-2.0
 30
0.0
  0
POINT
  5
18B
  8
DEFPOINTS
  6
CONTINUOUS
 62
     7
 10
-611.999936
 20
-177.31535
 30
0.0
  0
LINE
  5
18C
  8
DETAIL
  6
CONTINUOUS
 62
     5
 10
580.0
 20
132.0
 30
0.0
 11
-580.0
 21
132.0
 31
0.0
  0
LINE
  5
18D
  8
SIZE
  6
CONTINUOUS
 62
    30
 10
705.0
 20
420.0
 30
0.0
 11
1060.716433
 21
420.0
 31
0.0
  0
LINE
  5
18E
  8
SIZE
  6
CONTINUOUS
 62
    30
 10
595.0
 20
433.0
 30
0.0
 11
1060.716433
 21
433.0
 31
0.0
  0
LINE
  5
18F
  8
OUTLINE
  6
CONTINUOUS
 62
     3
 10
808.417965
 20
58.0
 30
0.0
 11
-592.417901
 21
58.0
 31
0.0
  0
LINE
  5
190
  8
OUTLINE
  6
CONTINUOUS
 62
     3
 10
-592.417901
 20
58.0
 30
0.0
 11
-592.417901
 21
0.0
 31
0.0
  0
LINE
  5
191
  8
OUTLINE
  6
CONTINUOUS
 62
     3
 10
-611.999936
 20
0.0
 30
0.0
 11
808.417965
 21
0.0
 31
0.0
  0
LINE
  5
192
  8
OUTLINE
  6
CONTINUOUS
 62
     3
 10
808.417965
 20
0.0
 30
0.0
 11
808.417965
 21
58.0
 31
0.0
  0
LINE
  5
193
  8
OUTLINE
  6
CONTINUOUS
 62
     3
 10
-611.999936
 20
-2.0
 30
0.0
 11
828.0
 21
-2.0
 31
0.0
  0
LINE
  5
194
  8
OUTLINE
  6
CONTINUOUS
 62
     3
 10
828.0
 20
-2.0
 30
0.0
 11
828.0
 21
0.0
 31
0.0
  0
LINE
  5
195
  8
OUTLINE
  6
CONTINUOUS
 62
     3
 10
828.0
 20
0.0
 30
0.0
 11
-611.999936
 21
0.0
 31
0.0
  0
LINE
  5
196
  8
OUTLINE
  6
CONTINUOUS
 62
     3
 10
-611.999936
 20
0.0
 30
0.0
 11
-611.999936
 21
-2.0
 31
0.0
  0
LINE
  5
197
  8
SIZE
  6
CONTINUOUS
 62
    30
 10
-605.00003
 20
-13.951497
 30
0.0
 11
-605.00003
 21
-192.31535
 31
0.0
  0
LINE
  5
198
  8
SIZE
  6
CONTINUOUS
 62
    30
 10
-580.0
 20
117.0
 30
0.0
 11
-580.0
 21
-192.31535
 31
0.0
  0
LINE
  5
199
  8
SIZE
  6
CONTINUOUS
 62
    30
 10
-605.00003
 20
-177.31535
 30
0.0
 11
-635.00003
 21
-177.31535
 31
0.0
  0
LINE
  5
19A
  8
SIZE
  6
CONTINUOUS
 62
    30
 10
-580.0
 20
-177.31535
 30
0.0
 11
-417.142857
 21
-177.31535
 31
0.0
  0
LINE
  5
19B
  8
SIZE
  6
CONTINUOUS
 62
    30
 10
-605.00003
 20
-177.31535
 30
0.0
 11
-580.0
 21
-177.31535
 31
0.0
  0
CIRCLE
  5
19C
  8
SIZE
  6
CONTINUOUS
 62
    30
 10
-605.00003
 20
-177.31535
 30
0.0
 40
7.5
  0
CIRCLE
  5
19D
  8
SIZE
  6
CONTINUOUS
 62
    30
 10
-580.0
 20
-177.31535
 30
0.0
 40
7.5
  0
TEXT
  5
19E
  8
SIZE
  6
CONTINUOUS
 62
    30
 10
-505.0
 20
-162.31535
 30
0.0
 40
50.0
  1
25
 41
0.9
 72
     1
 11
-468.571429
 21
-162.31535
 31
0.0
  0
POINT
  5
19F
  8
DEFPOINTS
  6
CONTINUOUS
 62
     7
 10
-605.00003
 20
1.048503
 30
0.0
  0
POINT
  5
1A0
  8
DEFPOINTS
  6
CONTINUOUS
 62
     7
 10
-580.0
 20
132.0
 30
0.0
  0
POINT
  5
1A1
  8
DEFPOINTS
  6
CONTINUOUS
 62
     7
 10
-580.0
 20
-177.31535
 30
0.0
  0
LINE
  5
1A2
  8
DETAIL
  6
CONTINUOUS
 62
     5
 10
-551.0
 20
411.0
 30
0.0
 11
551.0
 21
411.0
 31
0.0
  0
LINE
  5
1A3
  8
DETAIL
  6
CONTINUOUS
 62
     5
 10
-551.0
 20
160.0
 30
0.0
 11
551.0
 21
160.0
 31
0.0
  0
LINE
  5
1A5
  8
DETAIL
  6
CONTINUOUS
 62
     5
 10
551.0
 20
411.0
 30
0.0
 11
551.0
 21
160.0
 31
0.0
  0
LINE
  5
1A6
  8
DETAIL
  6
CONTINUOUS
 62
     5
 10
-551.0
 20
411.0
 30
0.0
 11
-551.0
 21
160.0
 31
0.0
  0
LINE
  5
1A7
  8
NOTE
  6
CONTINUOUS
 62
     4
 10
-150.0
 20
418.500006
 30
0.0
 11
-150.0
 21
403.499994
 31
0.0
  0
LINE
  5
1A8
  8
NOTE
  6
CONTINUOUS
 62
     4
 10
-157.500006
 20
411.0
 30
0.0
 11
-142.499994
 21
411.0
 31
0.0
  0
LINE
  5
1A9
  8
NOTE
  6
CONTINUOUS
 62
     4
 10
-450.0
 20
418.500006
 30
0.0
 11
-450.0
 21
403.499994
 31
0.0
  0
LINE
  5
1AA
  8
NOTE
  6
CONTINUOUS
 62
     4
 10
-457.500006
 20
411.0
 30
0.0
 11
-442.499994
 21
411.0
 31
0.0
  0
LINE
  5
1AB
  8
NOTE
  6
CONTINUOUS
 62
     4
 10
150.0
 20
418.500006
 30
0.0
 11
150.0
 21
403.499994
 31
0.0
  0
LINE
  5
1AC
  8
NOTE
  6
CONTINUOUS
 62
     4
 10
142.499994
 20
411.0
 30
0.0
 11
157.500006
 21
411.0
 31
0.0
  0
LINE
  5
1AD
  8
NOTE
  6
CONTINUOUS
 62
     4
 10
450.0
 20
418.500006
 30
0.0
 11
450.0
 21
403.499994
 31
0.0
  0
LINE
  5
1AE
  8
NOTE
  6
CONTINUOUS
 62
     4
 10
442.499994
 20
411.0
 30
0.0
 11
457.500006
 21
411.0
 31
0.0
  0
LINE
  5
1AF
  8
SIZE
  6
CONTINUOUS
 62
    30
 10
-450.0
 20
433.500006
 30
0.0
 11
-450.0
 21
492.761571
 31
0.0
  0
LINE
  5
1B0
  8
SIZE
  6
CONTINUOUS
 62
    30
 10
-150.0
 20
433.500006
 30
0.0
 11
-150.0
 21
492.761571
 31
0.0
  0
LINE
  5
1B1
  8
SIZE
  6
CONTINUOUS
 62
    30
 10
-450.0
 20
477.761571
 30
0.0
 11
-150.0
 21
477.761571
 31
0.0
  0
CIRCLE
  5
1B2
  8
SIZE
  6
CONTINUOUS
 62
    30
 10
-450.0
 20
477.761571
 30
0.0
 40
7.5
  0
CIRCLE
  5
1B3
  8
SIZE
  6
CONTINUOUS
 62
    30
 10
-150.0
 20
477.761571
 30
0.0
 40
7.5
  0
TEXT
  5
1B4
  8
SIZE
  6
CONTINUOUS
 62
    30
 10
-357.857143
 20
492.761571
 30
0.0
 40
50.0
  1
300
 41
0.9
 72
     1
 11
-300.0
 21
492.761571
 31
0.0
  0
POINT
  5
1B5
  8
DEFPOINTS
  6
CONTINUOUS
 62
     7
 10
-450.0
 20
418.500006
 30
0.0
  0
POINT
  5
1B6
  8
DEFPOINTS
  6
CONTINUOUS
 62
     7
 10
-150.0
 20
418.500006
 30
0.0
  0
POINT
  5
1B7
  8
DEFPOINTS
  6
CONTINUOUS
 62
     7
 10
-150.0
 20
477.761571
 30
0.0
  0
LINE
  5
1B8
  8
SIZE
  6
CONTINUOUS
 62
    30
 10
-551.0
 20
426.0
 30
0.0
 11
-551.0
 21
579.896384
 31
0.0
  0
LINE
  5
1B9
  8
SIZE
  6
CONTINUOUS
 62
    30
 10
-450.0
 20
433.500006
 30
0.0
 11
-450.0
 21
579.896384
 31
0.0
  0
LINE
  5
1BA
  8
SIZE
  6
CONTINUOUS
 62
    30
 10
-551.0
 20
564.896384
 30
0.0
 11
-450.0
 21
564.896384
 31
0.0
  0
CIRCLE
  5
1BB
  8
SIZE
  6
CONTINUOUS
 62
    30
 10
-551.0
 20
564.896384
 30
0.0
 40
7.5
  0
CIRCLE
  5
1BC
  8
SIZE
  6
CONTINUOUS
 62
    30
 10
-450.0
 20
564.896384
 30
0.0
 40
7.5
  0
TEXT
  5
1BD
  8
SIZE
  6
CONTINUOUS
 62
    30
 10
-544.428571
 20
579.896384
 30
0.0
 40
50.0
  1
101
 41
0.9
 72
     1
 11
-500.5
 21
579.896384
 31
0.0
  0
POINT
  5
1BE
  8
DEFPOINTS
  6
CONTINUOUS
 62
     7
 10
-551.0
 20
411.0
 30
0.0
  0
POINT
  5
1BF
  8
DEFPOINTS
  6
CONTINUOUS
 62
     7
 10
-450.0
 20
418.500006
 30
0.0
  0
POINT
  5
1C0
  8
DEFPOINTS
  6
CONTINUOUS
 62
     7
 10
-450.0
 20
564.896384
 30
0.0
  0
LINE
  5
1C1
  8
SIZE
  6
CONTINUOUS
 62
    30
 10
-450.0
 20
535.651792
 30
0.0
 11
-450.0
 21
579.896384
 31
0.0
  0
LINE
  5
1C2
  8
SIZE
  6
CONTINUOUS
 62
    30
 10
450.0
 20
433.500006
 30
0.0
 11
450.0
 21
579.896384
 31
0.0
  0
LINE
  5
1C3
  8
SIZE
  6
CONTINUOUS
 62
    30
 10
-450.0
 20
564.896384
 30
0.0
 11
450.0
 21
564.896384
 31
0.0
  0
CIRCLE
  5
1C4
  8
SIZE
  6
CONTINUOUS
 62
    30
 10
-450.0
 20
564.896384
 30
0.0
 40
7.5
  0
CIRCLE
  5
1C5
  8
SIZE
  6
CONTINUOUS
 62
    30
 10
450.0
 20
564.896384
 30
0.0
 40
7.5
  0
TEXT
  5
1C6
  8
SIZE
  6
CONTINUOUS
 62
    30
 10
-240.0
 20
579.896384
 30
0.0
 40
50.0
  1
300×3（＝900）
 41
0.9
 72
     1
 11
0.0
 21
579.896384
 31
0.0
  0
POINT
  5
1C7
  8
DEFPOINTS
  6
CONTINUOUS
 62
     7
 10
-450.0
 20
520.651792
 30
0.0
  0
POINT
  5
1C8
  8
DEFPOINTS
  6
CONTINUOUS
 62
     7
 10
450.0
 20
418.500006
 30
0.0
  0
POINT
  5
1C9
  8
DEFPOINTS
  6
CONTINUOUS
 62
     7
 10
450.0
 20
564.896384
 30
0.0
  0
LINE
  5
1CA
  8
SIZE
  6
CONTINUOUS
 62
    30
 10
-580.0
 20
448.0
 30
0.0
 11
-580.0
 21
696.066726
 31
0.0
  0
LINE
  5
1CB
  8
SIZE
  6
CONTINUOUS
 62
    30
 10
-551.0
 20
426.0
 30
0.0
 11
-551.0
 21
696.066726
 31
0.0
  0
LINE
  5
1CC
  8
SIZE
  6
CONTINUOUS
 62
    30
 10
-551.0
 20
681.066726
 30
0.0
 11
-521.0
 21
681.066726
 31
0.0
  0
LINE
  5
1CD
  8
SIZE
  6
CONTINUOUS
 62
    30
 10
-580.0
 20
681.066726
 30
0.0
 11
-740.714286
 21
681.066726
 31
0.0
  0
LINE
  5
1CE
  8
SIZE
  6
CONTINUOUS
 62
    30
 10
-551.0
 20
681.066726
 30
0.0
 11
-580.0
 21
681.066726
 31
0.0
  0
CIRCLE
  5
1CF
  8
SIZE
  6
CONTINUOUS
 62
    30
 10
-551.0
 20
681.066726
 30
0.0
 40
7.5
  0
CIRCLE
  5
1D0
  8
SIZE
  6
CONTINUOUS
 62
    30
 10
-580.0
 20
681.066726
 30
0.0
 40
7.5
  0
TEXT
  5
1D1
  8
SIZE
  6
CONTINUOUS
 62
    30
 10
-725.714286
 20
696.066726
 30
0.0
 40
50.0
  1
29
 41
0.9
 72
     1
 11
-690.357143
 21
696.066726
 31
0.0
  0
POINT
  5
1D2
  8
DEFPOINTS
  6
CONTINUOUS
 62
     7
 10
-580.0
 20
433.0
 30
0.0
  0
POINT
  5
1D3
  8
DEFPOINTS
  6
CONTINUOUS
 62
     7
 10
-551.0
 20
411.0
 30
0.0
  0
POINT
  5
1D4
  8
DEFPOINTS
  6
CONTINUOUS
 62
     7
 10
-551.0
 20
681.066726
 30
0.0
  0
LINE
  5
1D5
  8
SIZE
  6
CONTINUOUS
 62
    30
 10
-551.0
 20
426.0
 30
0.0
 11
-551.0
 21
696.066726
 31
0.0
  0
LINE
  5
1D6
  8
SIZE
  6
CONTINUOUS
 62
    30
 10
551.0
 20
426.0
 30
0.0
 11
551.0
 21
696.066726
 31
0.0
  0
LINE
  5
1D7
  8
SIZE
  6
CONTINUOUS
 62
    30
 10
-551.0
 20
681.066726
 30
0.0
 11
551.0
 21
681.066726
 31
0.0
  0
CIRCLE
  5
1D8
  8
SIZE
  6
CONTINUOUS
 62
    30
 10
-551.0
 20
681.066726
 30
0.0
 40
7.5
  0
CIRCLE
  5
1D9
  8
SIZE
  6
CONTINUOUS
 62
    30
 10
551.0
 20
681.066726
 30
0.0
 40
7.5
  0
TEXT
  5
1DA
  8
SIZE
  6
CONTINUOUS
 62
    30
 10
-70.714286
 20
696.066726
 30
0.0
 40
50.0
  1
1102
 41
0.9
 72
     1
 11
0.0
 21
696.066726
 31
0.0
  0
POINT
  5
1DB
  8
DEFPOINTS
  6
CONTINUOUS
 62
     7
 10
-551.0
 20
411.0
 30
0.0
  0
POINT
  5
1DC
  8
DEFPOINTS
  6
CONTINUOUS
 62
     7
 10
551.0
 20
411.0
 30
0.0
  0
POINT
  5
1DD
  8
DEFPOINTS
  6
CONTINUOUS
 62
     7
 10
551.0
 20
681.066726
 30
0.0
  0
LINE
  5
1DE
  8
NOTE
  6
CONTINUOUS
 62
     4
 10
-150.0
 20
167.500006
 30
0.0
 11
-150.0
 21
152.499994
 31
0.0
  0
LINE
  5
1DF
  8
NOTE
  6
CONTINUOUS
 62
     4
 10
-157.500006
 20
160.0
 30
0.0
 11
-142.499994
 21
160.0
 31
0.0
  0
LINE
  5
1E0
  8
NOTE
  6
CONTINUOUS
 62
     4
 10
-450.0
 20
167.500006
 30
0.0
 11
-450.0
 21
152.499994
 31
0.0
  0
LINE
  5
1E1
  8
NOTE
  6
CONTINUOUS
 62
     4
 10
-457.500006
 20
160.0
 30
0.0
 11
-442.499994
 21
160.0
 31
0.0
  0
LINE
  5
1E2
  8
NOTE
  6
CONTINUOUS
 62
     4
 10
150.0
 20
167.500006
 30
0.0
 11
150.0
 21
152.499994
 31
0.0
  0
LINE
  5
1E3
  8
NOTE
  6
CONTINUOUS
 62
     4
 10
142.499994
 20
160.0
 30
0.0
 11
157.500006
 21
160.0
 31
0.0
  0
LINE
  5
1E4
  8
NOTE
  6
CONTINUOUS
 62
     4
 10
450.0
 20
167.500006
 30
0.0
 11
450.0
 21
152.499994
 31
0.0
  0
LINE
  5
1E5
  8
NOTE
  6
CONTINUOUS
 62
     4
 10
442.499994
 20
160.0
 30
0.0
 11
457.500006
 21
160.0
 31
0.0
  0
LINE
  5
1E6
  8
NOTE
  6
CONTINUOUS
 62
     4
 10
-551.0
 20
367.500006
 30
0.0
 11
-551.0
 21
352.499994
 31
0.0
  0
LINE
  5
1E7
  8
NOTE
  6
CONTINUOUS
 62
     4
 10
-558.500006
 20
360.0
 30
0.0
 11
-543.499994
 21
360.0
 31
0.0
  0
LINE
  5
1E8
  8
NOTE
  6
CONTINUOUS
 62
     4
 10
-551.0
 20
218.500006
 30
0.0
 11
-551.0
 21
203.499994
 31
0.0
  0
LINE
  5
1E9
  8
NOTE
  6
CONTINUOUS
 62
     4
 10
-558.500006
 20
211.0
 30
0.0
 11
-543.499994
 21
211.0
 31
0.0
  0
LINE
  5
1EA
  8
NOTE
  6
CONTINUOUS
 62
     4
 10
551.0
 20
367.500006
 30
0.0
 11
551.0
 21
352.499994
 31
0.0
  0
LINE
  5
1EB
  8
NOTE
  6
CONTINUOUS
 62
     4
 10
543.499994
 20
360.0
 30
0.0
 11
558.500006
 21
360.0
 31
0.0
  0
LINE
  5
1EC
  8
NOTE
  6
CONTINUOUS
 62
     4
 10
551.0
 20
218.500006
 30
0.0
 11
551.0
 21
203.499994
 31
0.0
  0
LINE
  5
1ED
  8
NOTE
  6
CONTINUOUS
 62
     4
 10
543.499994
 20
211.0
 30
0.0
 11
558.500006
 21
211.0
 31
0.0
  0
LINE
  5
1EE
  8
NOTE
  6
CONTINUOUS
 62
     4
 10
-513.307422
 20
-95.289909
 30
0.0
 11
-94.470999
 21
-95.289909
 31
0.0
  0
TEXT
  5
1EF
  8
NOTE
  6
CONTINUOUS
 62
     4
 10
-493.689618
 20
-79.463348
 30
0.0
 40
60.0
  1
12-%%C3取付穴
 50
0.000003
 41
0.7
  7
STANDARD1
  0
TEXT
  5
1F0
  8
NOTE
  6
CONTINUOUS
 62
     4
 10
-362.846674
 20
285.352474
 30
0.0
 40
60.0
  1
外気取入口
 50
359.999997
 41
0.7
  7
STANDARD1
  0
TEXT
  5
1F1
  8
NOTE
  6
CONTINUOUS
 62
     4
 10
-367.49197
 20
214.672079
 30
0.0
 40
60.0
  1
%%C150（ノックアウト穴）
 50
359.999997
 41
0.7
  7
STANDARD1
  0
LINE
  5
1F2
  8
NOTE
  6
CONTINUOUS
 62
     4
 10
244.440396
 20
197.032632
 30
0.0
 11
-390.336748
 21
197.032632
 31
0.0
  0
LINE
  5
1F3
  8
SIZE
  6
CONTINUOUS
 62
    30
 10
-573.500006
 20
211.0
 30
0.0
 11
-823.876224
 21
211.0
 31
0.0
  0
LINE
  5
1F4
  8
SIZE
  6
CONTINUOUS
 62
    30
 10
-573.500006
 20
360.0
 30
0.0
 11
-823.876224
 21
360.0
 31
0.0
  0
LINE
  5
1F5
  8
SIZE
  6
CONTINUOUS
 62
    30
 10
-808.876224
 20
211.0
 30
0.0
 11
-808.876224
 21
360.0
 31
0.0
  0
CIRCLE
  5
1F6
  8
SIZE
  6
CONTINUOUS
 62
    30
 10
-808.876224
 20
211.0
 30
0.0
 40
7.5
  0
CIRCLE
  5
1F7
  8
SIZE
  6
CONTINUOUS
 62
    30
 10
-808.876224
 20
360.0
 30
0.0
 40
7.5
  0
TEXT
  5
1F8
  8
SIZE
  6
CONTINUOUS
 62
    30
 10
-823.876224
 20
233.0
 30
0.0
 40
50.0
  1
149
 50
90.0
 41
0.9
 72
     1
 11
-823.876224
 21
285.5
 31
0.0
  0
POINT
  5
1F9
  8
DEFPOINTS
  6
CONTINUOUS
 62
     7
 10
-558.500006
 20
211.0
 30
0.0
  0
POINT
  5
1FA
  8
DEFPOINTS
  6
CONTINUOUS
 62
     7
 10
-558.500006
 20
360.0
 30
0.0
  0
POINT
  5
1FB
  8
DEFPOINTS
  6
CONTINUOUS
 62
     7
 10
-808.876224
 20
360.0
 30
0.0
  0
LINE
  5
1FC
  8
SIZE
  6
CONTINUOUS
 62
    30
 10
-573.500006
 20
360.0
 30
0.0
 11
-823.876224
 21
360.0
 31
0.0
  0
LINE
  5
1FD
  8
SIZE
  6
CONTINUOUS
 62
    30
 10
-566.0
 20
411.0
 30
0.0
 11
-823.876224
 21
411.0
 31
0.0
  0
LINE
  5
1FE
  8
SIZE
  6
CONTINUOUS
 62
    30
 10
-808.876224
 20
360.0
 30
0.0
 11
-808.876224
 21
411.0
 31
0.0
  0
LINE
  5
1FF
  8
SIZE
  6
CONTINUOUS
 62
    30
 10
-808.876224
 20
559.624228
 30
0.0
 11
-808.876224
 21
411.0
 31
0.0
  0
TEXT
  5
200
  8
SIZE
  6
CONTINUOUS
 62
    30
 10
-823.876224
 20
491.0528
 30
0.0
 40
50.0
  1
51
 50
90.0
 41
0.9
 72
     1
 11
-823.876224
 21
517.838514
 31
0.0
  0
CIRCLE
  5
201
  8
SIZE
  6
CONTINUOUS
 62
    30
 10
-808.876224
 20
360.0
 30
0.0
 40
7.5
  0
CIRCLE
  5
202
  8
SIZE
  6
CONTINUOUS
 62
    30
 10
-808.876224
 20
411.0
 30
0.0
 40
7.5
  0
POINT
  5
203
  8
DEFPOINTS
  6
CONTINUOUS
 62
     7
 10
-558.500006
 20
360.0
 30
0.0
  0
POINT
  5
204
  8
DEFPOINTS
  6
CONTINUOUS
 62
     7
 10
-551.0
 20
411.0
 30
0.0
  0
POINT
  5
205
  8
DEFPOINTS
  6
CONTINUOUS
 62
     7
 10
-808.876224
 20
411.0
 30
0.0
  0
LINE
  5
206
  8
SIZE
  6
CONTINUOUS
 62
    30
 10
-595.0
 20
433.0
 30
0.0
 11
-1015.314574
 21
433.0
 31
0.0
  0
LINE
  5
207
  8
SIZE
  6
CONTINUOUS
 62
    30
 10
-566.0
 20
411.0
 30
0.0
 11
-1015.314574
 21
411.0
 31
0.0
  0
LINE
  5
208
  8
SIZE
  6
CONTINUOUS
 62
    30
 10
-1000.314574
 20
411.0
 30
0.0
 11
-1000.314574
 21
381.0
 31
0.0
  0
LINE
  5
209
  8
SIZE
  6
CONTINUOUS
 62
    30
 10
-1000.314574
 20
433.0
 30
0.0
 11
-1000.314574
 21
595.857143
 31
0.0
  0
LINE
  5
20A
  8
SIZE
  6
CONTINUOUS
 62
    30
 10
-1000.314574
 20
411.0
 30
0.0
 11
-1000.314574
 21
433.0
 31
0.0
  0
CIRCLE
  5
20B
  8
SIZE
  6
CONTINUOUS
 62
    30
 10
-1000.314574
 20
411.0
 30
0.0
 40
7.5
  0
CIRCLE
  5
20C
  8
SIZE
  6
CONTINUOUS
 62
    30
 10
-1000.314574
 20
433.0
 30
0.0
 40
7.5
  0
TEXT
  5
20D
  8
SIZE
  6
CONTINUOUS
 62
    30
 10
-1015.314574
 20
508.0
 30
0.0
 40
50.0
  1
22
 50
90.0
 41
0.9
 72
     1
 11
-1015.314574
 21
544.428571
 31
0.0
  0
POINT
  5
20E
  8
DEFPOINTS
  6
CONTINUOUS
 62
     7
 10
-580.0
 20
433.0
 30
0.0
  0
POINT
  5
20F
  8
DEFPOINTS
  6
CONTINUOUS
 62
     7
 10
-551.0
 20
411.0
 30
0.0
  0
POINT
  5
210
  8
DEFPOINTS
  6
CONTINUOUS
 62
     7
 10
-1000.314574
 20
411.0
 30
0.0
  0
LINE
  5
211
  8
SIZE
  6
CONTINUOUS
 62
    30
 10
-566.0
 20
411.0
 30
0.0
 11
-1015.314574
 21
411.0
 31
0.0
  0
LINE
  5
212
  8
SIZE
  6
CONTINUOUS
 62
    30
 10
-566.0
 20
160.0
 30
0.0
 11
-1015.314574
 21
160.0
 31
0.0
  0
LINE
  5
213
  8
SIZE
  6
CONTINUOUS
 62
    30
 10
-1000.314574
 20
411.0
 30
0.0
 11
-1000.314574
 21
160.0
 31
0.0
  0
CIRCLE
  5
214
  8
SIZE
  6
CONTINUOUS
 62
    30
 10
-1000.314574
 20
411.0
 30
0.0
 40
7.5
  0
CIRCLE
  5
215
  8
SIZE
  6
CONTINUOUS
 62
    30
 10
-1000.314574
 20
160.0
 30
0.0
 40
7.5
  0
TEXT
  5
216
  8
SIZE
  6
CONTINUOUS
 62
    30
 10
-1015.314574
 20
237.285714
 30
0.0
 40
50.0
  1
251
 50
90.0
 41
0.9
 72
     1
 11
-1015.314574
 21
285.5
 31
0.0
  0
POINT
  5
217
  8
DEFPOINTS
  6
CONTINUOUS
 62
     7
 10
-551.0
 20
411.0
 30
0.0
  0
POINT
  5
218
  8
DEFPOINTS
  6
CONTINUOUS
 62
     7
 10
-551.0
 20
160.0
 30
0.0
  0
POINT
  5
219
  8
DEFPOINTS
  6
CONTINUOUS
 62
     7
 10
-1000.314574
 20
160.0
 30
0.0
  0
TEXT
  5
21A
  8
SIZE
  6
CONTINUOUS
 62
    30
 10
-915.384065
 20
159.227977
 30
0.0
 40
50.0
  1
(ﾀﾞｸﾄ外寸)
 50
90.0
 41
0.9
 72
     1
 11
-915.384065
 21
285.227977
 31
0.0
  0
LINE
  5
21B
  8
SIZE
  6
CONTINUOUS
 62
    30
 10
-595.0
 20
433.0
 30
0.0
 11
-1129.560081
 21
433.0
 31
0.0
  0
LINE
  5
21C
  8
SIZE
  6
CONTINUOUS
 62
    30
 10
-595.0
 20
132.0
 30
0.0
 11
-1129.560081
 21
132.0
 31
0.0
  0
LINE
  5
21D
  8
SIZE
  6
CONTINUOUS
 62
    30
 10
-1114.560081
 20
433.0
 30
0.0
 11
-1114.560081
 21
132.0
 31
0.0
  0
CIRCLE
  5
21E
  8
SIZE
  6
CONTINUOUS
 62
    30
 10
-1114.560081
 20
433.0
 30
0.0
 40
7.5
  0
CIRCLE
  5
21F
  8
SIZE
  6
CONTINUOUS
 62
    30
 10
-1114.560081
 20
132.0
 30
0.0
 40
7.5
  0
TEXT
  5
220
  8
SIZE
  6
CONTINUOUS
 62
    30
 10
-1129.560081
 20
234.285714
 30
0.0
 40
50.0
  1
301
 50
90.0
 41
0.9
 72
     1
 11
-1129.560081
 21
282.5
 31
0.0
  0
POINT
  5
221
  8
DEFPOINTS
  6
CONTINUOUS
 62
     7
 10
-580.0
 20
433.0
 30
0.0
  0
POINT
  5
222
  8
DEFPOINTS
  6
CONTINUOUS
 62
     7
 10
-580.0
 20
132.0
 30
0.0
  0
POINT
  5
223
  8
DEFPOINTS
  6
CONTINUOUS
 62
     7
 10
-1114.560081
 20
132.0
 30
0.0
  0
LINE
  5
224
  8
SIZE
  6
CONTINUOUS
 62
    30
 10
705.0
 20
420.0
 30
0.0
 11
974.639462
 21
420.0
 31
0.0
  0
LINE
  5
225
  8
SIZE
  6
CONTINUOUS
 62
    30
 10
608.000958
 20
433.0
 30
0.0
 11
974.639462
 21
433.0
 31
0.0
  0
LINE
  5
226
  8
SIZE
  6
CONTINUOUS
 62
    30
 10
959.639462
 20
420.0
 30
0.0
 11
959.639462
 21
390.0
 31
0.0
  0
LINE
  5
227
  8
SIZE
  6
CONTINUOUS
 62
    30
 10
1115.062697
 20
433.0
 30
0.0
 11
1115.062697
 21
532.032831
 31
0.0
  0
LINE
  5
228
  8
SIZE
  6
CONTINUOUS
 62
    30
 10
1115.062697
 20
420.0
 30
0.0
 11
1115.062697
 21
433.0
 31
0.0
  0
CIRCLE
  5
229
  8
SIZE
  6
CONTINUOUS
 62
    30
 10
1115.062697
 20
420.0
 30
0.0
 40
7.5
  0
CIRCLE
  5
22A
  8
SIZE
  6
CONTINUOUS
 62
    30
 10
1115.062697
 20
433.0
 30
0.0
 40
7.5
  0
TEXT
  5
22B
  8
SIZE
  6
CONTINUOUS
 62
    30
 10
1100.062697
 20
450.095924
 30
0.0
 40
50.0
  1
13
 50
90.0
 41
0.9
 72
     1
 11
1100.062697
 21
482.238781
 31
0.0
  0
LINE
  5
22C
  8
BASIS
  6
DASHDOT
 62
     6
 10
108.000079
 20
74.147576
 30
0.0
 11
108.000079
 21
-14.57982
 31
0.0
  0
TEXT
  5
22D
  8
NOTE
  6
CONTINUOUS
 62
     4
 10
1.366096
 20
70.64831
 30
0.0
 40
45.872003
  1
フィルター脱着可能方向
 50
359.999997
 41
0.810714
  7
STANDARD1
  0
LINE
  5
22E
  8
NOTE
  6
CONTINUOUS
 62
     4
 10
521.972986
 20
102.759134
 30
0.0
 11
495.469659
 21
102.759134
 31
0.0
  0
LINE
  5
22F
  8
NOTE
  6
CONTINUOUS
 62
     4
 10
521.972986
 20
83.887294
 30
0.0
 11
495.469659
 21
83.887294
 31
0.0
  0
LINE
  5
230
  8
NOTE
  6
CONTINUOUS
 62
     4
 10
521.972986
 20
102.759134
 30
0.0
 11
521.972986
 21
118.081606
 31
0.0
  0
LINE
  5
231
  8
NOTE
  6
CONTINUOUS
 62
     4
 10
521.972986
 20
83.887294
 30
0.0
 11
521.972986
 21
68.564822
 31
0.0
  0
LINE
  5
232
  8
NOTE
  6
CONTINUOUS
 62
     4
 10
521.972986
 20
118.081606
 30
0.0
 11
553.582086
 21
93.090377
 31
0.0
  0
LINE
  5
233
  8
NOTE
  6
CONTINUOUS
 62
     4
 10
521.972986
 20
68.564822
 30
0.0
 11
553.582086
 21
93.090377
 31
0.0
  0
LINE
  5
234
  8
NOTE
  6
CONTINUOUS
 62
     4
 10
495.469659
 20
83.887294
 30
0.0
 11
495.469659
 21
102.759134
 31
0.0
  0
LINE
  5
235
  8
NOTE
  6
CONTINUOUS
 62
     4
 10
-48.260195
 20
94.621491
 30
0.0
 11
-23.734641
 21
63.01239
 31
0.0
  0
LINE
  5
236
  8
NOTE
  6
CONTINUOUS
 62
     4
 10
1.256589
 20
94.621491
 30
0.0
 11
-23.734641
 21
63.01239
 31
0.0
  0
LINE
  5
237
  8
NOTE
  6
CONTINUOUS
 62
     4
 10
-14.065883
 20
121.304007
 30
0.0
 11
-32.937723
 21
121.304007
 31
0.0
  0
LINE
  5
238
  8
NOTE
  6
CONTINUOUS
 62
     4
 10
-32.937723
 20
94.621491
 30
0.0
 11
-32.937723
 21
121.304007
 31
0.0
  0
LINE
  5
239
  8
NOTE
  6
CONTINUOUS
 62
     4
 10
-14.065883
 20
94.621491
 30
0.0
 11
-14.065883
 21
121.304007
 31
0.0
  0
LINE
  5
23A
  8
NOTE
  6
CONTINUOUS
 62
     4
 10
-32.937723
 20
94.621491
 30
0.0
 11
-48.260195
 21
94.621491
 31
0.0
  0
LINE
  5
23B
  8
NOTE
  6
CONTINUOUS
 62
     4
 10
-14.065883
 20
94.621491
 30
0.0
 11
1.256589
 21
94.621491
 31
0.0
  0
TEXT
  5
23C
  8
NOTE
  6
CONTINUOUS
 62
     4
 10
1344.836839
 20
-354.902608
 30
0.0
 40
45.872003
  1
フィルター脱着時
 50
0.000003
 41
0.810714
  7
STANDARD1
  0
TEXT
  5
23D
  8
NOTE
  6
CONTINUOUS
 62
     4
 10
1344.836839
 20
-414.455779
 30
0.0
 40
45.872003
  1
サービススペース
 50
0.000003
 41
0.810714
  7
STANDARD1
  0
LINE
  5
23E
  8
NOTE
  6
CONTINUOUS
 62
     4
 10
1101.168181
 20
37.0
 30
0.0
 11
1102.345307
 21
37.0
 31
0.0
  0
LINE
  5
23F
  8
NOTE
  6
CONTINUOUS
 62
     4
 10
1097.01916
 20
38.0
 30
0.0
 11
1106.494327
 21
38.0
 31
0.0
  0
LINE
  5
240
  8
NOTE
  6
CONTINUOUS
 62
     4
 10
1095.234245
 20
39.0
 30
0.0
 11
1108.279243
 21
39.0
 31
0.0
  0
LINE
  5
241
  8
NOTE
  6
CONTINUOUS
 62
     4
 10
1093.969492
 20
40.0
 30
0.0
 11
1109.543995
 21
40.0
 31
0.0
  0
LINE
  5
242
  8
NOTE
  6
CONTINUOUS
 62
     4
 10
1092.996631
 20
41.0
 30
0.0
 11
1110.516857
 21
41.0
 31
0.0
  0
LINE
  5
243
  8
NOTE
  6
CONTINUOUS
 62
     4
 10
1092.225853
 20
42.0
 30
0.0
 11
1111.287634
 21
42.0
 31
0.0
  0
LINE
  5
244
  8
NOTE
  6
CONTINUOUS
 62
     4
 10
1091.610998
 20
43.0
 30
0.0
 11
1111.90249
 21
43.0
 31
0.0
  0
LINE
  5
245
  8
NOTE
  6
CONTINUOUS
 62
     4
 10
1091.124977
 20
44.0
 30
0.0
 11
1112.38851
 21
44.0
 31
0.0
  0
LINE
  5
246
  8
NOTE
  6
CONTINUOUS
 62
     4
 10
1090.750711
 20
45.0
 30
0.0
 11
1112.762776
 21
45.0
 31
0.0
  0
LINE
  5
247
  8
NOTE
  6
CONTINUOUS
 62
     4
 10
1090.47707
 20
46.0
 30
0.0
 11
1113.036417
 21
46.0
 31
0.0
  0
LINE
  5
248
  8
NOTE
  6
CONTINUOUS
 62
     4
 10
1090.296843
 20
47.0
 30
0.0
 11
1113.216645
 21
47.0
 31
0.0
  0
LINE
  5
249
  8
NOTE
  6
CONTINUOUS
 62
     4
 10
1090.205656
 20
48.0
 30
0.0
 11
1113.307831
 21
48.0
 31
0.0
  0
LINE
  5
24A
  8
NOTE
  6
CONTINUOUS
 62
     4
 10
1090.201402
 20
49.0
 30
0.0
 11
1113.312085
 21
49.0
 31
0.0
  0
LINE
  5
24B
  8
NOTE
  6
CONTINUOUS
 62
     4
 10
1090.283984
 20
50.0
 30
0.0
 11
1113.229503
 21
50.0
 31
0.0
  0
LINE
  5
24C
  8
NOTE
  6
CONTINUOUS
 62
     4
 10
1090.455306
 20
51.0
 30
0.0
 11
1113.058182
 21
51.0
 31
0.0
  0
LINE
  5
24D
  8
NOTE
  6
CONTINUOUS
 62
     4
 10
1090.719498
 20
52.0
 30
0.0
 11
1112.79399
 21
52.0
 31
0.0
  0
LINE
  5
24E
  8
NOTE
  6
CONTINUOUS
 62
     4
 10
1091.083455
 20
53.0
 30
0.0
 11
1112.430032
 21
53.0
 31
0.0
  0
LINE
  5
24F
  8
NOTE
  6
CONTINUOUS
 62
     4
 10
1091.557853
 20
54.0
 30
0.0
 11
1111.955635
 21
54.0
 31
0.0
  0
LINE
  5
250
  8
NOTE
  6
CONTINUOUS
 62
     4
 10
1092.159053
 20
55.0
 30
0.0
 11
1111.354435
 21
55.0
 31
0.0
  0
LINE
  5
251
  8
NOTE
  6
CONTINUOUS
 62
     4
 10
1092.912878
 20
56.0
 30
0.0
 11
1110.60061
 21
56.0
 31
0.0
  0
LINE
  5
252
  8
NOTE
  6
CONTINUOUS
 62
     4
 10
1093.862932
 20
57.0
 30
0.0
 11
1109.650555
 21
57.0
 31
0.0
  0
LINE
  5
253
  8
NOTE
  6
CONTINUOUS
 62
     4
 10
1095.092619
 20
58.0
 30
0.0
 11
1108.420868
 21
58.0
 31
0.0
  0
LINE
  5
254
  8
NOTE
  6
CONTINUOUS
 62
     4
 10
1096.806103
 20
59.0
 30
0.0
 11
1106.707384
 21
59.0
 31
0.0
  0
LINE
  5
255
  8
NOTE
  6
CONTINUOUS
 62
     4
 10
1100.142081
 20
60.0
 30
0.0
 11
1103.371407
 21
60.0
 31
0.0
  0
LINE
  5
256
  8
NOTE
  6
CONTINUOUS
 62
     4
 10
1100.625011
 20
50.286162
 30
0.0
 11
1329.825797
 21
-424.936546
 31
0.0
  0
LINE
  5
257
  8
NOTE
  6
CONTINUOUS
 62
     4
 10
1688.318905
 20
-424.936546
 30
0.0
 11
1329.825797
 21
-424.936546
 31
0.0
  0
LINE
  5
258
  8
NOTE
  6
CONTINUOUS
 62
     4
 10
-596.743734
 20
453.021293
 30
0.0
 11
-573.0
 21
433.0
 31
0.0
210
0.0
220
0.0
230
-1.0
  0
LINE
  5
259
  8
NOTE
  6
CONTINUOUS
 62
     4
 10
-573.0
 20
433.0
 30
0.0
 11
-583.55203
 21
462.210816
 31
0.0
210
0.0
220
0.0
230
-1.0
  0
LINE
  5
25B
  8
NOTE
  6
CONTINUOUS
 62
     4
 10
-573.0
 20
433.0
 30
0.0
 11
-811.380404
 21
775.198815
 31
0.0
210
0.0
220
0.0
230
-1.0
  0
LINE
  5
25C
  8
NOTE
  6
CONTINUOUS
 62
     4
 10
584.924086
 20
297.33454
 30
0.0
 11
580.0
 21
328.0
 31
0.0
210
0.0
220
0.0
230
-1.0
  0
LINE
  5
25D
  8
NOTE
  6
CONTINUOUS
 62
     4
 10
580.0
 20
328.0
 30
0.0
 11
568.931654
 21
298.980889
 31
0.0
210
0.0
220
0.0
230
-1.0
  0
LINE
  5
25F
  8
NOTE
  6
CONTINUOUS
 62
     4
 10
580.0
 20
328.0
 30
0.0
 11
534.547239
 21
-113.522424
 31
0.0
210
0.0
220
0.0
230
-1.0
  0
LINE
  5
260
  8
NOTE
  6
CONTINUOUS
 62
     4
 10
627.684467
 20
261.776559
 30
0.0
 11
616.0
 21
233.0
 31
0.0
210
0.0
220
0.0
230
-1.0
  0
LINE
  5
261
  8
NOTE
  6
CONTINUOUS
 62
     4
 10
616.0
 20
233.0
 30
0.0
 11
640.507324
 21
252.078997
 31
0.0
210
0.0
220
0.0
230
-1.0
  0
LINE
  5
263
  8
NOTE
  6
CONTINUOUS
 62
     4
 10
616.0
 20
233.0
 30
0.0
 11
868.806215
 21
567.279721
 31
0.0
210
0.0
220
0.0
230
-1.0
  0
LINE
  5
264
  8
NOTE
  6
CONTINUOUS
 62
     4
 10
-557.208934
 20
275.900607
 30
0.0
 11
-580.0
 21
297.0
 31
0.0
  0
LINE
  5
265
  8
NOTE
  6
CONTINUOUS
 62
     4
 10
-580.0
 20
297.0
 30
0.0
 11
-549.712661
 21
290.122922
 31
0.0
  0
LINE
  5
267
  8
NOTE
  6
CONTINUOUS
 62
     4
 10
-580.0
 20
297.0
 30
0.0
 11
-390.336748
 21
197.032632
 31
0.0
  0
LINE
  5
268
  8
NOTE
  6
CONTINUOUS
 62
     4
 10
639.839445
 20
284.028995
 30
0.0
 11
619.0
 21
261.0
 31
0.0
  0
LINE
  5
269
  8
NOTE
  6
CONTINUOUS
 62
     4
 10
619.0
 20
261.0
 30
0.0
 11
625.532991
 21
291.363417
 31
0.0
  0
LINE
  5
26B
  8
NOTE
  6
CONTINUOUS
 62
     4
 10
619.0
 20
261.0
 30
0.0
 11
861.517073
 21
737.952664
 31
0.0
  0
LINE
  5
26C
  8
NOTE
  6
CONTINUOUS
 62
     4
 10
-555.314079
 20
180.242792
 30
0.0
 11
-551.0
 21
211.0
 31
0.0
  0
LINE
  5
26D
  8
NOTE
  6
CONTINUOUS
 62
     4
 10
-551.0
 20
211.0
 30
0.0
 11
-539.357498
 21
182.206437
 31
0.0
  0
LINE
  5
26F
  8
NOTE
  6
CONTINUOUS
 62
     4
 10
-551.0
 20
211.0
 30
0.0
 11
-513.307422
 21
-95.289909
 31
0.0
  0
ENDSEC
  0
EOF
