  0
SECTION
  2
HEADER
  9
$ACADVER
  1
AC1009
  9
$INSBASE
 10
0.0
 20
0.0
 30
0.0
  9
$EXTMIN
 10
-1183.443927
 20
-431.946868
 30
-0.001526
  9
$EXTMAX
 10
1406.710158
 20
1273.958402
 30
0.0
  9
$LIMMIN
 10
-4267.152221
 20
-2696.08321
  9
$LIMMAX
 10
7190.717423
 20
5141.155364
  9
$ORTHOMODE
 70
     0
  9
$REGENMODE
 70
     1
  9
$FILLMODE
 70
     1
  9
$QTEXTMODE
 70
     0
  9
$MIRRTEXT
 70
     0
  9
$DRAGMODE
 70
     2
  9
$LTSCALE
 40
20.0
  9
$OSMODE
 70
    37
  9
$ATTMODE
 70
     1
  9
$TEXTSIZE
 40
64.0
  9
$TRACEWID
 40
0.05
  9
$TEXTSTYLE
  7
STANDARD1
  9
$CLAYER
  8
NOTE
  9
$CELTYPE
  6
CONTINUOUS
  9
$CECOLOR
 62
     7
  9
$DIMSCALE
 40
1.0
  9
$DIMASZ
 40
30.0
  9
$DIMEXO
 40
15.0
  9
$DIMDLI
 40
80.0
  9
$DIMRND
 40
0.0
  9
$DIMDLE
 40
0.0
  9
$DIMEXE
 40
15.0
  9
$DIMTP
 40
0.0
  9
$DIMTM
 40
0.0
  9
$DIMTXT
 40
50.0
  9
$DIMCEN
 40
0.09
  9
$DIMTSZ
 40
0.0
  9
$DIMTOL
 70
     0
  9
$DIMLIM
 70
     0
  9
$DIMTIH
 70
     0
  9
$DIMTOH
 70
     0
  9
$DIMSE1
 70
     0
  9
$DIMSE2
 70
     0
  9
$DIMTAD
 70
     1
  9
$DIMZIN
 70
     8
  9
$DIMBLK
  1
_SMALL
  9
$DIMASO
 70
     1
  9
$DIMSHO
 70
     0
  9
$DIMPOST
  1

  9
$DIMAPOST
  1

  9
$DIMALT
 70
     0
  9
$DIMALTD
 70
     2
  9
$DIMALTF
 40
25.4
  9
$DIMLFAC
 40
1.0
  9
$DIMTOFL
 70
     1
  9
$DIMTVP
 40
0.0
  9
$DIMTIX
 70
     0
  9
$DIMSOXD
 70
     0
  9
$DIMSAH
 70
     0
  9
$DIMBLK1
  1

  9
$DIMBLK2
  1

  9
$DIMSTYLE
  2
STANDARD
  9
$DIMCLRD
 70
     0
  9
$DIMCLRE
 70
     0
  9
$DIMCLRT
 70
     0
  9
$DIMTFAC
 40
1.0
  9
$DIMGAP
 40
0.09
  9
$LUNITS
 70
     2
  9
$LUPREC
 70
     4
  9
$SKETCHINC
 40
0.1
  9
$FILLETRAD
 40
0.8
  9
$AUNITS
 70
     1
  9
$AUPREC
 70
     3
  9
$MENU
  1
ACAD
  9
$ELEVATION
 40
0.0
  9
$PELEVATION
 40
0.0
  9
$THICKNESS
 40
0.0
  9
$LIMCHECK
 70
     0
  9
$BLIPMODE
 70
     0
  9
$CHAMFERA
 40
0.0
  9
$CHAMFERB
 40
0.0
  9
$SKPOLY
 70
     0
  9
$TDCREATE
 40
2450330.439931
  9
$TDUPDATE
 40
2454645.622817
  9
$TDINDWG
 40
4.12997
  9
$TDUSRTIMER
 40
4.12997
  9
$USRTIMER
 70
     1
  9
$ANGBASE
 50
0.0
  9
$ANGDIR
 70
     0
  9
$PDMODE
 70
     3
  9
$PDSIZE
 40
-2.0
  9
$PLINEWID
 40
0.0
  9
$COORDS
 70
     0
  9
$SPLFRAME
 70
     0
  9
$SPLINETYPE
 70
     6
  9
$SPLINESEGS
 70
     8
  9
$ATTDIA
 70
     0
  9
$ATTREQ
 70
     1
  9
$HANDLING
 70
     1
  9
$HANDSEED
  5
235
  9
$SURFTAB1
 70
     6
  9
$SURFTAB2
 70
     6
  9
$SURFTYPE
 70
     6
  9
$SURFU
 70
     6
  9
$SURFV
 70
     6
  9
$UCSNAME
  2

  9
$UCSORG
 10
0.0
 20
0.0
 30
0.0
  9
$UCSXDIR
 10
1.0
 20
0.0
 30
0.0
  9
$UCSYDIR
 10
0.0
 20
1.0
 30
0.0
  9
$PUCSNAME
  2

  9
$PUCSORG
 10
0.0
 20
0.0
 30
0.0
  9
$PUCSXDIR
 10
1.0
 20
0.0
 30
0.0
  9
$PUCSYDIR
 10
0.0
 20
1.0
 30
0.0
  9
$USERI1
 70
     0
  9
$USERI2
 70
     0
  9
$USERI3
 70
     0
  9
$USERI4
 70
     0
  9
$USERI5
 70
     0
  9
$USERR1
 40
20.0
  9
$USERR2
 40
0.0
  9
$USERR3
 40
0.0
  9
$USERR4
 40
0.0
  9
$USERR5
 40
0.0
  9
$WORLDVIEW
 70
     1
  9
$SHADEDGE
 70
     3
  9
$SHADEDIF
 70
    70
  9
$TILEMODE
 70
     1
  9
$MAXACTVP
 70
    48
  9
$PLIMCHECK
 70
     0
  9
$PEXTMIN
 10
1.000000E+020
 20
1.000000E+020
 30
1.000000E+020
  9
$PEXTMAX
 10
-1.000000E+020
 20
-1.000000E+020
 30
-1.000000E+020
  9
$PLIMMIN
 10
0.0
 20
0.0
  9
$PLIMMAX
 10
12.0
 20
9.0
  9
$UNITMODE
 70
     0
  9
$VISRETAIN
 70
     1
  9
$PLINEGEN
 70
     0
  9
$PSLTSCALE
 70
     1
  0
ENDSEC
  0
SECTION
  2
TABLES
  0
TABLE
  2
VPORT
 70
     2
  0
VPORT
  2
*ACTIVE
 70
     0
 10
0.0
 20
0.0
 11
1.0
 21
1.0
 12
1829.622071
 22
1222.536077
 13
0.0
 23
0.0
 14
50.0
 24
50.0
 15
100.0
 25
100.0
 16
0.0
 26
0.0
 36
1.0
 17
0.0
 27
0.0
 37
0.0
 40
7837.238574
 41
1.555848
 42
50.0
 43
0.0
 44
0.0
 50
0.0
 51
0.0
 71
     0
 72
  1000
 73
     1
 74
     0
 75
     0
 76
     0
 77
     0
 78
     0
  0
ENDTAB
  0
TABLE
  2
LTYPE
 70
     2
  0
LTYPE
  2
CONTINUOUS
 70
     0
  3
実線
 72
    65
 73
     0
 40
0.0
  0
LTYPE
  2
DASHDOT
 70
     0
  3
____ _ ____ _ ____ _ ____ _ ____ _ ____ _ ____
 72
    65
 73
     4
 40
5.5
 49
4.0
 49
-0.6
 49
0.3
 49
-0.6
  0
ENDTAB
  0
TABLE
  2
LAYER
 70
    12
  0
LAYER
  2
0
 70
     0
 62
     7
  6
CONTINUOUS
  0
LAYER
  2
NOTE
 70
     0
 62
     4
  6
CONTINUOUS
  0
LAYER
  2
OUTLINE
 70
     0
 62
     3
  6
CONTINUOUS
  0
LAYER
  2
DETAIL
 70
     0
 62
     5
  6
CONTINUOUS
  0
LAYER
  2
BASIS
 70
     0
 62
     6
  6
DASHDOT
  0
LAYER
  2
SIZE
 70
     0
 62
    30
  6
CONTINUOUS
  0
LAYER
  2
ARRANGE
 70
     0
 62
     1
  6
CONTINUOUS
  0
LAYER
  2
FIX
 70
     0
 62
    11
  6
CONTINUOUS
  0
LAYER
  2
SERVICESPACE
 70
     0
 62
     2
  6
DASHDOT
  0
LAYER
  2
ETC
 70
     0
 62
    61
  6
CONTINUOUS
  0
LAYER
  2
SYMBOLLINE
 70
     0
 62
    15
  6
CONTINUOUS
  0
LAYER
  2
DEFPOINTS
 70
     0
 62
     7
  6
CONTINUOUS
  0
ENDTAB
  0
TABLE
  2
STYLE
 70
     3
  0
STYLE
  2
STANDARD
 70
     0
 40
0.0
 41
0.9
 50
0.0
 71
     0
 42
64.0
  3
SIMPLEX
  4
BIGFONT
  0
STYLE
  2
STANDARD1
 70
     0
 40
0.0
 41
1.0
 50
0.0
 71
     0
 42
64.0
  3
MONOTXT
  4
BIGFONT
  0
STYLE
  2

 70
     1
 40
0.0
 41
1.0
 50
0.0
 71
     0
 42
64.0
  3
ltypeshp.shx
  4

  0
ENDTAB
  0
TABLE
  2
VIEW
 70
     1
  0
VIEW
  2
ALL
 70
     0
 40
9000.0
 10
241.506647
 20
0.0
 41
12483.01
 11
0.0
 21
0.0
 31
1.0
 12
0.0
 22
0.0
 32
0.0
 42
50.0
 43
0.0
 44
0.0
 50
0.0
 71
     0
  0
ENDTAB
  0
TABLE
  2
UCS
 70
     0
  0
ENDTAB
  0
TABLE
  2
APPID
 70
     1
  0
APPID
  2
ACAD
 70
     0
  0
ENDTAB
  0
TABLE
  2
DIMSTYLE
 70
     1
  0
DIMSTYLE
  2
STANDARD
 70
     0
  3

  4

  5

  6

  7

 40
1.0
 41
0.18
 42
0.0625
 43
0.38
 44
0.18
 45
0.0
 46
0.0
 47
0.0
 48
0.0
140
0.18
141
0.09
142
0.0
143
25.4
144
1.0
145
0.0
146
1.0
147
0.09
 71
     0
 72
     0
 73
     1
 74
     1
 75
     0
 76
     0
 77
     0
 78
     0
170
     0
171
     2
172
     0
173
     0
174
     0
175
     0
176
     0
177
     0
178
     0
  0
ENDTAB
  0
ENDSEC
  0
SECTION
  2
BLOCKS
  0
BLOCK
  8
0
  2
$MODEL_SPACE
 70
     0
 10
0.0
 20
0.0
 30
0.0
  3
$MODEL_SPACE
  1

  0
ENDBLK
  5
1A
  8
0
  0
BLOCK
 67
     1
  8
0
  2
$PAPER_SPACE
 70
     0
 10
0.0
 20
0.0
 30
0.0
  3
$PAPER_SPACE
  1

  0
ENDBLK
  5
17
 67
     1
  8
0
  0
BLOCK
  8
0
  2
_SMALL
 70
     0
 10
0.0
 20
0.0
 30
0.0
  3
_SMALL
  1

  0
CIRCLE
  5
34
  8
0
  6
CONTINUOUS
 62
     7
 10
0.0
 20
0.0
 30
0.0
 40
0.25
  0
ENDBLK
  5
35
  8
0
  0
ENDSEC
  0
SECTION
  2
ENTITIES
  0
TEXT
  5
36
  8
ETC
  6
CONTINUOUS
 62
    61
 10
-1182.98046
 20
1208.762072
 30
0.0
 40
65.0
  1
MPD-RP71_80FA3(F-BOX)_4
 50
0.000003
 41
0.85
  7
STANDARD1
  0
LINE
  5
37
  8
ARRANGE
  6
CONTINUOUS
 62
     1
 10
-49.963763
 20
49.596595
 30
0.0
 11
49.963763
 21
-49.596595
 31
0.0
  0
CIRCLE
  5
38
  8
ARRANGE
  6
CONTINUOUS
 62
     1
 10
0.0
 20
0.0
 30
0.0
 40
50.0
  0
LINE
  5
39
  8
ARRANGE
  6
CONTINUOUS
 62
     1
 10
-50.03735
 20
-49.522353
 30
0.0
 11
50.03735
 21
49.522353
 31
0.0
  0
ARC
  5
3A
  8
OUTLINE
  6
CONTINUOUS
 62
     3
 10
-366.699904
 20
140.800203
 30
0.0
 40
0.800096
 50
179.999189
 51
270.0
  0
ARC
  5
3B
  8
DETAIL
  6
CONTINUOUS
 62
     5
 10
-366.7
 20
140.800107
 30
0.0
 40
0.8
 50
180.0
 51
270.0
  0
LINE
  5
3C
  8
DETAIL
  6
CONTINUOUS
 62
     5
 10
-369.50024
 20
166.984432
 30
0.0
 11
-367.5
 21
166.984432
 31
0.0
  0
ARC
  5
3D
  8
DETAIL
  6
CONTINUOUS
 62
     5
 10
-371.500479
 20
186.998802
 30
0.0
 40
2.00024
 50
0.0
 51
90.0
  0
LINE
  5
3E
  8
DETAIL
  6
CONTINUOUS
 62
     5
 10
-378.501317
 20
188.999042
 30
0.0
 11
-371.500479
 21
188.999042
 31
0.0
  0
LINE
  5
3F
  8
DETAIL
  6
CONTINUOUS
 62
     5
 10
-402.504191
 20
197.0
 30
0.0
 11
-437.5
 21
199.5
 31
0.0
  0
ARC
  5
40
  8
DETAIL
  6
CONTINUOUS
 62
     5
 10
-384.502036
 20
194.99976
 30
0.0
 40
2.00024
 50
0.0
 51
90.0
  0
LINE
  5
41
  8
DETAIL
  6
CONTINUOUS
 62
     5
 10
-402.504191
 20
197.0
 30
0.0
 11
-384.502036
 21
197.0
 31
0.0
  0
ARC
  5
42
  8
DETAIL
  6
CONTINUOUS
 62
     5
 10
-378.501317
 20
192.999521
 30
0.0
 40
4.000479
 50
180.0
 51
270.0
  0
ARC
  5
43
  8
DETAIL
  6
CONTINUOUS
 62
     5
 10
-371.500479
 20
407.001198
 30
0.0
 40
2.00024
 50
270.0
 51
0.0
  0
LINE
  5
44
  8
DETAIL
  6
CONTINUOUS
 62
     5
 10
-402.504191
 20
397.0
 30
0.0
 11
-384.502036
 21
397.0
 31
0.0
  0
LINE
  5
45
  8
DETAIL
  6
CONTINUOUS
 62
     5
 10
-402.504191
 20
397.0
 30
0.0
 11
-437.5
 21
394.5
 31
0.0
  0
ARC
  5
46
  8
DETAIL
  6
CONTINUOUS
 62
     5
 10
-384.502036
 20
399.00024
 30
0.0
 40
2.00024
 50
270.0
 51
0.0
  0
LINE
  5
47
  8
DETAIL
  6
CONTINUOUS
 62
     5
 10
-402.504191
 20
197.0
 30
0.0
 11
-402.504191
 21
397.0
 31
0.0
  0
LINE
  5
48
  8
DETAIL
  6
CONTINUOUS
 62
     5
 10
-437.5
 20
199.5
 30
0.0
 11
-437.5
 21
394.5
 31
0.0
  0
LINE
  5
49
  8
DETAIL
  6
CONTINUOUS
 62
     5
 10
-382.501796
 20
401.000479
 30
0.0
 11
-382.501796
 21
192.999521
 31
0.0
  0
LINE
  5
4A
  8
DETAIL
  6
CONTINUOUS
 62
     5
 10
-378.501317
 20
405.000958
 30
0.0
 11
-371.500479
 21
405.000958
 31
0.0
  0
ARC
  5
4B
  8
DETAIL
  6
CONTINUOUS
 62
     5
 10
-378.501317
 20
401.000479
 30
0.0
 40
4.000479
 50
90.0
 51
180.0
  0
LINE
  5
4C
  8
DETAIL
  6
CONTINUOUS
 62
     5
 10
-369.50024
 20
427.015568
 30
0.0
 11
-369.50024
 21
407.001198
 31
0.0
  0
LINE
  5
4D
  8
DETAIL
  6
CONTINUOUS
 62
     5
 10
-369.50024
 20
427.015568
 30
0.0
 11
-367.5
 21
427.015568
 31
0.0
  0
LINE
  5
4E
  8
DETAIL
  6
CONTINUOUS
 62
     5
 10
-367.5
 20
432.4
 30
0.0
 11
-367.5
 21
140.8
 31
0.0
  0
LINE
  5
50
  8
DETAIL
  6
CONTINUOUS
 62
     5
 10
-362.889641
 20
433.0
 30
0.0
 11
-362.889641
 21
392.995809
 31
0.0
  0
LINE
  5
51
  8
DETAIL
  6
CONTINUOUS
 62
     5
 10
367.5
 20
433.0
 30
0.0
 11
367.5
 21
132.0
 31
0.0
  0
LINE
  5
52
  8
DETAIL
  6
CONTINUOUS
 62
     5
 10
-366.7
 20
140.0
 30
0.0
 11
366.7
 21
140.0
 31
0.0
  0
ARC
  5
54
  8
DETAIL
  6
CONTINUOUS
 62
     5
 10
362.699641
 20
392.996084
 30
0.0
 40
3.000359
 50
270.0
 51
0.0
  0
LINE
  5
55
  8
DETAIL
  6
CONTINUOUS
 62
     5
 10
345.500359
 20
420.998838
 30
0.0
 11
362.699641
 21
420.998838
 31
0.0
  0
LINE
  5
56
  8
DETAIL
  6
CONTINUOUS
 62
     5
 10
342.5
 20
433.0
 30
0.0
 11
342.5
 21
423.999198
 31
0.0
  0
ARC
  5
57
  8
DETAIL
  6
CONTINUOUS
 62
     5
 10
362.699641
 20
423.999198
 30
0.0
 40
3.000359
 50
270.0
 51
0.0
  0
ARC
  5
58
  8
DETAIL
  6
CONTINUOUS
 62
     5
 10
345.500359
 20
423.999198
 30
0.0
 40
3.000359
 50
180.0
 51
270.0
  0
ARC
  5
59
  8
DETAIL
  6
CONTINUOUS
 62
     5
 10
310.300359
 20
415.998838
 30
0.0
 40
3.000359
 50
180.0
 51
270.0
  0
ARC
  5
5A
  8
DETAIL
  6
CONTINUOUS
 62
     5
 10
324.112658
 20
392.996084
 30
0.0
 40
3.000359
 50
180.0
 51
270.0
  0
LINE
  5
5B
  8
DETAIL
  6
CONTINUOUS
 62
     5
 10
324.112658
 20
389.995725
 30
0.0
 11
362.699641
 21
389.995725
 31
0.0
  0
LINE
  5
5C
  8
DETAIL
  6
CONTINUOUS
 62
     5
 10
307.3
 20
433.0
 30
0.0
 11
307.3
 21
415.998838
 31
0.0
  0
ARC
  5
5D
  8
DETAIL
  6
CONTINUOUS
 62
     5
 10
327.499641
 20
423.999198
 30
0.0
 40
3.000359
 50
270.0
 51
0.0
  0
LINE
  5
5E
  8
DETAIL
  6
CONTINUOUS
 62
     5
 10
330.5
 20
433.0
 30
0.0
 11
330.5
 21
423.999198
 31
0.0
  0
LINE
  5
5F
  8
DETAIL
  6
CONTINUOUS
 62
     5
 10
327.499641
 20
420.998838
 30
0.0
 11
310.300359
 21
420.998838
 31
0.0
  0
ARC
  5
60
  8
DETAIL
  6
CONTINUOUS
 62
     5
 10
310.300359
 20
423.999198
 30
0.0
 40
3.000359
 50
180.0
 51
270.0
  0
LINE
  5
61
  8
DETAIL
  6
CONTINUOUS
 62
     5
 10
342.5
 20
430.7
 30
0.0
 11
330.5
 21
430.7
 31
0.0
  0
LINE
  5
62
  8
DETAIL
  6
CONTINUOUS
 62
     5
 10
310.300359
 20
412.998479
 30
0.0
 11
321.112299
 21
412.998479
 31
0.0
  0
LINE
  5
63
  8
DETAIL
  6
CONTINUOUS
 62
     5
 10
321.112299
 20
412.998479
 30
0.0
 11
321.112299
 21
392.996084
 31
0.0
  0
LINE
  5
64
  8
DETAIL
  6
CONTINUOUS
 62
     5
 10
-339.38708
 20
433.0
 30
0.0
 11
-339.38708
 21
423.998922
 31
0.0
  0
ARC
  5
65
  8
DETAIL
  6
CONTINUOUS
 62
     5
 10
-342.387439
 20
423.998922
 30
0.0
 40
3.000359
 50
270.0
 51
0.0
  0
LINE
  5
66
  8
DETAIL
  6
CONTINUOUS
 62
     5
 10
-339.38708
 20
430.699725
 30
0.0
 11
-327.385643
 21
430.699725
 31
0.0
  0
ARC
  5
67
  8
DETAIL
  6
CONTINUOUS
 62
     5
 10
-359.889535
 20
392.995809
 30
0.0
 40
3.000359
 50
180.0
 51
270.0
  0
LINE
  5
68
  8
DETAIL
  6
CONTINUOUS
 62
     5
 10
-342.387439
 20
420.998563
 30
0.0
 11
-359.889535
 21
420.998563
 31
0.0
  0
ARC
  5
69
  8
DETAIL
  6
CONTINUOUS
 62
     5
 10
-359.889535
 20
423.998922
 30
0.0
 40
3.000359
 50
180.0
 51
270.0
  0
LINE
  5
6A
  8
DETAIL
  6
CONTINUOUS
 62
     5
 10
-327.385643
 20
433.0
 30
0.0
 11
-327.385643
 21
423.998922
 31
0.0
  0
ARC
  5
6B
  8
DETAIL
  6
CONTINUOUS
 62
     5
 10
-306.883188
 20
415.998563
 30
0.0
 40
3.000359
 50
270.0
 51
0.0
  0
LINE
  5
6C
  8
DETAIL
  6
CONTINUOUS
 62
     5
 10
-303.882829
 20
433.0
 30
0.0
 11
-303.882829
 21
415.998563
 31
0.0
  0
ARC
  5
6D
  8
DETAIL
  6
CONTINUOUS
 62
     5
 10
-324.385284
 20
423.998922
 30
0.0
 40
3.000359
 50
180.0
 51
270.0
  0
LINE
  5
6E
  8
DETAIL
  6
CONTINUOUS
 62
     5
 10
-324.385284
 20
420.998563
 30
0.0
 11
-306.383128
 21
420.998563
 31
0.0
  0
ARC
  5
6F
  8
DETAIL
  6
CONTINUOUS
 62
     5
 10
-306.883188
 20
423.998922
 30
0.0
 40
3.000359
 50
270.0
 51
0.0
  0
LINE
  5
70
  8
DETAIL
  6
CONTINUOUS
 62
     5
 10
-306.883188
 20
412.998204
 30
0.0
 11
-317.884505
 21
412.998204
 31
0.0
  0
LINE
  5
71
  8
DETAIL
  6
CONTINUOUS
 62
     5
 10
-359.889535
 20
389.995449
 30
0.0
 11
-320.884864
 21
389.995449
 31
0.0
  0
ARC
  5
72
  8
DETAIL
  6
CONTINUOUS
 62
     5
 10
-320.884864
 20
392.995809
 30
0.0
 40
3.000359
 50
270.0
 51
0.0
  0
LINE
  5
73
  8
DETAIL
  6
CONTINUOUS
 62
     5
 10
-317.884505
 20
412.998204
 30
0.0
 11
-317.884505
 21
392.995809
 31
0.0
  0
LINE
  5
74
  8
DETAIL
  6
CONTINUOUS
 62
     5
 10
365.7
 20
433.0
 30
0.0
 11
365.7
 21
392.996084
 31
0.0
  0
LINE
  5
75
  8
NOTE
  6
CONTINUOUS
 62
     4
 10
336.5
 20
453.002257
 30
0.0
 11
336.5
 21
412.997743
 31
0.0
  0
LINE
  5
76
  8
NOTE
  6
CONTINUOUS
 62
     4
 10
-333.5
 20
453.002395
 30
0.0
 11
-333.5
 21
412.997605
 31
0.0
  0
LINE
  5
77
  8
DETAIL
  6
CONTINUOUS
 62
     5
 10
461.5
 20
433.0
 30
0.0
 11
-366.9
 21
433.0
 31
0.0
  0
LINE
  5
78
  8
NOTE
  6
CONTINUOUS
 62
     4
 10
-558.581104
 20
-29.66727
 30
0.0
 11
-1170.526849
 21
-29.66727
 31
0.0
  0
TEXT
  5
79
  8
NOTE
  6
CONTINUOUS
 62
     4
 10
-1154.152106
 20
-14.871602
 30
0.0
 40
60.0
  1
%%C200 吹出円形フランジ
 50
0.000003
 41
0.7
  7
STANDARD1
  0
LINE
  5
7A
  8
NOTE
  6
CONTINUOUS
 62
     4
 10
-437.5
 20
368.944515
 30
0.0
 11
-437.5
 21
225.055485
 31
0.0
  0
LINE
  5
7B
  8
NOTE
  6
CONTINUOUS
 62
     4
 10
-509.444515
 20
297.0
 30
0.0
 11
-365.555485
 21
297.0
 31
0.0
  0
LINE
  5
7C
  8
BASIS
  6
DASHDOT
 62
     6
 10
0.0
 20
-58.000958
 30
0.0
 11
0.0
 21
504.568065
 31
0.0
  0
CIRCLE
  5
7D
  8
FIX
  6
CONTINUOUS
 62
    11
 10
-333.5
 20
433.0
 30
0.0
 40
18.598564
  0
LINE
  5
7E
  8
NOTE
  6
CONTINUOUS
 62
     4
 10
-353.500958
 20
433.0
 30
0.0
 11
-313.499042
 21
433.0
 31
0.0
  0
CIRCLE
  5
7F
  8
FIX
  6
CONTINUOUS
 62
    11
 10
336.5
 20
433.0
 30
0.0
 40
18.598564
  0
LINE
  5
80
  8
NOTE
  6
CONTINUOUS
 62
     4
 10
316.499042
 20
433.0
 30
0.0
 11
356.500958
 21
433.0
 31
0.0
  0
LINE
  5
81
  8
SIZE
  6
CONTINUOUS
 62
    30
 10
336.5
 20
468.002257
 30
0.0
 11
336.5
 21
874.347598
 31
0.0
  0
LINE
  5
82
  8
SIZE
  6
CONTINUOUS
 62
    30
 10
-333.5
 20
468.002395
 30
0.0
 11
-333.5
 21
874.347598
 31
0.0
  0
LINE
  5
83
  8
SIZE
  6
CONTINUOUS
 62
    30
 10
336.5
 20
859.347598
 30
0.0
 11
-333.5
 21
859.347598
 31
0.0
  0
CIRCLE
  5
84
  8
SIZE
  6
CONTINUOUS
 62
    30
 10
336.5
 20
859.347598
 30
0.0
 40
7.5
  0
CIRCLE
  5
85
  8
SIZE
  6
CONTINUOUS
 62
    30
 10
-333.5
 20
859.347598
 30
0.0
 40
7.5
  0
TEXT
  5
86
  8
SIZE
  6
CONTINUOUS
 62
    30
 10
-304.52102
 20
887.442836
 30
0.0
 40
50.0
  1
670(吊りボルトピッチ)
 41
0.9
 72
     1
 11
-1.735306
 21
887.442836
 31
0.0
  0
POINT
  5
87
  8
DEFPOINTS
  6
CONTINUOUS
 62
     7
 10
336.5
 20
453.002257
 30
0.0
  0
POINT
  5
88
  8
DEFPOINTS
  6
CONTINUOUS
 62
     7
 10
-333.5
 20
453.002395
 30
0.0
  0
POINT
  5
89
  8
DEFPOINTS
  6
CONTINUOUS
 62
     7
 10
-333.5
 20
859.347598
 30
0.0
  0
ARC
  5
8A
  8
DETAIL
  6
CONTINUOUS
 62
     5
 10
366.700024
 20
140.8
 30
0.0
 40
0.8
 50
270.0
 51
0.0
  0
LINE
  5
8B
  8
SIZE
  6
CONTINUOUS
 62
    30
 10
381.700024
 20
140.0
 30
0.0
 11
1272.165672
 21
140.0
 31
0.0
  0
LINE
  5
8C
  8
SIZE
  6
CONTINUOUS
 62
    30
 10
521.500501
 20
0.0
 30
0.0
 11
1272.165672
 21
0.0
 31
0.0
  0
LINE
  5
8D
  8
SIZE
  6
CONTINUOUS
 62
    30
 10
1257.165672
 20
140.0
 30
0.0
 11
1257.165672
 21
0.0
 31
0.0
  0
LINE
  5
8E
  8
SIZE
  6
CONTINUOUS
 62
    30
 10
1257.165672
 20
0.0
 30
0.0
 11
1257.165672
 21
-351.428571
 31
0.0
  0
CIRCLE
  5
8F
  8
SIZE
  6
CONTINUOUS
 62
    30
 10
1257.165672
 20
140.0
 30
0.0
 40
7.5
  0
CIRCLE
  5
90
  8
SIZE
  6
CONTINUOUS
 62
    30
 10
1257.165672
 20
0.0
 30
0.0
 40
7.5
  0
TEXT
  5
91
  8
SIZE
  6
CONTINUOUS
 62
    30
 10
1242.165672
 20
-336.428571
 30
0.0
 40
50.0
  1
140-300
 50
90.0
 41
0.9
 72
     1
 11
1242.165672
 21
-190.714286
 31
0.0
  0
POINT
  5
92
  8
DEFPOINTS
  6
CONTINUOUS
 62
     7
 10
366.700024
 20
140.0
 30
0.0
  0
POINT
  5
93
  8
DEFPOINTS
  6
CONTINUOUS
 62
     7
 10
506.500501
 20
0.0
 30
0.0
  0
POINT
  5
94
  8
DEFPOINTS
  6
CONTINUOUS
 62
     7
 10
1257.165672
 20
0.0
 30
0.0
  0
LINE
  5
95
  8
SIZE
  6
CONTINUOUS
 62
    30
 10
381.700024
 20
140.0
 30
0.0
 11
1272.165672
 21
140.0
 31
0.0
  0
LINE
  5
96
  8
SIZE
  6
CONTINUOUS
 62
    30
 10
476.5
 20
433.0
 30
0.0
 11
1272.165672
 21
433.0
 31
0.0
  0
LINE
  5
97
  8
SIZE
  6
CONTINUOUS
 62
    30
 10
1257.165672
 20
140.0
 30
0.0
 11
1257.165672
 21
433.0
 31
0.0
  0
CIRCLE
  5
98
  8
SIZE
  6
CONTINUOUS
 62
    30
 10
1257.165672
 20
140.0
 30
0.0
 40
7.5
  0
CIRCLE
  5
99
  8
SIZE
  6
CONTINUOUS
 62
    30
 10
1257.165672
 20
433.0
 30
0.0
 40
7.5
  0
TEXT
  5
9A
  8
SIZE
  6
CONTINUOUS
 62
    30
 10
1242.165672
 20
208.642857
 30
0.0
 40
50.0
  1
293
 50
90.0
 41
0.9
 72
     1
 11
1242.165672
 21
266.5
 31
0.0
  0
POINT
  5
9B
  8
DEFPOINTS
  6
CONTINUOUS
 62
     7
 10
366.700024
 20
140.0
 30
0.0
  0
POINT
  5
9C
  8
DEFPOINTS
  6
CONTINUOUS
 62
     7
 10
461.5
 20
433.0
 30
0.0
  0
POINT
  5
9D
  8
DEFPOINTS
  6
CONTINUOUS
 62
     7
 10
1257.165672
 20
433.0
 30
0.0
  0
LINE
  5
9E
  8
SIZE
  6
CONTINUOUS
 62
    30
 10
-381.9
 20
433.0
 30
0.0
 11
-804.938258
 21
433.0
 31
0.0
  0
LINE
  5
9F
  8
SIZE
  6
CONTINUOUS
 62
    30
 10
-524.444515
 20
297.0
 30
0.0
 11
-804.938258
 21
297.0
 31
0.0
  0
LINE
  5
A0
  8
SIZE
  6
CONTINUOUS
 62
    30
 10
-789.938258
 20
433.0
 30
0.0
 11
-789.938258
 21
297.0
 31
0.0
  0
CIRCLE
  5
A1
  8
SIZE
  6
CONTINUOUS
 62
    30
 10
-789.938258
 20
433.0
 30
0.0
 40
7.5
  0
CIRCLE
  5
A2
  8
SIZE
  6
CONTINUOUS
 62
    30
 10
-789.938258
 20
297.0
 30
0.0
 40
7.5
  0
TEXT
  5
A3
  8
SIZE
  6
CONTINUOUS
 62
    30
 10
-804.938258
 20
304.110653
 30
0.0
 40
50.0
  1
136
 50
90.0
 41
0.9
 72
     1
 11
-804.938258
 21
356.610653
 31
0.0
  0
POINT
  5
A4
  8
DEFPOINTS
  6
CONTINUOUS
 62
     7
 10
353.497964
 20
433.0
 30
0.0
  0
POINT
  5
A5
  8
DEFPOINTS
  6
CONTINUOUS
 62
     7
 10
-509.444515
 20
297.0
 30
0.0
  0
POINT
  5
A6
  8
DEFPOINTS
  6
CONTINUOUS
 62
     7
 10
-789.938258
 20
297.0
 30
0.0
  0
ARC
  5
A7
  8
DETAIL
  6
CONTINUOUS
 62
     5
 10
-366.9
 20
432.4
 30
0.0
 40
0.6
 50
90.0
 51
180.0
  0
LINE
  5
A8
  8
SIZE
  6
CONTINUOUS
 62
    30
 10
-333.5
 20
468.002395
 30
0.0
 11
-333.5
 21
874.347598
 31
0.0
  0
LINE
  5
A9
  8
SIZE
  6
CONTINUOUS
 62
    30
 10
-367.5
 20
447.4
 30
0.0
 11
-367.5
 21
874.347598
 31
0.0
  0
LINE
  5
AA
  8
SIZE
  6
CONTINUOUS
 62
    30
 10
-333.5
 20
859.347598
 30
0.0
 11
-367.5
 21
859.347598
 31
0.0
  0
LINE
  5
AB
  8
SIZE
  6
CONTINUOUS
 62
    30
 10
-367.5
 20
859.347598
 30
0.0
 11
-541.635402
 21
859.347598
 31
0.0
  0
CIRCLE
  5
AC
  8
SIZE
  6
CONTINUOUS
 62
    30
 10
-333.5
 20
859.347598
 30
0.0
 40
7.5
  0
CIRCLE
  5
AD
  8
SIZE
  6
CONTINUOUS
 62
    30
 10
-367.5
 20
859.347598
 30
0.0
 40
7.5
  0
TEXT
  5
AE
  8
SIZE
  6
CONTINUOUS
 62
    30
 10
-526.635402
 20
874.347598
 30
0.0
 40
50.0
  1
34
 41
0.9
 72
     1
 11
-489.135402
 21
874.347598
 31
0.0
  0
POINT
  5
AF
  8
DEFPOINTS
  6
CONTINUOUS
 62
     7
 10
-333.5
 20
453.002395
 30
0.0
  0
POINT
  5
B0
  8
DEFPOINTS
  6
CONTINUOUS
 62
     7
 10
-367.5
 20
432.4
 30
0.0
  0
POINT
  5
B1
  8
DEFPOINTS
  6
CONTINUOUS
 62
     7
 10
-367.5
 20
859.347598
 30
0.0
  0
LINE
  5
B2
  8
DETAIL
  6
CONTINUOUS
 62
     5
 10
-369.50024
 20
186.998802
 30
0.0
 11
-369.50024
 21
166.984432
 31
0.0
  0
ARC
  5
B3
  8
OUTLINE
  6
CONTINUOUS
 62
     3
 10
-366.9
 20
432.4
 30
0.0
 40
0.6
 50
90.0
 51
180.0
  0
ARC
  5
B4
  8
OUTLINE
  6
CONTINUOUS
 62
     3
 10
366.700024
 20
140.8
 30
0.0
 40
0.8
 50
269.998255
 51
0.0
  0
LINE
  5
B5
  8
OUTLINE
  6
CONTINUOUS
 62
     3
 10
461.5
 20
433.0
 30
0.0
 11
-366.9
 21
432.4
 31
0.0
  0
LINE
  5
B6
  8
OUTLINE
  6
CONTINUOUS
 62
     3
 10
367.5
 20
433.0
 30
0.0
 11
367.5
 21
132.0
 31
0.0
  0
LINE
  5
B7
  8
OUTLINE
  6
CONTINUOUS
 62
     3
 10
-366.699904
 20
140.0
 30
0.0
 11
366.699976
 21
140.0
 31
0.0
  0
ARC
  5
B8
  8
OUTLINE
  6
CONTINUOUS
 62
     3
 10
-366.699904
 20
140.800096
 30
0.0
 40
0.800096
 50
179.999189
 51
270.0
  0
LINE
  5
B9
  8
OUTLINE
  6
CONTINUOUS
 62
     3
 10
-367.5
 20
432.4
 30
0.0
 11
-367.5
 21
140.800107
 31
0.0
  0
ARC
  5
BA
  8
DETAIL
  6
CONTINUOUS
 62
     5
 10
-366.7
 20
140.8
 30
0.0
 40
0.8
 50
180.0
 51
270.0
  0
LINE
  5
BB
  8
DETAIL
  6
CONTINUOUS
 62
     5
 10
490.5
 20
160.0
 30
0.0
 11
490.5
 21
411.0
 31
0.0
  0
CIRCLE
  5
BC
  8
DETAIL
  6
CONTINUOUS
 62
     5
 10
480.5
 20
211.0
 30
0.0
 40
1.500001
  0
LINE
  5
BD
  8
NOTE
  6
CONTINUOUS
 62
     4
 10
480.5
 20
218.500006
 30
0.0
 11
480.5
 21
203.499994
 31
0.0
  0
LINE
  5
BE
  8
NOTE
  6
CONTINUOUS
 62
     4
 10
488.000006
 20
211.0
 30
0.0
 11
472.999994
 21
211.0
 31
0.0
  0
LINE
  5
BF
  8
NOTE
  6
CONTINUOUS
 62
     4
 10
480.500088
 20
367.500006
 30
0.0
 11
480.500088
 21
352.499994
 31
0.0
  0
CIRCLE
  5
C0
  8
DETAIL
  6
CONTINUOUS
 62
     5
 10
480.500088
 20
360.0
 30
0.0
 40
1.500001
  0
LINE
  5
C1
  8
NOTE
  6
CONTINUOUS
 62
     4
 10
488.000094
 20
360.0
 30
0.0
 11
473.000083
 21
360.0
 31
0.0
  0
LINE
  5
C2
  8
DETAIL
  6
CONTINUOUS
 62
     5
 10
461.5
 20
433.0
 30
0.0
 11
461.5
 21
132.0
 31
0.0
  0
LINE
  5
C3
  8
DETAIL
  6
CONTINUOUS
 62
     5
 10
490.5
 20
411.0
 30
0.0
 11
490.5
 21
160.0
 31
0.0
  0
LINE
  5
C5
  8
DETAIL
  6
CONTINUOUS
 62
     5
 10
367.5
 20
132.0
 30
0.0
 11
461.5
 21
132.0
 31
0.0
  0
LINE
  5
C6
  8
DETAIL
  6
CONTINUOUS
 62
     5
 10
461.5
 20
411.0
 30
0.0
 11
490.500096
 21
411.0
 31
0.0
  0
LINE
  5
C7
  8
DETAIL
  6
CONTINUOUS
 62
     5
 10
461.5
 20
160.0
 30
0.0
 11
490.500097
 21
160.0
 31
0.0
  0
LINE
  5
C9
  8
OUTLINE
  6
CONTINUOUS
 62
     3
 10
461.5
 20
433.0
 30
0.0
 11
461.5
 21
132.0
 31
0.0
  0
LINE
  5
CA
  8
OUTLINE
  6
CONTINUOUS
 62
     3
 10
461.5
 20
132.0
 30
0.0
 11
367.5
 21
132.0
 31
0.0
  0
LINE
  5
CB
  8
OUTLINE
  6
CONTINUOUS
 62
     3
 10
461.5
 20
160.0
 30
0.0
 11
490.500097
 21
160.0
 31
0.0
  0
LINE
  5
CC
  8
OUTLINE
  6
CONTINUOUS
 62
     3
 10
490.5
 20
160.0
 30
0.0
 11
490.500097
 21
411.0
 31
0.0
  0
LINE
  5
CD
  8
OUTLINE
  6
CONTINUOUS
 62
     3
 10
490.500097
 20
411.0
 30
0.0
 11
461.5
 21
411.0
 31
0.0
  0
LINE
  5
CE
  8
NOTE
  6
CONTINUOUS
 62
     4
 10
573.22219
 20
616.274424
 30
0.0
 11
992.058613
 21
616.274424
 31
0.0
  0
TEXT
  5
CF
  8
NOTE
  6
CONTINUOUS
 62
     4
 10
592.839994
 20
632.100985
 30
0.0
 40
60.0
  1
2X2-%%C3取付穴
 50
0.000003
 41
0.7
  7
STANDARD1
  0
LINE
  5
D0
  8
DETAIL
  6
CONTINUOUS
 62
     5
 10
-121.499991
 20
58.000045
 30
0.0
 11
484.500484
 21
58.000045
 31
0.0
  0
LINE
  5
D1
  8
DETAIL
  6
CONTINUOUS
 62
     5
 10
-143.500008
 20
0.0
 30
0.0
 11
506.500501
 21
0.0
 31
0.0
  0
LINE
  5
D2
  8
DETAIL
  6
CONTINUOUS
 62
     5
 10
-143.500008
 20
-2.000002
 30
0.0
 11
506.500501
 21
-2.000002
 31
0.0
  0
LINE
  5
D3
  8
NOTE
  6
CONTINUOUS
 62
     4
 10
-133.5
 20
1.000001
 30
0.0
 11
-226.204167
 21
1.000001
 31
0.0
  0
LINE
  5
D4
  8
NOTE
  6
CONTINUOUS
 62
     4
 10
-133.5
 20
21.000016
 30
0.0
 11
-226.204167
 21
21.000016
 31
0.0
  0
LINE
  5
D5
  8
NOTE
  6
CONTINUOUS
 62
     4
 10
-215.161718
 20
1.000001
 30
0.0
 11
-195.161703
 21
21.000016
 31
0.0
  0
LINE
  5
D6
  8
NOTE
  6
CONTINUOUS
 62
     4
 10
-210.161714
 20
1.000001
 30
0.0
 11
-190.161699
 21
21.000016
 31
0.0
  0
LINE
  5
D7
  8
NOTE
  6
CONTINUOUS
 62
     4
 10
-133.5
 20
1.000001
 30
0.0
 11
-133.5
 21
21.000016
 31
0.0
  0
LINE
  5
D8
  8
NOTE
  6
CONTINUOUS
 62
     4
 10
-165.161679
 20
1.000001
 30
0.0
 11
-145.161663
 21
21.000016
 31
0.0
  0
LINE
  5
D9
  8
NOTE
  6
CONTINUOUS
 62
     4
 10
-170.161683
 20
1.000001
 30
0.0
 11
-150.161667
 21
21.000016
 31
0.0
  0
LINE
  5
DA
  8
NOTE
  6
CONTINUOUS
 62
     4
 10
-175.161687
 20
1.000001
 30
0.0
 11
-155.161671
 21
21.000016
 31
0.0
  0
LINE
  5
DB
  8
NOTE
  6
CONTINUOUS
 62
     4
 10
-205.16171
 20
1.000001
 30
0.0
 11
-185.161695
 21
21.000016
 31
0.0
  0
LINE
  5
DC
  8
DETAIL
  6
CONTINUOUS
 62
     5
 10
-121.499991
 20
58.000045
 30
0.0
 11
-121.499991
 21
0.0
 31
0.0
  0
LINE
  5
DD
  8
DETAIL
  6
CONTINUOUS
 62
     5
 10
-143.500008
 20
-2.000002
 30
0.0
 11
-143.500008
 21
0.0
 31
0.0
  0
LINE
  5
DE
  8
NOTE
  6
CONTINUOUS
 62
     4
 10
554.838884
 20
1.000001
 30
0.0
 11
574.8389
 21
21.000016
 31
0.0
  0
LINE
  5
DF
  8
NOTE
  6
CONTINUOUS
 62
     4
 10
596.500571
 20
21.000016
 30
0.0
 11
496.500493
 21
21.000016
 31
0.0
  0
LINE
  5
E0
  8
NOTE
  6
CONTINUOUS
 62
     4
 10
596.500571
 20
1.000001
 30
0.0
 11
496.500493
 21
1.000001
 31
0.0
  0
LINE
  5
E1
  8
NOTE
  6
CONTINUOUS
 62
     4
 10
524.838861
 20
1.000001
 30
0.0
 11
544.838876
 21
21.000016
 31
0.0
  0
LINE
  5
E2
  8
NOTE
  6
CONTINUOUS
 62
     4
 10
519.838857
 20
1.000001
 30
0.0
 11
539.838873
 21
21.000016
 31
0.0
  0
LINE
  5
E3
  8
NOTE
  6
CONTINUOUS
 62
     4
 10
514.838853
 20
1.000001
 30
0.0
 11
534.838869
 21
21.000016
 31
0.0
  0
LINE
  5
E4
  8
NOTE
  6
CONTINUOUS
 62
     4
 10
496.500493
 20
1.000001
 30
0.0
 11
496.500493
 21
21.000016
 31
0.0
  0
LINE
  5
E5
  8
DETAIL
  6
CONTINUOUS
 62
     5
 10
484.500484
 20
0.0
 30
0.0
 11
484.500484
 21
58.000045
 31
0.0
  0
LINE
  5
E6
  8
DETAIL
  6
CONTINUOUS
 62
     5
 10
506.500501
 20
-2.000002
 30
0.0
 11
506.500501
 21
0.0
 31
0.0
  0
LINE
  5
E7
  8
NOTE
  6
CONTINUOUS
 62
     4
 10
564.838892
 20
1.000001
 30
0.0
 11
584.838908
 21
21.000016
 31
0.0
  0
LINE
  5
E8
  8
NOTE
  6
CONTINUOUS
 62
     4
 10
559.838888
 20
1.000001
 30
0.0
 11
579.838904
 21
21.000016
 31
0.0
  0
LINE
  5
E9
  8
SIZE
  6
CONTINUOUS
 62
    30
 10
-367.5
 20
447.4
 30
0.0
 11
-367.5
 21
1112.00921
 31
0.0
  0
LINE
  5
EA
  8
SIZE
  6
CONTINUOUS
 62
    30
 10
367.5
 20
448.0
 30
0.0
 11
367.5
 21
1112.00921
 31
0.0
  0
LINE
  5
EB
  8
SIZE
  6
CONTINUOUS
 62
    30
 10
-367.5
 20
1097.00921
 30
0.0
 11
367.5
 21
1097.00921
 31
0.0
  0
CIRCLE
  5
EC
  8
SIZE
  6
CONTINUOUS
 62
    30
 10
-367.5
 20
1097.00921
 30
0.0
 40
7.5
  0
CIRCLE
  5
ED
  8
SIZE
  6
CONTINUOUS
 62
    30
 10
367.5
 20
1097.00921
 30
0.0
 40
7.5
  0
TEXT
  5
EE
  8
SIZE
  6
CONTINUOUS
 62
    30
 10
-57.857143
 20
1112.00921
 30
0.0
 40
50.0
  1
735
 41
0.9
 72
     1
 11
0.0
 21
1112.00921
 31
0.0
  0
POINT
  5
EF
  8
DEFPOINTS
  6
CONTINUOUS
 62
     7
 10
-367.5
 20
432.4
 30
0.0
  0
POINT
  5
F0
  8
DEFPOINTS
  6
CONTINUOUS
 62
     7
 10
367.5
 20
433.0
 30
0.0
  0
POINT
  5
F1
  8
DEFPOINTS
  6
CONTINUOUS
 62
     7
 10
367.5
 20
1097.00921
 30
0.0
  0
LINE
  5
F2
  8
SIZE
  6
CONTINUOUS
 62
    30
 10
367.5
 20
448.0
 30
0.0
 11
367.5
 21
1112.00921
 31
0.0
  0
LINE
  5
F3
  8
SIZE
  6
CONTINUOUS
 62
    30
 10
461.5
 20
448.0
 30
0.0
 11
461.5
 21
1112.00921
 31
0.0
  0
LINE
  5
F4
  8
SIZE
  6
CONTINUOUS
 62
    30
 10
367.5
 20
1097.00921
 30
0.0
 11
461.5
 21
1097.00921
 31
0.0
  0
CIRCLE
  5
F5
  8
SIZE
  6
CONTINUOUS
 62
    30
 10
367.5
 20
1097.00921
 30
0.0
 40
7.5
  0
CIRCLE
  5
F6
  8
SIZE
  6
CONTINUOUS
 62
    30
 10
461.5
 20
1097.00921
 30
0.0
 40
7.5
  0
TEXT
  5
F7
  8
SIZE
  6
CONTINUOUS
 62
    30
 10
377.0
 20
1112.00921
 30
0.0
 40
50.0
  1
94
 41
0.9
 72
     1
 11
414.5
 21
1112.00921
 31
0.0
  0
POINT
  5
F8
  8
DEFPOINTS
  6
CONTINUOUS
 62
     7
 10
367.5
 20
433.0
 30
0.0
  0
POINT
  5
F9
  8
DEFPOINTS
  6
CONTINUOUS
 62
     7
 10
461.5
 20
433.0
 30
0.0
  0
POINT
  5
FA
  8
DEFPOINTS
  6
CONTINUOUS
 62
     7
 10
461.5
 20
1097.00921
 30
0.0
  0
LINE
  5
FB
  8
SIZE
  6
CONTINUOUS
 62
    30
 10
461.5
 20
448.0
 30
0.0
 11
461.5
 21
1112.00921
 31
0.0
  0
LINE
  5
FC
  8
SIZE
  6
CONTINUOUS
 62
    30
 10
490.5
 20
426.0
 30
0.0
 11
490.5
 21
1112.00921
 31
0.0
  0
LINE
  5
FD
  8
SIZE
  6
CONTINUOUS
 62
    30
 10
461.5
 20
1097.00921
 30
0.0
 11
431.5
 21
1097.00921
 31
0.0
  0
LINE
  5
FE
  8
SIZE
  6
CONTINUOUS
 62
    30
 10
490.5
 20
1097.00921
 30
0.0
 11
651.214286
 21
1097.00921
 31
0.0
  0
LINE
  5
FF
  8
SIZE
  6
CONTINUOUS
 62
    30
 10
461.5
 20
1097.00921
 30
0.0
 11
490.5
 21
1097.00921
 31
0.0
  0
CIRCLE
  5
100
  8
SIZE
  6
CONTINUOUS
 62
    30
 10
461.5
 20
1097.00921
 30
0.0
 40
7.5
  0
CIRCLE
  5
101
  8
SIZE
  6
CONTINUOUS
 62
    30
 10
490.5
 20
1097.00921
 30
0.0
 40
7.5
  0
TEXT
  5
102
  8
SIZE
  6
CONTINUOUS
 62
    30
 10
565.5
 20
1112.00921
 30
0.0
 40
50.0
  1
29
 41
0.9
 72
     1
 11
600.857143
 21
1112.00921
 31
0.0
  0
POINT
  5
103
  8
DEFPOINTS
  6
CONTINUOUS
 62
     7
 10
461.5
 20
433.0
 30
0.0
  0
POINT
  5
104
  8
DEFPOINTS
  6
CONTINUOUS
 62
     7
 10
490.5
 20
411.0
 30
0.0
  0
POINT
  5
105
  8
DEFPOINTS
  6
CONTINUOUS
 62
     7
 10
490.5
 20
1097.00921
 30
0.0
  0
LINE
  5
106
  8
SIZE
  6
CONTINUOUS
 62
    30
 10
-367.5
 20
447.4
 30
0.0
 11
-367.5
 21
1112.00921
 31
0.0
  0
LINE
  5
107
  8
SIZE
  6
CONTINUOUS
 62
    30
 10
-437.5
 20
409.5
 30
0.0
 11
-437.5
 21
1112.00921
 31
0.0
  0
LINE
  5
108
  8
SIZE
  6
CONTINUOUS
 62
    30
 10
-367.5
 20
1097.00921
 30
0.0
 11
-437.5
 21
1097.00921
 31
0.0
  0
LINE
  5
109
  8
SIZE
  6
CONTINUOUS
 62
    30
 10
-437.5
 20
1097.00921
 30
0.0
 11
-570.357143
 21
1097.00921
 31
0.0
  0
CIRCLE
  5
10A
  8
SIZE
  6
CONTINUOUS
 62
    30
 10
-367.5
 20
1097.00921
 30
0.0
 40
7.5
  0
CIRCLE
  5
10B
  8
SIZE
  6
CONTINUOUS
 62
    30
 10
-437.5
 20
1097.00921
 30
0.0
 40
7.5
  0
TEXT
  5
10C
  8
SIZE
  6
CONTINUOUS
 62
    30
 10
-555.357143
 20
1112.00921
 30
0.0
 40
50.0
  1
70
 41
0.9
 72
     1
 11
-518.928571
 21
1112.00921
 31
0.0
  0
POINT
  5
10D
  8
DEFPOINTS
  6
CONTINUOUS
 62
     7
 10
-367.5
 20
432.4
 30
0.0
  0
POINT
  5
10E
  8
DEFPOINTS
  6
CONTINUOUS
 62
     7
 10
-437.5
 20
394.5
 30
0.0
  0
POINT
  5
10F
  8
DEFPOINTS
  6
CONTINUOUS
 62
     7
 10
-437.5
 20
1097.00921
 30
0.0
  0
LINE
  5
110
  8
SIZE
  6
CONTINUOUS
 62
    30
 10
505.500097
 20
411.0
 30
0.0
 11
840.545091
 21
411.0
 31
0.0
  0
LINE
  5
111
  8
SIZE
  6
CONTINUOUS
 62
    30
 10
503.000094
 20
360.0
 30
0.0
 11
840.545091
 21
360.0
 31
0.0
  0
LINE
  5
112
  8
SIZE
  6
CONTINUOUS
 62
    30
 10
825.545091
 20
360.0
 30
0.0
 11
825.545091
 21
411.0
 31
0.0
  0
LINE
  5
113
  8
SIZE
  6
CONTINUOUS
 62
    30
 10
825.545091
 20
411.0
 30
0.0
 11
825.545091
 21
524.571429
 31
0.0
  0
CIRCLE
  5
114
  8
SIZE
  6
CONTINUOUS
 62
    30
 10
825.545091
 20
360.0
 30
0.0
 40
7.5
  0
CIRCLE
  5
115
  8
SIZE
  6
CONTINUOUS
 62
    30
 10
825.545091
 20
411.0
 30
0.0
 40
7.5
  0
TEXT
  5
116
  8
SIZE
  6
CONTINUOUS
 62
    30
 10
810.545091
 20
456.0
 30
0.0
 40
50.0
  1
51
 50
90.0
 41
0.9
 72
     1
 11
810.545091
 21
482.785714
 31
0.0
  0
POINT
  5
117
  8
DEFPOINTS
  6
CONTINUOUS
 62
     7
 10
490.500097
 20
411.0
 30
0.0
  0
POINT
  5
118
  8
DEFPOINTS
  6
CONTINUOUS
 62
     7
 10
488.000094
 20
360.0
 30
0.0
  0
POINT
  5
119
  8
DEFPOINTS
  6
CONTINUOUS
 62
     7
 10
825.545091
 20
360.0
 30
0.0
  0
LINE
  5
11A
  8
SIZE
  6
CONTINUOUS
 62
    30
 10
503.000094
 20
360.0
 30
0.0
 11
840.545091
 21
360.0
 31
0.0
  0
LINE
  5
11B
  8
SIZE
  6
CONTINUOUS
 62
    30
 10
503.000006
 20
211.0
 30
0.0
 11
840.545091
 21
211.0
 31
0.0
  0
LINE
  5
11C
  8
SIZE
  6
CONTINUOUS
 62
    30
 10
825.545091
 20
360.0
 30
0.0
 11
825.545091
 21
211.0
 31
0.0
  0
CIRCLE
  5
11D
  8
SIZE
  6
CONTINUOUS
 62
    30
 10
825.545091
 20
360.0
 30
0.0
 40
7.5
  0
CIRCLE
  5
11E
  8
SIZE
  6
CONTINUOUS
 62
    30
 10
825.545091
 20
211.0
 30
0.0
 40
7.5
  0
TEXT
  5
11F
  8
SIZE
  6
CONTINUOUS
 62
    30
 10
810.545091
 20
233.0
 30
0.0
 40
50.0
  1
149
 50
90.0
 41
0.9
 72
     1
 11
810.545091
 21
285.5
 31
0.0
  0
POINT
  5
120
  8
DEFPOINTS
  6
CONTINUOUS
 62
     7
 10
488.000094
 20
360.0
 30
0.0
  0
POINT
  5
121
  8
DEFPOINTS
  6
CONTINUOUS
 62
     7
 10
488.000006
 20
211.0
 30
0.0
  0
POINT
  5
122
  8
DEFPOINTS
  6
CONTINUOUS
 62
     7
 10
825.545091
 20
211.0
 30
0.0
  0
LINE
  5
123
  8
SIZE
  6
CONTINUOUS
 62
    30
 10
476.5
 20
433.0
 30
0.0
 11
961.118493
 21
433.0
 31
0.0
  0
LINE
  5
124
  8
SIZE
  6
CONTINUOUS
 62
    30
 10
505.5
 20
411.0
 30
0.0
 11
961.118493
 21
411.0
 31
0.0
  0
LINE
  5
125
  8
SIZE
  6
CONTINUOUS
 62
    30
 10
946.118493
 20
411.0
 30
0.0
 11
946.118493
 21
381.0
 31
0.0
  0
LINE
  5
126
  8
SIZE
  6
CONTINUOUS
 62
    30
 10
946.118493
 20
433.0
 30
0.0
 11
946.118493
 21
595.857143
 31
0.0
  0
LINE
  5
127
  8
SIZE
  6
CONTINUOUS
 62
    30
 10
946.118493
 20
411.0
 30
0.0
 11
946.118493
 21
433.0
 31
0.0
  0
CIRCLE
  5
128
  8
SIZE
  6
CONTINUOUS
 62
    30
 10
946.118493
 20
411.0
 30
0.0
 40
7.5
  0
CIRCLE
  5
129
  8
SIZE
  6
CONTINUOUS
 62
    30
 10
946.118493
 20
433.0
 30
0.0
 40
7.5
  0
TEXT
  5
12A
  8
SIZE
  6
CONTINUOUS
 62
    30
 10
931.118493
 20
508.0
 30
0.0
 40
50.0
  1
22
 50
90.0
 41
0.9
 72
     1
 11
931.118493
 21
544.428571
 31
0.0
  0
POINT
  5
12B
  8
DEFPOINTS
  6
CONTINUOUS
 62
     7
 10
461.5
 20
433.0
 30
0.0
  0
POINT
  5
12C
  8
DEFPOINTS
  6
CONTINUOUS
 62
     7
 10
490.5
 20
411.0
 30
0.0
  0
POINT
  5
12D
  8
DEFPOINTS
  6
CONTINUOUS
 62
     7
 10
946.118493
 20
411.0
 30
0.0
  0
LINE
  5
12E
  8
SIZE
  6
CONTINUOUS
 62
    30
 10
505.5
 20
411.0
 30
0.0
 11
961.118493
 21
411.0
 31
0.0
  0
LINE
  5
12F
  8
SIZE
  6
CONTINUOUS
 62
    30
 10
505.500097
 20
160.0
 30
0.0
 11
961.118493
 21
160.0
 31
0.0
  0
LINE
  5
130
  8
SIZE
  6
CONTINUOUS
 62
    30
 10
946.118493
 20
411.0
 30
0.0
 11
946.118493
 21
160.0
 31
0.0
  0
CIRCLE
  5
131
  8
SIZE
  6
CONTINUOUS
 62
    30
 10
946.118493
 20
411.0
 30
0.0
 40
7.5
  0
CIRCLE
  5
132
  8
SIZE
  6
CONTINUOUS
 62
    30
 10
946.118493
 20
160.0
 30
0.0
 40
7.5
  0
TEXT
  5
133
  8
SIZE
  6
CONTINUOUS
 62
    30
 10
931.118493
 20
237.285714
 30
0.0
 40
50.0
  1
251
 50
90.0
 41
0.9
 72
     1
 11
931.118493
 21
285.5
 31
0.0
  0
POINT
  5
134
  8
DEFPOINTS
  6
CONTINUOUS
 62
     7
 10
490.5
 20
411.0
 30
0.0
  0
POINT
  5
135
  8
DEFPOINTS
  6
CONTINUOUS
 62
     7
 10
490.500097
 20
160.0
 30
0.0
  0
POINT
  5
136
  8
DEFPOINTS
  6
CONTINUOUS
 62
     7
 10
946.118493
 20
160.0
 30
0.0
  0
TEXT
  5
137
  8
SIZE
  6
CONTINUOUS
 62
    30
 10
1009.991037
 20
157.256568
 30
0.0
 40
50.0
  1
(ﾀﾞｸﾄ外寸)
 50
90.0
 41
0.9
 72
     1
 11
1009.991037
 21
283.256568
 31
0.0
  0
LINE
  5
138
  8
SIZE
  6
CONTINUOUS
 62
    30
 10
476.5
 20
433.0
 30
0.0
 11
1143.759587
 21
433.0
 31
0.0
  0
LINE
  5
139
  8
SIZE
  6
CONTINUOUS
 62
    30
 10
476.5
 20
132.0
 30
0.0
 11
1143.759587
 21
132.0
 31
0.0
  0
LINE
  5
13A
  8
SIZE
  6
CONTINUOUS
 62
    30
 10
1128.759587
 20
433.0
 30
0.0
 11
1128.759587
 21
132.0
 31
0.0
  0
CIRCLE
  5
13B
  8
SIZE
  6
CONTINUOUS
 62
    30
 10
1128.759587
 20
433.0
 30
0.0
 40
7.5
  0
CIRCLE
  5
13C
  8
SIZE
  6
CONTINUOUS
 62
    30
 10
1128.759587
 20
132.0
 30
0.0
 40
7.5
  0
TEXT
  5
13D
  8
SIZE
  6
CONTINUOUS
 62
    30
 10
1113.759587
 20
214.285714
 30
0.0
 40
50.0
  1
301
 50
90.0
 41
0.9
 72
     1
 11
1113.759587
 21
262.5
 31
0.0
  0
POINT
  5
13E
  8
DEFPOINTS
  6
CONTINUOUS
 62
     7
 10
461.5
 20
433.0
 30
0.0
  0
POINT
  5
13F
  8
DEFPOINTS
  6
CONTINUOUS
 62
     7
 10
461.5
 20
132.0
 30
0.0
  0
POINT
  5
140
  8
DEFPOINTS
  6
CONTINUOUS
 62
     7
 10
1128.759587
 20
132.0
 30
0.0
  0
LINE
  5
141
  8
SIZE
  6
CONTINUOUS
 62
    30
 10
521.500501
 20
-2.000002
 30
0.0
 11
842.912937
 21
-2.000002
 31
0.0
  0
LINE
  5
142
  8
SIZE
  6
CONTINUOUS
 62
    30
 10
521.500501
 20
0.0
 30
0.0
 11
842.912937
 21
0.0
 31
0.0
  0
LINE
  5
143
  8
SIZE
  6
CONTINUOUS
 62
    30
 10
827.912937
 20
0.0
 30
0.0
 11
827.912937
 21
30.0
 31
0.0
  0
LINE
  5
144
  8
SIZE
  6
CONTINUOUS
 62
    30
 10
827.912937
 20
-2.000002
 30
0.0
 11
827.912937
 21
-122.000002
 31
0.0
  0
LINE
  5
145
  8
SIZE
  6
CONTINUOUS
 62
    30
 10
827.912937
 20
0.0
 30
0.0
 11
827.912937
 21
-2.000002
 31
0.0
  0
CIRCLE
  5
146
  8
SIZE
  6
CONTINUOUS
 62
    30
 10
827.912937
 20
0.0
 30
0.0
 40
7.5
  0
CIRCLE
  5
147
  8
SIZE
  6
CONTINUOUS
 62
    30
 10
827.912937
 20
-2.000002
 30
0.0
 40
7.5
  0
TEXT
  5
148
  8
SIZE
  6
CONTINUOUS
 62
    30
 10
812.912937
 20
-107.000002
 30
0.0
 40
50.0
  1
2
 50
90.0
 41
0.9
 72
     1
 11
812.912937
 21
-92.000002
 31
0.0
  0
POINT
  5
149
  8
DEFPOINTS
  6
CONTINUOUS
 62
     7
 10
506.500501
 20
-2.000002
 30
0.0
  0
POINT
  5
14A
  8
DEFPOINTS
  6
CONTINUOUS
 62
     7
 10
506.500501
 20
0.0
 30
0.0
  0
POINT
  5
14B
  8
DEFPOINTS
  6
CONTINUOUS
 62
     7
 10
827.912937
 20
0.0
 30
0.0
  0
LINE
  5
14C
  8
SIZE
  6
CONTINUOUS
 62
    30
 10
521.500501
 20
0.0
 30
0.0
 11
842.912937
 21
0.0
 31
0.0
  0
LINE
  5
14D
  8
SIZE
  6
CONTINUOUS
 62
    30
 10
499.500484
 20
58.000045
 30
0.0
 11
842.912937
 21
58.000045
 31
0.0
  0
LINE
  5
14E
  8
SIZE
  6
CONTINUOUS
 62
    30
 10
827.912937
 20
0.0
 30
0.0
 11
827.912937
 21
58.000045
 31
0.0
  0
LINE
  5
14F
  8
SIZE
  6
CONTINUOUS
 62
    30
 10
827.912937
 20
29.000023
 30
0.0
 11
946.737936
 21
18.714546
 31
0.0
  0
LINE
  5
150
  8
SIZE
  6
CONTINUOUS
 62
    30
 10
946.737936
 20
18.714546
 30
0.0
 11
946.737936
 21
121.571689
 31
0.0
  0
TEXT
  5
151
  8
SIZE
  6
CONTINUOUS
 62
    30
 10
931.737936
 20
33.714546
 30
0.0
 40
50.0
  1
58
 50
90.0
 41
0.9
 72
     1
 11
931.737936
 21
70.143117
 31
0.0
  0
CIRCLE
  5
152
  8
SIZE
  6
CONTINUOUS
 62
    30
 10
827.912937
 20
0.0
 30
0.0
 40
7.5
  0
CIRCLE
  5
153
  8
SIZE
  6
CONTINUOUS
 62
    30
 10
827.912937
 20
58.000045
 30
0.0
 40
7.5
  0
POINT
  5
154
  8
DEFPOINTS
  6
CONTINUOUS
 62
     7
 10
506.500501
 20
0.0
 30
0.0
  0
POINT
  5
155
  8
DEFPOINTS
  6
CONTINUOUS
 62
     7
 10
484.500484
 20
58.000045
 30
0.0
  0
POINT
  5
156
  8
DEFPOINTS
  6
CONTINUOUS
 62
     7
 10
827.912937
 20
58.000045
 30
0.0
  0
LINE
  5
157
  8
DETAIL
  6
CONTINUOUS
 62
     5
 10
377.453352
 20
151.463995
 30
0.0
 11
377.453352
 21
281.031702
 31
0.0
  0
LINE
  5
158
  8
DETAIL
  6
CONTINUOUS
 62
     5
 10
398.662954
 20
141.459466
 30
0.0
 11
398.662954
 21
429.608014
 31
0.0
  0
LINE
  5
159
  8
DETAIL
  6
CONTINUOUS
 62
     5
 10
387.457881
 20
141.459466
 30
0.0
 11
461.5
 21
141.459466
 31
0.0
  0
LINE
  5
15A
  8
DETAIL
  6
CONTINUOUS
 62
     5
 10
377.453352
 20
151.463995
 30
0.0
 11
387.457881
 21
141.459466
 31
0.0
  0
LINE
  5
15B
  8
DETAIL
  6
CONTINUOUS
 62
     5
 10
377.453352
 20
290.035778
 30
0.0
 11
377.453352
 21
419.603485
 31
0.0
  0
CIRCLE
  5
15C
  8
DETAIL
  6
CONTINUOUS
 62
     5
 10
383.45607
 20
285.53374
 30
0.0
 40
6.502944
  0
CIRCLE
  5
15D
  8
DETAIL
  6
CONTINUOUS
 62
     5
 10
383.45607
 20
285.53374
 30
0.0
 40
7.503397
  0
LINE
  5
15E
  8
DETAIL
  6
CONTINUOUS
 62
     5
 10
387.457881
 20
429.608014
 30
0.0
 11
461.5
 21
429.608014
 31
0.0
  0
LINE
  5
15F
  8
DETAIL
  6
CONTINUOUS
 62
     5
 10
387.457881
 20
429.608014
 30
0.0
 11
377.453352
 21
419.603485
 31
0.0
  0
TEXT
  5
160
  8
NOTE
  6
CONTINUOUS
 62
     4
 10
569.550566
 20
732.234582
 30
0.0
 40
60.0
  1
AH 4-14×30長穴(M10)
 50
359.999997
 41
0.7
  7
STANDARD1
  0
LINE
  5
161
  8
NOTE
  6
CONTINUOUS
 62
     4
 10
556.52521
 20
716.408021
 30
0.0
 11
1285.625838
 21
716.408021
 31
0.0
  0
LINE
  5
169
  8
OUTLINE
  6
CONTINUOUS
 62
     3
 10
-143.500008
 20
0.0
 30
0.0
 11
-143.500008
 21
-2.000002
 31
0.0
  0
LINE
  5
16A
  8
OUTLINE
  6
CONTINUOUS
 62
     3
 10
-143.500008
 20
-2.000002
 30
0.0
 11
506.500501
 21
-2.000002
 31
0.0
  0
LINE
  5
16B
  8
OUTLINE
  6
CONTINUOUS
 62
     3
 10
506.500501
 20
-2.000002
 30
0.0
 11
506.500501
 21
0.0
 31
0.0
  0
LINE
  5
16D
  8
NOTE
  6
CONTINUOUS
 62
     4
 10
-555.354583
 20
263.09485
 30
0.0
 11
-534.384524
 21
284.064909
 31
0.0
  0
LINE
  5
16E
  8
NOTE
  6
CONTINUOUS
 62
     4
 10
-555.354583
 20
263.09485
 30
0.0
 11
-534.384524
 21
242.12479
 31
0.0
  0
TEXT
  5
16F
  8
NOTE
  6
CONTINUOUS
 62
     4
 10
-573.574198
 20
330.682182
 30
0.0
 40
45.872003
  1
吹出
 50
359.999997
 41
0.810714
  7
STANDARD1
  0
LINE
  5
170
  8
NOTE
  6
CONTINUOUS
 62
     4
 10
-513.414465
 20
252.60982
 30
0.0
 11
-534.384524
 21
252.60982
 31
0.0
  0
LINE
  5
171
  8
NOTE
  6
CONTINUOUS
 62
     4
 10
-513.414465
 20
273.579879
 30
0.0
 11
-534.384524
 21
273.579879
 31
0.0
  0
LINE
  5
172
  8
NOTE
  6
CONTINUOUS
 62
     4
 10
-513.414465
 20
273.579879
 30
0.0
 11
-513.414465
 21
252.60982
 31
0.0
  0
LINE
  5
173
  8
NOTE
  6
CONTINUOUS
 62
     4
 10
-534.384524
 20
252.60982
 30
0.0
 11
-534.384524
 21
242.12479
 31
0.0
  0
LINE
  5
174
  8
NOTE
  6
CONTINUOUS
 62
     4
 10
-534.384524
 20
284.064909
 30
0.0
 11
-534.384524
 21
273.579879
 31
0.0
  0
LINE
  5
175
  8
NOTE
  6
CONTINUOUS
 62
     4
 10
592.33342
 20
332.008285
 30
0.0
 11
613.30348
 21
352.978344
 31
0.0
  0
LINE
  5
176
  8
NOTE
  6
CONTINUOUS
 62
     4
 10
592.33342
 20
332.008285
 30
0.0
 11
613.30348
 21
311.038226
 31
0.0
  0
LINE
  5
177
  8
NOTE
  6
CONTINUOUS
 62
     4
 10
634.273539
 20
321.523255
 30
0.0
 11
613.30348
 21
321.523255
 31
0.0
  0
LINE
  5
178
  8
NOTE
  6
CONTINUOUS
 62
     4
 10
634.273539
 20
342.493315
 30
0.0
 11
613.30348
 21
342.493315
 31
0.0
  0
LINE
  5
179
  8
NOTE
  6
CONTINUOUS
 62
     4
 10
634.273539
 20
342.493315
 30
0.0
 11
634.273539
 21
321.523255
 31
0.0
  0
LINE
  5
17A
  8
NOTE
  6
CONTINUOUS
 62
     4
 10
613.30348
 20
321.523255
 30
0.0
 11
613.30348
 21
311.038226
 31
0.0
  0
LINE
  5
17B
  8
NOTE
  6
CONTINUOUS
 62
     4
 10
613.30348
 20
352.978344
 30
0.0
 11
613.30348
 21
342.493315
 31
0.0
  0
TEXT
  5
17C
  8
NOTE
  6
CONTINUOUS
 62
     4
 10
575.516053
 20
234.653112
 30
0.0
 40
45.872003
  1
吸込
 50
359.999997
 41
0.810714
  7
STANDARD1
  0
LINE
  5
17D
  8
SIZE
  6
CONTINUOUS
 62
    30
 10
-133.5
 20
-13.999999
 30
0.0
 11
-133.5
 21
-431.503361
 31
0.0
  0
LINE
  5
17E
  8
SIZE
  6
CONTINUOUS
 62
    30
 10
-367.5
 20
125.800214
 30
0.0
 11
-367.5
 21
-431.503361
 31
0.0
  0
LINE
  5
17F
  8
SIZE
  6
CONTINUOUS
 62
    30
 10
-133.5
 20
-416.503361
 30
0.0
 11
-367.5
 21
-416.503361
 31
0.0
  0
CIRCLE
  5
180
  8
SIZE
  6
CONTINUOUS
 62
    30
 10
-133.5
 20
-416.503361
 30
0.0
 40
7.5
  0
CIRCLE
  5
181
  8
SIZE
  6
CONTINUOUS
 62
    30
 10
-367.5
 20
-416.503361
 30
0.0
 40
7.5
  0
TEXT
  5
182
  8
SIZE
  6
CONTINUOUS
 62
    30
 10
-309.428571
 20
-401.503361
 30
0.0
 40
50.0
  1
234
 41
0.9
 72
     1
 11
-250.5
 21
-401.503361
 31
0.0
  0
POINT
  5
183
  8
DEFPOINTS
  6
CONTINUOUS
 62
     7
 10
-133.5
 20
1.000001
 30
0.0
  0
POINT
  5
184
  8
DEFPOINTS
  6
CONTINUOUS
 62
     7
 10
-367.5
 20
140.800214
 30
0.0
  0
POINT
  5
185
  8
DEFPOINTS
  6
CONTINUOUS
 62
     7
 10
-367.5
 20
-416.503361
 30
0.0
  0
LINE
  5
186
  8
SIZE
  6
CONTINUOUS
 62
    30
 10
-133.5
 20
-13.999999
 30
0.0
 11
-133.5
 21
-431.503361
 31
0.0
  0
LINE
  5
187
  8
SIZE
  6
CONTINUOUS
 62
    30
 10
496.500493
 20
-13.999999
 30
0.0
 11
496.500493
 21
-431.503361
 31
0.0
  0
LINE
  5
188
  8
SIZE
  6
CONTINUOUS
 62
    30
 10
-133.5
 20
-416.503361
 30
0.0
 11
496.500493
 21
-416.503361
 31
0.0
  0
CIRCLE
  5
189
  8
SIZE
  6
CONTINUOUS
 62
    30
 10
-133.5
 20
-416.503361
 30
0.0
 40
7.5
  0
CIRCLE
  5
18A
  8
SIZE
  6
CONTINUOUS
 62
    30
 10
496.500493
 20
-416.503361
 30
0.0
 40
7.5
  0
TEXT
  5
18B
  8
SIZE
  6
CONTINUOUS
 62
    30
 10
-80.785468
 20
-401.503361
 30
0.0
 40
50.0
  1
630（天井開口寸法）
 41
0.9
 72
     1
 11
181.500246
 21
-401.503361
 31
0.0
  0
POINT
  5
18C
  8
DEFPOINTS
  6
CONTINUOUS
 62
     7
 10
-133.5
 20
1.000001
 30
0.0
  0
POINT
  5
18D
  8
DEFPOINTS
  6
CONTINUOUS
 62
     7
 10
496.500493
 20
1.000001
 30
0.0
  0
POINT
  5
18E
  8
DEFPOINTS
  6
CONTINUOUS
 62
     7
 10
496.500493
 20
-416.503361
 30
0.0
  0
LINE
  5
18F
  8
SIZE
  6
CONTINUOUS
 62
    30
 10
-133.5
 20
-13.999999
 30
0.0
 11
-133.5
 21
-130.942107
 31
0.0
  0
LINE
  5
190
  8
SIZE
  6
CONTINUOUS
 62
    30
 10
-143.500008
 20
-17.000002
 30
0.0
 11
-143.500008
 21
-130.942107
 31
0.0
  0
LINE
  5
191
  8
SIZE
  6
CONTINUOUS
 62
    30
 10
-133.5
 20
-115.942107
 30
0.0
 11
-103.5
 21
-115.942107
 31
0.0
  0
LINE
  5
192
  8
SIZE
  6
CONTINUOUS
 62
    30
 10
-143.500008
 20
-115.942107
 30
0.0
 11
-297.785722
 21
-115.942107
 31
0.0
  0
LINE
  5
193
  8
SIZE
  6
CONTINUOUS
 62
    30
 10
-133.5
 20
-115.942107
 30
0.0
 11
-143.500008
 21
-115.942107
 31
0.0
  0
CIRCLE
  5
194
  8
SIZE
  6
CONTINUOUS
 62
    30
 10
-133.5
 20
-115.942107
 30
0.0
 40
7.5
  0
CIRCLE
  5
195
  8
SIZE
  6
CONTINUOUS
 62
    30
 10
-143.500008
 20
-115.942107
 30
0.0
 40
7.5
  0
TEXT
  5
196
  8
SIZE
  6
CONTINUOUS
 62
    30
 10
-282.785722
 20
-100.942107
 30
0.0
 40
50.0
  1
10
 41
0.9
 72
     1
 11
-250.642865
 21
-100.942107
 31
0.0
  0
POINT
  5
197
  8
DEFPOINTS
  6
CONTINUOUS
 62
     7
 10
-133.5
 20
1.000001
 30
0.0
  0
POINT
  5
198
  8
DEFPOINTS
  6
CONTINUOUS
 62
     7
 10
-143.500008
 20
-2.000002
 30
0.0
  0
POINT
  5
199
  8
DEFPOINTS
  6
CONTINUOUS
 62
     7
 10
-143.500008
 20
-115.942107
 30
0.0
  0
LINE
  5
19A
  8
SIZE
  6
CONTINUOUS
 62
    30
 10
496.500493
 20
-13.999999
 30
0.0
 11
496.500493
 21
-130.942107
 31
0.0
  0
LINE
  5
19B
  8
SIZE
  6
CONTINUOUS
 62
    30
 10
506.500501
 20
-17.000002
 30
0.0
 11
506.500501
 21
-130.942107
 31
0.0
  0
LINE
  5
19C
  8
SIZE
  6
CONTINUOUS
 62
    30
 10
496.500493
 20
-115.942107
 30
0.0
 11
466.500493
 21
-115.942107
 31
0.0
  0
LINE
  5
19D
  8
SIZE
  6
CONTINUOUS
 62
    30
 10
506.500501
 20
-115.942107
 30
0.0
 11
660.786215
 21
-115.942107
 31
0.0
  0
LINE
  5
19E
  8
SIZE
  6
CONTINUOUS
 62
    30
 10
496.500493
 20
-115.942107
 30
0.0
 11
506.500501
 21
-115.942107
 31
0.0
  0
CIRCLE
  5
19F
  8
SIZE
  6
CONTINUOUS
 62
    30
 10
496.500493
 20
-115.942107
 30
0.0
 40
7.5
  0
CIRCLE
  5
1A0
  8
SIZE
  6
CONTINUOUS
 62
    30
 10
506.500501
 20
-115.942107
 30
0.0
 40
7.5
  0
TEXT
  5
1A1
  8
SIZE
  6
CONTINUOUS
 62
    30
 10
581.500501
 20
-100.942107
 30
0.0
 40
50.0
  1
10
 41
0.9
 72
     1
 11
613.643358
 21
-100.942107
 31
0.0
  0
POINT
  5
1A2
  8
DEFPOINTS
  6
CONTINUOUS
 62
     7
 10
496.500493
 20
1.000001
 30
0.0
  0
POINT
  5
1A3
  8
DEFPOINTS
  6
CONTINUOUS
 62
     7
 10
506.500501
 20
-2.000002
 30
0.0
  0
POINT
  5
1A4
  8
DEFPOINTS
  6
CONTINUOUS
 62
     7
 10
506.500501
 20
-115.942107
 30
0.0
  0
LINE
  5
1A5
  8
SIZE
  6
CONTINUOUS
 62
    30
 10
-143.500008
 20
-17.000002
 30
0.0
 11
-143.500008
 21
-255.877224
 31
0.0
  0
LINE
  5
1A6
  8
SIZE
  6
CONTINUOUS
 62
    30
 10
506.500501
 20
-17.000002
 30
0.0
 11
506.500501
 21
-255.877224
 31
0.0
  0
LINE
  5
1A7
  8
SIZE
  6
CONTINUOUS
 62
    30
 10
-143.500008
 20
-240.877224
 30
0.0
 11
506.500501
 21
-240.877224
 31
0.0
  0
CIRCLE
  5
1A8
  8
SIZE
  6
CONTINUOUS
 62
    30
 10
-143.500008
 20
-240.877224
 30
0.0
 40
7.5
  0
CIRCLE
  5
1A9
  8
SIZE
  6
CONTINUOUS
 62
    30
 10
506.500501
 20
-240.877224
 30
0.0
 40
7.5
  0
TEXT
  5
1AA
  8
SIZE
  6
CONTINUOUS
 62
    30
 10
110.390386
 20
-225.877224
 30
0.0
 40
50.0
  1
650
 41
0.9
 72
     1
 11
168.247529
 21
-225.877224
 31
0.0
  0
POINT
  5
1AB
  8
DEFPOINTS
  6
CONTINUOUS
 62
     7
 10
-143.500008
 20
-2.000002
 30
0.0
  0
POINT
  5
1AC
  8
DEFPOINTS
  6
CONTINUOUS
 62
     7
 10
506.500501
 20
-2.000002
 30
0.0
  0
POINT
  5
1AD
  8
DEFPOINTS
  6
CONTINUOUS
 62
     7
 10
506.500501
 20
-240.877224
 30
0.0
  0
LINE
  5
1AE
  8
BASIS
  6
DASHDOT
 62
     6
 10
181.500246
 20
69.548046
 30
0.0
 11
181.500246
 21
-41.242684
 31
0.0
  0
LINE
  5
1B0
  8
NOTE
  6
CONTINUOUS
 62
     4
 10
-203.584781
 20
261.0
 30
0.0
 11
-147.415219
 21
261.0
 31
0.0
  0
LINE
  5
1B1
  8
NOTE
  6
CONTINUOUS
 62
     4
 10
-175.5
 20
291.003593
 30
0.0
 11
-175.5
 21
230.996407
 31
0.0
  0
LINE
  5
1B2
  8
NOTE
  6
CONTINUOUS
 62
     4
 10
-269.503593
 20
233.0
 30
0.0
 11
-209.496407
 21
233.0
 31
0.0
  0
LINE
  5
1B3
  8
NOTE
  6
CONTINUOUS
 62
     4
 10
-239.5
 20
263.003593
 30
0.0
 11
-239.5
 21
202.996407
 31
0.0
  0
TEXT
  5
1B4
  8
NOTE
  6
CONTINUOUS
 62
     4
 10
-759.286339
 20
-183.71638
 30
0.0
 40
60.0
  1
RG %%C15.88
 50
359.999997
 41
0.7
  7
STANDARD1
  0
LINE
  5
1B5
  8
NOTE
  6
CONTINUOUS
 62
     4
 10
-778.314798
 20
-194.485418
 30
0.0
 11
-398.279319
 21
-194.485418
 31
0.0
  0
TEXT
  5
1B6
  8
NOTE
  6
CONTINUOUS
 62
     4
 10
-912.428936
 20
660.063842
 30
0.0
 40
60.0
  1
RL %%C9.52
 50
359.999997
 41
0.7
  7
STANDARD1
  0
LINE
  5
1B7
  8
NOTE
  6
CONTINUOUS
 62
     4
 10
-936.361302
 20
642.424421
 30
0.0
 11
-598.250251
 21
642.424421
 31
0.0
  0
LINE
  5
1B8
  8
SIZE
  6
CONTINUOUS
 62
    30
 10
-218.584781
 20
261.0
 30
0.0
 11
-918.176267
 21
261.0
 31
0.0
  0
LINE
  5
1B9
  8
SIZE
  6
CONTINUOUS
 62
    30
 10
-284.503593
 20
233.0
 30
0.0
 11
-918.176267
 21
233.0
 31
0.0
  0
LINE
  5
1BA
  8
SIZE
  6
CONTINUOUS
 62
    30
 10
-903.176267
 20
261.0
 30
0.0
 11
-903.176267
 21
291.0
 31
0.0
  0
LINE
  5
1BB
  8
SIZE
  6
CONTINUOUS
 62
    30
 10
-903.176267
 20
233.0
 30
0.0
 11
-903.176267
 21
70.142857
 31
0.0
  0
LINE
  5
1BC
  8
SIZE
  6
CONTINUOUS
 62
    30
 10
-903.176267
 20
261.0
 30
0.0
 11
-903.176267
 21
233.0
 31
0.0
  0
CIRCLE
  5
1BD
  8
SIZE
  6
CONTINUOUS
 62
    30
 10
-903.176267
 20
261.0
 30
0.0
 40
7.5
  0
CIRCLE
  5
1BE
  8
SIZE
  6
CONTINUOUS
 62
    30
 10
-903.176267
 20
233.0
 30
0.0
 40
7.5
  0
TEXT
  5
1BF
  8
SIZE
  6
CONTINUOUS
 62
    30
 10
-918.176267
 20
85.142857
 30
0.0
 40
50.0
  1
28
 50
90.0
 41
0.9
 72
     1
 11
-918.176267
 21
121.571429
 31
0.0
  0
POINT
  5
1C0
  8
DEFPOINTS
  6
CONTINUOUS
 62
     7
 10
-203.584781
 20
261.0
 30
0.0
  0
POINT
  5
1C1
  8
DEFPOINTS
  6
CONTINUOUS
 62
     7
 10
-269.503593
 20
233.0
 30
0.0
  0
POINT
  5
1C2
  8
DEFPOINTS
  6
CONTINUOUS
 62
     7
 10
-903.176267
 20
233.0
 30
0.0
  0
LINE
  5
1C3
  8
SIZE
  6
CONTINUOUS
 62
    30
 10
-239.5
 20
278.003593
 30
0.0
 11
-239.5
 21
688.46853
 31
0.0
  0
LINE
  5
1C4
  8
SIZE
  6
CONTINUOUS
 62
    30
 10
-367.5
 20
446.640435
 30
0.0
 11
-367.5
 21
688.46853
 31
0.0
  0
LINE
  5
1C5
  8
SIZE
  6
CONTINUOUS
 62
    30
 10
-239.5
 20
673.46853
 30
0.0
 11
-367.5
 21
673.46853
 31
0.0
  0
LINE
  5
1C6
  8
SIZE
  6
CONTINUOUS
 62
    30
 10
-367.5
 20
673.46853
 30
0.0
 11
-566.151489
 21
673.46853
 31
0.0
  0
CIRCLE
  5
1C7
  8
SIZE
  6
CONTINUOUS
 62
    30
 10
-239.5
 20
673.46853
 30
0.0
 40
7.5
  0
CIRCLE
  5
1C8
  8
SIZE
  6
CONTINUOUS
 62
    30
 10
-367.5
 20
673.46853
 30
0.0
 40
7.5
  0
TEXT
  5
1C9
  8
SIZE
  6
CONTINUOUS
 62
    30
 10
-551.151489
 20
688.46853
 30
0.0
 40
50.0
  1
128
 41
0.9
 72
     1
 11
-497.58006
 21
688.46853
 31
0.0
  0
POINT
  5
1CA
  8
DEFPOINTS
  6
CONTINUOUS
 62
     7
 10
-239.5
 20
263.003593
 30
0.0
  0
POINT
  5
1CB
  8
DEFPOINTS
  6
CONTINUOUS
 62
     7
 10
-367.5
 20
431.640435
 30
0.0
  0
POINT
  5
1CC
  8
DEFPOINTS
  6
CONTINUOUS
 62
     7
 10
-367.5
 20
673.46853
 30
0.0
  0
LINE
  5
1CD
  8
SIZE
  6
CONTINUOUS
 62
    30
 10
-381.9
 20
433.0
 30
0.0
 11
-918.176267
 21
433.0
 31
0.0
  0
LINE
  5
1CE
  8
SIZE
  6
CONTINUOUS
 62
    30
 10
-218.584781
 20
261.0
 30
0.0
 11
-918.176267
 21
261.0
 31
0.0
  0
LINE
  5
1CF
  8
SIZE
  6
CONTINUOUS
 62
    30
 10
-903.176267
 20
433.0
 30
0.0
 11
-903.176267
 21
261.0
 31
0.0
  0
CIRCLE
  5
1D0
  8
SIZE
  6
CONTINUOUS
 62
    30
 10
-903.176267
 20
433.0
 30
0.0
 40
7.5
  0
CIRCLE
  5
1D1
  8
SIZE
  6
CONTINUOUS
 62
    30
 10
-903.176267
 20
261.0
 30
0.0
 40
7.5
  0
TEXT
  5
1D2
  8
SIZE
  6
CONTINUOUS
 62
    30
 10
-918.176267
 20
293.428571
 30
0.0
 40
50.0
  1
172
 50
90.0
 41
0.9
 72
     1
 11
-918.176267
 21
347.0
 31
0.0
  0
POINT
  5
1D3
  8
DEFPOINTS
  6
CONTINUOUS
 62
     7
 10
-366.9
 20
433.0
 30
0.0
  0
POINT
  5
1D4
  8
DEFPOINTS
  6
CONTINUOUS
 62
     7
 10
-203.584781
 20
261.0
 30
0.0
  0
POINT
  5
1D5
  8
DEFPOINTS
  6
CONTINUOUS
 62
     7
 10
-903.176267
 20
261.0
 30
0.0
  0
LINE
  5
1D6
  8
SIZE
  6
CONTINUOUS
 62
    30
 10
-239.5
 20
309.750467
 30
0.0
 11
-239.5
 21
655.052872
 31
0.0
  0
LINE
  5
1D7
  8
SIZE
  6
CONTINUOUS
 62
    30
 10
-175.5
 20
306.003593
 30
0.0
 11
-175.5
 21
692.182634
 31
0.0
  0
LINE
  5
1D8
  8
SIZE
  6
CONTINUOUS
 62
    30
 10
-243.5
 20
673.46853
 30
0.0
 11
-179.5
 21
673.46853
 31
0.0
  0
LINE
  5
1D9
  8
SIZE
  6
CONTINUOUS
 62
    30
 10
-179.5
 20
673.46853
 30
0.0
 11
-158.212112
 21
673.46853
 31
0.0
  0
CIRCLE
  5
1DA
  8
SIZE
  6
CONTINUOUS
 62
    30
 10
-239.5
 20
673.46853
 30
0.0
 40
7.5
  0
CIRCLE
  5
1DB
  8
SIZE
  6
CONTINUOUS
 62
    30
 10
-175.5
 20
673.46853
 30
0.0
 40
7.5
  0
TEXT
  5
1DC
  8
SIZE
  6
CONTINUOUS
 62
    30
 10
-251.06103
 20
688.46853
 30
0.0
 40
50.0
  1
64
 41
0.9
 72
     1
 11
-213.56103
 21
688.46853
 31
0.0
  0
CIRCLE
  5
1DD
  8
DETAIL
  6
CONTINUOUS
 62
     5
 10
327.5
 20
313.0
 30
0.0
 40
1.45
  0
CIRCLE
  5
1DE
  8
NOTE
  6
CONTINUOUS
 62
     4
 10
241.5
 20
313.0
 30
0.0
 40
86.0
  0
CIRCLE
  5
1DF
  8
DETAIL
  6
CONTINUOUS
 62
     5
 10
155.5
 20
313.0
 30
0.0
 40
1.45
  0
CIRCLE
  5
1E0
  8
DETAIL
  6
CONTINUOUS
 62
     5
 10
241.5
 20
227.0
 30
0.0
 40
1.45
  0
LINE
  5
1E1
  8
NOTE
  6
CONTINUOUS
 62
     4
 10
361.514371
 20
313.0
 30
0.0
 11
121.485629
 21
313.0
 31
0.0
  0
LINE
  5
1E2
  8
NOTE
  6
CONTINUOUS
 62
     4
 10
241.5
 20
242.985629
 30
0.0
 11
241.5
 21
383.014371
 31
0.0
  0
CIRCLE
  5
1E3
  8
DETAIL
  6
CONTINUOUS
 62
     5
 10
241.5
 20
313.0
 30
0.0
 40
75.0
  0
LINE
  5
1E4
  8
SIZE
  6
CONTINUOUS
 62
    30
 10
17.350676
 20
571.567956
 30
0.0
 11
297.83222
 21
248.017841
 31
0.0
  0
TEXT
  5
1E5
  8
SIZE
  6
CONTINUOUS
 62
    30
 10
38.510161
 20
570.059246
 30
0.0
 40
50.0
  1
%%c172
 50
310.921607
 41
0.9
 72
     1
 11
86.935284
 21
514.198337
 31
0.0
  0
CIRCLE
  5
1E6
  8
SIZE
  6
CONTINUOUS
 62
    30
 10
297.83222
 20
248.017841
 30
0.0
 40
7.5
  0
POINT
  5
1E7
  8
DEFPOINTS
  6
CONTINUOUS
 62
     7
 10
297.83222
 20
248.017841
 30
0.0
  0
POINT
  5
1E8
  8
DEFPOINTS
  6
CONTINUOUS
 62
     7
 10
185.16778
 20
377.982159
 30
0.0
  0
LINE
  5
1E9
  8
NOTE
  6
CONTINUOUS
 62
     4
 10
-75.02072
 20
-150.279852
 30
0.0
 11
362.876786
 21
-150.279852
 31
0.0
  0
TEXT
  5
1EA
  8
NOTE
  6
CONTINUOUS
 62
     4
 10
-51.217943
 20
-134.453291
 30
0.0
 40
60.0
  1
4-%%C2.9取付穴
 50
0.000003
 41
0.7
  7
STANDARD1
  0
LINE
  5
1EB
  8
NOTE
  6
CONTINUOUS
 62
     4
 10
517.520191
 20
896.589327
 30
0.0
 11
1406.627367
 21
896.589327
 31
0.0
  0
TEXT
  5
1EC
  8
NOTE
  6
CONTINUOUS
 62
     4
 10
541.452556
 20
914.228748
 30
0.0
 40
60.0
  1
外気取入口%%C150（ノックアウト穴）
 50
0.000003
 41
0.7
  7
STANDARD1
  0
LINE
  5
1ED
  8
NOTE
  6
CONTINUOUS
 62
     4
 10
327.5
 20
307.906103
 30
0.0
 11
327.5
 21
318.093897
 31
0.0
  0
LINE
  5
1EE
  8
NOTE
  6
CONTINUOUS
 62
     4
 10
236.406103
 20
227.0
 30
0.0
 11
246.593897
 21
227.0
 31
0.0
  0
LINE
  5
1EF
  8
NOTE
  6
CONTINUOUS
 62
     4
 10
155.5
 20
307.906103
 30
0.0
 11
155.5
 21
318.093897
 31
0.0
  0
LINE
  5
1F0
  8
NOTE
  6
CONTINUOUS
 62
     4
 10
241.5
 20
433.014371
 30
0.0
 11
241.5
 21
192.985629
 31
0.0
  0
LINE
  5
1F1
  8
NOTE
  6
CONTINUOUS
 62
     4
 10
311.514371
 20
313.0
 30
0.0
 11
171.485629
 21
313.0
 31
0.0
  0
LINE
  5
1F2
  8
SIZE
  6
CONTINUOUS
 62
    30
 10
476.5
 20
433.0
 30
0.0
 11
733.809247
 21
433.0
 31
0.0
  0
LINE
  5
1F3
  8
SIZE
  6
CONTINUOUS
 62
    30
 10
376.514371
 20
313.0
 30
0.0
 11
733.809247
 21
313.0
 31
0.0
  0
LINE
  5
1F4
  8
SIZE
  6
CONTINUOUS
 62
    30
 10
718.809247
 20
313.0
 30
0.0
 11
718.809247
 21
433.0
 31
0.0
  0
LINE
  5
1F5
  8
SIZE
  6
CONTINUOUS
 62
    30
 10
718.809247
 20
433.0
 30
0.0
 11
718.809247
 21
600.142857
 31
0.0
  0
CIRCLE
  5
1F6
  8
SIZE
  6
CONTINUOUS
 62
    30
 10
718.809247
 20
313.0
 30
0.0
 40
7.5
  0
CIRCLE
  5
1F7
  8
SIZE
  6
CONTINUOUS
 62
    30
 10
718.809247
 20
433.0
 30
0.0
 40
7.5
  0
TEXT
  5
1F8
  8
SIZE
  6
CONTINUOUS
 62
    30
 10
703.809247
 20
478.0
 30
0.0
 40
50.0
  1
120
 50
90.0
 41
0.9
 72
     1
 11
703.809247
 21
531.571429
 31
0.0
  0
POINT
  5
1F9
  8
DEFPOINTS
  6
CONTINUOUS
 62
     7
 10
461.5
 20
433.0
 30
0.0
  0
POINT
  5
1FA
  8
DEFPOINTS
  6
CONTINUOUS
 62
     7
 10
361.514371
 20
313.0
 30
0.0
  0
POINT
  5
1FB
  8
DEFPOINTS
  6
CONTINUOUS
 62
     7
 10
718.809247
 20
313.0
 30
0.0
  0
LINE
  5
1FC
  8
SIZE
  6
CONTINUOUS
 62
    30
 10
367.5
 20
448.0
 30
0.0
 11
367.5
 21
688.46853
 31
0.0
  0
LINE
  5
1FD
  8
SIZE
  6
CONTINUOUS
 62
    30
 10
241.5
 20
448.014371
 30
0.0
 11
241.5
 21
688.46853
 31
0.0
  0
LINE
  5
1FE
  8
SIZE
  6
CONTINUOUS
 62
    30
 10
367.5
 20
673.46853
 30
0.0
 11
241.5
 21
673.46853
 31
0.0
  0
LINE
  5
1FF
  8
SIZE
  6
CONTINUOUS
 62
    30
 10
241.5
 20
673.46853
 30
0.0
 11
73.25
 21
673.46853
 31
0.0
  0
CIRCLE
  5
200
  8
SIZE
  6
CONTINUOUS
 62
    30
 10
367.5
 20
673.46853
 30
0.0
 40
7.5
  0
CIRCLE
  5
201
  8
SIZE
  6
CONTINUOUS
 62
    30
 10
241.5
 20
673.46853
 30
0.0
 40
7.5
  0
TEXT
  5
202
  8
SIZE
  6
CONTINUOUS
 62
    30
 10
88.25
 20
688.46853
 30
0.0
 40
50.0
  1
126
 41
0.9
 72
     1
 11
140.75
 21
688.46853
 31
0.0
  0
POINT
  5
203
  8
DEFPOINTS
  6
CONTINUOUS
 62
     7
 10
367.5
 20
433.0
 30
0.0
  0
POINT
  5
204
  8
DEFPOINTS
  6
CONTINUOUS
 62
     7
 10
241.5
 20
433.014371
 30
0.0
  0
POINT
  5
205
  8
DEFPOINTS
  6
CONTINUOUS
 62
     7
 10
241.5
 20
673.46853
 30
0.0
  0
LINE
  5
206
  8
SIZE
  6
CONTINUOUS
 62
    30
 10
480.5
 20
233.500006
 30
0.0
 11
480.5
 21
510.000645
 31
0.0
  0
LINE
  5
207
  8
SIZE
  6
CONTINUOUS
 62
    30
 10
490.500097
 20
426.0
 30
0.0
 11
490.500097
 21
510.000645
 31
0.0
  0
LINE
  5
208
  8
SIZE
  6
CONTINUOUS
 62
    30
 10
480.5
 20
495.000645
 30
0.0
 11
450.5
 21
495.000645
 31
0.0
  0
LINE
  5
209
  8
SIZE
  6
CONTINUOUS
 62
    30
 10
490.500097
 20
495.000645
 30
0.0
 11
644.785812
 21
495.000645
 31
0.0
  0
LINE
  5
20A
  8
SIZE
  6
CONTINUOUS
 62
    30
 10
480.5
 20
495.000645
 30
0.0
 11
490.500097
 21
495.000645
 31
0.0
  0
CIRCLE
  5
20B
  8
SIZE
  6
CONTINUOUS
 62
    30
 10
480.5
 20
495.000645
 30
0.0
 40
7.5
  0
CIRCLE
  5
20C
  8
SIZE
  6
CONTINUOUS
 62
    30
 10
490.500097
 20
495.000645
 30
0.0
 40
7.5
  0
TEXT
  5
20D
  8
SIZE
  6
CONTINUOUS
 62
    30
 10
565.500097
 20
510.000645
 30
0.0
 40
50.0
  1
10
 41
0.9
 72
     1
 11
597.642954
 21
510.000645
 31
0.0
  0
POINT
  5
20E
  8
DEFPOINTS
  6
CONTINUOUS
 62
     7
 10
480.5
 20
218.500006
 30
0.0
  0
POINT
  5
20F
  8
DEFPOINTS
  6
CONTINUOUS
 62
     7
 10
490.500097
 20
411.0
 30
0.0
  0
POINT
  5
210
  8
DEFPOINTS
  6
CONTINUOUS
 62
     7
 10
490.500097
 20
495.000645
 30
0.0
  0
CIRCLE
  5
211
  8
DETAIL
  6
CONTINUOUS
 62
     5
 10
241.5
 20
399.0
 30
0.0
 40
1.45
  0
LINE
  5
212
  8
NOTE
  6
CONTINUOUS
 62
     4
 10
236.406103
 20
399.0
 30
0.0
 11
246.593897
 21
399.0
 31
0.0
  0
LINE
  5
213
  8
NOTE
  6
CONTINUOUS
 62
     4
 10
348.547638
 20
461.626413
 30
0.0
 11
336.5
 21
433.0
 31
0.0
210
0.0
220
0.0
230
-1.0
  0
LINE
  5
214
  8
NOTE
  6
CONTINUOUS
 62
     4
 10
336.5
 20
433.0
 30
0.0
 11
361.246767
 21
451.767382
 31
0.0
210
0.0
220
0.0
230
-1.0
  0
LINE
  5
215
  8
NOTE
  6
CONTINUOUS
 62
     4
 10
336.5
 20
433.0
 30
0.0
 11
354.897203
 21
456.696897
 31
0.0
210
0.0
220
0.0
230
-1.0
  0
LINE
  5
216
  8
NOTE
  6
CONTINUOUS
 62
     4
 10
354.897203
 20
456.696897
 30
0.0
 11
556.52521
 21
716.408021
 31
0.0
210
0.0
220
0.0
230
-1.0
  0
LINE
  5
217
  8
NOTE
  6
CONTINUOUS
 62
     4
 10
483.147873
 20
390.945215
 30
0.0
 11
480.500088
 21
360.0
 31
0.0
210
0.0
220
0.0
230
-1.0
  0
LINE
  5
218
  8
NOTE
  6
CONTINUOUS
 62
     4
 10
480.500088
 20
360.0
 30
0.0
 11
498.265744
 21
385.47545
 31
0.0
210
0.0
220
0.0
230
-1.0
  0
LINE
  5
21A
  8
NOTE
  6
CONTINUOUS
 62
     4
 10
480.500088
 20
360.0
 30
0.0
 11
573.22219
 21
616.274424
 31
0.0
210
0.0
220
0.0
230
-1.0
  0
LINE
  5
21B
  8
NOTE
  6
CONTINUOUS
 62
     4
 10
-242.410063
 20
202.078347
 30
0.0
 11
-239.5
 21
233.0
 31
0.0
210
0.0
220
0.0
230
-1.0
  0
LINE
  5
21C
  8
NOTE
  6
CONTINUOUS
 62
     4
 10
-239.5
 20
233.0
 30
0.0
 11
-257.481015
 21
207.676095
 31
0.0
210
0.0
220
0.0
230
-1.0
  0
LINE
  5
21E
  8
NOTE
  6
CONTINUOUS
 62
     4
 10
-239.5
 20
233.0
 30
0.0
 11
-398.279319
 21
-194.485418
 31
0.0
210
0.0
220
0.0
230
-1.0
  0
LINE
  5
21F
  8
NOTE
  6
CONTINUOUS
 62
     4
 10
-203.158796
 20
275.128273
 30
0.0
 11
-175.5
 21
261.0
 31
0.0
210
0.0
220
0.0
230
-1.0
  0
LINE
  5
220
  8
NOTE
  6
CONTINUOUS
 62
     4
 10
-175.5
 20
261.0
 30
0.0
 11
-192.389084
 21
287.064841
 31
0.0
210
0.0
220
0.0
230
-1.0
  0
LINE
  5
222
  8
NOTE
  6
CONTINUOUS
 62
     4
 10
-175.5
 20
261.0
 30
0.0
 11
-598.250251
 21
642.424421
 31
0.0
210
0.0
220
0.0
230
-1.0
  0
LINE
  5
223
  8
NOTE
  6
CONTINUOUS
 62
     4
 10
-455.46386
 20
271.663922
 30
0.0
 11
-437.5
 21
297.0
 31
0.0
  0
LINE
  5
224
  8
NOTE
  6
CONTINUOUS
 62
     4
 10
-437.5
 20
297.0
 30
0.0
 11
-440.38912
 21
266.076383
 31
0.0
  0
LINE
  5
226
  8
NOTE
  6
CONTINUOUS
 62
     4
 10
-437.5
 20
297.0
 30
0.0
 11
-558.581104
 21
-29.66727
 31
0.0
  0
LINE
  5
227
  8
NOTE
  6
CONTINUOUS
 62
     4
 10
261.593448
 20
336.682703
 30
0.0
 11
241.5
 21
313.0
 31
0.0
  0
LINE
  5
228
  8
NOTE
  6
CONTINUOUS
 62
     4
 10
241.5
 20
313.0
 30
0.0
 11
247.060085
 21
343.556547
 31
0.0
  0
LINE
  5
22A
  8
NOTE
  6
CONTINUOUS
 62
     4
 10
241.5
 20
313.0
 30
0.0
 11
517.520191
 21
896.589327
 31
0.0
  0
LINE
  5
22B
  8
NOTE
  6
CONTINUOUS
 62
     4
 10
243.035484
 20
195.979694
 30
0.0
 11
241.5
 21
227.0
 31
0.0
  0
LINE
  5
22C
  8
NOTE
  6
CONTINUOUS
 62
     4
 10
241.5
 20
227.0
 30
0.0
 11
258.339921
 21
200.903369
 31
0.0
  0
LINE
  5
22E
  8
NOTE
  6
CONTINUOUS
 62
     4
 10
241.5
 20
227.0
 30
0.0
 11
362.876786
 21
-150.279852
 31
0.0
  0
LINE
  5
230
  8
OUTLINE
  6
CONTINUOUS
 62
     3
 10
484.500484
 20
58.000045
 30
0.0
 11
-121.499991
 21
58.000045
 31
0.0
  0
LINE
  5
231
  8
OUTLINE
  6
CONTINUOUS
 62
     3
 10
-121.499991
 20
58.000045
 30
0.0
 11
-121.499991
 21
0.0
 31
0.0
  0
LINE
  5
232
  8
OUTLINE
  6
CONTINUOUS
 62
     3
 10
-143.500008
 20
0.0
 30
0.0
 11
506.500501
 21
0.0
 31
0.0
  0
LINE
  5
233
  8
OUTLINE
  6
CONTINUOUS
 62
     3
 10
484.500484
 20
0.0
 30
0.0
 11
484.500484
 21
58.000045
 31
0.0
  0
ENDSEC
  0
EOF
