  0
SECTION
  2
HEADER
  9
$ACADVER
  1
AC1009
  9
$INSBASE
 10
0.0
 20
0.0
 30
0.0
  9
$EXTMIN
 10
-1397.614617
 20
-1052.004273
 30
-0.001526
  9
$EXTMAX
 10
1455.663458
 20
1218.350554
 30
0.0
  9
$LIMMIN
 10
-4267.152221
 20
-2696.08321
  9
$LIMMAX
 10
7190.717423
 20
5141.155364
  9
$ORTHOMODE
 70
     0
  9
$REGENMODE
 70
     1
  9
$FILLMODE
 70
     1
  9
$QTEXTMODE
 70
     0
  9
$MIRRTEXT
 70
     0
  9
$DRAGMODE
 70
     2
  9
$LTSCALE
 40
20.0
  9
$OSMODE
 70
    37
  9
$ATTMODE
 70
     1
  9
$TEXTSIZE
 40
64.0
  9
$TRACEWID
 40
0.05
  9
$TEXTSTYLE
  7
STANDARD1
  9
$CLAYER
  8
NOTE
  9
$CELTYPE
  6
CONTINUOUS
  9
$CECOLOR
 62
     7
  9
$DIMSCALE
 40
1.0
  9
$DIMASZ
 40
30.0
  9
$DIMEXO
 40
15.0
  9
$DIMDLI
 40
80.0
  9
$DIMRND
 40
0.0
  9
$DIMDLE
 40
0.0
  9
$DIMEXE
 40
15.0
  9
$DIMTP
 40
0.0
  9
$DIMTM
 40
0.0
  9
$DIMTXT
 40
50.0
  9
$DIMCEN
 40
0.09
  9
$DIMTSZ
 40
0.0
  9
$DIMTOL
 70
     0
  9
$DIMLIM
 70
     0
  9
$DIMTIH
 70
     0
  9
$DIMTOH
 70
     0
  9
$DIMSE1
 70
     0
  9
$DIMSE2
 70
     0
  9
$DIMTAD
 70
     1
  9
$DIMZIN
 70
     8
  9
$DIMBLK
  1
_SMALL
  9
$DIMASO
 70
     1
  9
$DIMSHO
 70
     0
  9
$DIMPOST
  1

  9
$DIMAPOST
  1

  9
$DIMALT
 70
     0
  9
$DIMALTD
 70
     2
  9
$DIMALTF
 40
25.4
  9
$DIMLFAC
 40
1.0
  9
$DIMTOFL
 70
     1
  9
$DIMTVP
 40
0.0
  9
$DIMTIX
 70
     0
  9
$DIMSOXD
 70
     0
  9
$DIMSAH
 70
     0
  9
$DIMBLK1
  1

  9
$DIMBLK2
  1

  9
$DIMSTYLE
  2
STANDARD
  9
$DIMCLRD
 70
     0
  9
$DIMCLRE
 70
     0
  9
$DIMCLRT
 70
     0
  9
$DIMTFAC
 40
1.0
  9
$DIMGAP
 40
0.09
  9
$LUNITS
 70
     2
  9
$LUPREC
 70
     4
  9
$SKETCHINC
 40
0.1
  9
$FILLETRAD
 40
0.8
  9
$AUNITS
 70
     1
  9
$AUPREC
 70
     3
  9
$MENU
  1
ACAD
  9
$ELEVATION
 40
0.0
  9
$PELEVATION
 40
0.0
  9
$THICKNESS
 40
0.0
  9
$LIMCHECK
 70
     0
  9
$BLIPMODE
 70
     0
  9
$CHAMFERA
 40
0.0
  9
$CHAMFERB
 40
0.0
  9
$SKPOLY
 70
     0
  9
$TDCREATE
 40
2450330.439931
  9
$TDUPDATE
 40
2454645.697712
  9
$TDINDWG
 40
4.131237
  9
$TDUSRTIMER
 40
4.131237
  9
$USRTIMER
 70
     1
  9
$ANGBASE
 50
0.0
  9
$ANGDIR
 70
     0
  9
$PDMODE
 70
     3
  9
$PDSIZE
 40
-2.0
  9
$PLINEWID
 40
0.0
  9
$COORDS
 70
     0
  9
$SPLFRAME
 70
     0
  9
$SPLINETYPE
 70
     6
  9
$SPLINESEGS
 70
     8
  9
$ATTDIA
 70
     0
  9
$ATTREQ
 70
     1
  9
$HANDLING
 70
     1
  9
$HANDSEED
  5
22D
  9
$SURFTAB1
 70
     6
  9
$SURFTAB2
 70
     6
  9
$SURFTYPE
 70
     6
  9
$SURFU
 70
     6
  9
$SURFV
 70
     6
  9
$UCSNAME
  2

  9
$UCSORG
 10
0.0
 20
0.0
 30
0.0
  9
$UCSXDIR
 10
1.0
 20
0.0
 30
0.0
  9
$UCSYDIR
 10
0.0
 20
1.0
 30
0.0
  9
$PUCSNAME
  2

  9
$PUCSORG
 10
0.0
 20
0.0
 30
0.0
  9
$PUCSXDIR
 10
1.0
 20
0.0
 30
0.0
  9
$PUCSYDIR
 10
0.0
 20
1.0
 30
0.0
  9
$USERI1
 70
     0
  9
$USERI2
 70
     0
  9
$USERI3
 70
     0
  9
$USERI4
 70
     0
  9
$USERI5
 70
     0
  9
$USERR1
 40
20.0
  9
$USERR2
 40
0.0
  9
$USERR3
 40
0.0
  9
$USERR4
 40
0.0
  9
$USERR5
 40
0.0
  9
$WORLDVIEW
 70
     1
  9
$SHADEDGE
 70
     3
  9
$SHADEDIF
 70
    70
  9
$TILEMODE
 70
     1
  9
$MAXACTVP
 70
    48
  9
$PLIMCHECK
 70
     0
  9
$PEXTMIN
 10
1.000000E+020
 20
1.000000E+020
 30
1.000000E+020
  9
$PEXTMAX
 10
-1.000000E+020
 20
-1.000000E+020
 30
-1.000000E+020
  9
$PLIMMIN
 10
0.0
 20
0.0
  9
$PLIMMAX
 10
12.0
 20
9.0
  9
$UNITMODE
 70
     0
  9
$VISRETAIN
 70
     1
  9
$PLINEGEN
 70
     0
  9
$PSLTSCALE
 70
     1
  0
ENDSEC
  0
SECTION
  2
TABLES
  0
TABLE
  2
VPORT
 70
     2
  0
VPORT
  2
*ACTIVE
 70
     0
 10
0.0
 20
0.0
 11
1.0
 21
1.0
 12
1829.622071
 22
1222.536077
 13
0.0
 23
0.0
 14
50.0
 24
50.0
 15
100.0
 25
100.0
 16
0.0
 26
0.0
 36
1.0
 17
0.0
 27
0.0
 37
0.0
 40
7837.238574
 41
1.555848
 42
50.0
 43
0.0
 44
0.0
 50
0.0
 51
0.0
 71
     0
 72
  1000
 73
     1
 74
     0
 75
     0
 76
     0
 77
     0
 78
     0
  0
ENDTAB
  0
TABLE
  2
LTYPE
 70
     2
  0
LTYPE
  2
CONTINUOUS
 70
     0
  3
実線
 72
    65
 73
     0
 40
0.0
  0
LTYPE
  2
DASHDOT
 70
     0
  3
____ _ ____ _ ____ _ ____ _ ____ _ ____ _ ____
 72
    65
 73
     4
 40
5.5
 49
4.0
 49
-0.6
 49
0.3
 49
-0.6
  0
ENDTAB
  0
TABLE
  2
LAYER
 70
    12
  0
LAYER
  2
0
 70
     0
 62
     7
  6
CONTINUOUS
  0
LAYER
  2
NOTE
 70
     0
 62
     4
  6
CONTINUOUS
  0
LAYER
  2
OUTLINE
 70
     0
 62
     3
  6
CONTINUOUS
  0
LAYER
  2
DETAIL
 70
     0
 62
     5
  6
CONTINUOUS
  0
LAYER
  2
BASIS
 70
     0
 62
     6
  6
DASHDOT
  0
LAYER
  2
SIZE
 70
     0
 62
    30
  6
CONTINUOUS
  0
LAYER
  2
ARRANGE
 70
     0
 62
     1
  6
CONTINUOUS
  0
LAYER
  2
FIX
 70
     0
 62
    11
  6
CONTINUOUS
  0
LAYER
  2
SERVICESPACE
 70
     0
 62
     2
  6
DASHDOT
  0
LAYER
  2
ETC
 70
     0
 62
    61
  6
CONTINUOUS
  0
LAYER
  2
SYMBOLLINE
 70
     0
 62
    15
  6
CONTINUOUS
  0
LAYER
  2
DEFPOINTS
 70
     0
 62
     7
  6
CONTINUOUS
  0
ENDTAB
  0
TABLE
  2
STYLE
 70
     3
  0
STYLE
  2
STANDARD
 70
     0
 40
0.0
 41
0.9
 50
0.0
 71
     0
 42
64.0
  3
SIMPLEX
  4
BIGFONT
  0
STYLE
  2
STANDARD1
 70
     0
 40
0.0
 41
1.0
 50
0.0
 71
     0
 42
64.0
  3
MONOTXT
  4
BIGFONT
  0
STYLE
  2

 70
     1
 40
0.0
 41
1.0
 50
0.0
 71
     0
 42
64.0
  3
ltypeshp.shx
  4

  0
ENDTAB
  0
TABLE
  2
VIEW
 70
     1
  0
VIEW
  2
ALL
 70
     0
 40
9000.0
 10
241.506647
 20
0.0
 41
12483.01
 11
0.0
 21
0.0
 31
1.0
 12
0.0
 22
0.0
 32
0.0
 42
50.0
 43
0.0
 44
0.0
 50
0.0
 71
     0
  0
ENDTAB
  0
TABLE
  2
UCS
 70
     0
  0
ENDTAB
  0
TABLE
  2
APPID
 70
     1
  0
APPID
  2
ACAD
 70
     0
  0
ENDTAB
  0
TABLE
  2
DIMSTYLE
 70
     1
  0
DIMSTYLE
  2
STANDARD
 70
     0
  3

  4

  5

  6

  7

 40
1.0
 41
0.18
 42
0.0625
 43
0.38
 44
0.18
 45
0.0
 46
0.0
 47
0.0
 48
0.0
140
0.18
141
0.09
142
0.0
143
25.4
144
1.0
145
0.0
146
1.0
147
0.09
 71
     0
 72
     0
 73
     1
 74
     1
 75
     0
 76
     0
 77
     0
 78
     0
170
     0
171
     2
172
     0
173
     0
174
     0
175
     0
176
     0
177
     0
178
     0
  0
ENDTAB
  0
ENDSEC
  0
SECTION
  2
BLOCKS
  0
BLOCK
  8
0
  2
$MODEL_SPACE
 70
     0
 10
0.0
 20
0.0
 30
0.0
  3
$MODEL_SPACE
  1

  0
ENDBLK
  5
1A
  8
0
  0
BLOCK
 67
     1
  8
0
  2
$PAPER_SPACE
 70
     0
 10
0.0
 20
0.0
 30
0.0
  3
$PAPER_SPACE
  1

  0
ENDBLK
  5
17
 67
     1
  8
0
  0
BLOCK
  8
0
  2
_SMALL
 70
     0
 10
0.0
 20
0.0
 30
0.0
  3
_SMALL
  1

  0
CIRCLE
  5
34
  8
0
  6
CONTINUOUS
 62
     7
 10
0.0
 20
0.0
 30
0.0
 40
0.25
  0
ENDBLK
  5
35
  8
0
  0
ENDSEC
  0
SECTION
  2
ENTITIES
  0
LINE
  5
36
  8
DETAIL
  6
CONTINUOUS
 62
     5
 10
-557.664102
 20
-369.50024
 30
0.0
 11
-557.664102
 21
-371.500479
 31
0.0
  0
ARC
  5
37
  8
DETAIL
  6
CONTINUOUS
 62
     5
 10
-553.663623
 20
-371.500479
 30
0.0
 40
4.000479
 50
180.0
 51
270.0
  0
ARC
  5
38
  8
DETAIL
  6
CONTINUOUS
 62
     5
 10
-559.664342
 20
-369.50024
 30
0.0
 40
2.00024
 50
0.0
 51
90.0
  0
LINE
  5
39
  8
DETAIL
  6
CONTINUOUS
 62
     5
 10
-394.512852
 20
-389.964674
 30
0.0
 11
-553.663623
 21
-375.500958
 31
0.0
  0
ARC
  5
3B
  8
DETAIL
  6
CONTINUOUS
 62
     5
 10
-394.837581
 20
-394.617277
 30
0.0
 40
4.663922
 50
0.029614
 51
86.007507
  0
LINE
  5
3C
  8
DETAIL
  6
CONTINUOUS
 62
     5
 10
564.494014
 20
-375.473444
 30
0.0
 11
458.830232
 21
-385.570942
 31
0.0
  0
ARC
  5
3D
  8
DETAIL
  6
CONTINUOUS
 62
     5
 10
459.9075
 20
-395.419708
 30
0.0
 40
9.907507
 50
96.242253
 51
179.929714
  0
ARC
  5
3E
  8
DETAIL
  6
CONTINUOUS
 62
     5
 10
564.025628
 20
-371.500479
 30
0.0
 40
4.000479
 50
274.911895
 51
0.0
  0
ARC
  5
3F
  8
DETAIL
  6
CONTINUOUS
 62
     5
 10
570.026346
 20
-369.50024
 30
0.0
 40
2.00024
 50
90.0
 51
180.0
  0
LINE
  5
40
  8
DETAIL
  6
CONTINUOUS
 62
     5
 10
568.026107
 20
-369.50024
 30
0.0
 11
568.026107
 21
-371.500479
 31
0.0
  0
LINE
  5
42
  8
DETAIL
  6
CONTINUOUS
 62
     5
 10
580.000838
 20
-341.500958
 30
0.0
 11
580.000838
 21
-339.500719
 31
0.0
  0
ARC
  5
43
  8
DETAIL
  6
CONTINUOUS
 62
     5
 10
573.0
 20
-325.499042
 30
0.0
 40
7.000838
 50
0.0
 51
180.0
  0
ARC
  5
44
  8
DETAIL
  6
CONTINUOUS
 62
     5
 10
573.0
 20
-341.500958
 30
0.0
 40
7.000838
 50
180.0
 51
0.0
  0
LINE
  5
45
  8
DETAIL
  6
CONTINUOUS
 62
     5
 10
580.000838
 20
-327.499281
 30
0.0
 11
580.000838
 21
-325.499042
 31
0.0
  0
LINE
  5
46
  8
DETAIL
  6
CONTINUOUS
 62
     5
 10
580.0
 20
-363.003533
 30
0.0
 11
596.0
 21
-363.003533
 31
0.0
  0
LINE
  5
47
  8
DETAIL
  6
CONTINUOUS
 62
     5
 10
580.0
 20
-303.996467
 30
0.0
 11
596.0
 21
-303.996467
 31
0.0
  0
LINE
  5
48
  8
DETAIL
  6
CONTINUOUS
 62
     5
 10
596.0
 20
-363.003533
 30
0.0
 11
596.0
 21
-339.500719
 31
0.0
  0
LINE
  5
49
  8
DETAIL
  6
CONTINUOUS
 62
     5
 10
580.000838
 20
-327.499281
 30
0.0
 11
596.0
 21
-327.499281
 31
0.0
  0
LINE
  5
4A
  8
DETAIL
  6
CONTINUOUS
 62
     5
 10
580.000838
 20
-339.500719
 30
0.0
 11
596.0
 21
-339.500719
 31
0.0
  0
LINE
  5
4B
  8
DETAIL
  6
CONTINUOUS
 62
     5
 10
596.0
 20
-327.499281
 30
0.0
 11
596.0
 21
-303.996467
 31
0.0
  0
LINE
  5
4C
  8
DETAIL
  6
CONTINUOUS
 62
     5
 10
565.999162
 20
-341.500958
 30
0.0
 11
565.999162
 21
-325.499042
 31
0.0
  0
LINE
  5
4D
  8
DETAIL
  6
CONTINUOUS
 62
     5
 10
-596.0
 20
-327.499281
 30
0.0
 11
-596.0
 21
-303.996467
 31
0.0
  0
LINE
  5
4E
  8
DETAIL
  6
CONTINUOUS
 62
     5
 10
-580.000838
 20
-341.500958
 30
0.0
 11
-580.000838
 21
-339.500719
 31
0.0
  0
ARC
  5
4F
  8
DETAIL
  6
CONTINUOUS
 62
     5
 10
-573.0
 20
-325.499042
 30
0.0
 40
7.000838
 50
0.0
 51
180.0
  0
ARC
  5
50
  8
DETAIL
  6
CONTINUOUS
 62
     5
 10
-573.0
 20
-341.500958
 30
0.0
 40
7.000838
 50
180.0
 51
0.0
  0
LINE
  5
51
  8
DETAIL
  6
CONTINUOUS
 62
     5
 10
-580.000838
 20
-327.499281
 30
0.0
 11
-580.000838
 21
-325.499042
 31
0.0
  0
LINE
  5
52
  8
DETAIL
  6
CONTINUOUS
 62
     5
 10
-596.0
 20
-363.003533
 30
0.0
 11
-596.0
 21
-339.500719
 31
0.0
  0
LINE
  5
53
  8
DETAIL
  6
CONTINUOUS
 62
     5
 10
-580.000838
 20
-327.499281
 30
0.0
 11
-596.0
 21
-327.499281
 31
0.0
  0
LINE
  5
54
  8
DETAIL
  6
CONTINUOUS
 62
     5
 10
-580.000838
 20
-339.500719
 30
0.0
 11
-596.0
 21
-339.500719
 31
0.0
  0
LINE
  5
55
  8
DETAIL
  6
CONTINUOUS
 62
     5
 10
-565.999162
 20
-341.500958
 30
0.0
 11
-565.999162
 21
-325.499042
 31
0.0
  0
LINE
  5
56
  8
DETAIL
  6
CONTINUOUS
 62
     5
 10
-580.0
 20
-363.003533
 30
0.0
 11
-596.0
 21
-363.003533
 31
0.0
  0
LINE
  5
57
  8
DETAIL
  6
CONTINUOUS
 62
     5
 10
-580.0
 20
-303.996467
 30
0.0
 11
-596.0
 21
-303.996467
 31
0.0
  0
LINE
  5
58
  8
DETAIL
  6
CONTINUOUS
 62
     5
 10
-580.0
 20
-367.5
 30
0.0
 11
-580.0
 21
-143.5
 31
0.0
  0
ARC
  5
5A
  8
DETAIL
  6
CONTINUOUS
 62
     5
 10
577.99976
 20
-350.502025
 30
0.0
 40
2.00024
 50
359.99759
 51
90.002411
  0
ARC
  5
5B
  8
DETAIL
  6
CONTINUOUS
 62
     5
 10
577.99976
 20
-316.497954
 30
0.0
 40
2.00024
 50
269.997589
 51
0.0
  0
LINE
  5
5C
  8
DETAIL
  6
CONTINUOUS
 62
     5
 10
577.999676
 20
-348.501786
 30
0.0
 11
566.199186
 21
-348.501786
 31
0.0
  0
LINE
  5
5D
  8
DETAIL
  6
CONTINUOUS
 62
     5
 10
577.999676
 20
-318.498193
 30
0.0
 11
566.199186
 21
-318.498193
 31
0.0
  0
LINE
  5
5E
  8
DETAIL
  6
CONTINUOUS
 62
     5
 10
566.199186
 20
-348.501786
 30
0.0
 11
566.199186
 21
-318.498193
 31
0.0
  0
LINE
  5
5F
  8
DETAIL
  6
CONTINUOUS
 62
     5
 10
-578.0
 20
-348.501786
 30
0.0
 11
-566.199186
 21
-348.501786
 31
0.0
  0
LINE
  5
60
  8
DETAIL
  6
CONTINUOUS
 62
     5
 10
-578.0
 20
-318.498193
 30
0.0
 11
-566.199186
 21
-318.498193
 31
0.0
  0
LINE
  5
61
  8
DETAIL
  6
CONTINUOUS
 62
     5
 10
-566.199186
 20
-348.501786
 30
0.0
 11
-566.199186
 21
-318.498193
 31
0.0
  0
LINE
  5
63
  8
DETAIL
  6
CONTINUOUS
 62
     5
 10
-580.0
 20
-367.5
 30
0.0
 11
580.0
 21
-367.5
 31
0.0
  0
LINE
  5
65
  8
NOTE
  6
CONTINUOUS
 62
     4
 10
-593.132412
 20
336.5
 30
0.0
 11
-552.999042
 21
336.5
 31
0.0
  0
LINE
  5
66
  8
NOTE
  6
CONTINUOUS
 62
     4
 10
-573.0
 20
316.5
 30
0.0
 11
-573.0
 21
356.5
 31
0.0
  0
LINE
  5
67
  8
NOTE
  6
CONTINUOUS
 62
     4
 10
-573.0
 20
-353.5
 30
0.0
 11
-573.0
 21
-313.5
 31
0.0
  0
LINE
  5
68
  8
NOTE
  6
CONTINUOUS
 62
     4
 10
-593.000958
 20
-333.5
 30
0.0
 11
-552.999042
 21
-333.5
 31
0.0
  0
LINE
  5
69
  8
NOTE
  6
CONTINUOUS
 62
     4
 10
573.0
 20
-353.5
 30
0.0
 11
573.0
 21
-313.5
 31
0.0
  0
LINE
  5
6A
  8
NOTE
  6
CONTINUOUS
 62
     4
 10
552.923595
 20
-333.5
 30
0.0
 11
593.076405
 21
-333.5
 31
0.0
  0
LINE
  5
6B
  8
NOTE
  6
CONTINUOUS
 62
     4
 10
573.0
 20
316.5
 30
0.0
 11
573.0
 21
356.5
 31
0.0
  0
LINE
  5
6C
  8
NOTE
  6
CONTINUOUS
 62
     4
 10
552.923595
 20
336.5
 30
0.0
 11
593.076405
 21
336.5
 31
0.0
  0
LINE
  5
6D
  8
BASIS
  6
DASHDOT
 62
     6
 10
0.0
 20
577.389851
 30
0.0
 11
0.0
 21
-448.389851
 31
0.0
  0
CIRCLE
  5
6E
  8
FIX
  6
CONTINUOUS
 62
    11
 10
-573.0
 20
336.5
 30
0.0
 40
18.598564
  0
CIRCLE
  5
6F
  8
FIX
  6
CONTINUOUS
 62
    11
 10
573.0
 20
336.5
 30
0.0
 40
18.598564
  0
CIRCLE
  5
70
  8
FIX
  6
CONTINUOUS
 62
    11
 10
573.0
 20
-333.5
 30
0.0
 40
18.598564
  0
CIRCLE
  5
71
  8
FIX
  6
CONTINUOUS
 62
    11
 10
-573.0
 20
-333.5
 30
0.0
 40
18.598564
  0
ARC
  5
72
  8
DETAIL
  6
CONTINUOUS
 62
     5
 10
-578.0
 20
-350.501786
 30
0.0
 40
2.0
 50
90.0
 51
180.0
  0
ARC
  5
73
  8
DETAIL
  6
CONTINUOUS
 62
     5
 10
-578.0
 20
-316.498193
 30
0.0
 40
2.0
 50
180.0
 51
270.0
  0
LINE
  5
74
  8
DETAIL
  6
CONTINUOUS
 62
     5
 10
-580.0
 20
-170.74
 30
0.0
 11
-619.0
 21
-170.74
 31
0.0
  0
LINE
  5
75
  8
DETAIL
  6
CONTINUOUS
 62
     5
 10
-619.0
 20
-170.74
 30
0.0
 11
-619.0
 21
-180.26
 31
0.0
  0
LINE
  5
76
  8
DETAIL
  6
CONTINUOUS
 62
     5
 10
-619.0
 20
-180.26
 30
0.0
 11
-580.0
 21
-180.26
 31
0.0
  0
LINE
  5
77
  8
NOTE
  6
CONTINUOUS
 62
     4
 10
-619.0
 20
-195.5
 30
0.0
 11
-619.0
 21
-155.5
 31
0.0
  0
LINE
  5
78
  8
NOTE
  6
CONTINUOUS
 62
     4
 10
-639.000958
 20
-175.5
 30
0.0
 11
-598.999042
 21
-175.5
 31
0.0
  0
CIRCLE
  5
79
  8
ARRANGE
  6
CONTINUOUS
 62
     1
 10
0.0
 20
0.0
 30
0.0
 40
50.0
  0
LINE
  5
7A
  8
ARRANGE
  6
CONTINUOUS
 62
     1
 10
50.03735
 20
-49.522353
 30
0.0
 11
-50.03735
 21
49.522353
 31
0.0
  0
LINE
  5
7B
  8
ARRANGE
  6
CONTINUOUS
 62
     1
 10
49.963763
 20
49.596595
 30
0.0
 11
-49.963763
 21
-49.596595
 31
0.0
  0
TEXT
  5
7C
  8
NOTE
  6
CONTINUOUS
 62
     4
 10
-1375.51238
 20
-545.726072
 30
0.0
 40
60.0
  1
RG %%C15.88
 50
0.000003
 41
0.7
  7
STANDARD1
  0
LINE
  5
7D
  8
NOTE
  6
CONTINUOUS
 62
     4
 10
-1025.390852
 20
-561.552603
 30
0.0
 11
-1397.187652
 21
-561.552603
 31
0.0
  0
TEXT
  5
7E
  8
NOTE
  6
CONTINUOUS
 62
     4
 10
-1185.345989
 20
40.45383
 30
0.0
 40
60.0
  1
RL %%C9.52
 50
0.000003
 41
0.7
  7
STANDARD1
  0
LINE
  5
7F
  8
NOTE
  6
CONTINUOUS
 62
     4
 10
-361.944515
 20
-437.5
 30
0.0
 11
-218.055485
 21
-437.5
 31
0.0
  0
LINE
  5
80
  8
NOTE
  6
CONTINUOUS
 62
     4
 10
-290.0
 20
-365.555485
 30
0.0
 11
-290.0
 21
-509.444515
 31
0.0
  0
TEXT
  5
81
  8
ETC
  6
CONTINUOUS
 62
    61
 10
-1289.898255
 20
1152.816359
 30
0.0
 40
65.0
  1
MPD-RP71_80FA3(F-BOX)_6
 50
0.000003
 41
0.85
  7
STANDARD1
  0
LINE
  5
82
  8
BASIS
  6
DASHDOT
 62
     6
 10
660.914916
 20
0.0
 30
0.0
 11
-819.856923
 21
0.0
 31
0.0
  0
LINE
  5
83
  8
NOTE
  6
CONTINUOUS
 62
     4
 10
30.0
 20
-365.555485
 30
0.0
 11
30.0
 21
-509.444515
 31
0.0
  0
LINE
  5
84
  8
NOTE
  6
CONTINUOUS
 62
     4
 10
-41.944515
 20
-437.5
 30
0.0
 11
101.944515
 21
-437.5
 31
0.0
  0
LINE
  5
85
  8
SIZE
  6
CONTINUOUS
 62
    30
 10
-573.0
 20
-368.5
 30
0.0
 11
-573.0
 21
-846.616099
 31
0.0
  0
LINE
  5
86
  8
SIZE
  6
CONTINUOUS
 62
    30
 10
573.0
 20
-368.5
 30
0.0
 11
573.0
 21
-846.616099
 31
0.0
  0
LINE
  5
87
  8
SIZE
  6
CONTINUOUS
 62
    30
 10
-573.0
 20
-831.616099
 30
0.0
 11
573.0
 21
-831.616099
 31
0.0
  0
CIRCLE
  5
88
  8
SIZE
  6
CONTINUOUS
 62
    30
 10
-573.0
 20
-831.616099
 30
0.0
 40
7.5
  0
CIRCLE
  5
89
  8
SIZE
  6
CONTINUOUS
 62
    30
 10
573.0
 20
-831.616099
 30
0.0
 40
7.5
  0
TEXT
  5
8A
  8
SIZE
  6
CONTINUOUS
 62
    30
 10
-315.642857
 20
-803.52086
 30
0.0
 40
50.0
  1
1146(吊りボルトピッチ)
 41
0.9
 72
     1
 11
0.0
 21
-803.52086
 31
0.0
  0
POINT
  5
8B
  8
DEFPOINTS
  6
CONTINUOUS
 62
     7
 10
-573.0
 20
-353.5
 30
0.0
  0
POINT
  5
8C
  8
DEFPOINTS
  6
CONTINUOUS
 62
     7
 10
573.0
 20
-353.5
 30
0.0
  0
POINT
  5
8D
  8
DEFPOINTS
  6
CONTINUOUS
 62
     7
 10
573.0
 20
-831.616099
 30
0.0
  0
LINE
  5
8E
  8
SIZE
  6
CONTINUOUS
 62
    30
 10
-290.0
 20
-524.444515
 30
0.0
 11
-290.0
 21
-718.441517
 31
0.0
  0
LINE
  5
8F
  8
SIZE
  6
CONTINUOUS
 62
    30
 10
30.0
 20
-524.444515
 30
0.0
 11
30.0
 21
-718.441517
 31
0.0
  0
LINE
  5
90
  8
SIZE
  6
CONTINUOUS
 62
    30
 10
-290.0
 20
-703.441517
 30
0.0
 11
30.0
 21
-703.441517
 31
0.0
  0
CIRCLE
  5
91
  8
SIZE
  6
CONTINUOUS
 62
    30
 10
-290.0
 20
-703.441517
 30
0.0
 40
7.5
  0
CIRCLE
  5
92
  8
SIZE
  6
CONTINUOUS
 62
    30
 10
30.0
 20
-703.441517
 30
0.0
 40
7.5
  0
TEXT
  5
93
  8
SIZE
  6
CONTINUOUS
 62
    30
 10
-187.857143
 20
-688.441517
 30
0.0
 40
50.0
  1
320
 41
0.9
 72
     1
 11
-130.0
 21
-688.441517
 31
0.0
  0
POINT
  5
94
  8
DEFPOINTS
  6
CONTINUOUS
 62
     7
 10
-290.0
 20
-509.444515
 30
0.0
  0
POINT
  5
95
  8
DEFPOINTS
  6
CONTINUOUS
 62
     7
 10
30.0
 20
-509.444515
 30
0.0
  0
POINT
  5
96
  8
DEFPOINTS
  6
CONTINUOUS
 62
     7
 10
30.0
 20
-703.441517
 30
0.0
  0
LINE
  5
97
  8
SIZE
  6
CONTINUOUS
 62
    30
 10
30.0
 20
-524.444515
 30
0.0
 11
30.0
 21
-718.441517
 31
0.0
  0
LINE
  5
98
  8
SIZE
  6
CONTINUOUS
 62
    30
 10
350.0
 20
-524.444515
 30
0.0
 11
350.0
 21
-718.441517
 31
0.0
  0
LINE
  5
99
  8
SIZE
  6
CONTINUOUS
 62
    30
 10
30.0
 20
-703.441517
 30
0.0
 11
350.0
 21
-703.441517
 31
0.0
  0
CIRCLE
  5
9A
  8
SIZE
  6
CONTINUOUS
 62
    30
 10
30.0
 20
-703.441517
 30
0.0
 40
7.5
  0
CIRCLE
  5
9B
  8
SIZE
  6
CONTINUOUS
 62
    30
 10
350.0
 20
-703.441517
 30
0.0
 40
7.5
  0
TEXT
  5
9C
  8
SIZE
  6
CONTINUOUS
 62
    30
 10
132.142857
 20
-688.441517
 30
0.0
 40
50.0
  1
320
 41
0.9
 72
     1
 11
190.0
 21
-688.441517
 31
0.0
  0
POINT
  5
9D
  8
DEFPOINTS
  6
CONTINUOUS
 62
     7
 10
30.0
 20
-509.444515
 30
0.0
  0
POINT
  5
9E
  8
DEFPOINTS
  6
CONTINUOUS
 62
     7
 10
350.0
 20
-509.444515
 30
0.0
  0
POINT
  5
9F
  8
DEFPOINTS
  6
CONTINUOUS
 62
     7
 10
350.0
 20
-703.441517
 30
0.0
  0
LINE
  5
A0
  8
SIZE
  6
CONTINUOUS
 62
    30
 10
350.0
 20
-524.444515
 30
0.0
 11
350.0
 21
-718.441517
 31
0.0
  0
LINE
  5
A1
  8
SIZE
  6
CONTINUOUS
 62
    30
 10
580.0
 20
-382.5
 30
0.0
 11
580.0
 21
-718.441517
 31
0.0
  0
LINE
  5
A2
  8
SIZE
  6
CONTINUOUS
 62
    30
 10
350.0
 20
-703.441517
 30
0.0
 11
580.0
 21
-703.441517
 31
0.0
  0
CIRCLE
  5
A3
  8
SIZE
  6
CONTINUOUS
 62
    30
 10
350.0
 20
-703.441517
 30
0.0
 40
7.5
  0
CIRCLE
  5
A4
  8
SIZE
  6
CONTINUOUS
 62
    30
 10
580.0
 20
-703.441517
 30
0.0
 40
7.5
  0
TEXT
  5
A5
  8
SIZE
  6
CONTINUOUS
 62
    30
 10
407.142857
 20
-688.441517
 30
0.0
 40
50.0
  1
230
 41
0.9
 72
     1
 11
465.0
 21
-688.441517
 31
0.0
  0
POINT
  5
A6
  8
DEFPOINTS
  6
CONTINUOUS
 62
     7
 10
350.0
 20
-509.444515
 30
0.0
  0
POINT
  5
A7
  8
DEFPOINTS
  6
CONTINUOUS
 62
     7
 10
580.0
 20
-367.5
 30
0.0
  0
POINT
  5
A8
  8
DEFPOINTS
  6
CONTINUOUS
 62
     7
 10
580.0
 20
-703.441517
 30
0.0
  0
LINE
  5
A9
  8
NOTE
  6
CONTINUOUS
 62
     4
 10
350.0
 20
-365.555485
 30
0.0
 11
350.0
 21
-509.444515
 31
0.0
  0
LINE
  5
AA
  8
NOTE
  6
CONTINUOUS
 62
     4
 10
278.055485
 20
-437.5
 30
0.0
 11
421.944515
 21
-437.5
 31
0.0
  0
LINE
  5
AB
  8
DETAIL
  6
CONTINUOUS
 62
     5
 10
-616.0
 20
-247.44
 30
0.0
 11
-580.0
 21
-247.44
 31
0.0
  0
LINE
  5
AC
  8
DETAIL
  6
CONTINUOUS
 62
     5
 10
-616.0
 20
-231.56
 30
0.0
 11
-616.0
 21
-247.44
 31
0.0
  0
LINE
  5
AD
  8
DETAIL
  6
CONTINUOUS
 62
     5
 10
-580.0
 20
-231.56
 30
0.0
 11
-616.0
 21
-231.56
 31
0.0
  0
LINE
  5
AE
  8
NOTE
  6
CONTINUOUS
 62
     4
 10
-642.661335
 20
-239.5
 30
0.0
 11
-589.338665
 21
-239.5
 31
0.0
  0
LINE
  5
AF
  8
NOTE
  6
CONTINUOUS
 62
     4
 10
-616.0
 20
-259.5
 30
0.0
 11
-616.0
 21
-219.5
 31
0.0
  0
LINE
  5
B0
  8
SIZE
  6
CONTINUOUS
 62
    30
 10
-595.0
 20
-367.5
 30
0.0
 11
-925.86495
 21
-367.5
 31
0.0
  0
LINE
  5
B1
  8
SIZE
  6
CONTINUOUS
 62
    30
 10
-668.661335
 20
-239.5
 30
0.0
 11
-925.86495
 21
-239.5
 31
0.0
  0
LINE
  5
B2
  8
SIZE
  6
CONTINUOUS
 62
    30
 10
-910.86495
 20
-367.5
 30
0.0
 11
-910.86495
 21
-239.5
 31
0.0
  0
CIRCLE
  5
B3
  8
SIZE
  6
CONTINUOUS
 62
    30
 10
-910.86495
 20
-367.5
 30
0.0
 40
7.5
  0
CIRCLE
  5
B4
  8
SIZE
  6
CONTINUOUS
 62
    30
 10
-910.86495
 20
-239.5
 30
0.0
 40
7.5
  0
TEXT
  5
B5
  8
SIZE
  6
CONTINUOUS
 62
    30
 10
-925.86495
 20
-357.071429
 30
0.0
 40
50.0
  1
128
 50
90.0
 41
0.9
 72
     1
 11
-925.86495
 21
-303.5
 31
0.0
  0
POINT
  5
B6
  8
DEFPOINTS
  6
CONTINUOUS
 62
     7
 10
-580.0
 20
-367.5
 30
0.0
  0
POINT
  5
B7
  8
DEFPOINTS
  6
CONTINUOUS
 62
     7
 10
-653.661335
 20
-239.5
 30
0.0
  0
POINT
  5
B8
  8
DEFPOINTS
  6
CONTINUOUS
 62
     7
 10
-910.86495
 20
-239.5
 30
0.0
  0
LINE
  5
B9
  8
SIZE
  6
CONTINUOUS
 62
    30
 10
-657.661335
 20
-239.5
 30
0.0
 11
-925.86495
 21
-239.5
 31
0.0
  0
LINE
  5
BA
  8
SIZE
  6
CONTINUOUS
 62
    30
 10
-654.000958
 20
-175.5
 30
0.0
 11
-925.86495
 21
-175.5
 31
0.0
  0
LINE
  5
BB
  8
SIZE
  6
CONTINUOUS
 62
    30
 10
-910.86495
 20
-239.5
 30
0.0
 11
-910.86495
 21
-175.5
 31
0.0
  0
LINE
  5
BC
  8
SIZE
  6
CONTINUOUS
 62
    30
 10
-910.86495
 20
-175.5
 30
0.0
 11
-910.86495
 21
14.45951
 31
0.0
  0
CIRCLE
  5
BD
  8
SIZE
  6
CONTINUOUS
 62
    30
 10
-910.86495
 20
-239.5
 30
0.0
 40
7.5
  0
CIRCLE
  5
BE
  8
SIZE
  6
CONTINUOUS
 62
    30
 10
-910.86495
 20
-175.5
 30
0.0
 40
7.5
  0
TEXT
  5
BF
  8
SIZE
  6
CONTINUOUS
 62
    30
 10
-925.86495
 20
-75.54049
 30
0.0
 40
50.0
  1
64
 50
90.0
 41
0.9
 72
     1
 11
-925.86495
 21
-38.04049
 31
0.0
  0
POINT
  5
C0
  8
DEFPOINTS
  6
CONTINUOUS
 62
     7
 10
-642.661335
 20
-239.5
 30
0.0
  0
POINT
  5
C1
  8
DEFPOINTS
  6
CONTINUOUS
 62
     7
 10
-639.000958
 20
-175.5
 30
0.0
  0
POINT
  5
C2
  8
DEFPOINTS
  6
CONTINUOUS
 62
     7
 10
-910.86495
 20
-175.5
 30
0.0
  0
LINE
  5
C3
  8
SIZE
  6
CONTINUOUS
 62
    30
 10
573.0
 20
-368.5
 30
0.0
 11
573.0
 21
-846.616099
 31
0.0
  0
LINE
  5
C4
  8
SIZE
  6
CONTINUOUS
 62
    30
 10
596.0
 20
-378.003533
 30
0.0
 11
596.0
 21
-846.616099
 31
0.0
  0
LINE
  5
C5
  8
SIZE
  6
CONTINUOUS
 62
    30
 10
573.0
 20
-831.616099
 30
0.0
 11
543.0
 21
-831.616099
 31
0.0
  0
LINE
  5
C6
  8
SIZE
  6
CONTINUOUS
 62
    30
 10
596.0
 20
-831.616099
 30
0.0
 11
758.857143
 21
-831.616099
 31
0.0
  0
LINE
  5
C7
  8
SIZE
  6
CONTINUOUS
 62
    30
 10
573.0
 20
-831.616099
 30
0.0
 11
596.0
 21
-831.616099
 31
0.0
  0
CIRCLE
  5
C8
  8
SIZE
  6
CONTINUOUS
 62
    30
 10
573.0
 20
-831.616099
 30
0.0
 40
7.5
  0
CIRCLE
  5
C9
  8
SIZE
  6
CONTINUOUS
 62
    30
 10
596.0
 20
-831.616099
 30
0.0
 40
7.5
  0
TEXT
  5
CA
  8
SIZE
  6
CONTINUOUS
 62
    30
 10
671.0
 20
-816.616099
 30
0.0
 40
50.0
  1
23
 41
0.9
 72
     1
 11
707.428571
 21
-816.616099
 31
0.0
  0
POINT
  5
CB
  8
DEFPOINTS
  6
CONTINUOUS
 62
     7
 10
573.0
 20
-353.5
 30
0.0
  0
POINT
  5
CC
  8
DEFPOINTS
  6
CONTINUOUS
 62
     7
 10
596.0
 20
-363.003533
 30
0.0
  0
POINT
  5
CD
  8
DEFPOINTS
  6
CONTINUOUS
 62
     7
 10
596.0
 20
-831.616099
 30
0.0
  0
LINE
  5
CE
  8
SIZE
  6
CONTINUOUS
 62
    30
 10
580.0
 20
-382.5
 30
0.0
 11
580.0
 21
-948.175602
 31
0.0
  0
LINE
  5
CF
  8
SIZE
  6
CONTINUOUS
 62
    30
 10
596.0
 20
-378.003533
 30
0.0
 11
596.0
 21
-948.175602
 31
0.0
  0
LINE
  5
D0
  8
SIZE
  6
CONTINUOUS
 62
    30
 10
580.0
 20
-933.175602
 30
0.0
 11
550.0
 21
-933.175602
 31
0.0
  0
LINE
  5
D1
  8
SIZE
  6
CONTINUOUS
 62
    30
 10
596.0
 20
-933.175602
 30
0.0
 11
748.142857
 21
-933.175602
 31
0.0
  0
LINE
  5
D2
  8
SIZE
  6
CONTINUOUS
 62
    30
 10
580.0
 20
-933.175602
 30
0.0
 11
596.0
 21
-933.175602
 31
0.0
  0
CIRCLE
  5
D3
  8
SIZE
  6
CONTINUOUS
 62
    30
 10
580.0
 20
-933.175602
 30
0.0
 40
7.5
  0
CIRCLE
  5
D4
  8
SIZE
  6
CONTINUOUS
 62
    30
 10
596.0
 20
-933.175602
 30
0.0
 40
7.5
  0
TEXT
  5
D5
  8
SIZE
  6
CONTINUOUS
 62
    30
 10
671.0
 20
-918.175602
 30
0.0
 40
50.0
  1
16
 41
0.9
 72
     1
 11
702.071429
 21
-918.175602
 31
0.0
  0
POINT
  5
D6
  8
DEFPOINTS
  6
CONTINUOUS
 62
     7
 10
580.0
 20
-367.5
 30
0.0
  0
POINT
  5
D7
  8
DEFPOINTS
  6
CONTINUOUS
 62
     7
 10
596.0
 20
-363.003533
 30
0.0
  0
POINT
  5
D8
  8
DEFPOINTS
  6
CONTINUOUS
 62
     7
 10
596.0
 20
-933.175602
 30
0.0
  0
LINE
  5
D9
  8
SIZE
  6
CONTINUOUS
 62
    30
 10
-573.0
 20
-368.5
 30
0.0
 11
-573.0
 21
-846.616099
 31
0.0
  0
LINE
  5
DA
  8
SIZE
  6
CONTINUOUS
 62
    30
 10
-596.0
 20
-378.003533
 30
0.0
 11
-596.0
 21
-846.616099
 31
0.0
  0
LINE
  5
DB
  8
SIZE
  6
CONTINUOUS
 62
    30
 10
-573.0
 20
-831.616099
 30
0.0
 11
-543.0
 21
-831.616099
 31
0.0
  0
LINE
  5
DC
  8
SIZE
  6
CONTINUOUS
 62
    30
 10
-596.0
 20
-831.616099
 30
0.0
 11
-758.857143
 21
-831.616099
 31
0.0
  0
LINE
  5
DD
  8
SIZE
  6
CONTINUOUS
 62
    30
 10
-573.0
 20
-831.616099
 30
0.0
 11
-596.0
 21
-831.616099
 31
0.0
  0
CIRCLE
  5
DE
  8
SIZE
  6
CONTINUOUS
 62
    30
 10
-573.0
 20
-831.616099
 30
0.0
 40
7.5
  0
CIRCLE
  5
DF
  8
SIZE
  6
CONTINUOUS
 62
    30
 10
-596.0
 20
-831.616099
 30
0.0
 40
7.5
  0
TEXT
  5
E0
  8
SIZE
  6
CONTINUOUS
 62
    30
 10
-743.857143
 20
-816.616099
 30
0.0
 40
50.0
  1
23
 41
0.9
 72
     1
 11
-707.428571
 21
-816.616099
 31
0.0
  0
POINT
  5
E1
  8
DEFPOINTS
  6
CONTINUOUS
 62
     7
 10
-573.0
 20
-353.5
 30
0.0
  0
POINT
  5
E2
  8
DEFPOINTS
  6
CONTINUOUS
 62
     7
 10
-596.0
 20
-363.003533
 30
0.0
  0
POINT
  5
E3
  8
DEFPOINTS
  6
CONTINUOUS
 62
     7
 10
-596.0
 20
-831.616099
 30
0.0
  0
LINE
  5
E4
  8
SIZE
  6
CONTINUOUS
 62
    30
 10
-596.0
 20
-378.003533
 30
0.0
 11
-596.0
 21
-1051.562818
 31
0.0
  0
LINE
  5
E5
  8
SIZE
  6
CONTINUOUS
 62
    30
 10
596.0
 20
-378.003533
 30
0.0
 11
596.0
 21
-1051.562818
 31
0.0
  0
LINE
  5
E6
  8
SIZE
  6
CONTINUOUS
 62
    30
 10
-596.0
 20
-1036.562818
 30
0.0
 11
596.0
 21
-1036.562818
 31
0.0
  0
CIRCLE
  5
E7
  8
SIZE
  6
CONTINUOUS
 62
    30
 10
-596.0
 20
-1036.562818
 30
0.0
 40
7.5
  0
CIRCLE
  5
E8
  8
SIZE
  6
CONTINUOUS
 62
    30
 10
596.0
 20
-1036.562818
 30
0.0
 40
7.5
  0
TEXT
  5
E9
  8
SIZE
  6
CONTINUOUS
 62
    30
 10
-70.714286
 20
-1021.562818
 30
0.0
 40
50.0
  1
1192
 41
0.9
 72
     1
 11
0.0
 21
-1021.562818
 31
0.0
  0
POINT
  5
EA
  8
DEFPOINTS
  6
CONTINUOUS
 62
     7
 10
-596.0
 20
-363.003533
 30
0.0
  0
POINT
  5
EB
  8
DEFPOINTS
  6
CONTINUOUS
 62
     7
 10
596.0
 20
-363.003533
 30
0.0
  0
POINT
  5
EC
  8
DEFPOINTS
  6
CONTINUOUS
 62
     7
 10
596.0
 20
-1036.562818
 30
0.0
  0
LINE
  5
ED
  8
DETAIL
  6
CONTINUOUS
 62
     5
 10
-387.49997
 20
-437.499887
 30
0.0
 11
-192.49997
 21
-437.499887
 31
0.0
  0
LINE
  5
EE
  8
DETAIL
  6
CONTINUOUS
 62
     5
 10
-387.49997
 20
-437.499887
 30
0.0
 11
-390.17366
 21
-394.614866
 31
0.0
  0
LINE
  5
EF
  8
DETAIL
  6
CONTINUOUS
 62
     5
 10
-389.99997
 20
-397.499887
 30
0.0
 11
-189.99997
 21
-397.499887
 31
0.0
  0
LINE
  5
F0
  8
DETAIL
  6
CONTINUOUS
 62
     5
 10
-192.49997
 20
-437.499887
 30
0.0
 11
-190.064767
 21
-398.536641
 31
0.0
  0
ARC
  5
F1
  8
DETAIL
  6
CONTINUOUS
 62
     5
 10
-188.068662
 20
-398.661397
 30
0.0
 40
2.0
 50
121.227886
 51
176.423666
  0
ARC
  5
F2
  8
DETAIL
  6
CONTINUOUS
 62
     5
 10
-137.261223
 20
-482.462377
 30
0.0
 40
100.0
 50
85.835944
 51
121.227886
  0
ARC
  5
F3
  8
DETAIL
  6
CONTINUOUS
 62
     5
 10
-188.068662
 20
-398.661397
 30
0.0
 40
2.0
 50
121.227886
 51
176.423666
  0
LINE
  5
F4
  8
DETAIL
  6
CONTINUOUS
 62
     5
 10
-192.49997
 20
-437.499887
 30
0.0
 11
-190.064767
 21
-398.536641
 31
0.0
  0
ARC
  5
F5
  8
DETAIL
  6
CONTINUOUS
 62
     5
 10
-137.261223
 20
-482.462377
 30
0.0
 40
100.0
 50
85.835944
 51
121.227886
  0
LINE
  5
F6
  8
DETAIL
  6
CONTINUOUS
 62
     5
 10
-67.49997
 20
-437.499887
 30
0.0
 11
-69.935173
 21
-398.536641
 31
0.0
  0
ARC
  5
F7
  8
DETAIL
  6
CONTINUOUS
 62
     5
 10
-122.738717
 20
-482.462377
 30
0.0
 40
100.0
 50
58.772114
 51
94.164056
  0
ARC
  5
F8
  8
DETAIL
  6
CONTINUOUS
 62
     5
 10
-71.931278
 20
-398.661397
 30
0.0
 40
2.0
 50
3.576334
 51
58.772114
  0
LINE
  5
F9
  8
DETAIL
  6
CONTINUOUS
 62
     5
 10
-67.49997
 20
-437.499887
 30
0.0
 11
127.50003
 21
-437.499887
 31
0.0
  0
LINE
  5
FA
  8
DETAIL
  6
CONTINUOUS
 62
     5
 10
-69.99997
 20
-397.499887
 30
0.0
 11
130.00003
 21
-397.499887
 31
0.0
  0
ARC
  5
FB
  8
DETAIL
  6
CONTINUOUS
 62
     5
 10
131.931338
 20
-398.661397
 30
0.0
 40
2.0
 50
121.227886
 51
176.423666
  0
ARC
  5
FC
  8
DETAIL
  6
CONTINUOUS
 62
     5
 10
182.738777
 20
-482.462377
 30
0.0
 40
100.0
 50
85.835944
 51
121.227886
  0
LINE
  5
FD
  8
DETAIL
  6
CONTINUOUS
 62
     5
 10
127.50003
 20
-437.499887
 30
0.0
 11
129.935233
 21
-398.536641
 31
0.0
  0
LINE
  5
FE
  8
DETAIL
  6
CONTINUOUS
 62
     5
 10
252.50003
 20
-437.499887
 30
0.0
 11
250.064827
 21
-398.536641
 31
0.0
  0
ARC
  5
FF
  8
DETAIL
  6
CONTINUOUS
 62
     5
 10
197.261283
 20
-482.462377
 30
0.0
 40
100.0
 50
58.772114
 51
94.164056
  0
ARC
  5
100
  8
DETAIL
  6
CONTINUOUS
 62
     5
 10
248.068722
 20
-398.661397
 30
0.0
 40
2.0
 50
3.576334
 51
58.772114
  0
LINE
  5
101
  8
DETAIL
  6
CONTINUOUS
 62
     5
 10
250.00003
 20
-397.499887
 30
0.0
 11
449.875731
 21
-397.499887
 31
0.0
  0
LINE
  5
102
  8
DETAIL
  6
CONTINUOUS
 62
     5
 10
447.50003
 20
-437.499887
 30
0.0
 11
252.50003
 21
-437.499887
 31
0.0
  0
LINE
  5
103
  8
DETAIL
  6
CONTINUOUS
 62
     5
 10
447.50003
 20
-437.499887
 30
0.0
 11
450.0
 21
-395.407554
 31
0.0
  0
LINE
  5
104
  8
SIZE
  6
CONTINUOUS
 62
    30
 10
-580.0
 20
-382.5
 30
0.0
 11
-580.0
 21
-948.175602
 31
0.0
  0
LINE
  5
105
  8
SIZE
  6
CONTINUOUS
 62
    30
 10
-596.0
 20
-378.003533
 30
0.0
 11
-596.0
 21
-948.175602
 31
0.0
  0
LINE
  5
106
  8
SIZE
  6
CONTINUOUS
 62
    30
 10
-580.0
 20
-933.175602
 30
0.0
 11
-550.0
 21
-933.175602
 31
0.0
  0
LINE
  5
107
  8
SIZE
  6
CONTINUOUS
 62
    30
 10
-596.0
 20
-933.175602
 30
0.0
 11
-748.142857
 21
-933.175602
 31
0.0
  0
LINE
  5
108
  8
SIZE
  6
CONTINUOUS
 62
    30
 10
-580.0
 20
-933.175602
 30
0.0
 11
-596.0
 21
-933.175602
 31
0.0
  0
CIRCLE
  5
109
  8
SIZE
  6
CONTINUOUS
 62
    30
 10
-580.0
 20
-933.175602
 30
0.0
 40
7.5
  0
CIRCLE
  5
10A
  8
SIZE
  6
CONTINUOUS
 62
    30
 10
-596.0
 20
-933.175602
 30
0.0
 40
7.5
  0
TEXT
  5
10B
  8
SIZE
  6
CONTINUOUS
 62
    30
 10
-733.142857
 20
-918.175602
 30
0.0
 40
50.0
  1
16
 41
0.9
 72
     1
 11
-702.071429
 21
-918.175602
 31
0.0
  0
POINT
  5
10C
  8
DEFPOINTS
  6
CONTINUOUS
 62
     7
 10
-580.0
 20
-367.5
 30
0.0
  0
POINT
  5
10D
  8
DEFPOINTS
  6
CONTINUOUS
 62
     7
 10
-596.0
 20
-363.003533
 30
0.0
  0
POINT
  5
10E
  8
DEFPOINTS
  6
CONTINUOUS
 62
     7
 10
-596.0
 20
-933.175602
 30
0.0
  0
LINE
  5
10F
  8
SIZE
  6
CONTINUOUS
 62
    30
 10
-580.0
 20
-382.5
 30
0.0
 11
-580.0
 21
-948.175602
 31
0.0
  0
LINE
  5
110
  8
SIZE
  6
CONTINUOUS
 62
    30
 10
580.0
 20
-382.5
 30
0.0
 11
580.0
 21
-948.175602
 31
0.0
  0
LINE
  5
111
  8
SIZE
  6
CONTINUOUS
 62
    30
 10
-580.0
 20
-933.175602
 30
0.0
 11
580.0
 21
-933.175602
 31
0.0
  0
CIRCLE
  5
112
  8
SIZE
  6
CONTINUOUS
 62
    30
 10
-580.0
 20
-933.175602
 30
0.0
 40
7.5
  0
CIRCLE
  5
113
  8
SIZE
  6
CONTINUOUS
 62
    30
 10
580.0
 20
-933.175602
 30
0.0
 40
7.5
  0
TEXT
  5
114
  8
SIZE
  6
CONTINUOUS
 62
    30
 10
-70.714286
 20
-918.175602
 30
0.0
 40
50.0
  1
1160
 41
0.9
 72
     1
 11
0.0
 21
-918.175602
 31
0.0
  0
POINT
  5
115
  8
DEFPOINTS
  6
CONTINUOUS
 62
     7
 10
-580.0
 20
-367.5
 30
0.0
  0
POINT
  5
116
  8
DEFPOINTS
  6
CONTINUOUS
 62
     7
 10
580.0
 20
-367.5
 30
0.0
  0
POINT
  5
117
  8
DEFPOINTS
  6
CONTINUOUS
 62
     7
 10
580.0
 20
-933.175602
 30
0.0
  0
LINE
  5
118
  8
SIZE
  6
CONTINUOUS
 62
    30
 10
-619.0
 20
-214.5
 30
0.0
 11
-619.0
 21
-720.465911
 31
0.0
  0
LINE
  5
119
  8
SIZE
  6
CONTINUOUS
 62
    30
 10
-580.0
 20
-331.269023
 30
0.0
 11
-580.0
 21
-720.465911
 31
0.0
  0
LINE
  5
11A
  8
SIZE
  6
CONTINUOUS
 62
    30
 10
-580.0
 20
-705.465911
 30
0.0
 11
-619.0
 21
-705.465911
 31
0.0
  0
LINE
  5
11B
  8
SIZE
  6
CONTINUOUS
 62
    30
 10
-619.0
 20
-705.465911
 30
0.0
 11
-749.714286
 21
-705.465911
 31
0.0
  0
CIRCLE
  5
11C
  8
SIZE
  6
CONTINUOUS
 62
    30
 10
-580.0
 20
-705.465911
 30
0.0
 40
7.5
  0
CIRCLE
  5
11D
  8
SIZE
  6
CONTINUOUS
 62
    30
 10
-619.0
 20
-705.465911
 30
0.0
 40
7.5
  0
TEXT
  5
11E
  8
SIZE
  6
CONTINUOUS
 62
    30
 10
-734.714286
 20
-690.465911
 30
0.0
 40
50.0
  1
39
 41
0.9
 72
     1
 11
-699.357143
 21
-690.465911
 31
0.0
  0
POINT
  5
11F
  8
DEFPOINTS
  6
CONTINUOUS
 62
     7
 10
-619.0
 20
-199.5
 30
0.0
  0
POINT
  5
120
  8
DEFPOINTS
  6
CONTINUOUS
 62
     7
 10
-580.0
 20
-316.269023
 30
0.0
  0
POINT
  5
121
  8
DEFPOINTS
  6
CONTINUOUS
 62
     7
 10
-580.0
 20
-705.465911
 30
0.0
  0
LINE
  5
122
  8
SIZE
  6
CONTINUOUS
 62
    30
 10
-616.0
 20
-274.5
 30
0.0
 11
-616.0
 21
-598.513609
 31
0.0
  0
LINE
  5
123
  8
SIZE
  6
CONTINUOUS
 62
    30
 10
-580.0
 20
-378.5
 30
0.0
 11
-580.0
 21
-598.513609
 31
0.0
  0
LINE
  5
124
  8
SIZE
  6
CONTINUOUS
 62
    30
 10
-580.0
 20
-583.513609
 30
0.0
 11
-616.0
 21
-583.513609
 31
0.0
  0
LINE
  5
125
  8
SIZE
  6
CONTINUOUS
 62
    30
 10
-616.0
 20
-583.513609
 30
0.0
 11
-746.714286
 21
-583.513609
 31
0.0
  0
CIRCLE
  5
126
  8
SIZE
  6
CONTINUOUS
 62
    30
 10
-580.0
 20
-583.513609
 30
0.0
 40
7.5
  0
CIRCLE
  5
127
  8
SIZE
  6
CONTINUOUS
 62
    30
 10
-616.0
 20
-583.513609
 30
0.0
 40
7.5
  0
TEXT
  5
128
  8
SIZE
  6
CONTINUOUS
 62
    30
 10
-731.714286
 20
-568.513609
 30
0.0
 40
50.0
  1
36
 41
0.9
 72
     1
 11
-696.357143
 21
-568.513609
 31
0.0
  0
POINT
  5
129
  8
DEFPOINTS
  6
CONTINUOUS
 62
     7
 10
-616.0
 20
-259.5
 30
0.0
  0
POINT
  5
12A
  8
DEFPOINTS
  6
CONTINUOUS
 62
     7
 10
-580.0
 20
-363.5
 30
0.0
  0
POINT
  5
12B
  8
DEFPOINTS
  6
CONTINUOUS
 62
     7
 10
-580.0
 20
-583.513609
 30
0.0
  0
ARC
  5
12C
  8
DETAIL
  6
CONTINUOUS
 62
     5
 10
248.068722
 20
-398.661397
 30
0.0
 40
2.0
 50
3.576334
 51
58.772114
  0
ARC
  5
12D
  8
DETAIL
  6
CONTINUOUS
 62
     5
 10
131.931338
 20
-398.661397
 30
0.0
 40
2.0
 50
121.227886
 51
176.423666
  0
ARC
  5
12E
  8
DETAIL
  6
CONTINUOUS
 62
     5
 10
-71.931278
 20
-398.661397
 30
0.0
 40
2.0
 50
3.576334
 51
58.772114
  0
ARC
  5
12F
  8
DETAIL
  6
CONTINUOUS
 62
     5
 10
-188.068662
 20
-398.661397
 30
0.0
 40
2.0
 50
121.227886
 51
176.423666
  0
ARC
  5
130
  8
DETAIL
  6
CONTINUOUS
 62
     5
 10
-188.068662
 20
-398.661397
 30
0.0
 40
2.0
 50
121.227886
 51
176.423666
  0
LINE
  5
131
  8
OUTLINE
  6
CONTINUOUS
 62
     3
 10
-580.0
 20
-367.5
 30
0.0
 11
580.0
 21
-367.5
 31
0.0
  0
LINE
  5
132
  8
OUTLINE
  6
CONTINUOUS
 62
     3
 10
-580.0
 20
-367.5
 30
0.0
 11
-580.0
 21
-143.5
 31
0.0
  0
LINE
  5
133
  8
NOTE
  6
CONTINUOUS
 62
     4
 10
-606.661305
 20
-175.5
 30
0.0
 11
-553.338635
 21
-175.5
 31
0.0
  0
TEXT
  5
134
  8
NOTE
  6
CONTINUOUS
 62
     4
 10
-475.964061
 20
-214.206311
 30
0.0
 40
60.0
  1
D2（自然排水口）
 50
0.000003
 41
0.7
  7
STANDARD1
  0
LINE
  5
135
  8
NOTE
  6
CONTINUOUS
 62
     4
 10
-62.708534
 20
-230.792842
 30
0.0
 11
-497.639333
 21
-230.792842
 31
0.0
  0
LINE
  5
136
  8
SIZE
  6
CONTINUOUS
 62
    30
 10
-621.661305
 20
-175.5
 30
0.0
 11
-1057.237361
 21
-175.5
 31
0.0
  0
LINE
  5
137
  8
SIZE
  6
CONTINUOUS
 62
    30
 10
-595.0
 20
-367.5
 30
0.0
 11
-1057.237361
 21
-367.5
 31
0.0
  0
LINE
  5
138
  8
SIZE
  6
CONTINUOUS
 62
    30
 10
-1042.237361
 20
-175.5
 30
0.0
 11
-1042.237361
 21
-367.5
 31
0.0
  0
CIRCLE
  5
139
  8
SIZE
  6
CONTINUOUS
 62
    30
 10
-1042.237361
 20
-175.5
 30
0.0
 40
7.5
  0
CIRCLE
  5
13A
  8
SIZE
  6
CONTINUOUS
 62
    30
 10
-1042.237361
 20
-367.5
 30
0.0
 40
7.5
  0
TEXT
  5
13B
  8
SIZE
  6
CONTINUOUS
 62
    30
 10
-1057.237361
 20
-325.071429
 30
0.0
 40
50.0
  1
192
 50
90.0
 41
0.9
 72
     1
 11
-1057.237361
 21
-271.5
 31
0.0
  0
POINT
  5
13C
  8
DEFPOINTS
  6
CONTINUOUS
 62
     7
 10
-606.661305
 20
-175.5
 30
0.0
  0
POINT
  5
13D
  8
DEFPOINTS
  6
CONTINUOUS
 62
     7
 10
-580.0
 20
-367.5
 30
0.0
  0
POINT
  5
13E
  8
DEFPOINTS
  6
CONTINUOUS
 62
     7
 10
-1042.237361
 20
-367.5
 30
0.0
  0
LINE
  5
13F
  8
SIZE
  6
CONTINUOUS
 62
    30
 10
608.076405
 20
336.5
 30
0.0
 11
1129.615222
 21
336.5
 31
0.0
  0
LINE
  5
140
  8
SIZE
  6
CONTINUOUS
 62
    30
 10
608.076405
 20
-333.5
 30
0.0
 11
1129.615222
 21
-333.5
 31
0.0
  0
LINE
  5
141
  8
SIZE
  6
CONTINUOUS
 62
    30
 10
1114.615222
 20
336.5
 30
0.0
 11
1114.615222
 21
-333.5
 31
0.0
  0
CIRCLE
  5
142
  8
SIZE
  6
CONTINUOUS
 62
    30
 10
1114.615222
 20
336.5
 30
0.0
 40
7.5
  0
CIRCLE
  5
143
  8
SIZE
  6
CONTINUOUS
 62
    30
 10
1114.615222
 20
-333.5
 30
0.0
 40
7.5
  0
TEXT
  5
144
  8
SIZE
  6
CONTINUOUS
 62
    30
 10
1099.615222
 20
-254.922543
 30
0.0
 40
50.0
  1
670
 50
90.0
 41
0.9
 72
     1
 11
1099.615222
 21
-197.0654
 31
0.0
  0
POINT
  5
145
  8
DEFPOINTS
  6
CONTINUOUS
 62
     7
 10
593.076405
 20
336.5
 30
0.0
  0
POINT
  5
146
  8
DEFPOINTS
  6
CONTINUOUS
 62
     7
 10
593.076405
 20
-333.5
 30
0.0
  0
POINT
  5
147
  8
DEFPOINTS
  6
CONTINUOUS
 62
     7
 10
1114.615222
 20
-333.5
 30
0.0
  0
LINE
  5
148
  8
SIZE
  6
CONTINUOUS
 62
    30
 10
608.076405
 20
-333.5
 30
0.0
 11
1129.615222
 21
-333.5
 31
0.0
  0
LINE
  5
149
  8
SIZE
  6
CONTINUOUS
 62
    30
 10
595.0
 20
-367.5
 30
0.0
 11
1129.615222
 21
-367.5
 31
0.0
  0
LINE
  5
14A
  8
SIZE
  6
CONTINUOUS
 62
    30
 10
1114.615222
 20
-333.5
 30
0.0
 11
1114.615222
 21
-367.5
 31
0.0
  0
LINE
  5
14B
  8
SIZE
  6
CONTINUOUS
 62
    30
 10
1114.615222
 20
-367.5
 30
0.0
 11
1114.615222
 21
-502.5
 31
0.0
  0
CIRCLE
  5
14C
  8
SIZE
  6
CONTINUOUS
 62
    30
 10
1114.615222
 20
-333.5
 30
0.0
 40
7.5
  0
CIRCLE
  5
14D
  8
SIZE
  6
CONTINUOUS
 62
    30
 10
1114.615222
 20
-367.5
 30
0.0
 40
7.5
  0
TEXT
  5
14E
  8
SIZE
  6
CONTINUOUS
 62
    30
 10
1099.615222
 20
-487.5
 30
0.0
 40
50.0
  1
34
 50
90.0
 41
0.9
 72
     1
 11
1099.615222
 21
-450.0
 31
0.0
  0
POINT
  5
14F
  8
DEFPOINTS
  6
CONTINUOUS
 62
     7
 10
593.076405
 20
-333.5
 30
0.0
  0
POINT
  5
150
  8
DEFPOINTS
  6
CONTINUOUS
 62
     7
 10
580.0
 20
-367.5
 30
0.0
  0
POINT
  5
151
  8
DEFPOINTS
  6
CONTINUOUS
 62
     7
 10
1114.615222
 20
-367.5
 30
0.0
  0
TEXT
  5
152
  8
NOTE
  6
CONTINUOUS
 62
     4
 10
-379.465133
 20
-541.058094
 30
0.0
 40
45.872003
  1
吹出
 50
0.000003
 41
0.810714
  7
STANDARD1
  0
LINE
  5
153
  8
NOTE
  6
CONTINUOUS
 62
     4
 10
-245.794194
 20
-541.762804
 30
0.0
 11
-224.824135
 21
-520.792745
 31
0.0
  0
LINE
  5
154
  8
NOTE
  6
CONTINUOUS
 62
     4
 10
-245.794194
 20
-541.762804
 30
0.0
 11
-266.764253
 21
-520.792745
 31
0.0
  0
LINE
  5
155
  8
NOTE
  6
CONTINUOUS
 62
     4
 10
-256.279224
 20
-499.822686
 30
0.0
 11
-256.279224
 21
-520.792745
 31
0.0
  0
LINE
  5
156
  8
NOTE
  6
CONTINUOUS
 62
     4
 10
-235.309165
 20
-499.822686
 30
0.0
 11
-235.309165
 21
-520.792745
 31
0.0
  0
LINE
  5
157
  8
NOTE
  6
CONTINUOUS
 62
     4
 10
-235.309165
 20
-499.822686
 30
0.0
 11
-256.279224
 21
-499.822686
 31
0.0
  0
LINE
  5
158
  8
NOTE
  6
CONTINUOUS
 62
     4
 10
-256.279224
 20
-520.792745
 30
0.0
 11
-266.764253
 21
-520.792745
 31
0.0
  0
LINE
  5
159
  8
NOTE
  6
CONTINUOUS
 62
     4
 10
-224.824135
 20
-520.792745
 30
0.0
 11
-235.309165
 21
-520.792745
 31
0.0
  0
TEXT
  5
15A
  8
NOTE
  6
CONTINUOUS
 62
     4
 10
-124.370293
 20
572.654422
 30
0.0
 40
45.872003
  1
吸込
 50
0.000003
 41
0.810714
  7
STANDARD1
  0
TEXT
  5
15B
  8
NOTE
  6
CONTINUOUS
 62
     4
 10
-59.465133
 20
-541.058094
 30
0.0
 40
45.872003
  1
吹出
 50
0.000003
 41
0.810714
  7
STANDARD1
  0
LINE
  5
15C
  8
NOTE
  6
CONTINUOUS
 62
     4
 10
74.205806
 20
-541.762804
 30
0.0
 11
95.175865
 21
-520.792745
 31
0.0
  0
LINE
  5
15D
  8
NOTE
  6
CONTINUOUS
 62
     4
 10
74.205806
 20
-541.762804
 30
0.0
 11
53.235747
 21
-520.792745
 31
0.0
  0
LINE
  5
15E
  8
NOTE
  6
CONTINUOUS
 62
     4
 10
63.720776
 20
-499.822686
 30
0.0
 11
63.720776
 21
-520.792745
 31
0.0
  0
LINE
  5
15F
  8
NOTE
  6
CONTINUOUS
 62
     4
 10
84.690835
 20
-499.822686
 30
0.0
 11
84.690835
 21
-520.792745
 31
0.0
  0
LINE
  5
160
  8
NOTE
  6
CONTINUOUS
 62
     4
 10
84.690835
 20
-499.822686
 30
0.0
 11
63.720776
 21
-499.822686
 31
0.0
  0
LINE
  5
161
  8
NOTE
  6
CONTINUOUS
 62
     4
 10
63.720776
 20
-520.792745
 30
0.0
 11
53.235747
 21
-520.792745
 31
0.0
  0
LINE
  5
162
  8
NOTE
  6
CONTINUOUS
 62
     4
 10
95.175865
 20
-520.792745
 30
0.0
 11
84.690835
 21
-520.792745
 31
0.0
  0
TEXT
  5
163
  8
NOTE
  6
CONTINUOUS
 62
     4
 10
260.534867
 20
-541.058094
 30
0.0
 40
45.872003
  1
吹出
 50
0.000003
 41
0.810714
  7
STANDARD1
  0
LINE
  5
164
  8
NOTE
  6
CONTINUOUS
 62
     4
 10
394.205806
 20
-541.762804
 30
0.0
 11
415.175865
 21
-520.792745
 31
0.0
  0
LINE
  5
165
  8
NOTE
  6
CONTINUOUS
 62
     4
 10
394.205806
 20
-541.762804
 30
0.0
 11
373.235747
 21
-520.792745
 31
0.0
  0
LINE
  5
166
  8
NOTE
  6
CONTINUOUS
 62
     4
 10
383.720776
 20
-499.822686
 30
0.0
 11
383.720776
 21
-520.792745
 31
0.0
  0
LINE
  5
167
  8
NOTE
  6
CONTINUOUS
 62
     4
 10
404.690835
 20
-499.822686
 30
0.0
 11
404.690835
 21
-520.792745
 31
0.0
  0
LINE
  5
168
  8
NOTE
  6
CONTINUOUS
 62
     4
 10
404.690835
 20
-499.822686
 30
0.0
 11
383.720776
 21
-499.822686
 31
0.0
  0
LINE
  5
169
  8
NOTE
  6
CONTINUOUS
 62
     4
 10
383.720776
 20
-520.792745
 30
0.0
 11
373.235747
 21
-520.792745
 31
0.0
  0
LINE
  5
16A
  8
NOTE
  6
CONTINUOUS
 62
     4
 10
415.175865
 20
-520.792745
 30
0.0
 11
404.690835
 21
-520.792745
 31
0.0
  0
LINE
  5
16B
  8
NOTE
  6
CONTINUOUS
 62
     4
 10
81.41905
 20
563.821138
 30
0.0
 11
102.389109
 21
584.791198
 31
0.0
  0
LINE
  5
16C
  8
NOTE
  6
CONTINUOUS
 62
     4
 10
81.41905
 20
563.821138
 30
0.0
 11
60.44899
 21
584.791198
 31
0.0
  0
LINE
  5
16D
  8
NOTE
  6
CONTINUOUS
 62
     4
 10
70.93402
 20
605.761257
 30
0.0
 11
70.93402
 21
584.791198
 31
0.0
  0
LINE
  5
16E
  8
NOTE
  6
CONTINUOUS
 62
     4
 10
91.904079
 20
605.761257
 30
0.0
 11
91.904079
 21
584.791198
 31
0.0
  0
LINE
  5
16F
  8
NOTE
  6
CONTINUOUS
 62
     4
 10
91.904079
 20
605.761257
 30
0.0
 11
70.93402
 21
605.761257
 31
0.0
  0
LINE
  5
170
  8
NOTE
  6
CONTINUOUS
 62
     4
 10
70.93402
 20
584.791198
 30
0.0
 11
60.44899
 21
584.791198
 31
0.0
  0
LINE
  5
171
  8
NOTE
  6
CONTINUOUS
 62
     4
 10
102.389109
 20
584.791198
 30
0.0
 11
91.904079
 21
584.791198
 31
0.0
  0
LINE
  5
172
  8
DETAIL
  6
CONTINUOUS
 62
     5
 10
605.00003
 20
-133.5
 30
0.0
 11
-821.0
 21
-133.5
 31
0.0
  0
LINE
  5
173
  8
OUTLINE
  6
CONTINUOUS
 62
     3
 10
612.00003
 20
506.5
 30
0.0
 11
-828.0
 21
506.5
 31
0.0
  0
LINE
  5
174
  8
DETAIL
  6
CONTINUOUS
 62
     5
 10
605.00003
 20
496.5
 30
0.0
 11
605.00003
 21
-133.5
 31
0.0
  0
LINE
  5
175
  8
DETAIL
  6
CONTINUOUS
 62
     5
 10
-821.0
 20
496.5
 30
0.0
 11
-821.0
 21
-133.5
 31
0.0
  0
LINE
  5
176
  8
OUTLINE
  6
CONTINUOUS
 62
     3
 10
-828.0
 20
-143.5
 30
0.0
 11
-828.0
 21
506.5
 31
0.0
  0
LINE
  5
177
  8
OUTLINE
  6
CONTINUOUS
 62
     3
 10
612.00003
 20
-143.5
 30
0.0
 11
612.00003
 21
506.5
 31
0.0
  0
LINE
  5
178
  8
OUTLINE
  6
CONTINUOUS
 62
     3
 10
612.00003
 20
-143.5
 30
0.0
 11
580.0
 21
-143.5
 31
0.0
  0
LINE
  5
179
  8
OUTLINE
  6
CONTINUOUS
 62
     3
 10
612.00003
 20
-143.5
 30
0.0
 11
-828.0
 21
-143.5
 31
0.0
  0
LINE
  5
17A
  8
DETAIL
  6
CONTINUOUS
 62
     5
 10
612.00003
 20
-143.5
 30
0.0
 11
-828.0
 21
-143.5
 31
0.0
  0
LINE
  5
17B
  8
DETAIL
  6
CONTINUOUS
 62
     5
 10
-828.0
 20
-143.5
 30
0.0
 11
-828.0
 21
506.5
 31
0.0
  0
LINE
  5
17C
  8
DETAIL
  6
CONTINUOUS
 62
     5
 10
-828.0
 20
506.5
 30
0.0
 11
612.00003
 21
506.5
 31
0.0
  0
LINE
  5
17D
  8
DETAIL
  6
CONTINUOUS
 62
     5
 10
612.00003
 20
506.5
 30
0.0
 11
612.00003
 21
-143.5
 31
0.0
  0
LINE
  5
17E
  8
DETAIL
  6
CONTINUOUS
 62
     5
 10
612.00003
 20
-143.5
 30
0.0
 11
580.0
 21
-143.5
 31
0.0
  0
LINE
  5
17F
  8
SIZE
  6
CONTINUOUS
 62
    30
 10
-821.0
 20
511.5
 30
0.0
 11
-821.0
 21
668.781493
 31
0.0
  0
LINE
  5
180
  8
SIZE
  6
CONTINUOUS
 62
    30
 10
-580.0
 20
-128.5
 30
0.0
 11
-580.0
 21
668.781493
 31
0.0
  0
LINE
  5
181
  8
SIZE
  6
CONTINUOUS
 62
    30
 10
-821.0
 20
653.781493
 30
0.0
 11
-580.0
 21
653.781493
 31
0.0
  0
CIRCLE
  5
182
  8
SIZE
  6
CONTINUOUS
 62
    30
 10
-821.0
 20
653.781493
 30
0.0
 40
7.5
  0
CIRCLE
  5
183
  8
SIZE
  6
CONTINUOUS
 62
    30
 10
-580.0
 20
653.781493
 30
0.0
 40
7.5
  0
TEXT
  5
184
  8
SIZE
  6
CONTINUOUS
 62
    30
 10
-748.714286
 20
668.781493
 30
0.0
 40
50.0
  1
241
 41
0.9
 72
     1
 11
-700.5
 21
668.781493
 31
0.0
  0
POINT
  5
185
  8
DEFPOINTS
  6
CONTINUOUS
 62
     7
 10
-821.0
 20
496.5
 30
0.0
  0
POINT
  5
186
  8
DEFPOINTS
  6
CONTINUOUS
 62
     7
 10
-580.0
 20
-143.5
 30
0.0
  0
POINT
  5
187
  8
DEFPOINTS
  6
CONTINUOUS
 62
     7
 10
-580.0
 20
653.781493
 30
0.0
  0
LINE
  5
188
  8
SIZE
  6
CONTINUOUS
 62
    30
 10
-821.0
 20
511.5
 30
0.0
 11
-821.0
 21
821.695273
 31
0.0
  0
LINE
  5
189
  8
SIZE
  6
CONTINUOUS
 62
    30
 10
605.00003
 20
511.5
 30
0.0
 11
605.00003
 21
821.695273
 31
0.0
  0
LINE
  5
18A
  8
SIZE
  6
CONTINUOUS
 62
    30
 10
-821.0
 20
806.695273
 30
0.0
 11
605.00003
 21
806.695273
 31
0.0
  0
CIRCLE
  5
18B
  8
SIZE
  6
CONTINUOUS
 62
    30
 10
-821.0
 20
806.695273
 30
0.0
 40
7.5
  0
CIRCLE
  5
18C
  8
SIZE
  6
CONTINUOUS
 62
    30
 10
605.00003
 20
806.695273
 30
0.0
 40
7.5
  0
TEXT
  5
18D
  8
SIZE
  6
CONTINUOUS
 62
    30
 10
-387.428556
 20
821.695273
 30
0.0
 40
50.0
  1
1426（天井開口寸法）
 41
0.9
 72
     1
 11
-107.999985
 21
821.695273
 31
0.0
  0
POINT
  5
18E
  8
DEFPOINTS
  6
CONTINUOUS
 62
     7
 10
-821.0
 20
496.5
 30
0.0
  0
POINT
  5
18F
  8
DEFPOINTS
  6
CONTINUOUS
 62
     7
 10
605.00003
 20
496.5
 30
0.0
  0
POINT
  5
190
  8
DEFPOINTS
  6
CONTINUOUS
 62
     7
 10
605.00003
 20
806.695273
 30
0.0
  0
LINE
  5
191
  8
SIZE
  6
CONTINUOUS
 62
    30
 10
-821.0
 20
511.5
 30
0.0
 11
-821.0
 21
821.695273
 31
0.0
  0
LINE
  5
192
  8
SIZE
  6
CONTINUOUS
 62
    30
 10
-828.0
 20
521.5
 30
0.0
 11
-828.0
 21
821.695273
 31
0.0
  0
LINE
  5
193
  8
SIZE
  6
CONTINUOUS
 62
    30
 10
-821.0
 20
806.695273
 30
0.0
 11
-791.0
 21
806.695273
 31
0.0
  0
LINE
  5
194
  8
SIZE
  6
CONTINUOUS
 62
    30
 10
-828.0
 20
806.695273
 30
0.0
 11
-948.0
 21
806.695273
 31
0.0
  0
LINE
  5
195
  8
SIZE
  6
CONTINUOUS
 62
    30
 10
-821.0
 20
806.695273
 30
0.0
 11
-828.0
 21
806.695273
 31
0.0
  0
CIRCLE
  5
196
  8
SIZE
  6
CONTINUOUS
 62
    30
 10
-821.0
 20
806.695273
 30
0.0
 40
7.5
  0
CIRCLE
  5
197
  8
SIZE
  6
CONTINUOUS
 62
    30
 10
-828.0
 20
806.695273
 30
0.0
 40
7.5
  0
TEXT
  5
198
  8
SIZE
  6
CONTINUOUS
 62
    30
 10
-933.0
 20
821.695273
 30
0.0
 40
50.0
  1
7
 41
0.9
 72
     1
 11
-918.0
 21
821.695273
 31
0.0
  0
POINT
  5
199
  8
DEFPOINTS
  6
CONTINUOUS
 62
     7
 10
-821.0
 20
496.5
 30
0.0
  0
POINT
  5
19A
  8
DEFPOINTS
  6
CONTINUOUS
 62
     7
 10
-828.0
 20
506.5
 30
0.0
  0
POINT
  5
19B
  8
DEFPOINTS
  6
CONTINUOUS
 62
     7
 10
-828.0
 20
806.695273
 30
0.0
  0
LINE
  5
19C
  8
SIZE
  6
CONTINUOUS
 62
    30
 10
605.00003
 20
511.5
 30
0.0
 11
605.00003
 21
821.695273
 31
0.0
  0
LINE
  5
19D
  8
SIZE
  6
CONTINUOUS
 62
    30
 10
612.00003
 20
521.5
 30
0.0
 11
612.00003
 21
821.695273
 31
0.0
  0
LINE
  5
19E
  8
SIZE
  6
CONTINUOUS
 62
    30
 10
605.00003
 20
806.695273
 30
0.0
 11
575.00003
 21
806.695273
 31
0.0
  0
LINE
  5
19F
  8
SIZE
  6
CONTINUOUS
 62
    30
 10
612.00003
 20
806.695273
 30
0.0
 11
732.00003
 21
806.695273
 31
0.0
  0
LINE
  5
1A0
  8
SIZE
  6
CONTINUOUS
 62
    30
 10
605.00003
 20
806.695273
 30
0.0
 11
612.00003
 21
806.695273
 31
0.0
  0
CIRCLE
  5
1A1
  8
SIZE
  6
CONTINUOUS
 62
    30
 10
605.00003
 20
806.695273
 30
0.0
 40
7.5
  0
CIRCLE
  5
1A2
  8
SIZE
  6
CONTINUOUS
 62
    30
 10
612.00003
 20
806.695273
 30
0.0
 40
7.5
  0
TEXT
  5
1A3
  8
SIZE
  6
CONTINUOUS
 62
    30
 10
687.00003
 20
821.695273
 30
0.0
 40
50.0
  1
7
 41
0.9
 72
     1
 11
702.00003
 21
821.695273
 31
0.0
  0
POINT
  5
1A4
  8
DEFPOINTS
  6
CONTINUOUS
 62
     7
 10
605.00003
 20
496.5
 30
0.0
  0
POINT
  5
1A5
  8
DEFPOINTS
  6
CONTINUOUS
 62
     7
 10
612.00003
 20
506.5
 30
0.0
  0
POINT
  5
1A6
  8
DEFPOINTS
  6
CONTINUOUS
 62
     7
 10
612.00003
 20
806.695273
 30
0.0
  0
TEXT
  5
1A7
  8
SIZE
  6
CONTINUOUS
 62
    30
 10
1098.795339
 20
-133.5
 30
0.0
 40
50.0
  1
（吊りボルトピッチ）
 50
90.000003
 41
0.75
  7
STANDARD1
  0
LINE
  5
1A8
  8
SIZE
  6
CONTINUOUS
 62
    30
 10
595.0
 20
-367.5
 30
0.0
 11
1297.326253
 21
-367.5
 31
0.0
  0
LINE
  5
1A9
  8
SIZE
  6
CONTINUOUS
 62
    30
 10
620.00003
 20
-133.5
 30
0.0
 11
1297.326253
 21
-133.5
 31
0.0
  0
LINE
  5
1AA
  8
SIZE
  6
CONTINUOUS
 62
    30
 10
1282.326253
 20
-367.5
 30
0.0
 11
1282.326253
 21
-133.5
 31
0.0
  0
CIRCLE
  5
1AB
  8
SIZE
  6
CONTINUOUS
 62
    30
 10
1282.326253
 20
-367.5
 30
0.0
 40
7.5
  0
CIRCLE
  5
1AC
  8
SIZE
  6
CONTINUOUS
 62
    30
 10
1282.326253
 20
-133.5
 30
0.0
 40
7.5
  0
TEXT
  5
1AD
  8
SIZE
  6
CONTINUOUS
 62
    30
 10
1267.326253
 20
-309.428571
 30
0.0
 40
50.0
  1
234
 50
90.0
 41
0.9
 72
     1
 11
1267.326253
 21
-250.5
 31
0.0
  0
POINT
  5
1AE
  8
DEFPOINTS
  6
CONTINUOUS
 62
     7
 10
580.0
 20
-367.5
 30
0.0
  0
POINT
  5
1AF
  8
DEFPOINTS
  6
CONTINUOUS
 62
     7
 10
605.00003
 20
-133.5
 30
0.0
  0
POINT
  5
1B0
  8
DEFPOINTS
  6
CONTINUOUS
 62
     7
 10
1282.326253
 20
-133.5
 30
0.0
  0
LINE
  5
1B1
  8
SIZE
  6
CONTINUOUS
 62
    30
 10
620.00003
 20
-133.5
 30
0.0
 11
1297.326253
 21
-133.5
 31
0.0
  0
LINE
  5
1B2
  8
SIZE
  6
CONTINUOUS
 62
    30
 10
620.00003
 20
496.5
 30
0.0
 11
1297.326253
 21
496.5
 31
0.0
  0
LINE
  5
1B3
  8
SIZE
  6
CONTINUOUS
 62
    30
 10
1282.326253
 20
-133.5
 30
0.0
 11
1282.326253
 21
496.5
 31
0.0
  0
CIRCLE
  5
1B4
  8
SIZE
  6
CONTINUOUS
 62
    30
 10
1282.326253
 20
-133.5
 30
0.0
 40
7.5
  0
CIRCLE
  5
1B5
  8
SIZE
  6
CONTINUOUS
 62
    30
 10
1282.326253
 20
496.5
 30
0.0
 40
7.5
  0
TEXT
  5
1B6
  8
SIZE
  6
CONTINUOUS
 62
    30
 10
1267.326253
 20
-54.347276
 30
0.0
 40
50.0
  1
630（天井開口寸法）
 50
90.0
 41
0.9
 72
     1
 11
1267.326253
 21
207.938439
 31
0.0
  0
POINT
  5
1B7
  8
DEFPOINTS
  6
CONTINUOUS
 62
     7
 10
605.00003
 20
-133.5
 30
0.0
  0
POINT
  5
1B8
  8
DEFPOINTS
  6
CONTINUOUS
 62
     7
 10
605.00003
 20
496.5
 30
0.0
  0
POINT
  5
1B9
  8
DEFPOINTS
  6
CONTINUOUS
 62
     7
 10
1282.326253
 20
496.5
 30
0.0
  0
LINE
  5
1BA
  8
SIZE
  6
CONTINUOUS
 62
    30
 10
620.00003
 20
-133.5
 30
0.0
 11
789.560208
 21
-133.5
 31
0.0
  0
LINE
  5
1BB
  8
SIZE
  6
CONTINUOUS
 62
    30
 10
627.00003
 20
-143.5
 30
0.0
 11
789.560208
 21
-143.5
 31
0.0
  0
LINE
  5
1BC
  8
SIZE
  6
CONTINUOUS
 62
    30
 10
774.560208
 20
-133.5
 30
0.0
 11
774.560208
 21
-103.5
 31
0.0
  0
LINE
  5
1BD
  8
SIZE
  6
CONTINUOUS
 62
    30
 10
774.560208
 20
-143.5
 30
0.0
 11
774.560208
 21
-297.785714
 31
0.0
  0
LINE
  5
1BE
  8
SIZE
  6
CONTINUOUS
 62
    30
 10
774.560208
 20
-133.5
 30
0.0
 11
774.560208
 21
-143.5
 31
0.0
  0
CIRCLE
  5
1BF
  8
SIZE
  6
CONTINUOUS
 62
    30
 10
774.560208
 20
-133.5
 30
0.0
 40
7.5
  0
CIRCLE
  5
1C0
  8
SIZE
  6
CONTINUOUS
 62
    30
 10
774.560208
 20
-143.5
 30
0.0
 40
7.5
  0
TEXT
  5
1C1
  8
SIZE
  6
CONTINUOUS
 62
    30
 10
759.560208
 20
-282.785714
 30
0.0
 40
50.0
  1
10
 50
90.0
 41
0.9
 72
     1
 11
759.560208
 21
-250.642857
 31
0.0
  0
POINT
  5
1C2
  8
DEFPOINTS
  6
CONTINUOUS
 62
     7
 10
605.00003
 20
-133.5
 30
0.0
  0
POINT
  5
1C3
  8
DEFPOINTS
  6
CONTINUOUS
 62
     7
 10
612.00003
 20
-143.5
 30
0.0
  0
POINT
  5
1C4
  8
DEFPOINTS
  6
CONTINUOUS
 62
     7
 10
774.560208
 20
-143.5
 30
0.0
  0
LINE
  5
1C5
  8
SIZE
  6
CONTINUOUS
 62
    30
 10
620.00003
 20
496.5
 30
0.0
 11
1297.326253
 21
496.5
 31
0.0
  0
LINE
  5
1C6
  8
SIZE
  6
CONTINUOUS
 62
    30
 10
627.00003
 20
506.5
 30
0.0
 11
1297.326253
 21
506.5
 31
0.0
  0
LINE
  5
1C7
  8
SIZE
  6
CONTINUOUS
 62
    30
 10
1282.326253
 20
496.5
 30
0.0
 11
1282.326253
 21
466.5
 31
0.0
  0
LINE
  5
1C8
  8
SIZE
  6
CONTINUOUS
 62
    30
 10
1282.326253
 20
506.5
 30
0.0
 11
1282.326253
 21
660.785714
 31
0.0
  0
LINE
  5
1C9
  8
SIZE
  6
CONTINUOUS
 62
    30
 10
1282.326253
 20
496.5
 30
0.0
 11
1282.326253
 21
506.5
 31
0.0
  0
CIRCLE
  5
1CA
  8
SIZE
  6
CONTINUOUS
 62
    30
 10
1282.326253
 20
496.5
 30
0.0
 40
7.5
  0
CIRCLE
  5
1CB
  8
SIZE
  6
CONTINUOUS
 62
    30
 10
1282.326253
 20
506.5
 30
0.0
 40
7.5
  0
TEXT
  5
1CC
  8
SIZE
  6
CONTINUOUS
 62
    30
 10
1267.326253
 20
581.5
 30
0.0
 40
50.0
  1
10
 50
90.0
 41
0.9
 72
     1
 11
1267.326253
 21
613.642857
 31
0.0
  0
POINT
  5
1CD
  8
DEFPOINTS
  6
CONTINUOUS
 62
     7
 10
605.00003
 20
496.5
 30
0.0
  0
POINT
  5
1CE
  8
DEFPOINTS
  6
CONTINUOUS
 62
     7
 10
612.00003
 20
506.5
 30
0.0
  0
POINT
  5
1CF
  8
DEFPOINTS
  6
CONTINUOUS
 62
     7
 10
1282.326253
 20
506.5
 30
0.0
  0
LINE
  5
1D0
  8
SIZE
  6
CONTINUOUS
 62
    30
 10
-119.62656
 20
-437.499887
 30
0.0
 11
-1057.237361
 21
-437.499887
 31
0.0
  0
LINE
  5
1D1
  8
SIZE
  6
CONTINUOUS
 62
    30
 10
-322.12659
 20
-367.5
 30
0.0
 11
-1057.237361
 21
-367.5
 31
0.0
  0
LINE
  5
1D2
  8
SIZE
  6
CONTINUOUS
 62
    30
 10
-1042.237361
 20
-437.499887
 30
0.0
 11
-1042.237361
 21
-367.5
 31
0.0
  0
CIRCLE
  5
1D3
  8
SIZE
  6
CONTINUOUS
 62
    30
 10
-1042.237361
 20
-437.499887
 30
0.0
 40
7.5
  0
CIRCLE
  5
1D4
  8
SIZE
  6
CONTINUOUS
 62
    30
 10
-1042.237361
 20
-367.5
 30
0.0
 40
7.5
  0
TEXT
  5
1D5
  8
SIZE
  6
CONTINUOUS
 62
    30
 10
-1057.237361
 20
-438.928515
 30
0.0
 40
50.0
  1
70
 50
90.0
 41
0.9
 72
     1
 11
-1057.237361
 21
-402.499944
 31
0.0
  0
POINT
  5
1D6
  8
DEFPOINTS
  6
CONTINUOUS
 62
     7
 10
-104.62656
 20
-437.499887
 30
0.0
  0
POINT
  5
1D7
  8
DEFPOINTS
  6
CONTINUOUS
 62
     7
 10
-307.12659
 20
-367.5
 30
0.0
  0
POINT
  5
1D8
  8
DEFPOINTS
  6
CONTINUOUS
 62
     7
 10
-1042.237361
 20
-367.5
 30
0.0
  0
LINE
  5
1D9
  8
SIZE
  6
CONTINUOUS
 62
    30
 10
-394.993792
 20
-397.499887
 30
0.0
 11
-798.221699
 21
-397.499887
 31
0.0
  0
LINE
  5
1DA
  8
SIZE
  6
CONTINUOUS
 62
    30
 10
-392.49997
 20
-437.499887
 30
0.0
 11
-798.221699
 21
-437.499887
 31
0.0
  0
LINE
  5
1DB
  8
SIZE
  6
CONTINUOUS
 62
    30
 10
-783.221699
 20
-397.499887
 30
0.0
 11
-783.221699
 21
-437.499887
 31
0.0
  0
LINE
  5
1DC
  8
SIZE
  6
CONTINUOUS
 62
    30
 10
-783.221699
 20
-437.499887
 30
0.0
 11
-783.221699
 21
-570.35703
 31
0.0
  0
CIRCLE
  5
1DD
  8
SIZE
  6
CONTINUOUS
 62
    30
 10
-783.221699
 20
-397.499887
 30
0.0
 40
7.5
  0
CIRCLE
  5
1DE
  8
SIZE
  6
CONTINUOUS
 62
    30
 10
-783.221699
 20
-437.499887
 30
0.0
 40
7.5
  0
TEXT
  5
1DF
  8
SIZE
  6
CONTINUOUS
 62
    30
 10
-798.221699
 20
-555.35703
 30
0.0
 40
50.0
  1
40
 50
90.0
 41
0.9
 72
     1
 11
-798.221699
 21
-518.928459
 31
0.0
  0
POINT
  5
1E0
  8
DEFPOINTS
  6
CONTINUOUS
 62
     7
 10
-379.993792
 20
-397.499887
 30
0.0
  0
POINT
  5
1E1
  8
DEFPOINTS
  6
CONTINUOUS
 62
     7
 10
-377.49997
 20
-437.499887
 30
0.0
  0
POINT
  5
1E2
  8
DEFPOINTS
  6
CONTINUOUS
 62
     7
 10
-783.221699
 20
-437.499887
 30
0.0
  0
LINE
  5
1E3
  8
SIZE
  6
CONTINUOUS
 62
    30
 10
-828.0
 20
521.5
 30
0.0
 11
-828.0
 21
1001.954537
 31
0.0
  0
LINE
  5
1E4
  8
SIZE
  6
CONTINUOUS
 62
    30
 10
612.00003
 20
521.5
 30
0.0
 11
612.00003
 21
1001.954537
 31
0.0
  0
LINE
  5
1E5
  8
SIZE
  6
CONTINUOUS
 62
    30
 10
-828.0
 20
986.954537
 30
0.0
 11
612.00003
 21
986.954537
 31
0.0
  0
CIRCLE
  5
1E6
  8
SIZE
  6
CONTINUOUS
 62
    30
 10
-828.0
 20
986.954537
 30
0.0
 40
7.5
  0
CIRCLE
  5
1E7
  8
SIZE
  6
CONTINUOUS
 62
    30
 10
612.00003
 20
986.954537
 30
0.0
 40
7.5
  0
TEXT
  5
1E8
  8
SIZE
  6
CONTINUOUS
 62
    30
 10
-182.999985
 20
1001.954537
 30
0.0
 40
50.0
  1
1440
 41
0.9
 72
     1
 11
-107.999985
 21
1001.954537
 31
0.0
  0
POINT
  5
1E9
  8
DEFPOINTS
  6
CONTINUOUS
 62
     7
 10
-828.0
 20
506.5
 30
0.0
  0
POINT
  5
1EA
  8
DEFPOINTS
  6
CONTINUOUS
 62
     7
 10
612.00003
 20
506.5
 30
0.0
  0
POINT
  5
1EB
  8
DEFPOINTS
  6
CONTINUOUS
 62
     7
 10
612.00003
 20
986.954537
 30
0.0
  0
LINE
  5
1EC
  8
SIZE
  6
CONTINUOUS
 62
    30
 10
627.00003
 20
506.5
 30
0.0
 11
943.560247
 21
506.5
 31
0.0
  0
LINE
  5
1ED
  8
SIZE
  6
CONTINUOUS
 62
    30
 10
627.00003
 20
-143.5
 30
0.0
 11
943.560247
 21
-143.5
 31
0.0
  0
LINE
  5
1EE
  8
SIZE
  6
CONTINUOUS
 62
    30
 10
928.560247
 20
506.5
 30
0.0
 11
928.560247
 21
-143.5
 31
0.0
  0
CIRCLE
  5
1EF
  8
SIZE
  6
CONTINUOUS
 62
    30
 10
928.560247
 20
506.5
 30
0.0
 40
7.5
  0
CIRCLE
  5
1F0
  8
SIZE
  6
CONTINUOUS
 62
    30
 10
928.560247
 20
-143.5
 30
0.0
 40
7.5
  0
TEXT
  5
1F1
  8
SIZE
  6
CONTINUOUS
 62
    30
 10
913.560247
 20
123.642857
 30
0.0
 40
50.0
  1
650
 50
90.0
 41
0.9
 72
     1
 11
913.560247
 21
181.5
 31
0.0
  0
POINT
  5
1F2
  8
DEFPOINTS
  6
CONTINUOUS
 62
     7
 10
612.00003
 20
506.5
 30
0.0
  0
POINT
  5
1F3
  8
DEFPOINTS
  6
CONTINUOUS
 62
     7
 10
612.00003
 20
-143.5
 30
0.0
  0
POINT
  5
1F4
  8
DEFPOINTS
  6
CONTINUOUS
 62
     7
 10
928.560247
 20
-143.5
 30
0.0
  0
LINE
  5
1F5
  8
NOTE
  6
CONTINUOUS
 62
     4
 10
-580.0
 20
-195.5
 30
0.0
 11
-580.0
 21
-155.5
 31
0.0
  0
LINE
  5
1F6
  8
NOTE
  6
CONTINUOUS
 62
     4
 10
-864.157401
 20
28.627299
 30
0.0
 11
-1186.351644
 21
28.627299
 31
0.0
  0
TEXT
  5
1F7
  8
NOTE
  6
CONTINUOUS
 62
     4
 10
760.753078
 20
-640.534079
 30
0.0
 40
60.0
  1
AH 4-14×30長穴(M10)
 50
0.000003
 41
0.7
  7
STANDARD1
  0
LINE
  5
1F8
  8
NOTE
  6
CONTINUOUS
 62
     4
 10
1452.092415
 20
-656.36061
 30
0.0
 11
746.205379
 21
-656.36061
 31
0.0
  0
LINE
  5
1F9
  8
DETAIL
  6
CONTINUOUS
 62
     5
 10
605.00003
 20
496.5
 30
0.0
 11
-821.0
 21
496.5
 31
0.0
  0
LINE
  5
1FA
  8
DETAIL
  6
CONTINUOUS
 62
     5
 10
580.0
 20
-367.5
 30
0.0
 11
580.0
 21
-143.5
 31
0.0
  0
LINE
  5
1FB
  8
OUTLINE
  6
CONTINUOUS
 62
     3
 10
580.0
 20
-367.5
 30
0.0
 11
580.0
 21
-143.5
 31
0.0
  0
LINE
  5
1FC
  8
DETAIL
  6
CONTINUOUS
 62
     5
 10
-748.0
 20
434.5
 30
0.0
 11
532.00003
 21
434.5
 31
0.0
  0
LINE
  5
1FD
  8
DETAIL
  6
CONTINUOUS
 62
     5
 10
-783.0
 20
466.0
 30
0.0
 11
567.00003
 21
466.0
 31
0.0
  0
LINE
  5
1FE
  8
DETAIL
  6
CONTINUOUS
 62
     5
 10
567.00003
 20
-103.0
 30
0.0
 11
-783.0
 21
-103.0
 31
0.0
  0
LINE
  5
1FF
  8
DETAIL
  6
CONTINUOUS
 62
     5
 10
532.00003
 20
-71.5
 30
0.0
 11
-748.0
 21
-71.5
 31
0.0
  0
LINE
  5
200
  8
DETAIL
  6
CONTINUOUS
 62
     5
 10
-748.0
 20
434.5
 30
0.0
 11
-748.0
 21
-71.5
 31
0.0
  0
LINE
  5
201
  8
DETAIL
  6
CONTINUOUS
 62
     5
 10
-783.0
 20
466.0
 30
0.0
 11
-783.0
 21
-103.0
 31
0.0
  0
LINE
  5
202
  8
DETAIL
  6
CONTINUOUS
 62
     5
 10
-828.0
 20
-143.5
 30
0.0
 11
-748.0
 21
-71.5
 31
0.0
  0
LINE
  5
203
  8
DETAIL
  6
CONTINUOUS
 62
     5
 10
-828.0
 20
506.5
 30
0.0
 11
-748.0
 21
434.5
 31
0.0
  0
LINE
  5
204
  8
DETAIL
  6
CONTINUOUS
 62
     5
 10
567.00003
 20
466.0
 30
0.0
 11
567.00003
 21
-103.0
 31
0.0
  0
LINE
  5
205
  8
DETAIL
  6
CONTINUOUS
 62
     5
 10
532.00003
 20
434.5
 30
0.0
 11
532.00003
 21
-71.5
 31
0.0
  0
LINE
  5
206
  8
DETAIL
  6
CONTINUOUS
 62
     5
 10
532.00003
 20
-71.5
 30
0.0
 11
612.00003
 21
-143.5
 31
0.0
  0
LINE
  5
207
  8
DETAIL
  6
CONTINUOUS
 62
     5
 10
532.00003
 20
434.5
 30
0.0
 11
612.00003
 21
506.5
 31
0.0
  0
LINE
  5
208
  8
SIZE
  6
CONTINUOUS
 62
    30
 10
605.00003
 20
511.5
 30
0.0
 11
605.00003
 21
678.97572
 31
0.0
  0
LINE
  5
209
  8
SIZE
  6
CONTINUOUS
 62
    30
 10
580.0
 20
-128.5
 30
0.0
 11
580.0
 21
678.97572
 31
0.0
  0
LINE
  5
20A
  8
SIZE
  6
CONTINUOUS
 62
    30
 10
605.00003
 20
663.97572
 30
0.0
 11
635.00003
 21
663.97572
 31
0.0
  0
LINE
  5
20B
  8
SIZE
  6
CONTINUOUS
 62
    30
 10
580.0
 20
663.97572
 30
0.0
 11
417.142857
 21
663.97572
 31
0.0
  0
LINE
  5
20C
  8
SIZE
  6
CONTINUOUS
 62
    30
 10
605.00003
 20
663.97572
 30
0.0
 11
580.0
 21
663.97572
 31
0.0
  0
CIRCLE
  5
20D
  8
SIZE
  6
CONTINUOUS
 62
    30
 10
605.00003
 20
663.97572
 30
0.0
 40
7.5
  0
CIRCLE
  5
20E
  8
SIZE
  6
CONTINUOUS
 62
    30
 10
580.0
 20
663.97572
 30
0.0
 40
7.5
  0
TEXT
  5
20F
  8
SIZE
  6
CONTINUOUS
 62
    30
 10
432.142857
 20
678.97572
 30
0.0
 40
50.0
  1
25
 41
0.9
 72
     1
 11
468.571429
 21
678.97572
 31
0.0
  0
POINT
  5
210
  8
DEFPOINTS
  6
CONTINUOUS
 62
     7
 10
605.00003
 20
496.5
 30
0.0
  0
POINT
  5
211
  8
DEFPOINTS
  6
CONTINUOUS
 62
     7
 10
580.0
 20
-143.5
 30
0.0
  0
POINT
  5
212
  8
DEFPOINTS
  6
CONTINUOUS
 62
     7
 10
580.0
 20
663.97572
 30
0.0
  0
LINE
  5
213
  8
BASIS
  6
DASHDOT
 62
     6
 10
-107.999985
 20
544.24075
 30
0.0
 11
-107.999985
 21
-181.24075
 31
0.0
  0
LINE
  5
214
  8
BASIS
  6
DASHDOT
 62
     6
 10
-856.573294
 20
181.5
 30
0.0
 11
640.573324
 21
181.5
 31
0.0
  0
LINE
  5
215
  8
NOTE
  6
CONTINUOUS
 62
     4
 10
398.774921
 20
-322.603831
 30
0.0
 11
-195.543513
 21
-322.603831
 31
0.0
  0
TEXT
  5
216
  8
NOTE
  6
CONTINUOUS
 62
     4
 10
-179.16877
 20
-307.808164
 30
0.0
 40
60.0
  1
%%C200 吹出円形フランジ
 50
0.000003
 41
0.7
  7
STANDARD1
  0
LINE
  5
217
  8
NOTE
  6
CONTINUOUS
 62
     4
 10
-644.548728
 20
-251.730585
 30
0.0
 11
-616.0
 21
-239.5
 31
0.0
  0
LINE
  5
218
  8
NOTE
  6
CONTINUOUS
 62
     4
 10
-616.0
 20
-239.5
 30
0.0
 11
-634.608632
 21
-264.366361
 31
0.0
  0
LINE
  5
21A
  8
NOTE
  6
CONTINUOUS
 62
     4
 10
-616.0
 20
-239.5
 30
0.0
 11
-1025.390852
 21
-561.552603
 31
0.0
  0
LINE
  5
21B
  8
NOTE
  6
CONTINUOUS
 62
     4
 10
-559.573022
 20
-198.895633
 30
0.0
 11
-580.0
 21
-175.5
 31
0.0
  0
LINE
  5
21C
  8
NOTE
  6
CONTINUOUS
 62
     4
 10
-580.0
 20
-175.5
 30
0.0
 11
-550.611901
 21
-185.547724
 31
0.0
  0
LINE
  5
21E
  8
NOTE
  6
CONTINUOUS
 62
     4
 10
-580.0
 20
-175.5
 30
0.0
 11
-497.639333
 21
-230.792842
 31
0.0
  0
LINE
  5
21F
  8
NOTE
  6
CONTINUOUS
 62
     4
 10
-636.910953
 20
-150.126493
 30
0.0
 11
-619.0
 21
-175.5
 31
0.0
  0
LINE
  5
220
  8
NOTE
  6
CONTINUOUS
 62
     4
 10
-619.0
 20
-175.5
 30
0.0
 11
-647.198094
 21
-162.481375
 31
0.0
  0
LINE
  5
222
  8
NOTE
  6
CONTINUOUS
 62
     4
 10
-619.0
 20
-175.5
 30
0.0
 11
-864.157401
 21
28.627299
 31
0.0
  0
LINE
  5
223
  8
NOTE
  6
CONTINUOUS
 62
     4
 10
580.098663
 20
-363.736172
 30
0.0
 11
573.0
 21
-333.5
 31
0.0
  0
LINE
  5
224
  8
NOTE
  6
CONTINUOUS
 62
     4
 10
573.0
 20
-333.5
 30
0.0
 11
594.265708
 21
-356.135962
 31
0.0
  0
LINE
  5
226
  8
NOTE
  6
CONTINUOUS
 62
     4
 10
573.0
 20
-333.5
 30
0.0
 11
746.205379
 21
-656.36061
 31
0.0
  0
LINE
  5
227
  8
NOTE
  6
CONTINUOUS
 62
     4
 10
-264.739
 20
-419.430718
 30
0.0
 11
-290.0
 21
-437.5
 31
0.0
  0
LINE
  5
228
  8
NOTE
  6
CONTINUOUS
 62
     4
 10
-290.0
 20
-437.5
 30
0.0
 11
-277.157973
 21
-409.221043
 31
0.0
  0
LINE
  5
22A
  8
NOTE
  6
CONTINUOUS
 62
     4
 10
-289.999842
 20
-437.499887
 30
0.0
 11
-195.543513
 21
-322.603831
 31
0.0
  0
ENDSEC
  0
EOF
