  0
SECTION
  2
HEADER
  9
$ACADVER
  1
AC1009
  9
$INSBASE
 10
0.0
 20
0.0
 30
0.0
  9
$EXTMIN
 10
-694.549053
 20
-251.422734
 30
0.0
  9
$EXTMAX
 10
1967.626429
 20
1224.577
 30
0.0
  9
$LIMMIN
 10
-2970.0
 20
-2100.0
  9
$LIMMAX
 10
2970.0
 20
2100.0
  9
$ORTHOMODE
 70
     1
  9
$REGENMODE
 70
     0
  9
$FILLMODE
 70
     1
  9
$QTEXTMODE
 70
     0
  9
$MIRRTEXT
 70
     0
  9
$DRAGMODE
 70
     2
  9
$LTSCALE
 40
20.0
  9
$OSMODE
 70
     0
  9
$ATTMODE
 70
     1
  9
$TEXTSIZE
 40
64.0
  9
$TRACEWID
 40
0.05
  9
$TEXTSTYLE
  7
STANDARD
  9
$CLAYER
  8
0
  9
$CELTYPE
  6
CONTINUOUS
  9
$CECOLOR
 62
     4
  9
$DIMSCALE
 40
1.0
  9
$DIMASZ
 40
2.0
  9
$DIMEXO
 40
20.0
  9
$DIMDLI
 40
200.0
  9
$DIMRND
 40
0.0
  9
$DIMDLE
 40
0.0
  9
$DIMEXE
 40
30.0
  9
$DIMTP
 40
0.0
  9
$DIMTM
 40
0.0
  9
$DIMTXT
 40
64.0
  9
$DIMCEN
 40
0.09
  9
$DIMTSZ
 40
0.0
  9
$DIMTOL
 70
     0
  9
$DIMLIM
 70
     0
  9
$DIMTIH
 70
     0
  9
$DIMTOH
 70
     0
  9
$DIMSE1
 70
     0
  9
$DIMSE2
 70
     0
  9
$DIMTAD
 70
     1
  9
$DIMZIN
 70
     8
  9
$DIMBLK
  1

  9
$DIMASO
 70
     1
  9
$DIMSHO
 70
     0
  9
$DIMPOST
  1

  9
$DIMAPOST
  1

  9
$DIMALT
 70
     0
  9
$DIMALTD
 70
     2
  9
$DIMALTF
 40
25.4
  9
$DIMLFAC
 40
1.0
  9
$DIMTOFL
 70
     1
  9
$DIMTVP
 40
0.0
  9
$DIMTIX
 70
     1
  9
$DIMSOXD
 70
     0
  9
$DIMSAH
 70
     0
  9
$DIMBLK1
  1

  9
$DIMBLK2
  1

  9
$DIMSTYLE
  2
STANDARD
  9
$DIMCLRD
 70
     0
  9
$DIMCLRE
 70
     0
  9
$DIMCLRT
 70
     0
  9
$DIMTFAC
 40
1.0
  9
$DIMGAP
 40
0.09
  9
$LUNITS
 70
     2
  9
$LUPREC
 70
     4
  9
$SKETCHINC
 40
0.1
  9
$FILLETRAD
 40
0.0
  9
$AUNITS
 70
     1
  9
$AUPREC
 70
     3
  9
$MENU
  1
ACAD
  9
$ELEVATION
 40
0.0
  9
$PELEVATION
 40
0.0
  9
$THICKNESS
 40
0.0
  9
$LIMCHECK
 70
     0
  9
$BLIPMODE
 70
     0
  9
$CHAMFERA
 40
0.0
  9
$CHAMFERB
 40
0.0
  9
$SKPOLY
 70
     0
  9
$TDCREATE
 40
2449763.77897
  9
$TDUPDATE
 40
2450781.529676
  9
$TDINDWG
 40
0.006655
  9
$TDUSRTIMER
 40
0.006655
  9
$USRTIMER
 70
     1
  9
$ANGBASE
 50
0.0
  9
$ANGDIR
 70
     0
  9
$PDMODE
 70
     3
  9
$PDSIZE
 40
-2.0
  9
$PLINEWID
 40
0.0
  9
$COORDS
 70
     2
  9
$SPLFRAME
 70
     0
  9
$SPLINETYPE
 70
     6
  9
$SPLINESEGS
 70
     8
  9
$ATTDIA
 70
     0
  9
$ATTREQ
 70
     1
  9
$HANDLING
 70
     1
  9
$HANDSEED
  5
F8
  9
$SURFTAB1
 70
     6
  9
$SURFTAB2
 70
     6
  9
$SURFTYPE
 70
     6
  9
$SURFU
 70
     6
  9
$SURFV
 70
     6
  9
$UCSNAME
  2

  9
$UCSORG
 10
0.0
 20
0.0
 30
0.0
  9
$UCSXDIR
 10
1.0
 20
0.0
 30
0.0
  9
$UCSYDIR
 10
0.0
 20
1.0
 30
0.0
  9
$PUCSNAME
  2

  9
$PUCSORG
 10
0.0
 20
0.0
 30
0.0
  9
$PUCSXDIR
 10
1.0
 20
0.0
 30
0.0
  9
$PUCSYDIR
 10
0.0
 20
1.0
 30
0.0
  9
$USERI1
 70
     0
  9
$USERI2
 70
     0
  9
$USERI3
 70
     0
  9
$USERI4
 70
     0
  9
$USERI5
 70
     0
  9
$USERR1
 40
20.0
  9
$USERR2
 40
0.0
  9
$USERR3
 40
0.0
  9
$USERR4
 40
0.0
  9
$USERR5
 40
0.0
  9
$WORLDVIEW
 70
     1
  9
$SHADEDGE
 70
     3
  9
$SHADEDIF
 70
    70
  9
$TILEMODE
 70
     1
  9
$MAXACTVP
 70
    48
  9
$PLIMCHECK
 70
     0
  9
$PEXTMIN
 10
1.000000E+020
 20
1.000000E+020
 30
1.000000E+020
  9
$PEXTMAX
 10
-1.000000E+020
 20
-1.000000E+020
 30
-1.000000E+020
  9
$PLIMMIN
 10
0.0
 20
0.0
  9
$PLIMMAX
 10
12.0
 20
9.0
  9
$UNITMODE
 70
     0
  9
$VISRETAIN
 70
     1
  9
$PLINEGEN
 70
     0
  9
$PSLTSCALE
 70
     1
  0
ENDSEC
  0
SECTION
  2
TABLES
  0
TABLE
  2
VPORT
 70
     2
  0
VPORT
  2
*ACTIVE
 70
     0
 10
0.0
 20
0.0
 11
1.0
 21
1.0
 12
886.0
 22
0.0
 13
0.0
 23
0.0
 14
50.0
 24
50.0
 15
100.0
 25
100.0
 16
0.0
 26
0.0
 36
1.0
 17
0.0
 27
0.0
 37
0.0
 40
4200.0
 41
1.83619
 42
50.0
 43
0.0
 44
0.0
 50
0.0
 51
0.0
 71
     0
 72
   500
 73
     1
 74
     0
 75
     0
 76
     0
 77
     0
 78
     0
  0
ENDTAB
  0
TABLE
  2
LTYPE
 70
     2
  0
LTYPE
  2
CONTINUOUS
 70
     0
  3
実線
 72
    65
 73
     0
 40
0.0
  0
LTYPE
  2
DASHDOT
 70
     0
  3
____ _ ____ _ ____ _ ____ _ ____ _ ____ _ ____
 72
    65
 73
     4
 40
5.5
 49
4.0
 49
-0.6
 49
0.3
 49
-0.6
  0
ENDTAB
  0
TABLE
  2
LAYER
 70
    12
  0
LAYER
  2
0
 70
     0
 62
     7
  6
CONTINUOUS
  0
LAYER
  2
OUTLINE
 70
     0
 62
     3
  6
CONTINUOUS
  0
LAYER
  2
DETAIL
 70
     0
 62
     5
  6
CONTINUOUS
  0
LAYER
  2
BASIS
 70
     0
 62
     6
  6
DASHDOT
  0
LAYER
  2
SIZE
 70
     0
 62
    30
  6
CONTINUOUS
  0
LAYER
  2
NOTE
 70
     0
 62
     4
  6
CONTINUOUS
  0
LAYER
  2
ARRANGE
 70
     0
 62
     1
  6
CONTINUOUS
  0
LAYER
  2
FIX
 70
     0
 62
    11
  6
CONTINUOUS
  0
LAYER
  2
SERVICESPACE
 70
     0
 62
     2
  6
DASHDOT
  0
LAYER
  2
ETC
 70
     0
 62
    61
  6
CONTINUOUS
  0
LAYER
  2
SYMBOLLINE
 70
     0
 62
    15
  6
CONTINUOUS
  0
LAYER
  2
DEFPOINTS
 70
     0
 62
     7
  6
CONTINUOUS
  0
ENDTAB
  0
TABLE
  2
STYLE
 70
     1
  0
STYLE
  2
STANDARD
 70
     0
 40
0.0
 41
0.9
 50
0.0
 71
     0
 42
64.0
  3
SIMPLEX
  4
BIGFONT
  0
ENDTAB
  0
TABLE
  2
VIEW
 70
     1
  0
VIEW
  2
ALL
 70
     0
 40
4282.62
 10
0.0
 20
41.309904
 41
5940.0
 11
0.0
 21
0.0
 31
1.0
 12
0.0
 22
0.0
 32
0.0
 42
50.0
 43
0.0
 44
0.0
 50
0.0
 71
     0
  0
ENDTAB
  0
TABLE
  2
UCS
 70
     0
  0
ENDTAB
  0
TABLE
  2
APPID
 70
     1
  0
APPID
  2
ACAD
 70
     0
  0
ENDTAB
  0
TABLE
  2
DIMSTYLE
 70
     1
  0
DIMSTYLE
  2
STANDARD
 70
     0
  3

  4

  5

  6

  7

 40
1.0
 41
0.18
 42
0.0625
 43
0.38
 44
0.18
 45
0.0
 46
0.0
 47
0.0
 48
0.0
140
0.18
141
0.09
142
0.0
143
25.4
144
1.0
145
0.0
146
1.0
147
0.09
 71
     0
 72
     0
 73
     1
 74
     1
 75
     0
 76
     0
 77
     0
 78
     0
170
     0
171
     2
172
     0
173
     0
174
     0
175
     0
176
     0
177
     0
178
     0
  0
ENDTAB
  0
ENDSEC
  0
SECTION
  2
BLOCKS
  0
BLOCK
  8
0
  2
$MODEL_SPACE
 70
     0
 10
0.0
 20
0.0
 30
0.0
  3
$MODEL_SPACE
  1

  0
ENDBLK
  5
1A
  8
0
  0
BLOCK
 67
     1
  8
0
  2
$PAPER_SPACE
 70
     0
 10
0.0
 20
0.0
 30
0.0
  3
$PAPER_SPACE
  1

  0
ENDBLK
  5
17
 67
     1
  8
0
  0
ENDSEC
  0
SECTION
  2
ENTITIES
  0
POINT
  5
2E
  8
ARRANGE
  6
CONTINUOUS
 62
     1
 10
0.0
 20
0.0
 30
0.0
  0
LINE
  5
2F
  8
NOTE
  6
CONTINUOUS
 62
     4
 10
505.628572
 20
-11.00155
 30
0.0
 11
363.448975
 21
-11.00155
 31
0.0
  0
LINE
  5
30
  8
NOTE
  6
CONTINUOUS
 62
     4
 10
243.0
 20
227.0
 30
0.0
 11
363.448975
 21
-11.00155
 31
0.0
  0
LINE
  5
31
  8
NOTE
  6
CONTINUOUS
 62
     4
 10
15.040122
 20
146.431585
 30
0.0
 11
104.534723
 21
146.431585
 31
0.0
  0
LINE
  5
32
  8
NOTE
  6
CONTINUOUS
 62
     4
 10
179.0
 20
255.0
 30
0.0
 11
104.534723
 21
146.431585
 31
0.0
  0
LINE
  5
33
  8
NOTE
  6
CONTINUOUS
 62
     4
 10
-61.575375
 20
539.336077
 30
0.0
 11
25.178278
 21
539.336077
 31
0.0
  0
LINE
  5
34
  8
NOTE
  6
CONTINUOUS
 62
     4
 10
95.0
 20
316.0
 30
0.0
 11
25.178278
 21
539.336077
 31
0.0
  0
LINE
  5
35
  8
NOTE
  6
CONTINUOUS
 62
     4
 10
-314.78367
 20
303.070124
 30
0.0
 11
-235.259489
 21
303.070124
 31
0.0
  0
LINE
  5
36
  8
NOTE
  6
CONTINUOUS
 62
     4
 10
-141.0
 20
202.0
 30
0.0
 11
-235.259489
 21
303.070124
 31
0.0
  0
LINE
  5
37
  8
NOTE
  6
CONTINUOUS
 62
     4
 10
-522.032947
 20
286.201358
 30
0.0
 11
-401.541763
 21
286.201358
 31
0.0
  0
LINE
  5
38
  8
NOTE
  6
CONTINUOUS
 62
     4
 10
-321.0
 20
202.0
 30
0.0
 11
-401.541763
 21
286.201358
 31
0.0
  0
TEXT
  5
39
  8
NOTE
  6
CONTINUOUS
 62
     4
 10
389.957035
 20
5.867666
 30
0.0
 40
64.0
  1
RG
 41
0.9
  0
TEXT
  5
3A
  8
NOTE
  6
CONTINUOUS
 62
     4
 10
16.150711
 20
159.36706
 30
0.0
 40
64.0
  1
RL
 41
0.9
  0
TEXT
  5
3B
  8
NOTE
  6
CONTINUOUS
 62
     4
 10
-37.477138
 20
556.205293
 30
0.0
 40
64.0
  1
D
 41
0.9
  0
TEXT
  5
3C
  8
NOTE
  6
CONTINUOUS
 62
     4
 10
-309.34156
 20
312.709676
 30
0.0
 40
64.0
  1
EL
 41
0.9
  0
TEXT
  5
3D
  8
NOTE
  6
CONTINUOUS
 62
     4
 10
-509.983828
 20
307.890351
 30
0.0
 40
64.0
  1
CL
 41
0.9
  0
LINE
  5
3E
  8
BASIS
  6
DASHDOT
 62
     6
 10
0.0
 20
481.25929
 30
0.0
 11
0.0
 21
-71.422734
 31
0.0
  0
LINE
  5
3F
  8
DETAIL
  6
CONTINUOUS
 62
     5
 10
-366.0
 20
132.0
 30
0.0
 11
-366.0
 21
427.0
 31
0.0
  0
LINE
  5
40
  8
SIZE
  6
CONTINUOUS
 62
    30
 10
697.363797
 20
229.0
 30
0.0
 11
697.363797
 21
92.352403
 31
0.0
  0
LINE
  5
41
  8
DETAIL
  6
CONTINUOUS
 62
     5
 10
142.0
 20
47.0
 30
0.0
 11
142.0
 21
0.0
 31
0.0
  0
LINE
  5
42
  8
DETAIL
  6
CONTINUOUS
 62
     5
 10
-424.0
 20
47.0
 30
0.0
 11
-424.0
 21
0.0
 31
0.0
  0
LINE
  5
43
  8
DETAIL
  6
CONTINUOUS
 62
     5
 10
159.0
 20
0.0
 30
0.0
 11
159.0
 21
-8.0
 31
0.0
  0
LINE
  5
44
  8
DETAIL
  6
CONTINUOUS
 62
     5
 10
-441.0
 20
0.0
 30
0.0
 11
-441.0
 21
-8.0
 31
0.0
  0
LINE
  5
45
  8
DETAIL
  6
CONTINUOUS
 62
     5
 10
-424.0
 20
47.0
 30
0.0
 11
142.0
 21
47.0
 31
0.0
  0
LINE
  5
46
  8
DETAIL
  6
CONTINUOUS
 62
     5
 10
-441.0
 20
0.0
 30
0.0
 11
159.0
 21
0.0
 31
0.0
  0
LINE
  5
47
  8
DETAIL
  6
CONTINUOUS
 62
     5
 10
-441.0
 20
-8.0
 30
0.0
 11
159.0
 21
-8.0
 31
0.0
  0
LINE
  5
48
  8
DETAIL
  6
CONTINUOUS
 62
     5
 10
439.0
 20
191.0
 30
0.0
 11
439.0
 21
391.0
 31
0.0
  0
LINE
  5
49
  8
DETAIL
  6
CONTINUOUS
 62
     5
 10
439.0
 20
191.0
 30
0.0
 11
369.0
 21
191.0
 31
0.0
  0
LINE
  5
4A
  8
DETAIL
  6
CONTINUOUS
 62
     5
 10
439.0
 20
391.0
 30
0.0
 11
369.0
 21
391.0
 31
0.0
  0
LINE
  5
4B
  8
DETAIL
  6
CONTINUOUS
 62
     5
 10
399.0
 20
191.0
 30
0.0
 11
399.0
 21
391.0
 31
0.0
  0
LINE
  5
4C
  8
BASIS
  6
DASHDOT
 62
     6
 10
480.626588
 20
291.0
 30
0.0
 11
294.872768
 21
291.0
 31
0.0
  0
LINE
  5
4D
  8
DETAIL
  6
CONTINUOUS
 62
     5
 10
369.0
 20
132.0
 30
0.0
 11
369.0
 21
427.0
 31
0.0
  0
LINE
  5
4E
  8
DETAIL
  6
CONTINUOUS
 62
     5
 10
-366.0
 20
132.0
 30
0.0
 11
369.0
 21
132.0
 31
0.0
  0
LINE
  5
4F
  8
DETAIL
  6
CONTINUOUS
 62
     5
 10
-366.0
 20
427.0
 30
0.0
 11
369.0
 21
427.0
 31
0.0
  0
TEXT
  5
50
  8
ETC
  6
CONTINUOUS
 62
    61
 10
1117.114
 20
20.040188
 30
0.0
 40
64.0
  1
ＰＡＣ
 41
0.9
  0
TEXT
  5
51
  8
ETC
  6
CONTINUOUS
 62
    61
 10
1111.855
 20
173.193039
 30
0.0
 40
64.0
  1
MPD-RP71_80FA_5
 41
0.9
  0
LINE
  5
52
  8
SIZE
  6
CONTINUOUS
 62
    30
 10
-364.0
 20
653.905131
 30
0.0
 11
-487.744438
 21
653.905131
 31
0.0
  0
LINE
  5
53
  8
SIZE
  6
CONTINUOUS
 62
    30
 10
367.0
 20
653.905131
 30
0.0
 11
612.719835
 21
653.905131
 31
0.0
  0
CIRCLE
  5
54
  8
ARRANGE
  6
CONTINUOUS
 62
     1
 10
0.0
 20
0.0
 30
0.0
 40
40.0
  0
LINE
  5
55
  8
NOTE
  6
CONTINUOUS
 62
     4
 10
75.0
 20
316.0
 30
0.0
 11
115.0
 21
316.0
 31
0.0
  0
LINE
  5
56
  8
NOTE
  6
CONTINUOUS
 62
     4
 10
95.0
 20
296.0
 30
0.0
 11
95.0
 21
336.0
 31
0.0
  0
LINE
  5
57
  8
NOTE
  6
CONTINUOUS
 62
     4
 10
159.0
 20
255.0
 30
0.0
 11
199.0
 21
255.0
 31
0.0
  0
LINE
  5
58
  8
NOTE
  6
CONTINUOUS
 62
     4
 10
179.0
 20
235.0
 30
0.0
 11
179.0
 21
275.0
 31
0.0
  0
LINE
  5
59
  8
NOTE
  6
CONTINUOUS
 62
     4
 10
223.0
 20
227.0
 30
0.0
 11
263.0
 21
227.0
 31
0.0
  0
LINE
  5
5A
  8
NOTE
  6
CONTINUOUS
 62
     4
 10
243.0
 20
207.0
 30
0.0
 11
243.0
 21
247.0
 31
0.0
  0
LINE
  5
5B
  8
NOTE
  6
CONTINUOUS
 62
     4
 10
-341.0
 20
202.0
 30
0.0
 11
-301.0
 21
202.0
 31
0.0
  0
LINE
  5
5C
  8
NOTE
  6
CONTINUOUS
 62
     4
 10
-321.0
 20
182.0
 30
0.0
 11
-321.0
 21
222.0
 31
0.0
  0
LINE
  5
5D
  8
NOTE
  6
CONTINUOUS
 62
     4
 10
-161.0
 20
202.0
 30
0.0
 11
-121.0
 21
202.0
 31
0.0
  0
LINE
  5
5E
  8
NOTE
  6
CONTINUOUS
 62
     4
 10
-141.0
 20
182.0
 30
0.0
 11
-141.0
 21
222.0
 31
0.0
  0
LINE
  5
5F
  8
NOTE
  6
CONTINUOUS
 62
     4
 10
-355.0
 20
427.0
 30
0.0
 11
-315.0
 21
427.0
 31
0.0
  0
LINE
  5
60
  8
NOTE
  6
CONTINUOUS
 62
     4
 10
-335.0
 20
407.0
 30
0.0
 11
-335.0
 21
447.0
 31
0.0
  0
LINE
  5
61
  8
NOTE
  6
CONTINUOUS
 62
     4
 10
315.0
 20
427.0
 30
0.0
 11
355.0
 21
427.0
 31
0.0
  0
LINE
  5
62
  8
NOTE
  6
CONTINUOUS
 62
     4
 10
335.0
 20
407.0
 30
0.0
 11
335.0
 21
447.0
 31
0.0
  0
CIRCLE
  5
63
  8
FIX
  6
CONTINUOUS
 62
    11
 10
335.0
 20
427.0
 30
0.0
 40
40.0
  0
CIRCLE
  5
64
  8
FIX
  6
CONTINUOUS
 62
    11
 10
-335.0
 20
427.0
 30
0.0
 40
40.0
  0
LINE
  5
65
  8
OUTLINE
  6
CONTINUOUS
 62
     3
 10
-366.0
 20
427.0
 30
0.0
 11
369.0
 21
427.0
 31
0.0
  0
LINE
  5
66
  8
OUTLINE
  6
CONTINUOUS
 62
     3
 10
-366.0
 20
132.0
 30
0.0
 11
-366.0
 21
427.0
 31
0.0
  0
LINE
  5
67
  8
OUTLINE
  6
CONTINUOUS
 62
     3
 10
-366.0
 20
132.0
 30
0.0
 11
369.0
 21
132.0
 31
0.0
  0
LINE
  5
68
  8
OUTLINE
  6
CONTINUOUS
 62
     3
 10
369.0
 20
132.0
 30
0.0
 11
369.0
 21
427.0
 31
0.0
  0
LINE
  5
69
  8
OUTLINE
  6
CONTINUOUS
 62
     3
 10
-424.0
 20
47.0
 30
0.0
 11
142.0
 21
47.0
 31
0.0
  0
LINE
  5
6A
  8
OUTLINE
  6
CONTINUOUS
 62
     3
 10
-424.0
 20
47.0
 30
0.0
 11
-424.0
 21
0.0
 31
0.0
  0
LINE
  5
6B
  8
OUTLINE
  6
CONTINUOUS
 62
     3
 10
-441.0
 20
0.0
 30
0.0
 11
-424.0
 21
0.0
 31
0.0
  0
LINE
  5
6C
  8
OUTLINE
  6
CONTINUOUS
 62
     3
 10
-441.0
 20
-8.0
 30
0.0
 11
159.0
 21
-8.0
 31
0.0
  0
LINE
  5
6D
  8
OUTLINE
  6
CONTINUOUS
 62
     3
 10
142.0
 20
47.0
 30
0.0
 11
142.0
 21
0.0
 31
0.0
  0
LINE
  5
6E
  8
OUTLINE
  6
CONTINUOUS
 62
     3
 10
159.0
 20
0.0
 30
0.0
 11
159.0
 21
-8.0
 31
0.0
  0
LINE
  5
6F
  8
OUTLINE
  6
CONTINUOUS
 62
     3
 10
-441.0
 20
0.0
 30
0.0
 11
-441.0
 21
-8.0
 31
0.0
  0
LINE
  5
70
  8
OUTLINE
  6
CONTINUOUS
 62
     3
 10
142.0
 20
0.0
 30
0.0
 11
159.0
 21
0.0
 31
0.0
  0
LINE
  5
71
  8
SIZE
  6
CONTINUOUS
 62
    30
 10
95.0
 20
376.0
 30
0.0
 11
95.0
 21
838.692101
 31
0.0
  0
LINE
  5
72
  8
SIZE
  6
CONTINUOUS
 62
    30
 10
-366.0
 20
487.0
 30
0.0
 11
-366.0
 21
838.692101
 31
0.0
  0
LINE
  5
73
  8
SIZE
  6
CONTINUOUS
 62
    30
 10
93.0
 20
808.692101
 30
0.0
 11
-364.0
 21
808.692101
 31
0.0
  0
TEXT
  5
74
  8
SIZE
  6
CONTINUOUS
 62
    30
 10
-197.214286
 20
840.692101
 30
0.0
 40
64.0
  1
461
 41
0.9
  0
LINE
  5
75
  8
SIZE
  6
CONTINUOUS
 62
    30
 10
439.0
 20
431.0
 30
0.0
 11
439.0
 21
1158.577
 31
0.0
  0
LINE
  5
76
  8
SIZE
  6
CONTINUOUS
 62
    30
 10
-366.0
 20
467.0
 30
0.0
 11
-366.0
 21
1158.577
 31
0.0
  0
LINE
  5
77
  8
SIZE
  6
CONTINUOUS
 62
    30
 10
437.0
 20
1128.577
 30
0.0
 11
-364.0
 21
1128.577
 31
0.0
  0
TEXT
  5
78
  8
SIZE
  6
CONTINUOUS
 62
    30
 10
-37.557143
 20
1160.577
 30
0.0
 40
64.0
  1
805
 41
0.9
  0
LINE
  5
79
  8
SIZE
  6
CONTINUOUS
 62
    30
 10
369.0
 20
467.0
 30
0.0
 11
369.0
 21
1007.878
 31
0.0
  0
LINE
  5
7A
  8
SIZE
  6
CONTINUOUS
 62
    30
 10
439.0
 20
411.0
 30
0.0
 11
439.0
 21
1007.878
 31
0.0
  0
LINE
  5
7B
  8
SIZE
  6
CONTINUOUS
 62
    30
 10
441.0
 20
977.877858
 30
0.0
 11
443.0
 21
977.877858
 31
0.0
  0
LINE
  5
7C
  8
SIZE
  6
CONTINUOUS
 62
    30
 10
367.0
 20
977.877858
 30
0.0
 11
365.0
 21
977.877858
 31
0.0
  0
LINE
  5
7D
  8
SIZE
  6
CONTINUOUS
 62
    30
 10
439.0
 20
977.877858
 30
0.0
 11
369.0
 21
977.877858
 31
0.0
  0
TEXT
  5
7E
  8
SIZE
  6
CONTINUOUS
 62
    30
 10
357.371429
 20
1009.878
 30
0.0
 40
64.0
  1
70
 41
0.9
  0
LINE
  5
7F
  8
SIZE
  6
CONTINUOUS
 62
    30
 10
-461.0
 20
-8.0
 30
0.0
 11
-628.549053
 21
-8.0
 31
0.0
  0
LINE
  5
80
  8
SIZE
  6
CONTINUOUS
 62
    30
 10
-444.0
 20
47.0
 30
0.0
 11
-628.549053
 21
47.0
 31
0.0
  0
LINE
  5
81
  8
SIZE
  6
CONTINUOUS
 62
    30
 10
-598.549053
 20
49.0
 30
0.0
 11
-598.549053
 21
51.0
 31
0.0
  0
LINE
  5
82
  8
SIZE
  6
CONTINUOUS
 62
    30
 10
-598.549053
 20
-10.0
 30
0.0
 11
-598.549053
 21
-12.0
 31
0.0
  0
LINE
  5
83
  8
SIZE
  6
CONTINUOUS
 62
    30
 10
-598.549053
 20
47.0
 30
0.0
 11
-598.549053
 21
-8.0
 31
0.0
  0
TEXT
  5
84
  8
SIZE
  6
CONTINUOUS
 62
    30
 10
-630.549053
 20
-27.128571
 30
0.0
 40
64.0
  1
55
 50
90.0
 41
0.9
  0
LINE
  5
85
  8
SIZE
  6
CONTINUOUS
 62
    30
 10
-441.0
 20
-28.0
 30
0.0
 11
-441.0
 21
-251.422734
 31
0.0
  0
LINE
  5
86
  8
SIZE
  6
CONTINUOUS
 62
    30
 10
159.0
 20
-28.0
 30
0.0
 11
159.0
 21
-251.422734
 31
0.0
  0
LINE
  5
87
  8
SIZE
  6
CONTINUOUS
 62
    30
 10
-439.0
 20
-221.422734
 30
0.0
 11
157.0
 21
-221.422734
 31
0.0
  0
TEXT
  5
88
  8
SIZE
  6
CONTINUOUS
 62
    30
 10
-215.057143
 20
-189.422734
 30
0.0
 40
64.0
  1
600
 41
0.9
  0
LINE
  5
89
  8
SIZE
  6
CONTINUOUS
 62
    30
 10
389.0
 20
427.0
 30
0.0
 11
727.363797
 21
427.0
 31
0.0
  0
LINE
  5
8A
  8
SIZE
  6
CONTINUOUS
 62
    30
 10
219.0
 20
255.0
 30
0.0
 11
727.363797
 21
255.0
 31
0.0
  0
LINE
  5
8B
  8
SIZE
  6
CONTINUOUS
 62
    30
 10
697.363797
 20
425.0
 30
0.0
 11
697.363797
 21
341.0
 31
0.0
  0
LINE
  5
8C
  8
SIZE
  6
CONTINUOUS
 62
    30
 10
697.363797
 20
257.0
 30
0.0
 11
697.363797
 21
341.0
 31
0.0
  0
TEXT
  5
8D
  8
SIZE
  6
CONTINUOUS
 62
    30
 10
665.363797
 20
268.828874
 30
0.0
 40
64.0
  1
172
 50
90.0
 41
0.9
  0
LINE
  5
8E
  8
SIZE
  6
CONTINUOUS
 62
    30
 10
219.0
 20
255.0
 30
0.0
 11
727.363797
 21
255.0
 31
0.0
  0
LINE
  5
8F
  8
SIZE
  6
CONTINUOUS
 62
    30
 10
283.0
 20
227.0
 30
0.0
 11
727.363797
 21
227.0
 31
0.0
  0
LINE
  5
90
  8
SIZE
  6
CONTINUOUS
 62
    30
 10
697.363797
 20
253.0
 30
0.0
 11
697.363797
 21
241.0
 31
0.0
  0
LINE
  5
91
  8
SIZE
  6
CONTINUOUS
 62
    30
 10
697.363797
 20
229.0
 30
0.0
 11
697.363797
 21
241.0
 31
0.0
  0
TEXT
  5
92
  8
SIZE
  6
CONTINUOUS
 62
    30
 10
665.363797
 20
107.978701
 30
0.0
 40
64.0
  1
28
 50
90.0
 41
0.9
  0
LINE
  5
93
  8
SIZE
  6
CONTINUOUS
 62
    30
 10
-363.0
 20
427.0
 30
0.0
 11
8.715351
 21
427.0
 31
0.0
  0
LINE
  5
94
  8
SIZE
  6
CONTINUOUS
 62
    30
 10
55.0
 20
316.0
 30
0.0
 11
-51.284649
 21
316.0
 31
0.0
  0
LINE
  5
95
  8
SIZE
  6
CONTINUOUS
 62
    30
 10
-21.284649
 20
425.0
 30
0.0
 11
-21.284649
 21
371.5
 31
0.0
  0
LINE
  5
96
  8
SIZE
  6
CONTINUOUS
 62
    30
 10
-21.284649
 20
318.0
 30
0.0
 11
-21.284649
 21
371.5
 31
0.0
  0
TEXT
  5
97
  8
SIZE
  6
CONTINUOUS
 62
    30
 10
-53.284649
 20
320.757143
 30
0.0
 40
64.0
  1
111
 50
90.0
 41
0.9
  0
LINE
  5
98
  8
SIZE
  6
CONTINUOUS
 62
    30
 10
-378.0
 20
202.0
 30
0.0
 11
-628.549053
 21
202.0
 31
0.0
  0
LINE
  5
99
  8
SIZE
  6
CONTINUOUS
 62
    30
 10
-403.0
 20
132.0
 30
0.0
 11
-628.549053
 21
132.0
 31
0.0
  0
LINE
  5
9A
  8
SIZE
  6
CONTINUOUS
 62
    30
 10
-598.549053
 20
200.0
 30
0.0
 11
-598.549053
 21
167.0
 31
0.0
  0
LINE
  5
9B
  8
SIZE
  6
CONTINUOUS
 62
    30
 10
-598.549053
 20
134.0
 30
0.0
 11
-598.549053
 21
167.0
 31
0.0
  0
TEXT
  5
9C
  8
SIZE
  6
CONTINUOUS
 62
    30
 10
-630.549053
 20
120.371429
 30
0.0
 40
64.0
  1
70
 50
90.0
 41
0.9
  0
LINE
  5
9D
  8
SIZE
  6
CONTINUOUS
 62
    30
 10
369.0
 20
447.0
 30
0.0
 11
369.0
 21
683.905131
 31
0.0
  0
LINE
  5
9E
  8
SIZE
  6
CONTINUOUS
 62
    30
 10
243.0
 20
267.0
 30
0.0
 11
243.0
 21
683.905131
 31
0.0
  0
LINE
  5
9F
  8
SIZE
  6
CONTINUOUS
 62
    30
 10
367.0
 20
653.905131
 30
0.0
 11
306.0
 21
653.905131
 31
0.0
  0
LINE
  5
A0
  8
SIZE
  6
CONTINUOUS
 62
    30
 10
245.0
 20
653.905131
 30
0.0
 11
306.0
 21
653.905131
 31
0.0
  0
TEXT
  5
A1
  8
SIZE
  6
CONTINUOUS
 62
    30
 10
468.07715
 20
685.905131
 30
0.0
 40
64.0
  1
126
 41
0.9
  0
LINE
  5
A2
  8
SIZE
  6
CONTINUOUS
 62
    30
 10
243.0
 20
267.0
 30
0.0
 11
243.0
 21
683.905131
 31
0.0
  0
LINE
  5
A3
  8
SIZE
  6
CONTINUOUS
 62
    30
 10
179.0
 20
295.0
 30
0.0
 11
179.0
 21
683.905131
 31
0.0
  0
LINE
  5
A4
  8
SIZE
  6
CONTINUOUS
 62
    30
 10
177.0
 20
653.905131
 30
0.0
 11
175.0
 21
653.905131
 31
0.0
  0
LINE
  5
A5
  8
SIZE
  6
CONTINUOUS
 62
    30
 10
245.0
 20
653.905131
 30
0.0
 11
247.0
 21
653.905131
 31
0.0
  0
LINE
  5
A6
  8
SIZE
  6
CONTINUOUS
 62
    30
 10
179.0
 20
653.905131
 30
0.0
 11
243.0
 21
653.905131
 31
0.0
  0
TEXT
  5
A7
  8
SIZE
  6
CONTINUOUS
 62
    30
 10
163.0
 20
685.905131
 30
0.0
 40
64.0
  1
64
 41
0.9
  0
LINE
  5
A8
  8
SIZE
  6
CONTINUOUS
 62
    30
 10
369.0
 20
447.0
 30
0.0
 11
369.0
 21
838.692101
 31
0.0
  0
LINE
  5
A9
  8
SIZE
  6
CONTINUOUS
 62
    30
 10
95.0
 20
356.0
 30
0.0
 11
95.0
 21
838.692101
 31
0.0
  0
LINE
  5
AA
  8
SIZE
  6
CONTINUOUS
 62
    30
 10
367.0
 20
808.692101
 30
0.0
 11
97.0
 21
808.692101
 31
0.0
  0
TEXT
  5
AB
  8
SIZE
  6
CONTINUOUS
 62
    30
 10
156.571429
 20
840.692101
 30
0.0
 40
64.0
  1
274
 41
0.9
  0
LINE
  5
AC
  8
SIZE
  6
CONTINUOUS
 62
    30
 10
-366.0
 20
447.0
 30
0.0
 11
-366.0
 21
1007.878
 31
0.0
  0
LINE
  5
AD
  8
SIZE
  6
CONTINUOUS
 62
    30
 10
369.0
 20
447.0
 30
0.0
 11
369.0
 21
1007.878
 31
0.0
  0
LINE
  5
AE
  8
SIZE
  6
CONTINUOUS
 62
    30
 10
-364.0
 20
977.877858
 30
0.0
 11
367.0
 21
977.877858
 31
0.0
  0
TEXT
  5
AF
  8
SIZE
  6
CONTINUOUS
 62
    30
 10
-72.557143
 20
1009.878
 30
0.0
 40
64.0
  1
735
 41
0.9
  0
LINE
  5
B0
  8
SIZE
  6
CONTINUOUS
 62
    30
 10
389.0
 20
427.0
 30
0.0
 11
906.784793
 21
427.0
 31
0.0
  0
LINE
  5
B1
  8
SIZE
  6
CONTINUOUS
 62
    30
 10
389.0
 20
132.0
 30
0.0
 11
906.784793
 21
132.0
 31
0.0
  0
LINE
  5
B2
  8
SIZE
  6
CONTINUOUS
 62
    30
 10
876.784793
 20
425.0
 30
0.0
 11
876.784793
 21
134.0
 31
0.0
  0
TEXT
  5
B3
  8
SIZE
  6
CONTINUOUS
 62
    30
 10
844.784793
 20
205.442857
 30
0.0
 40
64.0
  1
295
 50
90.0
 41
0.9
  0
LINE
  5
B4
  8
SIZE
  6
CONTINUOUS
 62
    30
 10
-366.0
 20
447.0
 30
0.0
 11
-366.0
 21
683.905131
 31
0.0
  0
LINE
  5
B5
  8
SIZE
  6
CONTINUOUS
 62
    30
 10
-321.0
 20
242.0
 30
0.0
 11
-321.0
 21
683.905131
 31
0.0
  0
LINE
  5
B6
  8
SIZE
  6
CONTINUOUS
 62
    30
 10
-364.0
 20
653.905131
 30
0.0
 11
-343.5
 21
653.905131
 31
0.0
  0
LINE
  5
B7
  8
SIZE
  6
CONTINUOUS
 62
    30
 10
-323.0
 20
653.905131
 30
0.0
 11
-343.5
 21
653.905131
 31
0.0
  0
TEXT
  5
B8
  8
SIZE
  6
CONTINUOUS
 62
    30
 10
-475.878229
 20
685.905131
 30
0.0
 40
64.0
  1
45
 41
0.9
  0
LINE
  5
B9
  8
SIZE
  6
CONTINUOUS
 62
    30
 10
-321.0
 20
242.0
 30
0.0
 11
-321.0
 21
683.905131
 31
0.0
  0
LINE
  5
BA
  8
SIZE
  6
CONTINUOUS
 62
    30
 10
-141.0
 20
242.0
 30
0.0
 11
-141.0
 21
683.905131
 31
0.0
  0
LINE
  5
BB
  8
SIZE
  6
CONTINUOUS
 62
    30
 10
-319.0
 20
653.905131
 30
0.0
 11
-143.0
 21
653.905131
 31
0.0
  0
TEXT
  5
BC
  8
SIZE
  6
CONTINUOUS
 62
    30
 10
-299.571429
 20
685.905131
 30
0.0
 40
64.0
  1
180
 41
0.9
  0
CIRCLE
  5
BD
  8
SIZE
  6
CONTINUOUS
 62
    30
 10
-141.0
 20
653.905131
 30
0.0
 40
6.0
  0
CIRCLE
  5
BE
  8
SIZE
  6
CONTINUOUS
 62
    30
 10
-321.0
 20
653.905131
 30
0.0
 40
6.0
  0
CIRCLE
  5
BF
  8
SIZE
  6
CONTINUOUS
 62
    30
 10
-321.0
 20
653.905131
 30
0.0
 40
6.0
  0
CIRCLE
  5
C0
  8
SIZE
  6
CONTINUOUS
 62
    30
 10
-366.0
 20
653.905131
 30
0.0
 40
6.0
  0
CIRCLE
  5
C1
  8
SIZE
  6
CONTINUOUS
 62
    30
 10
876.784793
 20
132.0
 30
0.0
 40
6.0
  0
CIRCLE
  5
C2
  8
SIZE
  6
CONTINUOUS
 62
    30
 10
876.784793
 20
427.0
 30
0.0
 40
6.0
  0
CIRCLE
  5
C3
  8
SIZE
  6
CONTINUOUS
 62
    30
 10
369.0
 20
977.877858
 30
0.0
 40
6.0
  0
CIRCLE
  5
C4
  8
SIZE
  6
CONTINUOUS
 62
    30
 10
-366.0
 20
977.877858
 30
0.0
 40
6.0
  0
CIRCLE
  5
C5
  8
SIZE
  6
CONTINUOUS
 62
    30
 10
95.0
 20
808.692101
 30
0.0
 40
6.0
  0
CIRCLE
  5
C6
  8
SIZE
  6
CONTINUOUS
 62
    30
 10
369.0
 20
808.692101
 30
0.0
 40
6.0
  0
CIRCLE
  5
C7
  8
SIZE
  6
CONTINUOUS
 62
    30
 10
243.0
 20
653.905131
 30
0.0
 40
6.0
  0
CIRCLE
  5
C8
  8
SIZE
  6
CONTINUOUS
 62
    30
 10
179.0
 20
653.905131
 30
0.0
 40
6.0
  0
CIRCLE
  5
C9
  8
SIZE
  6
CONTINUOUS
 62
    30
 10
243.0
 20
653.905131
 30
0.0
 40
6.0
  0
CIRCLE
  5
CA
  8
SIZE
  6
CONTINUOUS
 62
    30
 10
369.0
 20
653.905131
 30
0.0
 40
6.0
  0
CIRCLE
  5
CB
  8
SIZE
  6
CONTINUOUS
 62
    30
 10
-598.549053
 20
132.0
 30
0.0
 40
6.0
  0
CIRCLE
  5
CC
  8
SIZE
  6
CONTINUOUS
 62
    30
 10
-598.549053
 20
202.0
 30
0.0
 40
6.0
  0
CIRCLE
  5
CD
  8
SIZE
  6
CONTINUOUS
 62
    30
 10
-21.284649
 20
316.0
 30
0.0
 40
6.0
  0
CIRCLE
  5
CE
  8
SIZE
  6
CONTINUOUS
 62
    30
 10
-21.284649
 20
427.0
 30
0.0
 40
6.0
  0
CIRCLE
  5
CF
  8
SIZE
  6
CONTINUOUS
 62
    30
 10
697.363797
 20
227.0
 30
0.0
 40
6.0
  0
CIRCLE
  5
D0
  8
SIZE
  6
CONTINUOUS
 62
    30
 10
697.363797
 20
255.0
 30
0.0
 40
6.0
  0
CIRCLE
  5
D1
  8
SIZE
  6
CONTINUOUS
 62
    30
 10
697.363797
 20
255.0
 30
0.0
 40
6.0
  0
CIRCLE
  5
D2
  8
SIZE
  6
CONTINUOUS
 62
    30
 10
697.363797
 20
427.0
 30
0.0
 40
6.0
  0
CIRCLE
  5
D3
  8
SIZE
  6
CONTINUOUS
 62
    30
 10
159.0
 20
-221.422734
 30
0.0
 40
6.0
  0
CIRCLE
  5
D4
  8
SIZE
  6
CONTINUOUS
 62
    30
 10
-441.0
 20
-221.422734
 30
0.0
 40
6.0
  0
CIRCLE
  5
D5
  8
SIZE
  6
CONTINUOUS
 62
    30
 10
-598.549053
 20
-8.0
 30
0.0
 40
6.0
  0
CIRCLE
  5
D6
  8
SIZE
  6
CONTINUOUS
 62
    30
 10
-598.549053
 20
47.0
 30
0.0
 40
6.0
  0
CIRCLE
  5
D7
  8
SIZE
  6
CONTINUOUS
 62
    30
 10
369.0
 20
977.877858
 30
0.0
 40
6.0
  0
CIRCLE
  5
D8
  8
SIZE
  6
CONTINUOUS
 62
    30
 10
439.0
 20
977.877858
 30
0.0
 40
6.0
  0
CIRCLE
  5
D9
  8
SIZE
  6
CONTINUOUS
 62
    30
 10
-366.0
 20
1128.577
 30
0.0
 40
6.0
  0
CIRCLE
  5
DA
  8
SIZE
  6
CONTINUOUS
 62
    30
 10
439.0
 20
1128.577
 30
0.0
 40
6.0
  0
CIRCLE
  5
DB
  8
SIZE
  6
CONTINUOUS
 62
    30
 10
-366.0
 20
808.692101
 30
0.0
 40
6.0
  0
CIRCLE
  5
DC
  8
SIZE
  6
CONTINUOUS
 62
    30
 10
95.0
 20
808.692101
 30
0.0
 40
6.0
  0
POLYLINE
  5
DD
  8
NOTE
  6
CONTINUOUS
 62
     4
 66
     1
 10
0.0
 20
0.0
 30
0.0
  0
VERTEX
  5
DE
  8
NOTE
  6
CONTINUOUS
 62
     4
 10
-354.890187
 20
223.247475
 30
0.0
 50
312.914318
  0
VERTEX
  5
DF
  8
NOTE
  6
CONTINUOUS
 62
     4
 10
-321.0
 20
202.0
 30
0.0
 50
312.914318
  0
VERTEX
  5
E0
  8
NOTE
  6
CONTINUOUS
 62
     4
 10
-339.726026
 20
237.345947
 30
0.0
 50
312.914318
  0
SEQEND
  5
E1
  8
NOTE
  6
CONTINUOUS
 62
     4
  0
POLYLINE
  5
E2
  8
NOTE
  6
CONTINUOUS
 62
     4
 66
     1
 10
0.0
 20
0.0
 30
0.0
  0
VERTEX
  5
E3
  8
NOTE
  6
CONTINUOUS
 62
     4
 10
-174.33946
 20
224.101594
 30
0.0
 50
311.458568
  0
VERTEX
  5
E4
  8
NOTE
  6
CONTINUOUS
 62
     4
 10
-141.0
 20
202.0
 30
0.0
 50
311.458568
  0
VERTEX
  5
E5
  8
NOTE
  6
CONTINUOUS
 62
     4
 10
-158.822022
 20
237.810271
 30
0.0
 50
311.458568
  0
SEQEND
  5
E6
  8
NOTE
  6
CONTINUOUS
 62
     4
  0
POLYLINE
  5
E7
  8
NOTE
  6
CONTINUOUS
 62
     4
 66
     1
 10
0.0
 20
0.0
 30
0.0
  0
VERTEX
  5
E8
  8
NOTE
  6
CONTINUOUS
 62
     4
 10
75.666846
 20
351.017555
 30
0.0
 50
283.90304
  0
VERTEX
  5
E9
  8
NOTE
  6
CONTINUOUS
 62
     4
 10
95.0
 20
316.0
 30
0.0
 50
283.90304
  0
VERTEX
  5
EA
  8
NOTE
  6
CONTINUOUS
 62
     4
 10
95.765775
 20
355.992669
 30
0.0
 50
283.90304
  0
SEQEND
  5
EB
  8
NOTE
  6
CONTINUOUS
 62
     4
  0
POLYLINE
  5
EC
  8
NOTE
  6
CONTINUOUS
 62
     4
 66
     1
 10
0.0
 20
0.0
 30
0.0
  0
VERTEX
  5
ED
  8
NOTE
  6
CONTINUOUS
 62
     4
 10
162.586199
 20
218.522786
 30
0.0
 50
50.773489
  0
VERTEX
  5
EE
  8
NOTE
  6
CONTINUOUS
 62
     4
 10
179.0
 20
255.0
 30
0.0
 50
50.773489
  0
VERTEX
  5
EF
  8
NOTE
  6
CONTINUOUS
 62
     4
 10
146.546624
 20
231.616707
 30
0.0
 50
50.773489
  0
SEQEND
  5
F0
  8
NOTE
  6
CONTINUOUS
 62
     4
  0
POLYLINE
  5
F1
  8
NOTE
  6
CONTINUOUS
 62
     4
 66
     1
 10
0.0
 20
0.0
 30
0.0
  0
VERTEX
  5
F2
  8
NOTE
  6
CONTINUOUS
 62
     4
 10
268.792761
 20
196.426589
 30
0.0
 50
115.152108
  0
VERTEX
  5
F3
  8
NOTE
  6
CONTINUOUS
 62
     4
 10
243.0
 20
227.0
 30
0.0
 50
115.152108
  0
VERTEX
  5
F4
  8
NOTE
  6
CONTINUOUS
 62
     4
 10
250.050481
 20
187.626269
 30
0.0
 50
115.152108
  0
SEQEND
  5
F5
  8
NOTE
  6
CONTINUOUS
 62
     4
  0
ENDSEC
  0
EOF
