  0
SECTION
  2
HEADER
  9
$ACADVER
  1
AC1014
  9
$ACADMAINTVER
 70
     0
  9
$DWGCODEPAGE
  3
ANSI_932
  9
$INSBASE
 10
0.0
 20
0.0
 30
0.0
  9
$EXTMIN
 10
-1461.428741
 20
-1025.097249
 30
0.0
  9
$EXTMAX
 10
1579.795042
 20
712.498515
 30
0.0
  9
$LIMMIN
 10
-4267.152221
 20
-2696.08321
  9
$LIMMAX
 10
7190.717423
 20
5141.155364
  9
$ORTHOMODE
 70
     0
  9
$REGENMODE
 70
     1
  9
$FILLMODE
 70
     1
  9
$QTEXTMODE
 70
     0
  9
$MIRRTEXT
 70
     0
  9
$DRAGMODE
 70
     2
  9
$LTSCALE
 40
20.0
  9
$OSMODE
 70
    39
  9
$ATTMODE
 70
     1
  9
$TEXTSIZE
 40
64.0
  9
$TRACEWID
 40
0.05
  9
$TEXTSTYLE
  7
STANDARD
  9
$CLAYER
  8
SIZE
  9
$CELTYPE
  6
CONTINUOUS
  9
$CECOLOR
 62
     7
  9
$CELTSCALE
 40
1.0
  9
$DELOBJ
 70
     1
  9
$DISPSILH
 70
     0
  9
$DIMSCALE
 40
1.0
  9
$DIMASZ
 40
10.0
  9
$DIMEXO
 40
20.0
  9
$DIMDLI
 40
200.0
  9
$DIMRND
 40
0.0
  9
$DIMDLE
 40
0.0
  9
$DIMEXE
 40
30.0
  9
$DIMTP
 40
0.0
  9
$DIMTM
 40
0.0
  9
$DIMTXT
 40
55.0
  9
$DIMCEN
 40
0.0
  9
$DIMTSZ
 40
0.0
  9
$DIMTOL
 70
     0
  9
$DIMLIM
 70
     0
  9
$DIMTIH
 70
     0
  9
$DIMTOH
 70
     0
  9
$DIMSE1
 70
     0
  9
$DIMSE2
 70
     0
  9
$DIMTAD
 70
     1
  9
$DIMZIN
 70
     8
  9
$DIMBLK
  1

  9
$DIMASO
 70
     1
  9
$DIMSHO
 70
     0
  9
$DIMPOST
  1

  9
$DIMAPOST
  1

  9
$DIMALT
 70
     0
  9
$DIMALTD
 70
     2
  9
$DIMALTF
 40
25.4
  9
$DIMLFAC
 40
1.0
  9
$DIMTOFL
 70
     1
  9
$DIMTVP
 40
0.0
  9
$DIMTIX
 70
     1
  9
$DIMSOXD
 70
     0
  9
$DIMSAH
 70
     1
  9
$DIMBLK1
  1
_DOTBLANK
  9
$DIMBLK2
  1
_DOTBLANK
  9
$DIMSTYLE
  2
STANDARD
  9
$DIMCLRD
 70
     0
  9
$DIMCLRE
 70
     0
  9
$DIMCLRT
 70
     0
  9
$DIMTFAC
 40
1.0
  9
$DIMGAP
 40
0.09
  9
$DIMJUST
 70
     0
  9
$DIMSD1
 70
     0
  9
$DIMSD2
 70
     0
  9
$DIMTOLJ
 70
     1
  9
$DIMTZIN
 70
     0
  9
$DIMALTZ
 70
     0
  9
$DIMALTTZ
 70
     0
  9
$DIMFIT
 70
     3
  9
$DIMUPT
 70
     0
  9
$DIMUNIT
 70
     2
  9
$DIMDEC
 70
     4
  9
$DIMTDEC
 70
     4
  9
$DIMALTU
 70
     2
  9
$DIMALTTD
 70
     2
  9
$DIMTXSTY
  7
STANDARD
  9
$DIMAUNIT
 70
     0
  9
$LUNITS
 70
     2
  9
$LUPREC
 70
     4
  9
$SKETCHINC
 40
0.1
  9
$FILLETRAD
 40
30.0
  9
$AUNITS
 70
     1
  9
$AUPREC
 70
     3
  9
$MENU
  1
ACAD
  9
$ELEVATION
 40
0.0
  9
$PELEVATION
 40
0.0
  9
$THICKNESS
 40
0.0
  9
$LIMCHECK
 70
     0
  9
$BLIPMODE
 70
     0
  9
$CHAMFERA
 40
0.0
  9
$CHAMFERB
 40
0.0
  9
$CHAMFERC
 40
0.0
  9
$CHAMFERD
 40
0.0
  9
$SKPOLY
 70
     0
  9
$TDCREATE
 40
2450330.439930995
  9
$TDUPDATE
 40
2454246.569085995
  9
$TDINDWG
 40
3.5429600000
  9
$TDUSRTIMER
 40
3.5429590046
  9
$USRTIMER
 70
     1
  9
$ANGBASE
 50
0.0
  9
$ANGDIR
 70
     0
  9
$PDMODE
 70
     3
  9
$PDSIZE
 40
-2.0
  9
$PLINEWID
 40
0.0
  9
$COORDS
 70
     2
  9
$SPLFRAME
 70
     0
  9
$SPLINETYPE
 70
     6
  9
$SPLINESEGS
 70
     8
  9
$ATTDIA
 70
     0
  9
$ATTREQ
 70
     1
  9
$HANDLING
 70
     1
  9
$HANDSEED
  5
ADB
  9
$SURFTAB1
 70
     6
  9
$SURFTAB2
 70
     6
  9
$SURFTYPE
 70
     6
  9
$SURFU
 70
     6
  9
$SURFV
 70
     6
  9
$UCSNAME
  2

  9
$UCSORG
 10
0.0
 20
0.0
 30
0.0
  9
$UCSXDIR
 10
1.0
 20
0.0
 30
0.0
  9
$UCSYDIR
 10
0.0
 20
1.0
 30
0.0
  9
$PUCSNAME
  2

  9
$PUCSORG
 10
0.0
 20
0.0
 30
0.0
  9
$PUCSXDIR
 10
1.0
 20
0.0
 30
0.0
  9
$PUCSYDIR
 10
0.0
 20
1.0
 30
0.0
  9
$USERI1
 70
     0
  9
$USERI2
 70
     0
  9
$USERI3
 70
     0
  9
$USERI4
 70
     0
  9
$USERI5
 70
     0
  9
$USERR1
 40
20.0
  9
$USERR2
 40
0.0
  9
$USERR3
 40
0.0
  9
$USERR4
 40
0.0
  9
$USERR5
 40
0.0
  9
$WORLDVIEW
 70
     1
  9
$SHADEDGE
 70
     3
  9
$SHADEDIF
 70
    70
  9
$TILEMODE
 70
     1
  9
$MAXACTVP
 70
    48
  9
$PINSBASE
 10
0.0
 20
0.0
 30
0.0
  9
$PLIMCHECK
 70
     0
  9
$PEXTMIN
 10
1.000000E+20
 20
1.000000E+20
 30
1.000000E+20
  9
$PEXTMAX
 10
-1.000000E+20
 20
-1.000000E+20
 30
-1.000000E+20
  9
$PLIMMIN
 10
0.0
 20
0.0
  9
$PLIMMAX
 10
12.0
 20
9.0
  9
$UNITMODE
 70
     0
  9
$VISRETAIN
 70
     1
  9
$PLINEGEN
 70
     0
  9
$PSLTSCALE
 70
     1
  9
$TREEDEPTH
 70
  3020
  9
$PICKSTYLE
 70
     1
  9
$CMLSTYLE
  2
STANDARD
  9
$CMLJUST
 70
     0
  9
$CMLSCALE
 40
1.0
  9
$PROXYGRAPHICS
 70
     1
  9
$MEASUREMENT
 70
     0
  0
ENDSEC
  0
SECTION
  2
CLASSES
  0
ENDSEC
  0
SECTION
  2
TABLES
  0
TABLE
  2
VPORT
  5
3DC
100
AcDbSymbolTable
 70
     3
  0
VPORT
  5
ADA
100
AcDbSymbolTableRecord
100
AcDbViewportTableRecord
  2
*ACTIVE
 70
     0
 10
0.0
 20
0.0
 11
1.0
 21
1.0
 12
1461.782601
 22
1331.287491
 13
0.0
 23
0.0
 14
50.0
 24
50.0
 15
100.0
 25
100.0
 16
0.0
 26
0.0
 36
1.0
 17
0.0
 27
0.0
 37
0.0
 40
8054.741402
 41
1.4225
 42
50.0
 43
0.0
 44
0.0
 50
0.0
 51
0.0
 71
     0
 72
  1000
 73
     1
 74
     0
 75
     0
 76
     0
 77
     0
 78
     0
  0
ENDTAB
  0
TABLE
  2
LTYPE
  5
3D9
100
AcDbSymbolTable
 70
     2
  0
LTYPE
  5
3E6
100
AcDbSymbolTableRecord
100
AcDbLinetypeTableRecord
  2
BYBLOCK
 70
     0
  3

 72
    65
 73
     0
 40
0.0
  0
LTYPE
  5
3E7
100
AcDbSymbolTableRecord
100
AcDbLinetypeTableRecord
  2
BYLAYER
 70
     0
  3

 72
    65
 73
     0
 40
0.0
  0
LTYPE
  5
3E8
100
AcDbSymbolTableRecord
100
AcDbLinetypeTableRecord
  2
CONTINUOUS
 70
     0
  3
実線
 72
    65
 73
     0
 40
0.0
  0
LTYPE
  5
3F4
100
AcDbSymbolTableRecord
100
AcDbLinetypeTableRecord
  2
DASHDOT
 70
     0
  3
____ _ ____ _ ____ _ ____ _ ____ _ ____ _ ____
 72
    65
 73
     4
 40
5.5
 49
4.0
 74
     0
 49
-0.6
 74
     0
 49
0.3
 74
     0
 49
-0.6
 74
     0
  0
ENDTAB
  0
TABLE
  2
LAYER
  5
3D6
100
AcDbSymbolTable
 70
    12
  0
LAYER
  5
3E2
100
AcDbSymbolTableRecord
100
AcDbLayerTableRecord
  2
0
 70
     0
 62
     7
  6
CONTINUOUS
  0
LAYER
  5
3F3
100
AcDbSymbolTableRecord
100
AcDbLayerTableRecord
  2
SIZE
 70
     0
 62
    30
  6
CONTINUOUS
  0
LAYER
  5
3F5
100
AcDbSymbolTableRecord
100
AcDbLayerTableRecord
  2
OUTLINE
 70
     0
 62
     3
  6
CONTINUOUS
  0
LAYER
  5
3F6
100
AcDbSymbolTableRecord
100
AcDbLayerTableRecord
  2
DETAIL
 70
     0
 62
     5
  6
CONTINUOUS
  0
LAYER
  5
3F7
100
AcDbSymbolTableRecord
100
AcDbLayerTableRecord
  2
BASIS
 70
     0
 62
     6
  6
DASHDOT
  0
LAYER
  5
3F8
100
AcDbSymbolTableRecord
100
AcDbLayerTableRecord
  2
NOTE
 70
     0
 62
     4
  6
CONTINUOUS
  0
LAYER
  5
3F9
100
AcDbSymbolTableRecord
100
AcDbLayerTableRecord
  2
ARRANGE
 70
     0
 62
     1
  6
CONTINUOUS
  0
LAYER
  5
3FA
100
AcDbSymbolTableRecord
100
AcDbLayerTableRecord
  2
FIX
 70
     0
 62
    11
  6
CONTINUOUS
  0
LAYER
  5
3FB
100
AcDbSymbolTableRecord
100
AcDbLayerTableRecord
  2
SERVICESPACE
 70
     0
 62
     2
  6
DASHDOT
  0
LAYER
  5
3FC
100
AcDbSymbolTableRecord
100
AcDbLayerTableRecord
  2
ETC
 70
     0
 62
    61
  6
CONTINUOUS
  0
LAYER
  5
3FD
100
AcDbSymbolTableRecord
100
AcDbLayerTableRecord
  2
SYMBOLLINE
 70
     0
 62
    15
  6
CONTINUOUS
  0
LAYER
  5
3FE
100
AcDbSymbolTableRecord
100
AcDbLayerTableRecord
  2
DEFPOINTS
 70
     0
 62
     7
  6
CONTINUOUS
  0
ENDTAB
  0
TABLE
  2
STYLE
  5
3D7
100
AcDbSymbolTable
 70
     2
  0
STYLE
  5
3E3
100
AcDbSymbolTableRecord
100
AcDbTextStyleTableRecord
  2
STANDARD
 70
     0
 40
0.0
 41
0.9
 50
0.0
 71
     0
 42
64.0
  3
SIMPLEX
  4
BIGFONT
  0
STYLE
  5
3FF
100
AcDbSymbolTableRecord
100
AcDbTextStyleTableRecord
  2
STANDARD1
 70
     0
 40
0.0
 41
1.0
 50
0.0
 71
     0
 42
64.0
  3
MONOTXT
  4
BIGFONT
  0
ENDTAB
  0
TABLE
  2
VIEW
  5
3DA
100
AcDbSymbolTable
 70
     1
  0
VIEW
  5
400
100
AcDbSymbolTableRecord
100
AcDbViewTableRecord
  2
ALL
 70
     0
 40
9000.0
 10
241.506647
 20
0.0
 41
12483.01
 11
0.0
 21
0.0
 31
1.0
 12
0.0
 22
0.0
 32
0.0
 42
50.0
 43
0.0
 44
0.0
 50
0.0
 71
     0
  0
ENDTAB
  0
TABLE
  2
UCS
  5
3DB
100
AcDbSymbolTable
 70
     0
  0
ENDTAB
  0
TABLE
  2
APPID
  5
3DD
100
AcDbSymbolTable
 70
     1
  0
APPID
  5
3E4
100
AcDbSymbolTableRecord
100
AcDbRegAppTableRecord
  2
ACAD
 70
     0
  0
ENDTAB
  0
TABLE
  2
DIMSTYLE
  5
3DE
100
AcDbSymbolTable
 70
     1
  0
DIMSTYLE
105
401
100
AcDbSymbolTableRecord
100
AcDbDimStyleTableRecord
  2
STANDARD
 70
     0
  3

  4

  5

  6

  7

 40
1.0
 41
0.18
 42
0.0625
 43
0.38
 44
0.18
 45
0.0
 46
0.0
 47
0.0
 48
0.0
140
0.18
141
0.09
142
0.0
143
25.4
144
1.0
145
0.0
146
1.0
147
0.09
 71
     0
 72
     0
 73
     1
 74
     1
 75
     0
 76
     0
 77
     0
 78
     0
170
     0
171
     2
172
     0
173
     0
174
     0
175
     0
176
     0
177
     0
178
     0
270
     2
271
     4
272
     4
273
     2
274
     2
340
3E3
275
     0
280
     0
281
     0
282
     0
283
     1
284
     0
285
     0
286
     0
287
     3
288
     0
  0
ENDTAB
  0
TABLE
  2
BLOCK_RECORD
  5
3D5
100
AcDbSymbolTable
 70
     4
  0
BLOCK_RECORD
  5
3EC
100
AcDbSymbolTableRecord
100
AcDbBlockTableRecord
  2
*MODEL_SPACE
  0
BLOCK_RECORD
  5
3E9
100
AcDbSymbolTableRecord
100
AcDbBlockTableRecord
  2
*PAPER_SPACE
  0
BLOCK_RECORD
  5
405
100
AcDbSymbolTableRecord
100
AcDbBlockTableRecord
  2
$MODEL_SPACE
  0
BLOCK_RECORD
  5
407
100
AcDbSymbolTableRecord
100
AcDbBlockTableRecord
  2
$PAPER_SPACE
  0
BLOCK_RECORD
  5
409
100
AcDbSymbolTableRecord
100
AcDbBlockTableRecord
  2
_DOTBLANK
  0
BLOCK_RECORD
  5
40C
100
AcDbSymbolTableRecord
100
AcDbBlockTableRecord
  2
A$C61F54069
  0
ENDTAB
  0
ENDSEC
  0
SECTION
  2
BLOCKS
  0
BLOCK
  5
3ED
100
AcDbEntity
  8
0
100
AcDbBlockBegin
  2
*MODEL_SPACE
 70
     0
 10
0.0
 20
0.0
 30
0.0
  3
*MODEL_SPACE
  1

  0
ENDBLK
  5
3EE
100
AcDbEntity
  8
0
100
AcDbBlockEnd
  0
BLOCK
  5
3EA
100
AcDbEntity
 67
     1
  8
0
100
AcDbBlockBegin
  2
*PAPER_SPACE
 70
     0
 10
0.0
 20
0.0
 30
0.0
  3
*PAPER_SPACE
  1

  0
ENDBLK
  5
3EB
100
AcDbEntity
 67
     1
  8
0
100
AcDbBlockEnd
  0
BLOCK
  5
406
100
AcDbEntity
  8
0
100
AcDbBlockBegin
  2
$MODEL_SPACE
 70
     0
 10
0.0
 20
0.0
 30
0.0
  3
$MODEL_SPACE
  1

  0
ENDBLK
  5
3B7
100
AcDbEntity
  8
0
100
AcDbBlockEnd
  0
BLOCK
  5
408
100
AcDbEntity
  8
0
100
AcDbBlockBegin
  2
$PAPER_SPACE
 70
     0
 10
0.0
 20
0.0
 30
0.0
  3
$PAPER_SPACE
  1

  0
ENDBLK
  5
3B4
100
AcDbEntity
  8
0
100
AcDbBlockEnd
  0
BLOCK
  5
40A
100
AcDbEntity
  8
0
100
AcDbBlockBegin
  2
_DOTBLANK
 70
     0
 10
0.0
 20
0.0
 30
0.0
  3
_DOTBLANK
  1

  0
CIRCLE
  5
32
100
AcDbEntity
  8
0
  6
CONTINUOUS
 62
     7
100
AcDbCircle
 10
0.0
 20
0.0
 30
0.0
 40
0.5
  0
LINE
  5
33
100
AcDbEntity
  8
0
  6
CONTINUOUS
 62
     7
100
AcDbLine
 10
-0.5
 20
0.0
 30
0.0
 11
-1.0
 21
0.0
 31
0.0
  0
ENDBLK
  5
34
100
AcDbEntity
  8
0
100
AcDbBlockEnd
  0
BLOCK
  5
772
100
AcDbEntity
  8
0
 62
     7
100
AcDbBlockBegin
  2
A$C61F54069
 70
     0
 10
0.0
 20
0.0
 30
0.0
  3
A$C61F54069
  1

  0
LINE
  5
40D
100
AcDbEntity
  8
NOTE
  6
CONTINUOUS
 62
     4
100
AcDbLine
 10
2286.997904
 20
-0.000004
 30
0.0
 11
3040.052959
 21
-0.000004
 31
0.0
  0
TEXT
  5
40E
100
AcDbEntity
  8
NOTE
  6
CONTINUOUS
 62
     4
100
AcDbText
 10
2292.471713
 20
23.549434
 30
0.0
 40
64.0
  1
RG φ19.05（R407C）
 41
0.8
100
AcDbText
  0
TEXT
  5
40F
100
AcDbEntity
  8
NOTE
  6
CONTINUOUS
 62
     4
100
AcDbText
 10
2292.471713
 20
119.398564
 30
0.0
 40
64.0
  1
RG φ15.88（R410A）
 41
0.8
100
AcDbText
  0
LINE
  5
410
100
AcDbEntity
  8
NOTE
  6
CONTINUOUS
 62
     4
100
AcDbLine
 10
2976.888429
 20
252.702298
 30
0.0
 11
2304.695336
 21
252.702298
 31
0.0
  0
TEXT
  5
411
100
AcDbEntity
  8
NOTE
  6
CONTINUOUS
 62
     4
100
AcDbText
 10
2309.994509
 20
272.572886
 30
0.0
 40
64.0
  1
AH4-14×30長穴
 41
0.9
100
AcDbText
  0
LINE
  5
412
100
AcDbEntity
  8
SIZE
  6
CONTINUOUS
 62
    30
100
AcDbLine
 10
1278.220932
 20
437.830793
 30
0.0
 11
998.220932
 21
437.830793
 31
0.0
  0
LINE
  5
413
100
AcDbEntity
  8
SERVICESPACE
  6
DASHDOT
 62
     2
100
AcDbLine
 10
988.220932
 20
624.900566
 30
0.0
 11
1983.22087
 21
624.900566
 31
0.0
  0
LINE
  5
414
100
AcDbEntity
  8
SERVICESPACE
  6
DASHDOT
 62
     2
100
AcDbLine
 10
988.220932
 20
1044.900566
 30
0.0
 11
1983.22087
 21
1044.900566
 31
0.0
  0
LINE
  5
415
100
AcDbEntity
  8
SERVICESPACE
  6
DASHDOT
 62
     2
100
AcDbLine
 10
988.220932
 20
644.900566
 30
0.0
 11
1983.22087
 21
644.900566
 31
0.0
  0
LINE
  5
416
100
AcDbEntity
  8
SERVICESPACE
  6
DASHDOT
 62
     2
100
AcDbLine
 10
988.220932
 20
1024.900566
 30
0.0
 11
1983.22087
 21
1024.900566
 31
0.0
  0
LINE
  5
417
100
AcDbEntity
  8
NOTE
  6
CONTINUOUS
 62
     4
100
AcDbLine
 10
1110.183213
 20
1173.219588
 30
0.0
 11
1518.302296
 21
1173.219588
 31
0.0
  0
TEXT
  5
418
100
AcDbEntity
  8
NOTE
  6
CONTINUOUS
 62
     4
100
AcDbText
 10
1114.187345
 20
315.243425
 30
0.0
 40
64.0
  1
D1 VP-25
 41
0.9
100
AcDbText
  0
LINE
  5
419
100
AcDbEntity
  8
NOTE
  6
CONTINUOUS
 62
     4
100
AcDbLine
 10
1102.226394
 20
292.404897
 30
0.0
 11
1539.156413
 21
292.404897
 31
0.0
  0
LINE
  5
41A
100
AcDbEntity
  8
SIZE
  6
CONTINUOUS
 62
    30
100
AcDbLine
 10
1098.220932
 20
144.434671
 30
0.0
 11
1892.220932
 21
144.434671
 31
0.0
  0
LINE
  5
41B
100
AcDbEntity
  8
NOTE
  6
CONTINUOUS
 62
     4
100
AcDbLine
 10
1546.22087
 20
972.900566
 30
0.0
 11
1001.06888
 21
308.358466
 31
0.0
  0
TEXT
  5
41C
100
AcDbEntity
  8
ETC
  6
CONTINUOUS
 62
    61
100
AcDbText
 10
517.023295
 20
1660.987872
 30
0.0
 40
64.0
  1
MPE-RP112_160CA2(F-BOX)_5
 41
0.9
100
AcDbText
  0
LINE
  5
41D
100
AcDbEntity
  8
SIZE
  6
CONTINUOUS
 62
    30
100
AcDbLine
 10
1952.22087
 20
40.73018
 30
0.0
 11
1068.22087
 21
40.73018
 31
0.0
  0
LINE
  5
41E
100
AcDbEntity
  8
SIZE
  6
CONTINUOUS
 62
    30
100
AcDbLine
 10
974.220932
 20
1493.412695
 30
0.0
 11
1952.22087
 21
1493.412695
 31
0.0
  0
LINE
  5
41F
100
AcDbEntity
  8
SIZE
  6
CONTINUOUS
 62
    30
100
AcDbLine
 10
1923.22087
 20
1376.636877
 30
0.0
 11
1096.220986
 21
1376.636877
 31
0.0
  0
LINE
  5
420
100
AcDbEntity
  8
DETAIL
  6
CONTINUOUS
 62
     5
100
AcDbLine
 10
988.220932
 20
1024.900566
 30
0.0
 11
1933.22087
 21
1024.900566
 31
0.0
  0
LINE
  5
421
100
AcDbEntity
  8
DETAIL
  6
CONTINUOUS
 62
     5
100
AcDbLine
 10
1058.22087
 20
644.900566
 30
0.0
 11
1933.22087
 21
644.900566
 31
0.0
  0
LINE
  5
422
100
AcDbEntity
  8
OUTLINE
  6
CONTINUOUS
 62
     3
100
AcDbLine
 10
1058.420926
 20
644.900566
 30
0.0
 11
1933.22087
 21
644.900566
 31
0.0
  0
LINE
  5
423
100
AcDbEntity
  8
OUTLINE
  6
CONTINUOUS
 62
     3
100
AcDbLine
 10
1058.420926
 20
644.900566
 30
0.0
 11
1933.22087
 21
644.900566
 31
0.0
  0
LINE
  5
424
100
AcDbEntity
  8
OUTLINE
  6
CONTINUOUS
 62
     3
100
AcDbLine
 10
988.220932
 20
1024.900566
 30
0.0
 11
1933.22087
 21
1024.900566
 31
0.0
  0
LINE
  5
425
100
AcDbEntity
  8
DETAIL
  6
CONTINUOUS
 62
     5
100
AcDbLine
 10
1088.420924
 20
1024.900566
 30
0.0
 11
1409.399365
 21
1024.900566
 31
0.0
  0
LINE
  5
426
100
AcDbEntity
  8
DETAIL
  6
CONTINUOUS
 62
     5
100
AcDbLine
 10
1088.420924
 20
1024.900566
 30
0.0
 11
1409.399365
 21
1024.900566
 31
0.0
  0
LINE
  5
427
100
AcDbEntity
  8
DETAIL
  6
CONTINUOUS
 62
     5
100
AcDbLine
 10
1126.720932
 20
1023.500566
 30
0.0
 11
1509.720932
 21
1023.500566
 31
0.0
  0
LINE
  5
428
100
AcDbEntity
  8
DETAIL
  6
CONTINUOUS
 62
     5
100
AcDbLine
 10
1118.420922
 20
679.900566
 30
0.0
 11
1163.420919
 21
679.900566
 31
0.0
  0
LINE
  5
429
100
AcDbEntity
  8
DETAIL
  6
CONTINUOUS
 62
     5
100
AcDbLine
 10
1191.763301
 20
659.272712
 30
0.0
 11
1104.960478
 21
762.720287
 31
0.0
  0
ARC
  5
42A
100
AcDbEntity
  8
DETAIL
  6
CONTINUOUS
 62
     5
100
AcDbCircle
 10
1295.420911
 20
845.700577
 30
0.0
 40
177.999989
100
AcDbArc
 50
201.043339
 51
270.0
  0
LINE
  5
42B
100
AcDbEntity
  8
DETAIL
  6
CONTINUOUS
 62
     5
100
AcDbLine
 10
1126.720932
 20
781.785406
 30
0.0
 11
1509.720932
 21
781.785406
 31
0.0
  0
LINE
  5
42C
100
AcDbEntity
  8
NOTE
  6
CONTINUOUS
 62
     4
100
AcDbLine
 10
974.220931
 20
704.900566
 30
0.0
 11
416.100643
 21
1041.27544
 31
0.0
  0
LINE
  5
42D
100
AcDbEntity
  8
SERVICESPACE
  6
DASHDOT
 62
     2
100
AcDbLine
 10
988.220932
 20
624.900566
 30
0.0
 11
988.220932
 21
1044.900566
 31
0.0
  0
LINE
  5
42E
100
AcDbEntity
  8
SIZE
  6
CONTINUOUS
 62
    30
100
AcDbLine
 10
705.717866
 20
954.900566
 30
0.0
 11
705.717866
 21
1427.142771
 31
0.0
  0
LINE
  5
42F
100
AcDbEntity
  8
SIZE
  6
CONTINUOUS
 62
    30
100
AcDbLine
 10
964.220932
 20
1019.900566
 30
0.0
 11
964.220932
 21
1523.412695
 31
0.0
  0
LINE
  5
430
100
AcDbEntity
  8
SIZE
  6
CONTINUOUS
 62
    30
100
AcDbLine
 10
964.220932
 20
1019.900566
 30
0.0
 11
964.220932
 21
1406.636877
 31
0.0
  0
LINE
  5
431
100
AcDbEntity
  8
SIZE
  6
CONTINUOUS
 62
    30
100
AcDbLine
 10
974.220931
 20
983.968596
 30
0.0
 11
974.220931
 21
1121.084124
 31
0.0
  0
LINE
  5
432
100
AcDbEntity
  8
SIZE
  6
CONTINUOUS
 62
    30
100
AcDbLine
 10
964.220932
 20
1019.900566
 30
0.0
 11
964.220932
 21
1121.084124
 31
0.0
  0
LINE
  5
433
100
AcDbEntity
  8
DETAIL
  6
CONTINUOUS
 62
     5
100
AcDbLine
 10
1126.720932
 20
1023.500566
 30
0.0
 11
1126.720932
 21
781.785406
 31
0.0
  0
LINE
  5
434
100
AcDbEntity
  8
OUTLINE
  6
CONTINUOUS
 62
     3
100
AcDbLine
 10
988.220932
 20
1024.900566
 30
0.0
 11
988.220993
 21
644.900566
 31
0.0
  0
LINE
  5
435
100
AcDbEntity
  8
DETAIL
  6
CONTINUOUS
 62
     5
100
AcDbLine
 10
988.220932
 20
659.900566
 30
0.0
 11
988.220932
 21
1024.900566
 31
0.0
  0
LINE
  5
436
100
AcDbEntity
  8
DETAIL
  6
CONTINUOUS
 62
     5
100
AcDbLine
 10
1086.220986
 20
1024.900566
 30
0.0
 11
1086.220986
 21
685.900566
 31
0.0
  0
LINE
  5
437
100
AcDbEntity
  8
SIZE
  6
CONTINUOUS
 62
    30
100
AcDbLine
 10
988.220932
 20
604.900566
 30
0.0
 11
988.220932
 21
407.830793
 31
0.0
  0
LINE
  5
438
100
AcDbEntity
  8
SIZE
  6
CONTINUOUS
 62
    30
100
AcDbLine
 10
1088.220932
 20
645.900566
 30
0.0
 11
1088.220932
 21
114.434671
 31
0.0
  0
LINE
  5
439
100
AcDbEntity
  8
SIZE
  6
CONTINUOUS
 62
    30
100
AcDbLine
 10
1058.22087
 20
624.900566
 30
0.0
 11
1058.22087
 21
10.73018
 31
0.0
  0
TEXT
  5
43A
100
AcDbEntity
  8
NOTE
  6
CONTINUOUS
 62
     4
100
AcDbText
 10
338.689468
 20
224.000446
 30
0.0
 40
64.0
  1
（別売ﾄﾞﾚﾝｱｯﾌﾟﾒｶ使用時）
 41
0.8
100
AcDbText
  0
POINT
  5
43B
100
AcDbEntity
  8
DEFPOINTS
  6
CONTINUOUS
 62
     7
100
AcDbPoint
 10
1058.22087
 20
40.73018
 30
0.0
  0
LINE
  5
43C
100
AcDbEntity
  8
SIZE
  6
CONTINUOUS
 62
    30
100
AcDbLine
 10
1063.22087
 20
40.73018
 30
0.0
 11
1068.22087
 21
40.73018
 31
0.0
  0
CIRCLE
  5
43D
100
AcDbEntity
  8
SIZE
  6
CONTINUOUS
 62
    30
100
AcDbCircle
 10
1058.22087
 20
40.73018
 30
0.0
 40
5.0
  0
TEXT
  5
43E
100
AcDbEntity
  8
NOTE
  6
CONTINUOUS
 62
     4
100
AcDbText
 10
859.700837
 20
326.086068
 30
0.0
 40
64.0
  1
D2
 41
0.9
100
AcDbText
  0
LINE
  5
43F
100
AcDbEntity
  8
NOTE
  6
CONTINUOUS
 62
     4
100
AcDbLine
 10
1001.06888
 20
308.358466
 30
0.0
 11
805.030036
 21
308.358466
 31
0.0
  0
LINE
  5
440
100
AcDbEntity
  8
SIZE
  6
CONTINUOUS
 62
    30
100
AcDbLine
 10
1093.220932
 20
144.434671
 30
0.0
 11
1098.220932
 21
144.434671
 31
0.0
  0
CIRCLE
  5
441
100
AcDbEntity
  8
SIZE
  6
CONTINUOUS
 62
    30
100
AcDbCircle
 10
1088.220932
 20
144.434671
 30
0.0
 40
5.0
  0
TEXT
  5
442
100
AcDbEntity
  8
SIZE
  6
CONTINUOUS
 62
    30
100
AcDbText
 10
635.106646
 20
452.830793
 30
0.0
 40
55.0
  1
200～300
 41
0.9
 72
     1
 11
799.163789
 21
452.830793
 31
0.0
100
AcDbText
  0
LINE
  5
443
100
AcDbEntity
  8
SIZE
  6
CONTINUOUS
 62
    30
100
AcDbLine
 10
988.220932
 20
437.830793
 30
0.0
 11
620.106646
 21
437.830793
 31
0.0
  0
TEXT
  5
444
100
AcDbEntity
  8
SIZE
  6
CONTINUOUS
 62
    30
100
AcDbText
 10
690.717866
 20
542.374023
 30
0.0
 40
55.0
  1
45
 50
90.0
 41
0.9
 72
     1
 11
690.717866
 21
582.445452
 31
0.0
100
AcDbText
  0
LINE
  5
445
100
AcDbEntity
  8
SIZE
  6
CONTINUOUS
 62
    30
100
AcDbLine
 10
943.056751
 20
659.900566
 30
0.0
 11
675.717866
 21
659.900566
 31
0.0
  0
LINE
  5
446
100
AcDbEntity
  8
SIZE
  6
CONTINUOUS
 62
    30
100
AcDbLine
 10
943.988782
 20
704.900566
 30
0.0
 11
675.717866
 21
704.900566
 31
0.0
  0
LINE
  5
447
100
AcDbEntity
  8
SIZE
  6
CONTINUOUS
 62
    30
100
AcDbLine
 10
944.220932
 20
999.900566
 30
0.0
 11
538.744942
 21
999.900566
 31
0.0
  0
LINE
  5
448
100
AcDbEntity
  8
SIZE
  6
CONTINUOUS
 62
    30
100
AcDbLine
 10
944.220932
 20
659.900566
 30
0.0
 11
538.744942
 21
659.900566
 31
0.0
  0
LINE
  5
449
100
AcDbEntity
  8
SIZE
  6
CONTINUOUS
 62
    30
100
AcDbLine
 10
944.220932
 20
659.900566
 30
0.0
 11
538.744942
 21
659.900566
 31
0.0
  0
LINE
  5
44A
100
AcDbEntity
  8
SIZE
  6
CONTINUOUS
 62
    30
100
AcDbLine
 10
1038.420926
 20
644.900566
 30
0.0
 11
538.744942
 21
644.900566
 31
0.0
  0
LINE
  5
44B
100
AcDbEntity
  8
SIZE
  6
CONTINUOUS
 62
    30
100
AcDbLine
 10
945.152901
 20
704.900566
 30
0.0
 11
675.717866
 21
704.900566
 31
0.0
  0
LINE
  5
44C
100
AcDbEntity
  8
SIZE
  6
CONTINUOUS
 62
    30
100
AcDbLine
 10
945.152901
 20
954.900566
 30
0.0
 11
675.717866
 21
954.900566
 31
0.0
  0
LINE
  5
44D
100
AcDbEntity
  8
SIZE
  6
CONTINUOUS
 62
    30
100
AcDbLine
 10
568.744942
 20
669.900566
 30
0.0
 11
568.744942
 21
989.900566
 31
0.0
  0
TEXT
  5
44E
100
AcDbEntity
  8
SIZE
  6
CONTINUOUS
 62
    30
100
AcDbText
 10
553.744942
 20
539.18628
 30
0.0
 40
55.0
  1
15
 50
90.0
 41
0.9
 72
     1
 11
553.744942
 21
574.543423
 31
0.0
100
AcDbText
  0
LINE
  5
44F
100
AcDbEntity
  8
SIZE
  6
CONTINUOUS
 62
    30
100
AcDbLine
 10
568.744942
 20
634.900566
 30
0.0
 11
568.744942
 21
524.18628
 31
0.0
  0
CIRCLE
  5
450
100
AcDbEntity
  8
SIZE
  6
CONTINUOUS
 62
    30
100
AcDbCircle
 10
568.744942
 20
659.900566
 30
0.0
 40
5.0
  0
CIRCLE
  5
451
100
AcDbEntity
  8
SIZE
  6
CONTINUOUS
 62
    30
100
AcDbCircle
 10
568.744942
 20
644.900566
 30
0.0
 40
5.0
  0
CIRCLE
  5
452
100
AcDbEntity
  8
SIZE
  6
CONTINUOUS
 62
    30
100
AcDbCircle
 10
568.744942
 20
659.900566
 30
0.0
 40
5.0
  0
LINE
  5
453
100
AcDbEntity
  8
SIZE
  6
CONTINUOUS
 62
    30
100
AcDbLine
 10
568.744942
 20
664.900566
 30
0.0
 11
568.744942
 21
669.900566
 31
0.0
  0
POINT
  5
454
100
AcDbEntity
  8
DEFPOINTS
  6
CONTINUOUS
 62
     7
100
AcDbPoint
 10
568.744942
 20
659.900566
 30
0.0
  0
LINE
  5
455
100
AcDbEntity
  8
SIZE
  6
CONTINUOUS
 62
    30
100
AcDbLine
 10
568.744942
 20
639.900566
 30
0.0
 11
568.744942
 21
634.900566
 31
0.0
  0
LINE
  5
456
100
AcDbEntity
  8
SIZE
  6
CONTINUOUS
 62
    30
100
AcDbLine
 10
568.744942
 20
664.900566
 30
0.0
 11
568.744942
 21
669.900566
 31
0.0
  0
LINE
  5
457
100
AcDbEntity
  8
SIZE
  6
CONTINUOUS
 62
    30
100
AcDbLine
 10
568.744942
 20
659.900566
 30
0.0
 11
568.744942
 21
644.900566
 31
0.0
  0
LINE
  5
458
100
AcDbEntity
  8
SIZE
  6
CONTINUOUS
 62
    30
100
AcDbLine
 10
568.744942
 20
669.900566
 30
0.0
 11
568.744942
 21
679.900566
 31
0.0
  0
TEXT
  5
459
100
AcDbEntity
  8
SIZE
  6
CONTINUOUS
 62
    30
100
AcDbText
 10
553.744942
 20
766.257709
 30
0.0
 40
55.0
  1
340
 50
90.0
 41
0.9
 72
     1
 11
553.744942
 21
829.900566
 31
0.0
100
AcDbText
  0
CIRCLE
  5
45A
100
AcDbEntity
  8
SIZE
  6
CONTINUOUS
 62
    30
100
AcDbCircle
 10
568.744942
 20
999.900566
 30
0.0
 40
5.0
  0
POINT
  5
45B
100
AcDbEntity
  8
DEFPOINTS
  6
CONTINUOUS
 62
     7
100
AcDbPoint
 10
568.744942
 20
999.900566
 30
0.0
  0
LINE
  5
45C
100
AcDbEntity
  8
SIZE
  6
CONTINUOUS
 62
    30
100
AcDbLine
 10
568.744942
 20
994.900566
 30
0.0
 11
568.744942
 21
989.900566
 31
0.0
  0
POLYLINE
  5
45D
100
AcDbEntity
  8
NOTE
  6
CONTINUOUS
 62
     4
100
AcDb2dPolyline
 66
     1
 10
0.0
 20
0.0
 30
0.0
  0
VERTEX
  5
45E
100
AcDbEntity
  8
NOTE
  6
CONTINUOUS
 62
     4
100
AcDbVertex
100
AcDb2dVertex
 10
935.769227
 20
715.921749
 30
0.0
  0
VERTEX
  5
45F
100
AcDbEntity
  8
NOTE
  6
CONTINUOUS
 62
     4
100
AcDbVertex
100
AcDb2dVertex
 10
974.220931
 20
704.900566
 30
0.0
  0
VERTEX
  5
460
100
AcDbEntity
  8
NOTE
  6
CONTINUOUS
 62
     4
100
AcDbVertex
100
AcDb2dVertex
 10
946.43137
 20
733.671042
 30
0.0
  0
SEQEND
  5
461
100
AcDbEntity
  8
NOTE
  6
CONTINUOUS
 62
     4
  0
LINE
  5
462
100
AcDbEntity
  8
SIZE
  6
CONTINUOUS
 62
    30
100
AcDbLine
 10
705.717866
 20
714.900566
 30
0.0
 11
705.717866
 21
724.900566
 31
0.0
  0
LINE
  5
463
100
AcDbEntity
  8
SIZE
  6
CONTINUOUS
 62
    30
100
AcDbLine
 10
863.715792
 20
744.900566
 30
0.0
 11
863.715792
 21
714.900566
 31
0.0
  0
LINE
  5
464
100
AcDbEntity
  8
SIZE
  6
CONTINUOUS
 62
    30
100
AcDbLine
 10
705.717866
 20
714.900566
 30
0.0
 11
705.717866
 21
944.900566
 31
0.0
  0
LINE
  5
465
100
AcDbEntity
  8
DETAIL
  6
CONTINUOUS
 62
     5
100
AcDbLine
 10
1083.420924
 20
707.900585
 30
0.0
 11
1083.420924
 21
982.300569
 31
0.0
  0
LINE
  5
466
100
AcDbEntity
  8
DETAIL
  6
CONTINUOUS
 62
     5
100
AcDbLine
 10
964.220932
 20
659.900566
 30
0.0
 11
964.220932
 21
999.900566
 31
0.0
  0
LINE
  5
467
100
AcDbEntity
  8
DETAIL
  6
CONTINUOUS
 62
     5
100
AcDbLine
 10
964.220932
 20
669.400588
 30
0.0
 11
964.220932
 21
999.900566
 31
0.0
  0
LINE
  5
468
100
AcDbEntity
  8
SIZE
  6
CONTINUOUS
 62
    30
100
AcDbLine
 10
945.152901
 20
704.900566
 30
0.0
 11
833.715792
 21
704.900566
 31
0.0
  0
LINE
  5
469
100
AcDbEntity
  8
SIZE
  6
CONTINUOUS
 62
    30
100
AcDbLine
 10
705.717866
 20
527.374024
 30
0.0
 11
705.717866
 21
659.900566
 31
0.0
  0
TEXT
  5
46A
100
AcDbEntity
  8
SIZE
  6
CONTINUOUS
 62
    30
100
AcDbText
 10
848.715792
 20
544.151154
 30
0.0
 40
55.0
  1
50
 50
90.0
 41
0.9
 72
     1
 11
848.715792
 21
584.222583
 31
0.0
100
AcDbText
  0
LINE
  5
46B
100
AcDbEntity
  8
SIZE
  6
CONTINUOUS
 62
    30
100
AcDbLine
 10
863.715792
 20
704.900566
 30
0.0
 11
863.715792
 21
529.151154
 31
0.0
  0
POINT
  5
46C
100
AcDbEntity
  8
DEFPOINTS
  6
CONTINUOUS
 62
     7
100
AcDbPoint
 10
705.717866
 20
659.900566
 30
0.0
  0
LINE
  5
46D
100
AcDbEntity
  8
SIZE
  6
CONTINUOUS
 62
    30
100
AcDbLine
 10
705.717866
 20
654.900566
 30
0.0
 11
705.717866
 21
649.900566
 31
0.0
  0
CIRCLE
  5
46E
100
AcDbEntity
  8
SIZE
  6
CONTINUOUS
 62
    30
100
AcDbCircle
 10
705.717866
 20
659.900566
 30
0.0
 40
5.0
  0
LINE
  5
46F
100
AcDbEntity
  8
SIZE
  6
CONTINUOUS
 62
    30
100
AcDbLine
 10
705.717866
 20
709.900566
 30
0.0
 11
705.717866
 21
714.900566
 31
0.0
  0
CIRCLE
  5
470
100
AcDbEntity
  8
SIZE
  6
CONTINUOUS
 62
    30
100
AcDbCircle
 10
705.717866
 20
704.900566
 30
0.0
 40
5.0
  0
LINE
  5
471
100
AcDbEntity
  8
SIZE
  6
CONTINUOUS
 62
    30
100
AcDbLine
 10
705.717866
 20
704.900566
 30
0.0
 11
705.717866
 21
659.900566
 31
0.0
  0
LINE
  5
472
100
AcDbEntity
  8
SIZE
  6
CONTINUOUS
 62
    30
100
AcDbLine
 10
705.717866
 20
704.900566
 30
0.0
 11
705.717866
 21
659.900566
 31
0.0
  0
LINE
  5
473
100
AcDbEntity
  8
SIZE
  6
CONTINUOUS
 62
    30
100
AcDbLine
 10
705.717866
 20
649.900566
 30
0.0
 11
705.717866
 21
639.900566
 31
0.0
  0
POINT
  5
474
100
AcDbEntity
  8
DEFPOINTS
  6
CONTINUOUS
 62
     7
100
AcDbPoint
 10
705.717866
 20
704.900566
 30
0.0
  0
LINE
  5
475
100
AcDbEntity
  8
SIZE
  6
CONTINUOUS
 62
    30
100
AcDbLine
 10
705.717866
 20
709.900566
 30
0.0
 11
705.717866
 21
714.900566
 31
0.0
  0
CIRCLE
  5
476
100
AcDbEntity
  8
SIZE
  6
CONTINUOUS
 62
    30
100
AcDbCircle
 10
705.717866
 20
704.900566
 30
0.0
 40
5.0
  0
LINE
  5
477
100
AcDbEntity
  8
SIZE
  6
CONTINUOUS
 62
    30
100
AcDbLine
 10
863.715792
 20
709.900566
 30
0.0
 11
863.715792
 21
714.900566
 31
0.0
  0
CIRCLE
  5
478
100
AcDbEntity
  8
SIZE
  6
CONTINUOUS
 62
    30
100
AcDbCircle
 10
863.715792
 20
704.900566
 30
0.0
 40
5.0
  0
LINE
  5
479
100
AcDbEntity
  8
SIZE
  6
CONTINUOUS
 62
    30
100
AcDbLine
 10
993.220932
 20
437.830793
 30
0.0
 11
998.220932
 21
437.830793
 31
0.0
  0
CIRCLE
  5
47A
100
AcDbEntity
  8
SIZE
  6
CONTINUOUS
 62
    30
100
AcDbCircle
 10
988.220932
 20
437.830793
 30
0.0
 40
5.0
  0
LINE
  5
47B
100
AcDbEntity
  8
OUTLINE
  6
CONTINUOUS
 62
     3
100
AcDbLine
 10
989.220992
 20
659.900566
 30
0.0
 11
1058.22087
 21
659.900566
 31
0.0
  0
LINE
  5
47C
100
AcDbEntity
  8
DETAIL
  6
CONTINUOUS
 62
     5
100
AcDbLine
 10
988.220985
 20
693.900586
 30
0.0
 11
1074.289554
 21
693.900586
 31
0.0
  0
LINE
  5
47D
100
AcDbEntity
  8
DETAIL
  6
CONTINUOUS
 62
     5
100
AcDbLine
 10
988.220993
 20
659.900566
 30
0.0
 11
1058.22087
 21
659.900566
 31
0.0
  0
POINT
  5
47E
100
AcDbEntity
  8
DEFPOINTS
  6
CONTINUOUS
 62
     7
100
AcDbPoint
 10
988.220932
 20
624.900566
 30
0.0
  0
POINT
  5
47F
100
AcDbEntity
  8
DEFPOINTS
  6
CONTINUOUS
 62
     7
100
AcDbPoint
 10
963.056751
 20
659.900566
 30
0.0
  0
POINT
  5
480
100
AcDbEntity
  8
DEFPOINTS
  6
CONTINUOUS
 62
     7
100
AcDbPoint
 10
963.988782
 20
704.900566
 30
0.0
  0
POINT
  5
481
100
AcDbEntity
  8
DEFPOINTS
  6
CONTINUOUS
 62
     7
100
AcDbPoint
 10
965.152901
 20
704.900566
 30
0.0
  0
POINT
  5
482
100
AcDbEntity
  8
DEFPOINTS
  6
CONTINUOUS
 62
     7
100
AcDbPoint
 10
964.220932
 20
659.900566
 30
0.0
  0
POINT
  5
483
100
AcDbEntity
  8
DEFPOINTS
  6
CONTINUOUS
 62
     7
100
AcDbPoint
 10
964.220932
 20
659.900566
 30
0.0
  0
POINT
  5
484
100
AcDbEntity
  8
DEFPOINTS
  6
CONTINUOUS
 62
     7
100
AcDbPoint
 10
965.152901
 20
704.900566
 30
0.0
  0
LINE
  5
485
100
AcDbEntity
  8
OUTLINE
  6
CONTINUOUS
 62
     3
100
AcDbLine
 10
989.220992
 20
659.900566
 30
0.0
 11
989.220992
 21
644.900566
 31
0.0
  0
LINE
  5
486
100
AcDbEntity
  8
DETAIL
  6
CONTINUOUS
 62
     5
100
AcDbLine
 10
988.220993
 20
644.900566
 30
0.0
 11
989.220992
 21
644.900566
 31
0.0
  0
LINE
  5
487
100
AcDbEntity
  8
OUTLINE
  6
CONTINUOUS
 62
     3
100
AcDbLine
 10
988.220993
 20
644.900566
 30
0.0
 11
989.220992
 21
644.900566
 31
0.0
  0
CIRCLE
  5
488
100
AcDbEntity
  8
DETAIL
  6
CONTINUOUS
 62
     5
100
AcDbCircle
 10
974.220931
 20
704.900566
 30
0.0
 40
1.55
  0
LINE
  5
489
100
AcDbEntity
  8
NOTE
  6
CONTINUOUS
 62
     4
100
AcDbLine
 10
983.288961
 20
704.900566
 30
0.0
 11
965.152901
 21
704.900566
 31
0.0
  0
LINE
  5
48A
100
AcDbEntity
  8
NOTE
  6
CONTINUOUS
 62
     4
100
AcDbLine
 10
974.220931
 20
713.968596
 30
0.0
 11
974.220931
 21
695.832536
 31
0.0
  0
LINE
  5
48B
100
AcDbEntity
  8
DETAIL
  6
CONTINUOUS
 62
     5
100
AcDbLine
 10
988.220993
 20
644.900566
 30
0.0
 11
988.220993
 21
662.200567
 31
0.0
  0
LINE
  5
48C
100
AcDbEntity
  8
DETAIL
  6
CONTINUOUS
 62
     5
100
AcDbLine
 10
989.220992
 20
659.900566
 30
0.0
 11
989.220992
 21
644.900566
 31
0.0
  0
LINE
  5
48D
100
AcDbEntity
  8
DETAIL
  6
CONTINUOUS
 62
     5
100
AcDbLine
 10
964.22087
 20
659.900566
 30
0.0
 11
989.420869
 21
659.900566
 31
0.0
  0
POINT
  5
48E
100
AcDbEntity
  8
DEFPOINTS
  6
CONTINUOUS
 62
     7
100
AcDbPoint
 10
1088.220932
 20
665.900566
 30
0.0
  0
POINT
  5
48F
100
AcDbEntity
  8
DEFPOINTS
  6
CONTINUOUS
 62
     7
100
AcDbPoint
 10
1058.420926
 20
644.900566
 30
0.0
  0
POINT
  5
490
100
AcDbEntity
  8
DEFPOINTS
  6
CONTINUOUS
 62
     7
100
AcDbPoint
 10
1058.22087
 20
644.900566
 30
0.0
  0
LINE
  5
491
100
AcDbEntity
  8
OUTLINE
  6
CONTINUOUS
 62
     3
100
AcDbLine
 10
1058.22087
 20
644.900566
 30
0.0
 11
1058.420926
 21
644.900566
 31
0.0
  0
LINE
  5
492
100
AcDbEntity
  8
OUTLINE
  6
CONTINUOUS
 62
     3
100
AcDbLine
 10
1058.22087
 20
659.900566
 30
0.0
 11
1058.22087
 21
644.900566
 31
0.0
  0
LINE
  5
493
100
AcDbEntity
  8
DETAIL
  6
CONTINUOUS
 62
     5
100
AcDbLine
 10
1058.22087
 20
644.900566
 30
0.0
 11
1058.22087
 21
685.900566
 31
0.0
  0
CIRCLE
  5
494
100
AcDbEntity
  8
FIX
  6
CONTINUOUS
 62
    11
100
AcDbCircle
 10
1088.220932
 20
685.900566
 30
0.0
 40
5.0
  0
LINE
  5
495
100
AcDbEntity
  8
NOTE
  6
CONTINUOUS
 62
     4
100
AcDbLine
 10
1088.220932
 20
665.900566
 30
0.0
 11
1088.220932
 21
705.900566
 31
0.0
  0
LINE
  5
496
100
AcDbEntity
  8
NOTE
  6
CONTINUOUS
 62
     4
100
AcDbLine
 10
1108.220932
 20
685.900566
 30
0.0
 11
1068.220932
 21
685.900566
 31
0.0
  0
ARC
  5
497
100
AcDbEntity
  8
DETAIL
  6
CONTINUOUS
 62
     5
100
AcDbCircle
 10
1115.420922
 20
676.900567
 30
0.0
 40
3.0
100
AcDbArc
 50
270.0
 51
0.0
  0
LINE
  5
498
100
AcDbEntity
  8
DETAIL
  6
CONTINUOUS
 62
     5
100
AcDbLine
 10
1118.420922
 20
676.900567
 30
0.0
 11
1118.420922
 21
685.900566
 31
0.0
  0
ARC
  5
499
100
AcDbEntity
  8
DETAIL
  6
CONTINUOUS
 62
     5
100
AcDbCircle
 10
1115.420922
 20
676.900567
 30
0.0
 40
3.0
100
AcDbArc
 50
270.0
 51
0.0
  0
LINE
  5
49A
100
AcDbEntity
  8
DETAIL
  6
CONTINUOUS
 62
     5
100
AcDbLine
 10
1118.420922
 20
676.900567
 30
0.0
 11
1118.420922
 21
685.900566
 31
0.0
  0
CIRCLE
  5
49B
100
AcDbEntity
  8
DETAIL
  6
CONTINUOUS
 62
     5
100
AcDbCircle
 10
1113.420922
 20
665.900567
 30
0.0
 40
3.5
  0
CIRCLE
  5
49C
100
AcDbEntity
  8
DETAIL
  6
CONTINUOUS
 62
     5
100
AcDbCircle
 10
1113.420922
 20
665.900567
 30
0.0
 40
3.5
  0
ARC
  5
49D
100
AcDbEntity
  8
DETAIL
  6
CONTINUOUS
 62
     5
100
AcDbCircle
 10
1097.420923
 20
676.900567
 30
0.0
 40
3.0
100
AcDbArc
 50
180.0
 51
270.0
  0
LINE
  5
49E
100
AcDbEntity
  8
DETAIL
  6
CONTINUOUS
 62
     5
100
AcDbLine
 10
1094.420924
 20
685.900566
 30
0.0
 11
1094.420924
 21
676.900567
 31
0.0
  0
ARC
  5
49F
100
AcDbEntity
  8
DETAIL
  6
CONTINUOUS
 62
     5
100
AcDbCircle
 10
1079.420924
 20
676.900567
 30
0.0
 40
3.0
100
AcDbArc
 50
270.0
 51
0.0
  0
LINE
  5
4A0
100
AcDbEntity
  8
DETAIL
  6
CONTINUOUS
 62
     5
100
AcDbLine
 10
1082.420924
 20
685.900566
 30
0.0
 11
1082.420924
 21
676.900567
 31
0.0
  0
LINE
  5
4A1
100
AcDbEntity
  8
DETAIL
  6
CONTINUOUS
 62
     5
100
AcDbLine
 10
1082.420924
 20
683.600566
 30
0.0
 11
1094.420924
 21
683.600566
 31
0.0
  0
ARC
  5
4A2
100
AcDbEntity
  8
DETAIL
  6
CONTINUOUS
 62
     5
100
AcDbCircle
 10
1079.420924
 20
676.900567
 30
0.0
 40
3.0
100
AcDbArc
 50
270.0
 51
0.0
  0
LINE
  5
4A3
100
AcDbEntity
  8
DETAIL
  6
CONTINUOUS
 62
     5
100
AcDbLine
 10
1082.420924
 20
685.900566
 30
0.0
 11
1082.420924
 21
676.900567
 31
0.0
  0
ARC
  5
4A4
100
AcDbEntity
  8
DETAIL
  6
CONTINUOUS
 62
     5
100
AcDbCircle
 10
1097.420923
 20
676.900567
 30
0.0
 40
3.0
100
AcDbArc
 50
180.0
 51
270.0
  0
LINE
  5
4A5
100
AcDbEntity
  8
DETAIL
  6
CONTINUOUS
 62
     5
100
AcDbLine
 10
1094.420924
 20
685.900566
 30
0.0
 11
1094.420924
 21
676.900567
 31
0.0
  0
LINE
  5
4A6
100
AcDbEntity
  8
DETAIL
  6
CONTINUOUS
 62
     5
100
AcDbLine
 10
1082.420924
 20
683.600566
 30
0.0
 11
1094.420924
 21
683.600566
 31
0.0
  0
LINE
  5
4A7
100
AcDbEntity
  8
DETAIL
  6
CONTINUOUS
 62
     5
100
AcDbLine
 10
1077.289554
 20
704.900586
 30
0.0
 11
1078.420925
 21
704.900586
 31
0.0
  0
LINE
  5
4A8
100
AcDbEntity
  8
DETAIL
  6
CONTINUOUS
 62
     5
100
AcDbLine
 10
1080.420924
 20
704.900586
 30
0.0
 11
1083.420924
 21
707.900585
 31
0.0
  0
LINE
  5
4A9
100
AcDbEntity
  8
DETAIL
  6
CONTINUOUS
 62
     5
100
AcDbLine
 10
1077.289554
 20
704.900586
 30
0.0
 11
1077.289554
 21
704.100586
 31
0.0
  0
LINE
  5
4AA
100
AcDbEntity
  8
DETAIL
  6
CONTINUOUS
 62
     5
100
AcDbLine
 10
1077.289554
 20
696.900586
 30
0.0
 11
1074.289554
 21
693.900586
 31
0.0
  0
LINE
  5
4AB
100
AcDbEntity
  8
DETAIL
  6
CONTINUOUS
 62
     5
100
AcDbLine
 10
1078.420925
 20
704.900586
 30
0.0
 11
1080.420924
 21
704.900586
 31
0.0
  0
LINE
  5
4AC
100
AcDbEntity
  8
DETAIL
  6
CONTINUOUS
 62
     5
100
AcDbLine
 10
1077.289554
 20
704.100586
 30
0.0
 11
1077.289554
 21
696.900586
 31
0.0
  0
ARC
  5
4AD
100
AcDbEntity
  8
DETAIL
  6
CONTINUOUS
 62
     5
100
AcDbCircle
 10
1061.420926
 20
676.900567
 30
0.0
 40
3.0
100
AcDbArc
 50
180.0
 51
270.0
  0
CIRCLE
  5
4AE
100
AcDbEntity
  8
DETAIL
  6
CONTINUOUS
 62
     5
100
AcDbCircle
 10
1028.789557
 20
701.900586
 30
0.0
 40
4.0
  0
LINE
  5
4AF
100
AcDbEntity
  8
DETAIL
  6
CONTINUOUS
 62
     5
100
AcDbLine
 10
1029.289557
 20
701.400586
 30
0.0
 11
1031.747596
 21
701.400586
 31
0.0
  0
LINE
  5
4B0
100
AcDbEntity
  8
DETAIL
  6
CONTINUOUS
 62
     5
100
AcDbLine
 10
1028.289557
 20
702.400586
 30
0.0
 11
1028.289557
 21
704.858625
 31
0.0
  0
LINE
  5
4B1
100
AcDbEntity
  8
DETAIL
  6
CONTINUOUS
 62
     5
100
AcDbLine
 10
1029.289557
 20
702.400586
 30
0.0
 11
1029.289557
 21
704.858625
 31
0.0
  0
LINE
  5
4B2
100
AcDbEntity
  8
DETAIL
  6
CONTINUOUS
 62
     5
100
AcDbLine
 10
1029.289557
 20
702.400586
 30
0.0
 11
1031.747596
 21
702.400586
 31
0.0
  0
LINE
  5
4B3
100
AcDbEntity
  8
DETAIL
  6
CONTINUOUS
 62
     5
100
AcDbLine
 10
1025.831517
 20
702.400586
 30
0.0
 11
1028.289557
 21
702.400586
 31
0.0
  0
LINE
  5
4B4
100
AcDbEntity
  8
DETAIL
  6
CONTINUOUS
 62
     5
100
AcDbLine
 10
1025.831517
 20
701.400586
 30
0.0
 11
1028.289557
 21
701.400586
 31
0.0
  0
LINE
  5
4B5
100
AcDbEntity
  8
DETAIL
  6
CONTINUOUS
 62
     5
100
AcDbLine
 10
1028.289557
 20
698.942546
 30
0.0
 11
1028.289557
 21
701.400586
 31
0.0
  0
LINE
  5
4B6
100
AcDbEntity
  8
DETAIL
  6
CONTINUOUS
 62
     5
100
AcDbLine
 10
1029.289557
 20
698.942546
 30
0.0
 11
1029.289557
 21
701.400586
 31
0.0
  0
CIRCLE
  5
4B7
100
AcDbEntity
  8
DETAIL
  6
CONTINUOUS
 62
     5
100
AcDbCircle
 10
1028.789557
 20
701.900586
 30
0.0
 40
6.5
  0
CIRCLE
  5
4B8
100
AcDbEntity
  8
DETAIL
  6
CONTINUOUS
 62
     5
100
AcDbCircle
 10
1028.789557
 20
701.900586
 30
0.0
 40
3.0
  0
LINE
  5
4B9
100
AcDbEntity
  8
DETAIL
  6
CONTINUOUS
 62
     5
100
AcDbLine
 10
1061.420926
 20
673.900567
 30
0.0
 11
1079.420924
 21
673.900567
 31
0.0
  0
CIRCLE
  5
4BA
100
AcDbEntity
  8
DETAIL
  6
CONTINUOUS
 62
     5
100
AcDbCircle
 10
1023.920928
 20
688.600587
 30
0.0
 40
2.5
  0
CIRCLE
  5
4BB
100
AcDbEntity
  8
DETAIL
  6
CONTINUOUS
 62
     5
100
AcDbCircle
 10
1028.789557
 20
701.900586
 30
0.0
 40
7.5
  0
LINE
  5
4BC
100
AcDbEntity
  8
DETAIL
  6
CONTINUOUS
 62
     5
100
AcDbLine
 10
1097.420923
 20
673.900567
 30
0.0
 11
1115.420922
 21
673.900567
 31
0.0
  0
LINE
  5
4BD
100
AcDbEntity
  8
DETAIL
  6
CONTINUOUS
 62
     5
100
AcDbLine
 10
1058.22087
 20
685.900566
 30
0.0
 11
1118.420922
 21
685.900566
 31
0.0
  0
LINE
  5
4BE
100
AcDbEntity
  8
DETAIL
  6
CONTINUOUS
 62
     5
100
AcDbLine
 10
1097.420923
 20
673.900567
 30
0.0
 11
1115.420922
 21
673.900567
 31
0.0
  0
LINE
  5
4BF
100
AcDbEntity
  8
SIZE
  6
CONTINUOUS
 62
    30
100
AcDbLine
 10
945.152901
 20
754.900566
 30
0.0
 11
833.715792
 21
754.900566
 31
0.0
  0
POINT
  5
4C0
100
AcDbEntity
  8
DEFPOINTS
  6
CONTINUOUS
 62
     7
100
AcDbPoint
 10
863.715792
 20
754.900566
 30
0.0
  0
LINE
  5
4C1
100
AcDbEntity
  8
SIZE
  6
CONTINUOUS
 62
    30
100
AcDbLine
 10
863.715792
 20
749.900566
 30
0.0
 11
863.715792
 21
744.900566
 31
0.0
  0
CIRCLE
  5
4C2
100
AcDbEntity
  8
SIZE
  6
CONTINUOUS
 62
    30
100
AcDbCircle
 10
863.715792
 20
754.900566
 30
0.0
 40
5.0
  0
LINE
  5
4C3
100
AcDbEntity
  8
SIZE
  6
CONTINUOUS
 62
    30
100
AcDbLine
 10
705.717866
 20
949.900566
 30
0.0
 11
705.717866
 21
944.900566
 31
0.0
  0
CIRCLE
  5
4C4
100
AcDbEntity
  8
SIZE
  6
CONTINUOUS
 62
    30
100
AcDbCircle
 10
705.717866
 20
954.900566
 30
0.0
 40
5.0
  0
LINE
  5
4C5
100
AcDbEntity
  8
DETAIL
  6
CONTINUOUS
 62
     5
100
AcDbLine
 10
1102.620923
 20
769.148163
 30
0.0
 11
1102.620923
 21
1010.100567
 31
0.0
  0
POINT
  5
4C6
100
AcDbEntity
  8
DEFPOINTS
  6
CONTINUOUS
 62
     7
100
AcDbPoint
 10
965.152901
 20
754.900566
 30
0.0
  0
CIRCLE
  5
4C7
100
AcDbEntity
  8
DETAIL
  6
CONTINUOUS
 62
     5
100
AcDbCircle
 10
974.220931
 20
854.900566
 30
0.0
 40
1.55
  0
LINE
  5
4C8
100
AcDbEntity
  8
NOTE
  6
CONTINUOUS
 62
     4
100
AcDbLine
 10
983.288961
 20
854.900566
 30
0.0
 11
965.152901
 21
854.900566
 31
0.0
  0
LINE
  5
4C9
100
AcDbEntity
  8
NOTE
  6
CONTINUOUS
 62
     4
100
AcDbLine
 10
974.220931
 20
863.968596
 30
0.0
 11
974.220931
 21
845.832536
 31
0.0
  0
CIRCLE
  5
4CA
100
AcDbEntity
  8
DETAIL
  6
CONTINUOUS
 62
     5
100
AcDbCircle
 10
974.220931
 20
804.900566
 30
0.0
 40
1.55
  0
LINE
  5
4CB
100
AcDbEntity
  8
NOTE
  6
CONTINUOUS
 62
     4
100
AcDbLine
 10
983.288961
 20
804.900566
 30
0.0
 11
965.152901
 21
804.900566
 31
0.0
  0
LINE
  5
4CC
100
AcDbEntity
  8
NOTE
  6
CONTINUOUS
 62
     4
100
AcDbLine
 10
974.220931
 20
813.968596
 30
0.0
 11
974.220931
 21
795.832536
 31
0.0
  0
CIRCLE
  5
4CD
100
AcDbEntity
  8
DETAIL
  6
CONTINUOUS
 62
     5
100
AcDbCircle
 10
974.220931
 20
754.900566
 30
0.0
 40
1.55
  0
LINE
  5
4CE
100
AcDbEntity
  8
NOTE
  6
CONTINUOUS
 62
     4
100
AcDbLine
 10
983.288961
 20
754.900566
 30
0.0
 11
965.152901
 21
754.900566
 31
0.0
  0
LINE
  5
4CF
100
AcDbEntity
  8
NOTE
  6
CONTINUOUS
 62
     4
100
AcDbLine
 10
974.220931
 20
763.968596
 30
0.0
 11
974.220931
 21
745.832536
 31
0.0
  0
LINE
  5
4D0
100
AcDbEntity
  8
DETAIL
  6
CONTINUOUS
 62
     5
100
AcDbLine
 10
1126.720932
 20
846.985402
 30
0.0
 11
1121.020922
 21
846.985402
 31
0.0
  0
LINE
  5
4D1
100
AcDbEntity
  8
DETAIL
  6
CONTINUOUS
 62
     5
100
AcDbLine
 10
1126.720932
 20
811.985404
 30
0.0
 11
1121.020922
 21
811.985404
 31
0.0
  0
LINE
  5
4D2
100
AcDbEntity
  8
DETAIL
  6
CONTINUOUS
 62
     5
100
AcDbLine
 10
1116.020922
 20
816.985404
 30
0.0
 11
1116.020922
 21
841.985402
 31
0.0
  0
ARC
  5
4D3
100
AcDbEntity
  8
DETAIL
  6
CONTINUOUS
 62
     5
100
AcDbCircle
 10
1121.020922
 20
816.985404
 30
0.0
 40
5.0
100
AcDbArc
 50
180.0
 51
270.0
  0
CIRCLE
  5
4D4
100
AcDbEntity
  8
DETAIL
  6
CONTINUOUS
 62
     5
100
AcDbCircle
 10
1121.020922
 20
829.485403
 30
0.0
 40
2.5
  0
CIRCLE
  5
4D5
100
AcDbEntity
  8
DETAIL
  6
CONTINUOUS
 62
     5
100
AcDbCircle
 10
1113.620922
 20
768.700582
 30
0.0
 40
2.3
  0
ARC
  5
4D6
100
AcDbEntity
  8
DETAIL
  6
CONTINUOUS
 62
     5
100
AcDbCircle
 10
1121.020922
 20
841.985402
 30
0.0
 40
5.0
100
AcDbArc
 50
90.0
 51
180.0
  0
CIRCLE
  5
4D7
100
AcDbEntity
  8
DETAIL
  6
CONTINUOUS
 62
     5
100
AcDbCircle
 10
1084.420924
 20
736.100584
 30
0.0
 40
1.7
  0
ARC
  5
4D8
100
AcDbEntity
  8
DETAIL
  6
CONTINUOUS
 62
     5
100
AcDbCircle
 10
1112.620922
 20
769.148163
 30
0.0
 40
9.999999
100
AcDbArc
 50
180.0
 51
220.0
  0
LINE
  5
4D9
100
AcDbEntity
  8
DETAIL
  6
CONTINUOUS
 62
     5
100
AcDbLine
 10
988.220932
 20
1016.400567
 30
0.0
 11
1060.920926
 21
1016.400567
 31
0.0
  0
POINT
  5
4DA
100
AcDbEntity
  8
DEFPOINTS
  6
CONTINUOUS
 62
     7
100
AcDbPoint
 10
964.220932
 20
999.900566
 30
0.0
  0
POINT
  5
4DB
100
AcDbEntity
  8
DEFPOINTS
  6
CONTINUOUS
 62
     7
100
AcDbPoint
 10
965.152901
 20
954.900566
 30
0.0
  0
POINT
  5
4DC
100
AcDbEntity
  8
DEFPOINTS
  6
CONTINUOUS
 62
     7
100
AcDbPoint
 10
964.220932
 20
999.900566
 30
0.0
  0
POINT
  5
4DD
100
AcDbEntity
  8
DEFPOINTS
  6
CONTINUOUS
 62
     7
100
AcDbPoint
 10
964.220932
 20
999.900566
 30
0.0
  0
POINT
  5
4DE
100
AcDbEntity
  8
DEFPOINTS
  6
CONTINUOUS
 62
     7
100
AcDbPoint
 10
974.220931
 20
963.968596
 30
0.0
  0
POINT
  5
4DF
100
AcDbEntity
  8
DEFPOINTS
  6
CONTINUOUS
 62
     7
100
AcDbPoint
 10
964.220932
 20
999.900566
 30
0.0
  0
CIRCLE
  5
4E0
100
AcDbEntity
  8
DETAIL
  6
CONTINUOUS
 62
     5
100
AcDbCircle
 10
974.220931
 20
954.900566
 30
0.0
 40
1.55
  0
LINE
  5
4E1
100
AcDbEntity
  8
NOTE
  6
CONTINUOUS
 62
     4
100
AcDbLine
 10
983.288961
 20
954.900566
 30
0.0
 11
965.152901
 21
954.900566
 31
0.0
  0
LINE
  5
4E2
100
AcDbEntity
  8
NOTE
  6
CONTINUOUS
 62
     4
100
AcDbLine
 10
974.220931
 20
963.968596
 30
0.0
 11
974.220931
 21
945.832536
 31
0.0
  0
LINE
  5
4E3
100
AcDbEntity
  8
DETAIL
  6
CONTINUOUS
 62
     5
100
AcDbLine
 10
964.220932
 20
999.900566
 30
0.0
 11
988.220932
 21
999.900566
 31
0.0
  0
CIRCLE
  5
4E4
100
AcDbEntity
  8
DETAIL
  6
CONTINUOUS
 62
     5
100
AcDbCircle
 10
974.220931
 20
904.900566
 30
0.0
 40
1.55
  0
LINE
  5
4E5
100
AcDbEntity
  8
NOTE
  6
CONTINUOUS
 62
     4
100
AcDbLine
 10
983.288961
 20
904.900566
 30
0.0
 11
965.152901
 21
904.900566
 31
0.0
  0
LINE
  5
4E6
100
AcDbEntity
  8
NOTE
  6
CONTINUOUS
 62
     4
100
AcDbLine
 10
974.220931
 20
913.968596
 30
0.0
 11
974.220931
 21
895.832536
 31
0.0
  0
LINE
  5
4E7
100
AcDbEntity
  8
DETAIL
  6
CONTINUOUS
 62
     5
100
AcDbLine
 10
1112.620922
 20
1020.100566
 30
0.0
 11
1126.720932
 21
1020.100566
 31
0.0
  0
ARC
  5
4E8
100
AcDbEntity
  8
DETAIL
  6
CONTINUOUS
 62
     5
100
AcDbCircle
 10
1123.578279
 20
990.408683
 30
0.0
 40
5.0
100
AcDbArc
 50
180.0
 51
270.0
  0
ARC
  5
4E9
100
AcDbEntity
  8
DETAIL
  6
CONTINUOUS
 62
     5
100
AcDbCircle
 10
1123.578279
 20
1011.308681
 30
0.0
 40
5.0
100
AcDbArc
 50
90.0
 51
180.0
  0
LINE
  5
4EA
100
AcDbEntity
  8
DETAIL
  6
CONTINUOUS
 62
     5
100
AcDbLine
 10
1123.578279
 20
1016.308681
 30
0.0
 11
1126.720932
 21
1016.308681
 31
0.0
  0
LINE
  5
4EB
100
AcDbEntity
  8
DETAIL
  6
CONTINUOUS
 62
     5
100
AcDbLine
 10
1118.578279
 20
1011.308681
 30
0.0
 11
1118.578279
 21
990.408683
 31
0.0
  0
LINE
  5
4EC
100
AcDbEntity
  8
DETAIL
  6
CONTINUOUS
 62
     5
100
AcDbLine
 10
1123.578279
 20
985.408683
 30
0.0
 11
1126.720932
 21
985.408683
 31
0.0
  0
LINE
  5
4ED
100
AcDbEntity
  8
DETAIL
  6
CONTINUOUS
 62
     5
100
AcDbLine
 10
1080.420924
 20
985.300568
 30
0.0
 11
1083.420924
 21
982.300569
 31
0.0
  0
LINE
  5
4EE
100
AcDbEntity
  8
DETAIL
  6
CONTINUOUS
 62
     5
100
AcDbLine
 10
1063.920925
 20
1013.400567
 30
0.0
 11
1063.920925
 21
1011.400567
 31
0.0
  0
LINE
  5
4EF
100
AcDbEntity
  8
DETAIL
  6
CONTINUOUS
 62
     5
100
AcDbLine
 10
1077.289554
 20
1008.400567
 30
0.0
 11
1074.289554
 21
1011.400567
 31
0.0
  0
LINE
  5
4F0
100
AcDbEntity
  8
DETAIL
  6
CONTINUOUS
 62
     5
100
AcDbLine
 10
1063.920925
 20
1011.400567
 30
0.0
 11
1074.289554
 21
1011.400567
 31
0.0
  0
LINE
  5
4F1
100
AcDbEntity
  8
DETAIL
  6
CONTINUOUS
 62
     5
100
AcDbLine
 10
1077.289554
 20
1008.400567
 30
0.0
 11
1077.289554
 21
985.300568
 31
0.0
  0
LINE
  5
4F2
100
AcDbEntity
  8
DETAIL
  6
CONTINUOUS
 62
     5
100
AcDbLine
 10
1080.420924
 20
985.300568
 30
0.0
 11
1078.420925
 21
985.300568
 31
0.0
  0
LINE
  5
4F3
100
AcDbEntity
  8
DETAIL
  6
CONTINUOUS
 62
     5
100
AcDbLine
 10
1078.420925
 20
985.300568
 30
0.0
 11
1077.289554
 21
985.300568
 31
0.0
  0
CIRCLE
  5
4F4
100
AcDbEntity
  8
DETAIL
  6
CONTINUOUS
 62
     5
100
AcDbCircle
 10
1071.676739
 20
1018.400566
 30
0.0
 40
2.5
  0
CIRCLE
  5
4F5
100
AcDbEntity
  8
DETAIL
  6
CONTINUOUS
 62
     5
100
AcDbCircle
 10
1028.920928
 20
1008.400567
 30
0.0
 40
4.0
  0
LINE
  5
4F6
100
AcDbEntity
  8
DETAIL
  6
CONTINUOUS
 62
     5
100
AcDbLine
 10
1029.420928
 20
1007.900567
 30
0.0
 11
1031.878967
 21
1007.900567
 31
0.0
  0
LINE
  5
4F7
100
AcDbEntity
  8
DETAIL
  6
CONTINUOUS
 62
     5
100
AcDbLine
 10
1028.420928
 20
1008.900567
 30
0.0
 11
1028.420928
 21
1011.358607
 31
0.0
  0
LINE
  5
4F8
100
AcDbEntity
  8
DETAIL
  6
CONTINUOUS
 62
     5
100
AcDbLine
 10
1029.420928
 20
1008.900567
 30
0.0
 11
1029.420928
 21
1011.358607
 31
0.0
  0
LINE
  5
4F9
100
AcDbEntity
  8
DETAIL
  6
CONTINUOUS
 62
     5
100
AcDbLine
 10
1029.420928
 20
1008.900567
 30
0.0
 11
1031.878967
 21
1008.900567
 31
0.0
  0
LINE
  5
4FA
100
AcDbEntity
  8
DETAIL
  6
CONTINUOUS
 62
     5
100
AcDbLine
 10
1025.962888
 20
1008.900567
 30
0.0
 11
1028.420928
 21
1008.900567
 31
0.0
  0
LINE
  5
4FB
100
AcDbEntity
  8
DETAIL
  6
CONTINUOUS
 62
     5
100
AcDbLine
 10
1025.962888
 20
1007.900567
 30
0.0
 11
1028.420928
 21
1007.900567
 31
0.0
  0
LINE
  5
4FC
100
AcDbEntity
  8
DETAIL
  6
CONTINUOUS
 62
     5
100
AcDbLine
 10
1028.420928
 20
1005.442527
 30
0.0
 11
1028.420928
 21
1007.900567
 31
0.0
  0
LINE
  5
4FD
100
AcDbEntity
  8
DETAIL
  6
CONTINUOUS
 62
     5
100
AcDbLine
 10
1029.420928
 20
1005.442527
 30
0.0
 11
1029.420928
 21
1007.900567
 31
0.0
  0
CIRCLE
  5
4FE
100
AcDbEntity
  8
DETAIL
  6
CONTINUOUS
 62
     5
100
AcDbCircle
 10
1028.920928
 20
1008.400567
 30
0.0
 40
6.5
  0
CIRCLE
  5
4FF
100
AcDbEntity
  8
DETAIL
  6
CONTINUOUS
 62
     5
100
AcDbCircle
 10
1028.920928
 20
1008.400567
 30
0.0
 40
3.0
  0
LINE
  5
500
100
AcDbEntity
  8
DETAIL
  6
CONTINUOUS
 62
     5
100
AcDbLine
 10
1060.920926
 20
1016.400567
 30
0.0
 11
1063.920925
 21
1013.400567
 31
0.0
  0
CIRCLE
  5
501
100
AcDbEntity
  8
DETAIL
  6
CONTINUOUS
 62
     5
100
AcDbCircle
 10
1028.920928
 20
1008.400567
 30
0.0
 40
7.5
  0
ARC
  5
502
100
AcDbEntity
  8
DETAIL
  6
CONTINUOUS
 62
     5
100
AcDbCircle
 10
1112.620922
 20
1010.100567
 30
0.0
 40
9.999999
100
AcDbArc
 50
90.0
 51
180.0
  0
ARC
  5
503
100
AcDbEntity
  8
DETAIL
  6
CONTINUOUS
 62
     5
100
AcDbCircle
 10
1106.620923
 20
945.024009
 30
0.0
 40
1.0
100
AcDbArc
 50
90.0
 51
180.0
  0
ARC
  5
504
100
AcDbEntity
  8
DETAIL
  6
CONTINUOUS
 62
     5
100
AcDbCircle
 10
1106.620923
 20
940.02401
 30
0.0
 40
1.0
100
AcDbArc
 50
180.0
 51
270.0
  0
LINE
  5
505
100
AcDbEntity
  8
DETAIL
  6
CONTINUOUS
 62
     5
100
AcDbLine
 10
1111.620923
 20
939.02401
 30
0.0
 11
1111.620923
 21
946.024009
 31
0.0
  0
LINE
  5
506
100
AcDbEntity
  8
DETAIL
  6
CONTINUOUS
 62
     5
100
AcDbLine
 10
1106.620923
 20
946.024009
 30
0.0
 11
1111.620923
 21
946.024009
 31
0.0
  0
LINE
  5
507
100
AcDbEntity
  8
DETAIL
  6
CONTINUOUS
 62
     5
100
AcDbLine
 10
1106.620923
 20
939.02401
 30
0.0
 11
1111.620923
 21
939.02401
 31
0.0
  0
ARC
  5
508
100
AcDbEntity
  8
DETAIL
  6
CONTINUOUS
 62
     5
100
AcDbCircle
 10
1111.620923
 20
937.52401
 30
0.0
 40
1.5
100
AcDbArc
 50
19.471221
 51
90.0
  0
ARC
  5
509
100
AcDbEntity
  8
DETAIL
  6
CONTINUOUS
 62
     5
100
AcDbCircle
 10
1111.620923
 20
947.524009
 30
0.0
 40
1.5
100
AcDbArc
 50
270.0
 51
340.528779
  0
LINE
  5
50A
100
AcDbEntity
  8
DETAIL
  6
CONTINUOUS
 62
     5
100
AcDbLine
 10
1105.620923
 20
940.02401
 30
0.0
 11
1105.620923
 21
945.024009
 31
0.0
  0
LINE
  5
50B
100
AcDbEntity
  8
DETAIL
  6
CONTINUOUS
 62
     5
100
AcDbLine
 10
1110.320923
 20
938.02401
 30
0.0
 11
1110.320923
 21
939.02401
 31
0.0
  0
CIRCLE
  5
50C
100
AcDbEntity
  8
DETAIL
  6
CONTINUOUS
 62
     5
100
AcDbCircle
 10
1113.620922
 20
927.700572
 30
0.0
 40
2.3
  0
LINE
  5
50D
100
AcDbEntity
  8
DETAIL
  6
CONTINUOUS
 62
     5
100
AcDbLine
 10
1110.320923
 20
946.024009
 30
0.0
 11
1110.320923
 21
947.024009
 31
0.0
  0
LINE
  5
50E
100
AcDbEntity
  8
DETAIL
  6
CONTINUOUS
 62
     5
100
AcDbLine
 10
1121.320922
 20
938.02401
 30
0.0
 11
1121.320922
 21
947.024009
 31
0.0
  0
LINE
  5
50F
100
AcDbEntity
  8
DETAIL
  6
CONTINUOUS
 62
     5
100
AcDbLine
 10
1110.320923
 20
938.02401
 30
0.0
 11
1121.320922
 21
938.02401
 31
0.0
  0
LINE
  5
510
100
AcDbEntity
  8
DETAIL
  6
CONTINUOUS
 62
     5
100
AcDbLine
 10
1110.320923
 20
947.024009
 30
0.0
 11
1121.320922
 21
947.024009
 31
0.0
  0
LINE
  5
511
100
AcDbEntity
  8
NOTE
  6
CONTINUOUS
 62
     4
100
AcDbLine
 10
-0.000002
 20
1041.27544
 30
0.0
 11
416.100643
 21
1041.27544
 31
0.0
  0
TEXT
  5
512
100
AcDbEntity
  8
NOTE
  6
CONTINUOUS
 62
     4
100
AcDbText
 10
1.512808
 20
1053.502771
 30
0.0
 40
64.0
  1
54-%%C3打ﾇｷ
 41
0.9
100
AcDbText
  0
TEXT
  5
513
100
AcDbEntity
  8
SIZE
  6
CONTINUOUS
 62
    30
100
AcDbText
 10
690.717866
 20
1024.628485
 30
0.0
 40
55.0
  1
50×5＝250
 50
90.0
 41
0.9
 72
     1
 11
690.717866
 21
1218.385628
 31
0.0
100
AcDbText
  0
LINE
  5
514
100
AcDbEntity
  8
SIZE
  6
CONTINUOUS
 62
    30
100
AcDbLine
 10
988.220932
 20
1044.900566
 30
0.0
 11
988.220932
 21
1406.636877
 31
0.0
  0
LINE
  5
515
100
AcDbEntity
  8
SIZE
  6
CONTINUOUS
 62
    30
100
AcDbLine
 10
988.220932
 20
1044.900566
 30
0.0
 11
988.220932
 21
1406.636877
 31
0.0
  0
LINE
  5
516
100
AcDbEntity
  8
SIZE
  6
CONTINUOUS
 62
    30
100
AcDbLine
 10
1086.220986
 20
1044.900566
 30
0.0
 11
1086.220986
 21
1406.636877
 31
0.0
  0
LINE
  5
517
100
AcDbEntity
  8
SIZE
  6
CONTINUOUS
 62
    30
100
AcDbLine
 10
1086.220986
 20
1044.900566
 30
0.0
 11
1086.220986
 21
1406.636877
 31
0.0
  0
TEXT
  5
518
100
AcDbEntity
  8
SIZE
  6
CONTINUOUS
 62
    30
100
AcDbText
 10
858.506646
 20
1106.084124
 30
0.0
 40
55.0
  1
10
 41
0.9
 72
     1
 11
893.863789
 21
1106.084124
 31
0.0
100
AcDbText
  0
LINE
  5
519
100
AcDbEntity
  8
SIZE
  6
CONTINUOUS
 62
    30
100
AcDbLine
 10
954.220932
 20
1091.084124
 30
0.0
 11
843.506646
 21
1091.084124
 31
0.0
  0
LINE
  5
51A
100
AcDbEntity
  8
SERVICESPACE
  6
DASHDOT
 62
     2
100
AcDbLine
 10
988.220932
 20
1024.900566
 30
0.0
 11
988.220932
 21
1044.900566
 31
0.0
  0
POINT
  5
51B
100
AcDbEntity
  8
DEFPOINTS
  6
CONTINUOUS
 62
     7
100
AcDbPoint
 10
988.220932
 20
1024.900566
 30
0.0
  0
POINT
  5
51C
100
AcDbEntity
  8
DEFPOINTS
  6
CONTINUOUS
 62
     7
100
AcDbPoint
 10
988.220932
 20
1024.900566
 30
0.0
  0
POINT
  5
51D
100
AcDbEntity
  8
DEFPOINTS
  6
CONTINUOUS
 62
     7
100
AcDbPoint
 10
974.220931
 20
1091.084124
 30
0.0
  0
LINE
  5
51E
100
AcDbEntity
  8
SIZE
  6
CONTINUOUS
 62
    30
100
AcDbLine
 10
959.220932
 20
1091.084124
 30
0.0
 11
954.220932
 21
1091.084124
 31
0.0
  0
CIRCLE
  5
51F
100
AcDbEntity
  8
SIZE
  6
CONTINUOUS
 62
    30
100
AcDbCircle
 10
964.220932
 20
1091.084124
 30
0.0
 40
5.0
  0
LINE
  5
520
100
AcDbEntity
  8
SIZE
  6
CONTINUOUS
 62
    30
100
AcDbLine
 10
979.220931
 20
1091.084124
 30
0.0
 11
984.220931
 21
1091.084124
 31
0.0
  0
CIRCLE
  5
521
100
AcDbEntity
  8
SIZE
  6
CONTINUOUS
 62
    30
100
AcDbCircle
 10
974.220931
 20
1091.084124
 30
0.0
 40
5.0
  0
LINE
  5
522
100
AcDbEntity
  8
SIZE
  6
CONTINUOUS
 62
    30
100
AcDbLine
 10
974.220931
 20
1091.084124
 30
0.0
 11
964.220932
 21
1091.084124
 31
0.0
  0
LINE
  5
523
100
AcDbEntity
  8
SIZE
  6
CONTINUOUS
 62
    30
100
AcDbLine
 10
984.220931
 20
1091.084124
 30
0.0
 11
994.220931
 21
1091.084124
 31
0.0
  0
POINT
  5
524
100
AcDbEntity
  8
DEFPOINTS
  6
CONTINUOUS
 62
     7
100
AcDbPoint
 10
1086.220986
 20
1024.900566
 30
0.0
  0
POINT
  5
525
100
AcDbEntity
  8
DEFPOINTS
  6
CONTINUOUS
 62
     7
100
AcDbPoint
 10
1086.220986
 20
1024.900566
 30
0.0
  0
LINE
  5
526
100
AcDbEntity
  8
SIZE
  6
CONTINUOUS
 62
    30
100
AcDbLine
 10
785.196219
 20
1376.636877
 30
0.0
 11
964.220932
 21
1376.636877
 31
0.0
  0
TEXT
  5
527
100
AcDbEntity
  8
SIZE
  6
CONTINUOUS
 62
    30
100
AcDbText
 10
800.196219
 20
1391.636877
 30
0.0
 40
55.0
  1
24
 41
0.9
 72
     1
 11
841.446219
 21
1391.636877
 31
0.0
100
AcDbText
  0
TEXT
  5
528
100
AcDbEntity
  8
SIZE
  6
CONTINUOUS
 62
    30
100
AcDbText
 10
997.14953
 20
1391.636877
 30
0.0
 40
55.0
  1
98
 41
0.9
 72
     1
 11
1037.220959
 21
1391.636877
 31
0.0
100
AcDbText
  0
LINE
  5
529
100
AcDbEntity
  8
SIZE
  6
CONTINUOUS
 62
    30
100
AcDbLine
 10
1086.220986
 20
1376.636877
 30
0.0
 11
988.220932
 21
1376.636877
 31
0.0
  0
POINT
  5
52A
100
AcDbEntity
  8
DEFPOINTS
  6
CONTINUOUS
 62
     7
100
AcDbPoint
 10
964.220932
 20
1376.636877
 30
0.0
  0
LINE
  5
52B
100
AcDbEntity
  8
SIZE
  6
CONTINUOUS
 62
    30
100
AcDbLine
 10
959.220932
 20
1376.636877
 30
0.0
 11
954.220932
 21
1376.636877
 31
0.0
  0
CIRCLE
  5
52C
100
AcDbEntity
  8
SIZE
  6
CONTINUOUS
 62
    30
100
AcDbCircle
 10
964.220932
 20
1376.636877
 30
0.0
 40
5.0
  0
LINE
  5
52D
100
AcDbEntity
  8
SIZE
  6
CONTINUOUS
 62
    30
100
AcDbLine
 10
993.220932
 20
1376.636877
 30
0.0
 11
998.220932
 21
1376.636877
 31
0.0
  0
CIRCLE
  5
52E
100
AcDbEntity
  8
SIZE
  6
CONTINUOUS
 62
    30
100
AcDbCircle
 10
988.220932
 20
1376.636877
 30
0.0
 40
5.0
  0
LINE
  5
52F
100
AcDbEntity
  8
SIZE
  6
CONTINUOUS
 62
    30
100
AcDbLine
 10
988.220932
 20
1376.636877
 30
0.0
 11
964.220932
 21
1376.636877
 31
0.0
  0
LINE
  5
530
100
AcDbEntity
  8
SIZE
  6
CONTINUOUS
 62
    30
100
AcDbLine
 10
988.220932
 20
1376.636877
 30
0.0
 11
964.220932
 21
1376.636877
 31
0.0
  0
LINE
  5
531
100
AcDbEntity
  8
SIZE
  6
CONTINUOUS
 62
    30
100
AcDbLine
 10
954.220932
 20
1376.636877
 30
0.0
 11
944.220932
 21
1376.636877
 31
0.0
  0
LINE
  5
532
100
AcDbEntity
  8
SIZE
  6
CONTINUOUS
 62
    30
100
AcDbLine
 10
998.220932
 20
1376.636877
 30
0.0
 11
1008.220932
 21
1376.636877
 31
0.0
  0
POINT
  5
533
100
AcDbEntity
  8
DEFPOINTS
  6
CONTINUOUS
 62
     7
100
AcDbPoint
 10
988.220932
 20
1376.636877
 30
0.0
  0
LINE
  5
534
100
AcDbEntity
  8
SIZE
  6
CONTINUOUS
 62
    30
100
AcDbLine
 10
983.220932
 20
1376.636877
 30
0.0
 11
978.220932
 21
1376.636877
 31
0.0
  0
CIRCLE
  5
535
100
AcDbEntity
  8
SIZE
  6
CONTINUOUS
 62
    30
100
AcDbCircle
 10
988.220932
 20
1376.636877
 30
0.0
 40
5.0
  0
LINE
  5
536
100
AcDbEntity
  8
SIZE
  6
CONTINUOUS
 62
    30
100
AcDbLine
 10
978.220932
 20
1376.636877
 30
0.0
 11
968.220932
 21
1376.636877
 31
0.0
  0
LINE
  5
537
100
AcDbEntity
  8
SIZE
  6
CONTINUOUS
 62
    30
100
AcDbLine
 10
1091.220986
 20
1376.636877
 30
0.0
 11
1096.220986
 21
1376.636877
 31
0.0
  0
CIRCLE
  5
538
100
AcDbEntity
  8
SIZE
  6
CONTINUOUS
 62
    30
100
AcDbCircle
 10
1086.220986
 20
1376.636877
 30
0.0
 40
5.0
  0
LINE
  5
539
100
AcDbEntity
  8
SIZE
  6
CONTINUOUS
 62
    30
100
AcDbLine
 10
1096.220986
 20
1376.636877
 30
0.0
 11
1106.220986
 21
1376.636877
 31
0.0
  0
POINT
  5
53A
100
AcDbEntity
  8
DEFPOINTS
  6
CONTINUOUS
 62
     7
100
AcDbPoint
 10
1086.220986
 20
1376.636877
 30
0.0
  0
LINE
  5
53B
100
AcDbEntity
  8
SIZE
  6
CONTINUOUS
 62
    30
100
AcDbLine
 10
1091.220986
 20
1376.636877
 30
0.0
 11
1096.220986
 21
1376.636877
 31
0.0
  0
CIRCLE
  5
53C
100
AcDbEntity
  8
SIZE
  6
CONTINUOUS
 62
    30
100
AcDbCircle
 10
1086.220986
 20
1376.636877
 30
0.0
 40
5.0
  0
LINE
  5
53D
100
AcDbEntity
  8
SIZE
  6
CONTINUOUS
 62
    30
100
AcDbLine
 10
969.220932
 20
1493.412695
 30
0.0
 11
974.220932
 21
1493.412695
 31
0.0
  0
CIRCLE
  5
53E
100
AcDbEntity
  8
SIZE
  6
CONTINUOUS
 62
    30
100
AcDbCircle
 10
964.220932
 20
1493.412695
 30
0.0
 40
5.0
  0
POINT
  5
53F
100
AcDbEntity
  8
ARRANGE
  6
CONTINUOUS
 62
     1
100
AcDbPoint
 10
1460.720901
 20
1024.900566
 30
0.0
  0
CIRCLE
  5
540
100
AcDbEntity
  8
ARRANGE
  6
CONTINUOUS
 62
     1
100
AcDbCircle
 10
1460.720901
 20
1024.900566
 30
0.0
 40
40.0
  0
CIRCLE
  5
541
100
AcDbEntity
  8
SIZE
  6
CONTINUOUS
 62
    30
100
AcDbCircle
 10
2859.617035
 20
1024.900566
 30
0.0
 40
5.0
  0
LINE
  5
542
100
AcDbEntity
  8
SERVICESPACE
  6
DASHDOT
 62
     2
100
AcDbLine
 10
1983.22087
 20
624.900566
 30
0.0
 11
1983.22087
 21
1044.900566
 31
0.0
  0
LINE
  5
543
100
AcDbEntity
  8
SERVICESPACE
  6
DASHDOT
 62
     2
100
AcDbLine
 10
1933.22087
 20
624.900566
 30
0.0
 11
1933.22087
 21
1044.900566
 31
0.0
  0
LINE
  5
544
100
AcDbEntity
  8
NOTE
  6
CONTINUOUS
 62
     4
100
AcDbLine
 10
1947.220871
 20
963.900554
 30
0.0
 11
2212.805052
 21
1526.371095
 31
0.0
  0
LINE
  5
545
100
AcDbEntity
  8
NOTE
  6
CONTINUOUS
 62
     4
100
AcDbLine
 10
1641.145348
 20
852.00176
 30
0.0
 11
1518.302296
 21
1173.219588
 31
0.0
  0
CIRCLE
  5
546
100
AcDbEntity
  8
SIZE
  6
CONTINUOUS
 62
    30
100
AcDbCircle
 10
2859.617035
 20
1024.900566
 30
0.0
 40
5.0
  0
LINE
  5
547
100
AcDbEntity
  8
SIZE
  6
CONTINUOUS
 62
    30
100
AcDbLine
 10
2430.163945
 20
963.900554
 30
0.0
 11
2430.163945
 21
1460.155039
 31
0.0
  0
LINE
  5
548
100
AcDbEntity
  8
SIZE
  6
CONTINUOUS
 62
    30
100
AcDbLine
 10
1962.22087
 20
1008.900566
 30
0.0
 11
1962.22087
 21
1523.412695
 31
0.0
  0
LINE
  5
549
100
AcDbEntity
  8
SIZE
  6
CONTINUOUS
 62
    30
100
AcDbLine
 10
1962.22087
 20
1008.900566
 30
0.0
 11
1962.22087
 21
1406.636877
 31
0.0
  0
LINE
  5
54A
100
AcDbEntity
  8
SIZE
  6
CONTINUOUS
 62
    30
100
AcDbLine
 10
1641.22087
 20
898.329136
 30
0.0
 11
1641.22087
 21
1201.997531
 31
0.0
  0
LINE
  5
54B
100
AcDbEntity
  8
SIZE
  6
CONTINUOUS
 62
    30
100
AcDbLine
 10
1733.22087
 20
824.329136
 30
0.0
 11
1733.22087
 21
1201.997531
 31
0.0
  0
LINE
  5
54C
100
AcDbEntity
  8
SIZE
  6
CONTINUOUS
 62
    30
100
AcDbLine
 10
1733.22087
 20
824.329136
 30
0.0
 11
1733.22087
 21
1201.997531
 31
0.0
  0
LINE
  5
54D
100
AcDbEntity
  8
SIZE
  6
CONTINUOUS
 62
    30
100
AcDbLine
 10
1546.22087
 20
1020.695685
 30
0.0
 11
1546.22087
 21
1302.319374
 31
0.0
  0
LINE
  5
54E
100
AcDbEntity
  8
SIZE
  6
CONTINUOUS
 62
    30
100
AcDbLine
 10
1947.220871
 20
992.968584
 30
0.0
 11
1947.220871
 21
1093.399313
 31
0.0
  0
LINE
  5
54F
100
AcDbEntity
  8
SIZE
  6
CONTINUOUS
 62
    30
100
AcDbLine
 10
1962.22087
 20
1008.900566
 30
0.0
 11
1962.22087
 21
1093.399313
 31
0.0
  0
LINE
  5
550
100
AcDbEntity
  8
DETAIL
  6
CONTINUOUS
 62
     5
100
AcDbLine
 10
1509.720932
 20
1023.500566
 30
0.0
 11
1509.720932
 21
781.785406
 31
0.0
  0
LINE
  5
551
100
AcDbEntity
  8
BASIS
  6
DASHDOT
 62
     6
100
AcDbLine
 10
1460.720901
 20
1114.03435
 30
0.0
 11
1460.720901
 21
544.009099
 31
0.0
  0
LINE
  5
552
100
AcDbEntity
  8
OUTLINE
  6
CONTINUOUS
 62
     3
100
AcDbLine
 10
1933.22087
 20
1024.900566
 30
0.0
 11
1933.22087
 21
644.900566
 31
0.0
  0
LINE
  5
553
100
AcDbEntity
  8
DETAIL
  6
CONTINUOUS
 62
     5
100
AcDbLine
 10
1933.22087
 20
1024.900566
 30
0.0
 11
1933.22087
 21
644.900566
 31
0.0
  0
LINE
  5
554
100
AcDbEntity
  8
SIZE
  6
CONTINUOUS
 62
    30
100
AcDbLine
 10
2004.055663
 20
624.900566
 30
0.0
 11
2889.617035
 21
624.900566
 31
0.0
  0
LINE
  5
555
100
AcDbEntity
  8
SIZE
  6
CONTINUOUS
 62
    30
100
AcDbLine
 10
1954.055663
 20
644.900566
 30
0.0
 11
2889.617035
 21
644.900566
 31
0.0
  0
LINE
  5
556
100
AcDbEntity
  8
NOTE
  6
CONTINUOUS
 62
     4
100
AcDbLine
 10
1902.220932
 20
685.900566
 30
0.0
 11
2304.695336
 21
252.702298
 31
0.0
  0
LINE
  5
557
100
AcDbEntity
  8
NOTE
  6
CONTINUOUS
 62
     4
100
AcDbLine
 10
1733.218775
 20
774.913387
 30
0.0
 11
2286.997904
 21
-0.000004
 31
0.0
  0
TEXT
  5
558
100
AcDbEntity
  8
SIZE
  6
CONTINUOUS
 62
    30
100
AcDbText
 10
2007.075276
 20
159.434671
 30
0.0
 40
55.0
  1
60
 41
0.9
 72
     1
 11
2047.146705
 21
159.434671
 31
0.0
100
AcDbText
  0
LINE
  5
559
100
AcDbEntity
  8
SIZE
  6
CONTINUOUS
 62
    30
100
AcDbLine
 10
2102.218134
 20
144.434671
 30
0.0
 11
1962.22087
 21
144.434671
 31
0.0
  0
LINE
  5
55A
100
AcDbEntity
  8
SIZE
  6
CONTINUOUS
 62
    30
100
AcDbLine
 10
1953.22087
 20
644.900566
 30
0.0
 11
2889.617035
 21
644.900566
 31
0.0
  0
LINE
  5
55B
100
AcDbEntity
  8
SIZE
  6
CONTINUOUS
 62
    30
100
AcDbLine
 10
1982.22087
 20
988.900566
 30
0.0
 11
2761.722742
 21
988.900566
 31
0.0
  0
LINE
  5
55C
100
AcDbEntity
  8
SIZE
  6
CONTINUOUS
 62
    30
100
AcDbLine
 10
1982.22087
 20
738.900566
 30
0.0
 11
2761.722742
 21
738.900566
 31
0.0
  0
LINE
  5
55D
100
AcDbEntity
  8
SIZE
  6
CONTINUOUS
 62
    30
100
AcDbLine
 10
1982.22087
 20
738.900566
 30
0.0
 11
2761.722742
 21
738.900566
 31
0.0
  0
LINE
  5
55E
100
AcDbEntity
  8
SIZE
  6
CONTINUOUS
 62
    30
100
AcDbLine
 10
1953.22087
 20
644.900566
 30
0.0
 11
2761.722742
 21
644.900566
 31
0.0
  0
LINE
  5
55F
100
AcDbEntity
  8
SIZE
  6
CONTINUOUS
 62
    30
100
AcDbLine
 10
1978.574731
 20
963.900554
 30
0.0
 11
2460.163945
 21
963.900554
 31
0.0
  0
LINE
  5
560
100
AcDbEntity
  8
SIZE
  6
CONTINUOUS
 62
    30
100
AcDbLine
 10
1978.574731
 20
763.900554
 30
0.0
 11
2460.163945
 21
763.900554
 31
0.0
  0
LINE
  5
561
100
AcDbEntity
  8
SIZE
  6
CONTINUOUS
 62
    30
100
AcDbLine
 10
1687.64944
 20
851.900566
 30
0.0
 11
2326.98773
 21
851.900566
 31
0.0
  0
LINE
  5
562
100
AcDbEntity
  8
SIZE
  6
CONTINUOUS
 62
    30
100
AcDbLine
 10
1782.64944
 20
774.900566
 30
0.0
 11
2326.98773
 21
774.900566
 31
0.0
  0
LINE
  5
563
100
AcDbEntity
  8
SIZE
  6
CONTINUOUS
 62
    30
100
AcDbLine
 10
1976.288901
 20
763.900554
 30
0.0
 11
2460.163945
 21
763.900554
 31
0.0
  0
LINE
  5
564
100
AcDbEntity
  8
SIZE
  6
CONTINUOUS
 62
    30
100
AcDbLine
 10
1982.22087
 20
738.900566
 30
0.0
 11
2460.163945
 21
738.900566
 31
0.0
  0
LINE
  5
565
100
AcDbEntity
  8
SIZE
  6
CONTINUOUS
 62
    30
100
AcDbLine
 10
1953.22087
 20
644.900566
 30
0.0
 11
2623.159136
 21
644.900566
 31
0.0
  0
LINE
  5
566
100
AcDbEntity
  8
SIZE
  6
CONTINUOUS
 62
    30
100
AcDbLine
 10
1596.720869
 20
972.900566
 30
0.0
 11
2623.159136
 21
972.900566
 31
0.0
  0
LINE
  5
567
100
AcDbEntity
  8
SIZE
  6
CONTINUOUS
 62
    30
100
AcDbLine
 10
1782.64944
 20
774.900566
 30
0.0
 11
2326.98773
 21
774.900566
 31
0.0
  0
LINE
  5
568
100
AcDbEntity
  8
SIZE
  6
CONTINUOUS
 62
    30
100
AcDbLine
 10
1953.22087
 20
644.900566
 30
0.0
 11
2326.98773
 21
644.900566
 31
0.0
  0
LINE
  5
569
100
AcDbEntity
  8
SIZE
  6
CONTINUOUS
 62
    30
100
AcDbLine
 10
1635.39944
 20
674.900566
 30
0.0
 11
2175.580769
 21
674.900566
 31
0.0
  0
LINE
  5
56A
100
AcDbEntity
  8
SIZE
  6
CONTINUOUS
 62
    30
100
AcDbLine
 10
1953.22087
 20
644.900566
 30
0.0
 11
2175.580769
 21
644.900566
 31
0.0
  0
LINE
  5
56B
100
AcDbEntity
  8
SIZE
  6
CONTINUOUS
 62
    30
100
AcDbLine
 10
1738.220932
 20
604.900566
 30
0.0
 11
1738.220932
 21
407.830793
 31
0.0
  0
LINE
  5
56C
100
AcDbEntity
  8
SIZE
  6
CONTINUOUS
 62
    30
100
AcDbLine
 10
1288.220932
 20
604.900566
 30
0.0
 11
1288.220932
 21
407.830793
 31
0.0
  0
LINE
  5
56D
100
AcDbEntity
  8
SIZE
  6
CONTINUOUS
 62
    30
100
AcDbLine
 10
1288.220932
 20
604.900566
 30
0.0
 11
1288.220932
 21
407.830793
 31
0.0
  0
LINE
  5
56E
100
AcDbEntity
  8
SIZE
  6
CONTINUOUS
 62
    30
100
AcDbLine
 10
1962.22087
 20
718.900566
 30
0.0
 11
1962.22087
 21
114.434671
 31
0.0
  0
LINE
  5
56F
100
AcDbEntity
  8
SIZE
  6
CONTINUOUS
 62
    30
100
AcDbLine
 10
1902.220932
 20
645.900566
 30
0.0
 11
1902.220932
 21
114.434671
 31
0.0
  0
LINE
  5
570
100
AcDbEntity
  8
SIZE
  6
CONTINUOUS
 62
    30
100
AcDbLine
 10
1902.220932
 20
645.900566
 30
0.0
 11
1902.220932
 21
114.434671
 31
0.0
  0
LINE
  5
571
100
AcDbEntity
  8
NOTE
  6
CONTINUOUS
 62
     4
100
AcDbLine
 10
1590.22087
 20
674.900566
 30
0.0
 11
1539.536098
 21
292.404897
 31
0.0
  0
LINE
  5
572
100
AcDbEntity
  8
SIZE
  6
CONTINUOUS
 62
    30
100
AcDbLine
 10
1962.22087
 20
718.900566
 30
0.0
 11
1962.22087
 21
10.73018
 31
0.0
  0
LINE
  5
573
100
AcDbEntity
  8
SIZE
  6
CONTINUOUS
 62
    30
100
AcDbLine
 10
1590.22087
 20
629.721996
 30
0.0
 11
1590.22087
 21
250.151837
 31
0.0
  0
LINE
  5
574
100
AcDbEntity
  8
SIZE
  6
CONTINUOUS
 62
    30
100
AcDbLine
 10
1933.22087
 20
624.900566
 30
0.0
 11
1933.22087
 21
250.151837
 31
0.0
  0
TEXT
  5
575
100
AcDbEntity
  8
SIZE
  6
CONTINUOUS
 62
    30
100
AcDbText
 10
1166.870932
 20
173.839433
 30
0.0
 40
55.0
  1
814(吊りボルトピッチ)
 41
0.9
 72
     1
 11
1495.220932
 21
173.839433
 31
0.0
100
AcDbText
  0
TEXT
  5
576
100
AcDbEntity
  8
SIZE
  6
CONTINUOUS
 62
    30
100
AcDbText
 10
1429.90843
 20
55.73018
 30
0.0
 40
55.0
  1
904
 41
0.9
 72
     1
 11
1494.729859
 21
55.73018
 31
0.0
100
AcDbText
  0
LINE
  5
577
100
AcDbEntity
  8
SIZE
  6
CONTINUOUS
 62
    30
100
AcDbLine
 10
1957.22087
 20
40.73018
 30
0.0
 11
1952.22087
 21
40.73018
 31
0.0
  0
CIRCLE
  5
578
100
AcDbEntity
  8
SIZE
  6
CONTINUOUS
 62
    30
100
AcDbCircle
 10
1962.22087
 20
40.73018
 30
0.0
 40
5.0
  0
TEXT
  5
579
100
AcDbEntity
  8
SIZE
  6
CONTINUOUS
 62
    30
100
AcDbText
 10
1682.539293
 20
295.151837
 30
0.0
 40
55.0
  1
343
 41
0.9
 72
     1
 11
1746.18215
 21
295.151837
 31
0.0
100
AcDbText
  0
LINE
  5
57A
100
AcDbEntity
  8
SIZE
  6
CONTINUOUS
 62
    30
100
AcDbLine
 10
1923.22087
 20
280.151837
 30
0.0
 11
1600.22087
 21
280.151837
 31
0.0
  0
POINT
  5
57B
100
AcDbEntity
  8
DEFPOINTS
  6
CONTINUOUS
 62
     7
100
AcDbPoint
 10
1590.22087
 20
280.151837
 30
0.0
  0
LINE
  5
57C
100
AcDbEntity
  8
SIZE
  6
CONTINUOUS
 62
    30
100
AcDbLine
 10
1595.22087
 20
280.151837
 30
0.0
 11
1600.22087
 21
280.151837
 31
0.0
  0
CIRCLE
  5
57D
100
AcDbEntity
  8
SIZE
  6
CONTINUOUS
 62
    30
100
AcDbCircle
 10
1590.22087
 20
280.151837
 30
0.0
 40
5.0
  0
LINE
  5
57E
100
AcDbEntity
  8
SIZE
  6
CONTINUOUS
 62
    30
100
AcDbLine
 10
1912.220932
 20
144.434671
 30
0.0
 11
1952.22087
 21
144.434671
 31
0.0
  0
LINE
  5
57F
100
AcDbEntity
  8
SIZE
  6
CONTINUOUS
 62
    30
100
AcDbLine
 10
1907.220932
 20
144.434671
 30
0.0
 11
1912.220932
 21
144.434671
 31
0.0
  0
CIRCLE
  5
580
100
AcDbEntity
  8
SIZE
  6
CONTINUOUS
 62
    30
100
AcDbCircle
 10
1902.220932
 20
144.434671
 30
0.0
 40
5.0
  0
POINT
  5
581
100
AcDbEntity
  8
DEFPOINTS
  6
CONTINUOUS
 62
     7
100
AcDbPoint
 10
1902.220932
 20
144.434671
 30
0.0
  0
LINE
  5
582
100
AcDbEntity
  8
SIZE
  6
CONTINUOUS
 62
    30
100
AcDbLine
 10
1897.220932
 20
144.434671
 30
0.0
 11
1892.220932
 21
144.434671
 31
0.0
  0
CIRCLE
  5
583
100
AcDbEntity
  8
SIZE
  6
CONTINUOUS
 62
    30
100
AcDbCircle
 10
1902.220932
 20
144.434671
 30
0.0
 40
5.0
  0
POINT
  5
584
100
AcDbEntity
  8
DEFPOINTS
  6
CONTINUOUS
 62
     7
100
AcDbPoint
 10
1962.22087
 20
144.434671
 30
0.0
  0
LINE
  5
585
100
AcDbEntity
  8
SIZE
  6
CONTINUOUS
 62
    30
100
AcDbLine
 10
1957.22087
 20
144.434671
 30
0.0
 11
1952.22087
 21
144.434671
 31
0.0
  0
CIRCLE
  5
586
100
AcDbEntity
  8
SIZE
  6
CONTINUOUS
 62
    30
100
AcDbCircle
 10
1962.22087
 20
144.434671
 30
0.0
 40
5.0
  0
LINE
  5
587
100
AcDbEntity
  8
SIZE
  6
CONTINUOUS
 62
    30
100
AcDbLine
 10
1928.22087
 20
280.151837
 30
0.0
 11
1923.22087
 21
280.151837
 31
0.0
  0
CIRCLE
  5
588
100
AcDbEntity
  8
SIZE
  6
CONTINUOUS
 62
    30
100
AcDbCircle
 10
1933.22087
 20
280.151837
 30
0.0
 40
5.0
  0
LINE
  5
589
100
AcDbEntity
  8
SERVICESPACE
  6
DASHDOT
 62
     2
100
AcDbLine
 10
1738.220932
 20
644.900566
 30
0.0
 11
1288.220932
 21
624.900566
 31
0.0
  0
LINE
  5
58A
100
AcDbEntity
  8
SERVICESPACE
  6
DASHDOT
 62
     2
100
AcDbLine
 10
1288.220932
 20
644.900566
 30
0.0
 11
1738.220932
 21
624.900566
 31
0.0
  0
LINE
  5
58B
100
AcDbEntity
  8
SIZE
  6
CONTINUOUS
 62
    30
100
AcDbLine
 10
1298.220932
 20
437.830793
 30
0.0
 11
1728.220932
 21
437.830793
 31
0.0
  0
POLYLINE
  5
58C
100
AcDbEntity
  8
NOTE
  6
CONTINUOUS
 62
     4
100
AcDb2dPolyline
 66
     1
 10
0.0
 20
0.0
 30
0.0
  0
VERTEX
  5
58D
100
AcDbEntity
  8
NOTE
  6
CONTINUOUS
 62
     4
100
AcDbVertex
100
AcDb2dVertex
 10
1595.466244
 20
635.245982
 30
0.0
  0
VERTEX
  5
58E
100
AcDbEntity
  8
NOTE
  6
CONTINUOUS
 62
     4
100
AcDbVertex
100
AcDb2dVertex
 10
1590.22087
 20
674.900566
 30
0.0
  0
VERTEX
  5
58F
100
AcDbEntity
  8
NOTE
  6
CONTINUOUS
 62
     4
100
AcDbVertex
100
AcDb2dVertex
 10
1574.936206
 20
637.936002
 30
0.0
  0
SEQEND
  5
590
100
AcDbEntity
  8
NOTE
  6
CONTINUOUS
 62
     4
  0
CIRCLE
  5
591
100
AcDbEntity
  8
DETAIL
  6
CONTINUOUS
 62
     5
100
AcDbCircle
 10
1579.797769
 20
1006.395685
 30
0.0
 40
2.5
  0
ARC
  5
592
100
AcDbEntity
  8
DETAIL
  6
CONTINUOUS
 62
     5
100
AcDbCircle
 10
1579.797769
 20
1006.695685
 30
0.0
 40
6.0
100
AcDbArc
 50
0.0
 51
180.0
  0
LINE
  5
593
100
AcDbEntity
  8
DETAIL
  6
CONTINUOUS
 62
     5
100
AcDbLine
 10
1557.009809
 20
948.915619
 30
0.0
 11
1590.976401
 21
920.414264
 31
0.0
  0
LINE
  5
594
100
AcDbEntity
  8
NOTE
  6
CONTINUOUS
 62
     4
100
AcDbLine
 10
1615.39944
 20
674.900566
 30
0.0
 11
1565.042301
 21
674.900566
 31
0.0
  0
ARC
  5
595
100
AcDbEntity
  8
DETAIL
  6
CONTINUOUS
 62
     5
100
AcDbCircle
 10
1589.983964
 20
674.900566
 30
0.0
 40
20.999999
100
AcDbArc
 50
0.0
 51
180.0
  0
LINE
  5
596
100
AcDbEntity
  8
DETAIL
  6
CONTINUOUS
 62
     5
100
AcDbLine
 10
1771.297757
 20
705.895703
 30
0.0
 11
1469.397776
 21
705.895703
 31
0.0
  0
CIRCLE
  5
597
100
AcDbEntity
  8
DETAIL
  6
CONTINUOUS
 62
     5
100
AcDbCircle
 10
1589.983964
 20
674.900566
 30
0.0
 40
16.249999
  0
CIRCLE
  5
598
100
AcDbEntity
  8
DETAIL
  6
CONTINUOUS
 62
     5
100
AcDbCircle
 10
1590.22087
 20
674.900566
 30
0.0
 40
13.749999
  0
LINE
  5
599
100
AcDbEntity
  8
DETAIL
  6
CONTINUOUS
 62
     5
100
AcDbLine
 10
1455.820901
 20
690.700586
 30
0.0
 11
1455.820901
 21
781.785406
 31
0.0
  0
LINE
  5
59A
100
AcDbEntity
  8
DETAIL
  6
CONTINUOUS
 62
     5
100
AcDbLine
 10
1445.820902
 20
682.700587
 30
0.0
 11
1445.820902
 21
781.785406
 31
0.0
  0
LINE
  5
59B
100
AcDbEntity
  8
DETAIL
  6
CONTINUOUS
 62
     5
100
AcDbLine
 10
1444.135332
 20
703.700586
 30
0.0
 11
1444.135332
 21
777.885406
 31
0.0
  0
LINE
  5
59C
100
AcDbEntity
  8
DETAIL
  6
CONTINUOUS
 62
     5
100
AcDbLine
 10
1463.597776
 20
776.780524
 30
0.0
 11
1463.597776
 21
711.695703
 31
0.0
  0
LINE
  5
59D
100
AcDbEntity
  8
DETAIL
  6
CONTINUOUS
 62
     5
100
AcDbLine
 10
1197.834779
 20
703.700586
 30
0.0
 11
1197.834779
 21
777.885406
 31
0.0
  0
TEXT
  5
59E
100
AcDbEntity
  8
NOTE
  6
CONTINUOUS
 62
     4
100
AcDbText
 10
1345.8097
 20
537.940101
 30
0.0
 40
64.0
  1
点検口
 41
0.8
100
AcDbText
  0
LINE
  5
59F
100
AcDbEntity
  8
DETAIL
  6
CONTINUOUS
 62
     5
100
AcDbLine
 10
1568.983965
 20
650.900589
 30
0.0
 11
1163.420919
 21
650.900589
 31
0.0
  0
LINE
  5
5A0
100
AcDbEntity
  8
DETAIL
  6
CONTINUOUS
 62
     5
100
AcDbLine
 10
1340.035339
 20
686.100587
 30
0.0
 11
1365.035337
 21
686.100587
 31
0.0
  0
LINE
  5
5A1
100
AcDbEntity
  8
DETAIL
  6
CONTINUOUS
 62
     5
100
AcDbLine
 10
1295.420911
 20
667.700588
 30
0.0
 11
1445.820902
 21
667.700588
 31
0.0
  0
LINE
  5
5A2
100
AcDbEntity
  8
DETAIL
  6
CONTINUOUS
 62
     5
100
AcDbLine
 10
1458.523845
 20
650.900589
 30
0.0
 11
1163.420919
 21
650.900589
 31
0.0
  0
LINE
  5
5A3
100
AcDbEntity
  8
DETAIL
  6
CONTINUOUS
 62
     5
100
AcDbLine
 10
1199.423745
 20
655.700589
 30
0.0
 11
1438.820902
 21
655.700589
 31
0.0
  0
LINE
  5
5A4
100
AcDbEntity
  8
DETAIL
  6
CONTINUOUS
 62
     5
100
AcDbLine
 10
1442.535332
 20
702.100586
 30
0.0
 11
1199.434779
 21
702.100586
 31
0.0
  0
LINE
  5
5A5
100
AcDbEntity
  8
SIZE
  6
CONTINUOUS
 62
    30
100
AcDbLine
 10
1293.220932
 20
437.830793
 30
0.0
 11
1298.220932
 21
437.830793
 31
0.0
  0
CIRCLE
  5
5A6
100
AcDbEntity
  8
SIZE
  6
CONTINUOUS
 62
    30
100
AcDbCircle
 10
1288.220932
 20
437.830793
 30
0.0
 40
5.0
  0
POINT
  5
5A7
100
AcDbEntity
  8
DEFPOINTS
  6
CONTINUOUS
 62
     7
100
AcDbPoint
 10
1288.220932
 20
437.830793
 30
0.0
  0
LINE
  5
5A8
100
AcDbEntity
  8
SIZE
  6
CONTINUOUS
 62
    30
100
AcDbLine
 10
1283.220932
 20
437.830793
 30
0.0
 11
1278.220932
 21
437.830793
 31
0.0
  0
CIRCLE
  5
5A9
100
AcDbEntity
  8
SIZE
  6
CONTINUOUS
 62
    30
100
AcDbCircle
 10
1288.220932
 20
437.830793
 30
0.0
 40
5.0
  0
LINE
  5
5AA
100
AcDbEntity
  8
DETAIL
  6
CONTINUOUS
 62
     5
100
AcDbLine
 10
1199.434779
 20
703.700586
 30
0.0
 11
1199.434779
 21
702.100586
 31
0.0
  0
LINE
  5
5AB
100
AcDbEntity
  8
DETAIL
  6
CONTINUOUS
 62
     5
100
AcDbLine
 10
1197.834779
 20
703.700586
 30
0.0
 11
1199.434779
 21
703.700586
 31
0.0
  0
ARC
  5
5AC
100
AcDbEntity
  8
DETAIL
  6
CONTINUOUS
 62
     5
100
AcDbCircle
 10
1199.423745
 20
665.700588
 30
0.0
 40
9.999999
100
AcDbArc
 50
220.0
 51
270.0
  0
LINE
  5
5AD
100
AcDbEntity
  8
DETAIL
  6
CONTINUOUS
 62
     5
100
AcDbLine
 10
1163.420919
 20
679.900566
 30
0.0
 11
1163.420919
 21
645.900568
 31
0.0
  0
CIRCLE
  5
5AE
100
AcDbEntity
  8
DETAIL
  6
CONTINUOUS
 62
     5
100
AcDbCircle
 10
1153.42092
 20
665.900567
 30
0.0
 40
3.5
  0
POINT
  5
5AF
100
AcDbEntity
  8
DEFPOINTS
  6
CONTINUOUS
 62
     7
100
AcDbPoint
 10
1288.220932
 20
624.900566
 30
0.0
  0
POINT
  5
5B0
100
AcDbEntity
  8
DEFPOINTS
  6
CONTINUOUS
 62
     7
100
AcDbPoint
 10
1288.220932
 20
624.900566
 30
0.0
  0
LINE
  5
5B1
100
AcDbEntity
  8
SERVICESPACE
  6
DASHDOT
 62
     2
100
AcDbLine
 10
1288.220932
 20
644.900566
 30
0.0
 11
1288.220932
 21
624.900566
 31
0.0
  0
ARC
  5
5B2
100
AcDbEntity
  8
DETAIL
  6
CONTINUOUS
 62
     5
100
AcDbCircle
 10
1340.035339
 20
691.100586
 30
0.0
 40
5.0
100
AcDbArc
 50
180.0
 51
270.0
  0
LINE
  5
5B3
100
AcDbEntity
  8
DETAIL
  6
CONTINUOUS
 62
     5
100
AcDbLine
 10
1335.035339
 20
691.100586
 30
0.0
 11
1335.035339
 21
702.100586
 31
0.0
  0
CIRCLE
  5
5B4
100
AcDbEntity
  8
DETAIL
  6
CONTINUOUS
 62
     5
100
AcDbCircle
 10
1352.535338
 20
694.100586
 30
0.0
 40
2.5
  0
TEXT
  5
5B5
100
AcDbEntity
  8
SIZE
  6
CONTINUOUS
 62
    30
100
AcDbText
 10
1383.968798
 20
453.827992
 30
0.0
 40
55.0
  1
450
 41
0.9
 72
     1
 11
1447.611655
 21
453.827992
 31
0.0
100
AcDbText
  0
ARC
  5
5B6
100
AcDbEntity
  8
DETAIL
  6
CONTINUOUS
 62
     5
100
AcDbCircle
 10
1469.397776
 20
711.695703
 30
0.0
 40
5.8
100
AcDbArc
 50
180.0
 51
270.0
  0
LINE
  5
5B7
100
AcDbEntity
  8
DETAIL
  6
CONTINUOUS
 62
     5
100
AcDbLine
 10
1448.620902
 20
667.700588
 30
0.0
 11
1448.620902
 21
685.700587
 31
0.0
  0
ARC
  5
5B8
100
AcDbEntity
  8
DETAIL
  6
CONTINUOUS
 62
     5
100
AcDbCircle
 10
1450.820902
 20
690.700586
 30
0.0
 40
5.0
100
AcDbArc
 50
270.0
 51
0.0
  0
LINE
  5
5B9
100
AcDbEntity
  8
DETAIL
  6
CONTINUOUS
 62
     5
100
AcDbLine
 10
1445.820902
 20
685.700587
 30
0.0
 11
1450.820902
 21
685.700587
 31
0.0
  0
LINE
  5
5BA
100
AcDbEntity
  8
DETAIL
  6
CONTINUOUS
 62
     5
100
AcDbLine
 10
1445.820902
 20
682.700587
 30
0.0
 11
1448.620902
 21
682.700587
 31
0.0
  0
LINE
  5
5BB
100
AcDbEntity
  8
DETAIL
  6
CONTINUOUS
 62
     5
100
AcDbLine
 10
1442.535332
 20
703.700586
 30
0.0
 11
1444.135332
 21
703.700586
 31
0.0
  0
LINE
  5
5BC
100
AcDbEntity
  8
DETAIL
  6
CONTINUOUS
 62
     5
100
AcDbLine
 10
1442.535332
 20
703.700586
 30
0.0
 11
1442.535332
 21
702.100586
 31
0.0
  0
LINE
  5
5BD
100
AcDbEntity
  8
DETAIL
  6
CONTINUOUS
 62
     5
100
AcDbLine
 10
1443.820902
 20
660.700588
 30
0.0
 11
1443.820902
 21
667.700588
 31
0.0
  0
ARC
  5
5BE
100
AcDbEntity
  8
DETAIL
  6
CONTINUOUS
 62
     5
100
AcDbCircle
 10
1438.820902
 20
660.700588
 30
0.0
 40
5.0
100
AcDbArc
 50
270.0
 51
0.0
  0
LINE
  5
5BF
100
AcDbEntity
  8
DETAIL
  6
CONTINUOUS
 62
     5
100
AcDbLine
 10
1445.820902
 20
667.700588
 30
0.0
 11
1448.620902
 21
667.700588
 31
0.0
  0
ARC
  5
5C0
100
AcDbEntity
  8
DETAIL
  6
CONTINUOUS
 62
     5
100
AcDbCircle
 10
1365.035337
 20
691.100586
 30
0.0
 40
5.0
100
AcDbArc
 50
270.0
 51
0.0
  0
LINE
  5
5C1
100
AcDbEntity
  8
DETAIL
  6
CONTINUOUS
 62
     5
100
AcDbLine
 10
1370.035337
 20
691.100586
 30
0.0
 11
1370.035337
 21
702.100586
 31
0.0
  0
LINE
  5
5C2
100
AcDbEntity
  8
DETAIL
  6
CONTINUOUS
 62
     5
100
AcDbLine
 10
1568.983965
 20
674.900566
 30
0.0
 11
1568.983965
 21
644.900566
 31
0.0
  0
LINE
  5
5C3
100
AcDbEntity
  8
DETAIL
  6
CONTINUOUS
 62
     5
100
AcDbLine
 10
1442.535332
 20
779.485406
 30
0.0
 11
1198.634779
 21
779.485406
 31
0.0
  0
LINE
  5
5C4
100
AcDbEntity
  8
DETAIL
  6
CONTINUOUS
 62
     5
100
AcDbLine
 10
1198.634779
 20
779.485406
 30
0.0
 11
1198.634779
 21
777.885406
 31
0.0
  0
LINE
  5
5C5
100
AcDbEntity
  8
DETAIL
  6
CONTINUOUS
 62
     5
100
AcDbLine
 10
1174.83478
 20
772.885407
 30
0.0
 11
1174.83478
 21
733.792996
 31
0.0
  0
ARC
  5
5C6
100
AcDbEntity
  8
DETAIL
  6
CONTINUOUS
 62
     5
100
AcDbCircle
 10
1179.83478
 20
772.885407
 30
0.0
 40
5.0
100
AcDbArc
 50
90.0
 51
180.0
  0
ARC
  5
5C7
100
AcDbEntity
  8
DETAIL
  6
CONTINUOUS
 62
     5
100
AcDbCircle
 10
1180.83478
 20
743.292996
 30
0.0
 40
2.3
100
AcDbArc
 50
90.0
 51
270.0
  0
LINE
  5
5C8
100
AcDbEntity
  8
DETAIL
  6
CONTINUOUS
 62
     5
100
AcDbLine
 10
1180.83478
 20
740.992996
 30
0.0
 11
1183.838781
 21
740.992996
 31
0.0
  0
LINE
  5
5C9
100
AcDbEntity
  8
DETAIL
  6
CONTINUOUS
 62
     5
100
AcDbLine
 10
1180.83478
 20
745.592996
 30
0.0
 11
1183.838781
 21
745.592996
 31
0.0
  0
ARC
  5
5CA
100
AcDbEntity
  8
DETAIL
  6
CONTINUOUS
 62
     5
100
AcDbCircle
 10
1188.83478
 20
743.292996
 30
0.0
 40
5.5
100
AcDbArc
 50
204.719851
 51
155.280149
  0
LINE
  5
5CB
100
AcDbEntity
  8
DETAIL
  6
CONTINUOUS
 62
     5
100
AcDbLine
 10
1179.83478
 20
728.792997
 30
0.0
 11
1197.834779
 21
728.792997
 31
0.0
  0
LINE
  5
5CC
100
AcDbEntity
  8
DETAIL
  6
CONTINUOUS
 62
     5
100
AcDbLine
 10
1198.634779
 20
777.885406
 30
0.0
 11
1179.83478
 21
777.885406
 31
0.0
  0
ARC
  5
5CD
100
AcDbEntity
  8
DETAIL
  6
CONTINUOUS
 62
     5
100
AcDbCircle
 10
1179.83478
 20
733.792996
 30
0.0
 40
5.0
100
AcDbArc
 50
180.0
 51
270.0
  0
LINE
  5
5CE
100
AcDbEntity
  8
DETAIL
  6
CONTINUOUS
 62
     5
100
AcDbLine
 10
1442.535332
 20
777.885406
 30
0.0
 11
1442.535332
 21
779.485406
 31
0.0
  0
LINE
  5
5CF
100
AcDbEntity
  8
DETAIL
  6
CONTINUOUS
 62
     5
100
AcDbLine
 10
1444.135332
 20
777.885406
 30
0.0
 11
1442.535332
 21
777.885406
 31
0.0
  0
LINE
  5
5D0
100
AcDbEntity
  8
DETAIL
  6
CONTINUOUS
 62
     5
100
AcDbLine
 10
1463.597776
 20
781.785406
 30
0.0
 11
1463.597776
 21
776.780524
 31
0.0
  0
LINE
  5
5D1
100
AcDbEntity
  8
DETAIL
  6
CONTINUOUS
 62
     5
100
AcDbLine
 10
1507.512203
 20
781.785406
 30
0.0
 11
1507.535328
 21
781.785406
 31
0.0
  0
POLYLINE
  5
5D2
100
AcDbEntity
  8
NOTE
  6
CONTINUOUS
 62
     4
100
AcDb2dPolyline
 66
     1
 10
0.0
 20
0.0
 30
0.0
  0
VERTEX
  5
5D3
100
AcDbEntity
  8
NOTE
  6
CONTINUOUS
 62
     4
100
AcDbVertex
100
AcDb2dVertex
 10
1528.477261
 20
937.051377
 30
0.0
  0
VERTEX
  5
5D4
100
AcDbEntity
  8
NOTE
  6
CONTINUOUS
 62
     4
100
AcDbVertex
100
AcDb2dVertex
 10
1546.22087
 20
972.900566
 30
0.0
  0
VERTEX
  5
5D5
100
AcDbEntity
  8
NOTE
  6
CONTINUOUS
 62
     4
100
AcDbVertex
100
AcDb2dVertex
 10
1512.92986
 20
950.726062
 30
0.0
  0
SEQEND
  5
5D6
100
AcDbEntity
  8
NOTE
  6
CONTINUOUS
 62
     4
  0
POINT
  5
5D7
100
AcDbEntity
  8
DEFPOINTS
  6
CONTINUOUS
 62
     7
100
AcDbPoint
 10
1576.720869
 20
972.900566
 30
0.0
  0
POINT
  5
5D8
100
AcDbEntity
  8
DEFPOINTS
  6
CONTINUOUS
 62
     7
100
AcDbPoint
 10
1546.22087
 20
1000.695685
 30
0.0
  0
CIRCLE
  5
5D9
100
AcDbEntity
  8
DETAIL
  6
CONTINUOUS
 62
     5
100
AcDbCircle
 10
1574.397769
 20
972.900566
 30
0.0
 40
2.5
  0
LINE
  5
5DA
100
AcDbEntity
  8
DETAIL
  6
CONTINUOUS
 62
     5
100
AcDbLine
 10
1564.213924
 20
973.400566
 30
0.0
 11
1563.465171
 21
973.400566
 31
0.0
  0
LINE
  5
5DB
100
AcDbEntity
  8
DETAIL
  6
CONTINUOUS
 62
     5
100
AcDbLine
 10
1564.213924
 20
972.400566
 30
0.0
 11
1563.465171
 21
972.400566
 31
0.0
  0
CIRCLE
  5
5DC
100
AcDbEntity
  8
DETAIL
  6
CONTINUOUS
 62
     5
100
AcDbCircle
 10
1574.397769
 20
972.900566
 30
0.0
 40
2.5
  0
LINE
  5
5DD
100
AcDbEntity
  8
DETAIL
  6
CONTINUOUS
 62
     5
100
AcDbLine
 10
1573.797769
 20
1006.695685
 30
0.0
 11
1573.797769
 21
1000.695685
 31
0.0
  0
LINE
  5
5DE
100
AcDbEntity
  8
DETAIL
  6
CONTINUOUS
 62
     5
100
AcDbLine
 10
1528.227817
 20
972.400566
 30
0.0
 11
1528.97657
 21
972.400566
 31
0.0
  0
LINE
  5
5DF
100
AcDbEntity
  8
DETAIL
  6
CONTINUOUS
 62
     5
100
AcDbLine
 10
1528.227817
 20
973.400566
 30
0.0
 11
1528.97657
 21
973.400566
 31
0.0
  0
LINE
  5
5E0
100
AcDbEntity
  8
DETAIL
  6
CONTINUOUS
 62
     5
100
AcDbLine
 10
1546.72087
 20
990.893619
 30
0.0
 11
1546.72087
 21
990.144867
 31
0.0
  0
LINE
  5
5E1
100
AcDbEntity
  8
DETAIL
  6
CONTINUOUS
 62
     5
100
AcDbLine
 10
1545.720871
 20
990.893619
 30
0.0
 11
1545.720871
 21
990.144867
 31
0.0
  0
ARC
  5
5E2
100
AcDbEntity
  8
DETAIL
  6
CONTINUOUS
 62
     5
100
AcDbCircle
 10
1546.22087
 20
972.900566
 30
0.0
 40
17.999999
100
AcDbArc
 50
91.591754
 51
178.408246
  0
LINE
  5
5E3
100
AcDbEntity
  8
DETAIL
  6
CONTINUOUS
 62
     5
100
AcDbLine
 10
1520.312203
 20
1009.295684
 30
0.0
 11
1520.312203
 21
984.295686
 31
0.0
  0
ARC
  5
5E4
100
AcDbEntity
  8
DETAIL
  6
CONTINUOUS
 62
     5
100
AcDbCircle
 10
1546.22087
 20
972.900566
 30
0.0
 40
17.999999
100
AcDbArc
 50
1.591754
 51
88.408246
  0
LINE
  5
5E5
100
AcDbEntity
  8
DETAIL
  6
CONTINUOUS
 62
     5
100
AcDbLine
 10
1520.312203
 20
1000.695685
 30
0.0
 11
1573.797769
 21
1000.695685
 31
0.0
  0
CIRCLE
  5
5E6
100
AcDbEntity
  8
DETAIL
  6
CONTINUOUS
 62
     5
100
AcDbCircle
 10
1515.312203
 20
996.795685
 30
0.0
 40
2.5
  0
LINE
  5
5E7
100
AcDbEntity
  8
DETAIL
  6
CONTINUOUS
 62
     5
100
AcDbLine
 10
1509.720932
 20
979.295686
 30
0.0
 11
1515.312203
 21
979.295686
 31
0.0
  0
LINE
  5
5E8
100
AcDbEntity
  8
DETAIL
  6
CONTINUOUS
 62
     5
100
AcDbLine
 10
1509.720932
 20
1014.295684
 30
0.0
 11
1515.312203
 21
1014.295684
 31
0.0
  0
LINE
  5
5E9
100
AcDbEntity
  8
NOTE
  6
CONTINUOUS
 62
     4
100
AcDbLine
 10
1576.720869
 20
972.900566
 30
0.0
 11
1515.720872
 21
972.900566
 31
0.0
  0
CIRCLE
  5
5EA
100
AcDbEntity
  8
DETAIL
  6
CONTINUOUS
 62
     5
100
AcDbCircle
 10
1518.397773
 20
972.900566
 30
0.0
 40
2.5
  0
CIRCLE
  5
5EB
100
AcDbEntity
  8
DETAIL
  6
CONTINUOUS
 62
     5
100
AcDbCircle
 10
1518.397773
 20
972.900566
 30
0.0
 40
2.5
  0
ARC
  5
5EC
100
AcDbEntity
  8
DETAIL
  6
CONTINUOUS
 62
     5
100
AcDbCircle
 10
1515.312203
 20
984.295686
 30
0.0
 40
5.0
100
AcDbArc
 50
270.0
 51
0.0
  0
ARC
  5
5ED
100
AcDbEntity
  8
DETAIL
  6
CONTINUOUS
 62
     5
100
AcDbCircle
 10
1515.312203
 20
1009.295684
 30
0.0
 40
5.0
100
AcDbArc
 50
0.0
 51
90.0
  0
LINE
  5
5EE
100
AcDbEntity
  8
DETAIL
  6
CONTINUOUS
 62
     5
100
AcDbLine
 10
1546.72087
 20
954.907513
 30
0.0
 11
1546.72087
 21
955.656265
 31
0.0
  0
LINE
  5
5EF
100
AcDbEntity
  8
DETAIL
  6
CONTINUOUS
 62
     5
100
AcDbLine
 10
1545.720871
 20
954.907513
 30
0.0
 11
1545.720871
 21
955.656265
 31
0.0
  0
ARC
  5
5F0
100
AcDbEntity
  8
DETAIL
  6
CONTINUOUS
 62
     5
100
AcDbCircle
 10
1553.795871
 20
945.085397
 30
0.0
 40
5.0
100
AcDbArc
 50
50.0
 51
90.0
  0
LINE
  5
5F1
100
AcDbEntity
  8
DETAIL
  6
CONTINUOUS
 62
     5
100
AcDbLine
 10
1509.720932
 20
950.085397
 30
0.0
 11
1553.795871
 21
950.085397
 31
0.0
  0
LINE
  5
5F2
100
AcDbEntity
  8
NOTE
  6
CONTINUOUS
 62
     4
100
AcDbLine
 10
1546.22087
 20
1003.400564
 30
0.0
 11
1546.22087
 21
942.400568
 31
0.0
  0
ARC
  5
5F3
100
AcDbEntity
  8
DETAIL
  6
CONTINUOUS
 62
     5
100
AcDbCircle
 10
1546.22087
 20
972.900566
 30
0.0
 40
17.999999
100
AcDbArc
 50
271.591754
 51
358.408246
  0
ARC
  5
5F4
100
AcDbEntity
  8
DETAIL
  6
CONTINUOUS
 62
     5
100
AcDbCircle
 10
1546.22087
 20
972.900566
 30
0.0
 40
17.999999
100
AcDbArc
 50
181.591754
 51
268.408246
  0
CIRCLE
  5
5F5
100
AcDbEntity
  8
DETAIL
  6
CONTINUOUS
 62
     5
100
AcDbCircle
 10
1621.097766
 20
715.895702
 30
0.0
 40
2.5
  0
LINE
  5
5F6
100
AcDbEntity
  8
DETAIL
  6
CONTINUOUS
 62
     5
100
AcDbLine
 10
1777.097757
 20
761.603922
 30
0.0
 11
1777.097757
 21
711.695703
 31
0.0
  0
CIRCLE
  5
5F7
100
AcDbEntity
  8
DETAIL
  6
CONTINUOUS
 62
     5
100
AcDbCircle
 10
1671.097763
 20
720.395702
 30
0.0
 40
8.999999
  0
CIRCLE
  5
5F8
100
AcDbEntity
  8
DETAIL
  6
CONTINUOUS
 62
     5
100
AcDbCircle
 10
1671.097763
 20
720.395702
 30
0.0
 40
6.0
  0
LINE
  5
5F9
100
AcDbEntity
  8
SIZE
  6
CONTINUOUS
 62
    30
100
AcDbLine
 10
1933.22087
 20
443.961245
 30
0.0
 11
1795.189857
 21
443.961245
 31
0.0
  0
LINE
  5
5FA
100
AcDbEntity
  8
DETAIL
  6
CONTINUOUS
 62
     5
100
AcDbLine
 10
1827.220879
 20
650.900589
 30
0.0
 11
1610.983963
 21
650.900589
 31
0.0
  0
POINT
  5
5FB
100
AcDbEntity
  8
DEFPOINTS
  6
CONTINUOUS
 62
     7
100
AcDbPoint
 10
1738.220932
 20
437.830793
 30
0.0
  0
LINE
  5
5FC
100
AcDbEntity
  8
SIZE
  6
CONTINUOUS
 62
    30
100
AcDbLine
 10
1733.220932
 20
437.830793
 30
0.0
 11
1728.220932
 21
437.830793
 31
0.0
  0
CIRCLE
  5
5FD
100
AcDbEntity
  8
SIZE
  6
CONTINUOUS
 62
    30
100
AcDbCircle
 10
1738.220932
 20
437.830793
 30
0.0
 40
5.0
  0
POINT
  5
5FE
100
AcDbEntity
  8
DEFPOINTS
  6
CONTINUOUS
 62
     7
100
AcDbPoint
 10
1615.39944
 20
674.900566
 30
0.0
  0
POINT
  5
5FF
100
AcDbEntity
  8
DEFPOINTS
  6
CONTINUOUS
 62
     7
100
AcDbPoint
 10
1590.22087
 20
649.721996
 30
0.0
  0
LINE
  5
600
100
AcDbEntity
  8
DETAIL
  6
CONTINUOUS
 62
     5
100
AcDbLine
 10
1610.983963
 20
674.900566
 30
0.0
 11
1610.983963
 21
644.900566
 31
0.0
  0
LINE
  5
601
100
AcDbEntity
  8
NOTE
  6
CONTINUOUS
 62
     4
100
AcDbLine
 10
1590.22087
 20
700.079136
 30
0.0
 11
1590.22087
 21
649.721996
 31
0.0
  0
LINE
  5
602
100
AcDbEntity
  8
SERVICESPACE
  6
DASHDOT
 62
     2
100
AcDbLine
 10
1738.220932
 20
644.900566
 30
0.0
 11
1738.220932
 21
624.900566
 31
0.0
  0
POINT
  5
603
100
AcDbEntity
  8
DEFPOINTS
  6
CONTINUOUS
 62
     7
100
AcDbPoint
 10
1738.220932
 20
624.900566
 30
0.0
  0
ARC
  5
604
100
AcDbEntity
  8
DETAIL
  6
CONTINUOUS
 62
     5
100
AcDbCircle
 10
1771.297757
 20
711.695703
 30
0.0
 40
5.8
100
AcDbArc
 50
270.0
 51
0.0
  0
LINE
  5
605
100
AcDbEntity
  8
SIZE
  6
CONTINUOUS
 62
    30
100
AcDbLine
 10
1983.22087
 20
604.900566
 30
0.0
 11
1983.22087
 21
413.961245
 31
0.0
  0
LINE
  5
606
100
AcDbEntity
  8
SIZE
  6
CONTINUOUS
 62
    30
100
AcDbLine
 10
1933.22087
 20
604.900566
 30
0.0
 11
1933.22087
 21
413.961245
 31
0.0
  0
TEXT
  5
607
100
AcDbEntity
  8
SIZE
  6
CONTINUOUS
 62
    30
100
AcDbText
 10
1810.189856
 20
458.961245
 30
0.0
 40
55.0
  1
50
 41
0.9
 72
     1
 11
1850.261285
 21
458.961245
 31
0.0
100
AcDbText
  0
POINT
  5
608
100
AcDbEntity
  8
DEFPOINTS
  6
CONTINUOUS
 62
     7
100
AcDbPoint
 10
1983.22087
 20
443.961245
 30
0.0
  0
LINE
  5
609
100
AcDbEntity
  8
SIZE
  6
CONTINUOUS
 62
    30
100
AcDbLine
 10
1938.22087
 20
443.961245
 30
0.0
 11
1943.22087
 21
443.961245
 31
0.0
  0
CIRCLE
  5
60A
100
AcDbEntity
  8
SIZE
  6
CONTINUOUS
 62
    30
100
AcDbCircle
 10
1933.22087
 20
443.961245
 30
0.0
 40
5.0
  0
LINE
  5
60B
100
AcDbEntity
  8
SIZE
  6
CONTINUOUS
 62
    30
100
AcDbLine
 10
1978.22087
 20
443.961245
 30
0.0
 11
1973.22087
 21
443.961245
 31
0.0
  0
CIRCLE
  5
60C
100
AcDbEntity
  8
SIZE
  6
CONTINUOUS
 62
    30
100
AcDbCircle
 10
1983.22087
 20
443.961245
 30
0.0
 40
5.0
  0
LINE
  5
60D
100
AcDbEntity
  8
SIZE
  6
CONTINUOUS
 62
    30
100
AcDbLine
 10
1973.22087
 20
443.961245
 30
0.0
 11
1943.22087
 21
443.961245
 31
0.0
  0
POLYLINE
  5
60E
100
AcDbEntity
  8
NOTE
  6
CONTINUOUS
 62
     4
100
AcDb2dPolyline
 66
     1
 10
0.0
 20
0.0
 30
0.0
  0
VERTEX
  5
60F
100
AcDbEntity
  8
NOTE
  6
CONTINUOUS
 62
     4
100
AcDbVertex
100
AcDb2dVertex
 10
1936.134684
 20
664.690725
 30
0.0
  0
VERTEX
  5
610
100
AcDbEntity
  8
NOTE
  6
CONTINUOUS
 62
     4
100
AcDbVertex
100
AcDb2dVertex
 10
1902.220932
 20
685.900566
 30
0.0
  0
VERTEX
  5
611
100
AcDbEntity
  8
NOTE
  6
CONTINUOUS
 62
     4
100
AcDbVertex
100
AcDb2dVertex
 10
1920.986182
 20
650.575428
 30
0.0
  0
SEQEND
  5
612
100
AcDbEntity
  8
NOTE
  6
CONTINUOUS
 62
     4
  0
LINE
  5
613
100
AcDbEntity
  8
NOTE
  6
CONTINUOUS
 62
     4
100
AcDbLine
 10
1922.220932
 20
685.900566
 30
0.0
 11
1882.220932
 21
685.900566
 31
0.0
  0
LINE
  5
614
100
AcDbEntity
  8
DETAIL
  6
CONTINUOUS
 62
     5
100
AcDbLine
 10
1930.220871
 20
673.900567
 30
0.0
 11
1912.220872
 21
673.900567
 31
0.0
  0
LINE
  5
615
100
AcDbEntity
  8
DETAIL
  6
CONTINUOUS
 62
     5
100
AcDbLine
 10
1933.22087
 20
685.900566
 30
0.0
 11
1873.220874
 21
685.900566
 31
0.0
  0
POINT
  5
616
100
AcDbEntity
  8
DEFPOINTS
  6
CONTINUOUS
 62
     7
100
AcDbPoint
 10
1902.220932
 20
665.900566
 30
0.0
  0
POINT
  5
617
100
AcDbEntity
  8
DEFPOINTS
  6
CONTINUOUS
 62
     7
100
AcDbPoint
 10
1902.220932
 20
665.900566
 30
0.0
  0
CIRCLE
  5
618
100
AcDbEntity
  8
FIX
  6
CONTINUOUS
 62
    11
100
AcDbCircle
 10
1902.220932
 20
685.900566
 30
0.0
 40
5.0
  0
LINE
  5
619
100
AcDbEntity
  8
NOTE
  6
CONTINUOUS
 62
     4
100
AcDbLine
 10
1902.220932
 20
665.900566
 30
0.0
 11
1902.220932
 21
705.900566
 31
0.0
  0
CIRCLE
  5
61A
100
AcDbEntity
  8
DETAIL
  6
CONTINUOUS
 62
     5
100
AcDbCircle
 10
1877.220876
 20
665.900567
 30
0.0
 40
3.5
  0
CIRCLE
  5
61B
100
AcDbEntity
  8
DETAIL
  6
CONTINUOUS
 62
     5
100
AcDbCircle
 10
1837.220878
 20
665.900567
 30
0.0
 40
3.5
  0
CIRCLE
  5
61C
100
AcDbEntity
  8
DETAIL
  6
CONTINUOUS
 62
     5
100
AcDbCircle
 10
1877.220876
 20
665.900567
 30
0.0
 40
3.5
  0
ARC
  5
61D
100
AcDbEntity
  8
DETAIL
  6
CONTINUOUS
 62
     5
100
AcDbCircle
 10
1912.220872
 20
676.900567
 30
0.0
 40
3.0
100
AcDbArc
 50
180.0
 51
270.0
  0
LINE
  5
61E
100
AcDbEntity
  8
DETAIL
  6
CONTINUOUS
 62
     5
100
AcDbLine
 10
1909.220872
 20
685.900566
 30
0.0
 11
1909.220872
 21
676.900567
 31
0.0
  0
ARC
  5
61F
100
AcDbEntity
  8
DETAIL
  6
CONTINUOUS
 62
     5
100
AcDbCircle
 10
1894.220873
 20
676.900567
 30
0.0
 40
3.0
100
AcDbArc
 50
270.0
 51
0.0
  0
LINE
  5
620
100
AcDbEntity
  8
DETAIL
  6
CONTINUOUS
 62
     5
100
AcDbLine
 10
1897.220873
 20
685.900566
 30
0.0
 11
1897.220873
 21
676.900567
 31
0.0
  0
LINE
  5
621
100
AcDbEntity
  8
DETAIL
  6
CONTINUOUS
 62
     5
100
AcDbLine
 10
1909.220872
 20
683.600566
 30
0.0
 11
1897.220873
 21
683.600566
 31
0.0
  0
ARC
  5
622
100
AcDbEntity
  8
DETAIL
  6
CONTINUOUS
 62
     5
100
AcDbCircle
 10
1876.220874
 20
676.900567
 30
0.0
 40
3.0
100
AcDbArc
 50
180.0
 51
270.0
  0
LINE
  5
623
100
AcDbEntity
  8
DETAIL
  6
CONTINUOUS
 62
     5
100
AcDbLine
 10
1873.220874
 20
676.900567
 30
0.0
 11
1873.220874
 21
685.900566
 31
0.0
  0
LINE
  5
624
100
AcDbEntity
  8
DETAIL
  6
CONTINUOUS
 62
     5
100
AcDbLine
 10
1894.220873
 20
673.900567
 30
0.0
 11
1876.220874
 21
673.900567
 31
0.0
  0
LINE
  5
625
100
AcDbEntity
  8
DETAIL
  6
CONTINUOUS
 62
     5
100
AcDbLine
 10
1827.220879
 20
679.900566
 30
0.0
 11
1827.220879
 21
645.900568
 31
0.0
  0
LINE
  5
626
100
AcDbEntity
  8
DETAIL
  6
CONTINUOUS
 62
     5
100
AcDbLine
 10
1873.220874
 20
679.900566
 30
0.0
 11
1827.220879
 21
679.900566
 31
0.0
  0
POINT
  5
627
100
AcDbEntity
  8
DEFPOINTS
  6
CONTINUOUS
 62
     7
100
AcDbPoint
 10
1984.055663
 20
624.900566
 30
0.0
  0
POINT
  5
628
100
AcDbEntity
  8
DEFPOINTS
  6
CONTINUOUS
 62
     7
100
AcDbPoint
 10
1934.055663
 20
644.900566
 30
0.0
  0
POINT
  5
629
100
AcDbEntity
  8
DEFPOINTS
  6
CONTINUOUS
 62
     7
100
AcDbPoint
 10
1983.22087
 20
624.900566
 30
0.0
  0
POINT
  5
62A
100
AcDbEntity
  8
DEFPOINTS
  6
CONTINUOUS
 62
     7
100
AcDbPoint
 10
1933.22087
 20
624.900566
 30
0.0
  0
LINE
  5
62B
100
AcDbEntity
  8
SERVICESPACE
  6
DASHDOT
 62
     2
100
AcDbLine
 10
1983.22087
 20
644.900566
 30
0.0
 11
1983.22087
 21
624.900566
 31
0.0
  0
POINT
  5
62C
100
AcDbEntity
  8
DEFPOINTS
  6
CONTINUOUS
 62
     7
100
AcDbPoint
 10
1933.22087
 20
644.900566
 30
0.0
  0
POINT
  5
62D
100
AcDbEntity
  8
DEFPOINTS
  6
CONTINUOUS
 62
     7
100
AcDbPoint
 10
1933.22087
 20
644.900566
 30
0.0
  0
POINT
  5
62E
100
AcDbEntity
  8
DEFPOINTS
  6
CONTINUOUS
 62
     7
100
AcDbPoint
 10
1933.22087
 20
644.900566
 30
0.0
  0
POINT
  5
62F
100
AcDbEntity
  8
DEFPOINTS
  6
CONTINUOUS
 62
     7
100
AcDbPoint
 10
1933.22087
 20
644.900566
 30
0.0
  0
POINT
  5
630
100
AcDbEntity
  8
DEFPOINTS
  6
CONTINUOUS
 62
     7
100
AcDbPoint
 10
1933.22087
 20
644.900566
 30
0.0
  0
POINT
  5
631
100
AcDbEntity
  8
DEFPOINTS
  6
CONTINUOUS
 62
     7
100
AcDbPoint
 10
1933.22087
 20
644.900566
 30
0.0
  0
ARC
  5
632
100
AcDbEntity
  8
DETAIL
  6
CONTINUOUS
 62
     5
100
AcDbCircle
 10
1930.220871
 20
676.900567
 30
0.0
 40
3.0
100
AcDbArc
 50
270.0
 51
0.0
  0
LINE
  5
633
100
AcDbEntity
  8
DETAIL
  6
CONTINUOUS
 62
     5
100
AcDbLine
 10
1744.397759
 20
996.995685
 30
0.0
 11
1883.59775
 21
996.995685
 31
0.0
  0
LINE
  5
634
100
AcDbEntity
  8
DETAIL
  6
CONTINUOUS
 62
     5
100
AcDbLine
 10
1585.797768
 20
1000.695685
 30
0.0
 11
1873.797751
 21
1000.695685
 31
0.0
  0
LINE
  5
635
100
AcDbEntity
  8
DETAIL
  6
CONTINUOUS
 62
     5
100
AcDbLine
 10
1834.370579
 20
752.764178
 30
0.0
 11
1596.4696
 21
952.386802
 31
0.0
  0
POLYLINE
  5
636
100
AcDbEntity
  8
NOTE
  6
CONTINUOUS
 62
     4
100
AcDb2dPolyline
 66
     1
 10
0.0
 20
0.0
 30
0.0
  0
VERTEX
  5
637
100
AcDbEntity
  8
NOTE
  6
CONTINUOUS
 62
     4
100
AcDbVertex
100
AcDb2dVertex
 10
1617.029353
 20
889.482942
 30
0.0
  0
VERTEX
  5
638
100
AcDbEntity
  8
NOTE
  6
CONTINUOUS
 62
     4
100
AcDbVertex
100
AcDb2dVertex
 10
1641.145348
 20
852.00176
 30
0.0
  0
VERTEX
  5
639
100
AcDbEntity
  8
NOTE
  6
CONTINUOUS
 62
     4
100
AcDbVertex
100
AcDb2dVertex
 10
1636.965224
 20
896.762471
 30
0.0
  0
SEQEND
  5
63A
100
AcDbEntity
  8
NOTE
  6
CONTINUOUS
 62
     4
  0
LINE
  5
63B
100
AcDbEntity
  8
DETAIL
  6
CONTINUOUS
 62
     5
100
AcDbLine
 10
1629.804877
 20
861.676888
 30
0.0
 11
1638.95623
 21
872.583046
 31
0.0
  0
ARC
  5
63C
100
AcDbEntity
  8
DETAIL
  6
CONTINUOUS
 62
     5
100
AcDbCircle
 10
1641.295543
 20
852.035074
 30
0.0
 40
14.999999
100
AcDbArc
 50
337.004861
 51
122.995139
  0
LINE
  5
63D
100
AcDbEntity
  8
NOTE
  6
CONTINUOUS
 62
     4
100
AcDbLine
 10
1641.22087
 20
878.329136
 30
0.0
 11
1641.22087
 21
825.471996
 31
0.0
  0
LINE
  5
63E
100
AcDbEntity
  8
DETAIL
  6
CONTINUOUS
 62
     5
100
AcDbLine
 10
1683.908193
 20
823.458555
 30
0.0
 11
1693.228613
 21
834.566199
 31
0.0
  0
LINE
  5
63F
100
AcDbEntity
  8
DETAIL
  6
CONTINUOUS
 62
     5
100
AcDbLine
 10
1727.844765
 20
805.519798
 30
0.0
 11
1670.085018
 21
853.985981
 31
0.0
  0
POINT
  5
640
100
AcDbEntity
  8
DEFPOINTS
  6
CONTINUOUS
 62
     7
100
AcDbPoint
 10
1667.64944
 20
851.900566
 30
0.0
  0
LINE
  5
641
100
AcDbEntity
  8
DETAIL
  6
CONTINUOUS
 62
     5
100
AcDbLine
 10
1648.795542
 20
865.025455
 30
0.0
 11
1656.295542
 21
852.035074
 31
0.0
  0
ARC
  5
642
100
AcDbEntity
  8
DETAIL
  6
CONTINUOUS
 62
     5
100
AcDbCircle
 10
1660.810947
 20
843.753231
 30
0.0
 40
6.2
100
AcDbArc
 50
157.004861
 51
171.733292
  0
ARC
  5
643
100
AcDbEntity
  8
DETAIL
  6
CONTINUOUS
 62
     5
100
AcDbCircle
 10
1666.35685
 20
849.542923
 30
0.0
 40
5.8
100
AcDbArc
 50
50.0
 51
140.0
  0
LINE
  5
644
100
AcDbEntity
  8
DETAIL
  6
CONTINUOUS
 62
     5
100
AcDbLine
 10
1652.786209
 20
842.393261
 30
0.0
 11
1661.913792
 21
853.271091
 31
0.0
  0
LINE
  5
645
100
AcDbEntity
  8
DETAIL
  6
CONTINUOUS
 62
     5
100
AcDbLine
 10
1633.795543
 20
865.025455
 30
0.0
 11
1626.295544
 21
852.035074
 31
0.0
  0
ARC
  5
646
100
AcDbEntity
  8
DETAIL
  6
CONTINUOUS
 62
     5
100
AcDbCircle
 10
1629.750704
 20
869.815869
 30
0.0
 40
6.2
100
AcDbArc
 50
288.266708
 51
302.995139
  0
CIRCLE
  5
647
100
AcDbEntity
  8
DETAIL
  6
CONTINUOUS
 62
     5
100
AcDbCircle
 10
1641.22087
 20
851.900566
 30
0.0
 40
7.0
  0
LINE
  5
648
100
AcDbEntity
  8
NOTE
  6
CONTINUOUS
 62
     4
100
AcDbLine
 10
1667.64944
 20
851.900566
 30
0.0
 11
1614.792301
 21
851.900566
 31
0.0
  0
LINE
  5
649
100
AcDbEntity
  8
DETAIL
  6
CONTINUOUS
 62
     5
100
AcDbLine
 10
1633.795543
 20
865.025455
 30
0.0
 11
1648.795542
 21
865.025455
 31
0.0
  0
ARC
  5
64A
100
AcDbEntity
  8
DETAIL
  6
CONTINUOUS
 62
     5
100
AcDbCircle
 10
1677.013793
 20
829.243643
 30
0.0
 40
6.0
100
AcDbArc
 50
140.0
 51
320.0
  0
LINE
  5
64B
100
AcDbEntity
  8
DETAIL
  6
CONTINUOUS
 62
     5
100
AcDbLine
 10
1648.795542
 20
839.044694
 30
0.0
 11
1633.795543
 21
839.044694
 31
0.0
  0
LINE
  5
64C
100
AcDbEntity
  8
DETAIL
  6
CONTINUOUS
 62
     5
100
AcDbLine
 10
1681.61006
 20
825.386918
 30
0.0
 11
1690.93048
 21
836.494562
 31
0.0
  0
ARC
  5
64D
100
AcDbEntity
  8
DETAIL
  6
CONTINUOUS
 62
     5
100
AcDbCircle
 10
1677.013793
 20
829.243643
 30
0.0
 40
8.999999
100
AcDbArc
 50
140.0
 51
320.0
  0
LINE
  5
64E
100
AcDbEntity
  8
DETAIL
  6
CONTINUOUS
 62
     5
100
AcDbLine
 10
1626.295544
 20
852.035074
 30
0.0
 11
1633.795543
 21
839.044694
 31
0.0
  0
LINE
  5
64F
100
AcDbEntity
  8
DETAIL
  6
CONTINUOUS
 62
     5
100
AcDbLine
 10
1648.795542
 20
839.044694
 30
0.0
 11
1656.295542
 21
852.035074
 31
0.0
  0
LINE
  5
650
100
AcDbEntity
  8
DETAIL
  6
CONTINUOUS
 62
     5
100
AcDbLine
 10
1670.119394
 20
835.028731
 30
0.0
 11
1679.439814
 21
846.136375
 31
0.0
  0
LINE
  5
651
100
AcDbEntity
  8
DETAIL
  6
CONTINUOUS
 62
     5
100
AcDbLine
 10
1672.417527
 20
833.100369
 30
0.0
 11
1681.737947
 21
844.208012
 31
0.0
  0
ARC
  5
652
100
AcDbEntity
  8
DETAIL
  6
CONTINUOUS
 62
     5
100
AcDbCircle
 10
1641.295543
 20
852.035074
 30
0.0
 40
14.999999
100
AcDbArc
 50
140.0
 51
320.0
  0
LINE
  5
653
100
AcDbEntity
  8
NOTE
  6
CONTINUOUS
 62
     4
100
AcDbLine
 10
1733.146198
 20
801.194627
 30
0.0
 11
1733.146198
 21
748.337488
 31
0.0
  0
POLYLINE
  5
654
100
AcDbEntity
  8
NOTE
  6
CONTINUOUS
 62
     4
100
AcDb2dPolyline
 66
     1
 10
0.0
 20
0.0
 30
0.0
  0
VERTEX
  5
655
100
AcDbEntity
  8
NOTE
  6
CONTINUOUS
 62
     4
100
AcDbVertex
100
AcDb2dVertex
 10
1764.143333
 20
749.542701
 30
0.0
  0
VERTEX
  5
656
100
AcDbEntity
  8
NOTE
  6
CONTINUOUS
 62
     4
100
AcDbVertex
100
AcDb2dVertex
 10
1733.218775
 20
774.913387
 30
0.0
  0
VERTEX
  5
657
100
AcDbEntity
  8
NOTE
  6
CONTINUOUS
 62
     4
100
AcDbVertex
100
AcDb2dVertex
 10
1747.314885
 20
737.47945
 30
0.0
  0
SEQEND
  5
658
100
AcDbEntity
  8
NOTE
  6
CONTINUOUS
 62
     4
  0
POINT
  5
659
100
AcDbEntity
  8
DEFPOINTS
  6
CONTINUOUS
 62
     7
100
AcDbPoint
 10
1762.64944
 20
774.900566
 30
0.0
  0
POINT
  5
65A
100
AcDbEntity
  8
DEFPOINTS
  6
CONTINUOUS
 62
     7
100
AcDbPoint
 10
1762.64944
 20
774.900566
 30
0.0
  0
POINT
  5
65B
100
AcDbEntity
  8
DEFPOINTS
  6
CONTINUOUS
 62
     7
100
AcDbPoint
 10
1733.22087
 20
804.329136
 30
0.0
  0
POINT
  5
65C
100
AcDbEntity
  8
DEFPOINTS
  6
CONTINUOUS
 62
     7
100
AcDbPoint
 10
1733.22087
 20
804.329136
 30
0.0
  0
ARC
  5
65D
100
AcDbEntity
  8
DETAIL
  6
CONTINUOUS
 62
     5
100
AcDbCircle
 10
1771.297757
 20
761.603922
 30
0.0
 40
5.8
100
AcDbArc
 50
0.0
 51
50.0
  0
ARC
  5
65E
100
AcDbEntity
  8
DETAIL
  6
CONTINUOUS
 62
     5
100
AcDbCircle
 10
1724.116597
 20
801.076741
 30
0.0
 40
5.8
100
AcDbArc
 50
320.0
 51
50.0
  0
ARC
  5
65F
100
AcDbEntity
  8
DETAIL
  6
CONTINUOUS
 62
     5
100
AcDbCircle
 10
1719.286608
 20
794.686325
 30
0.0
 40
6.2
100
AcDbArc
 50
290.426912
 51
305.155396
  0
LINE
  5
660
100
AcDbEntity
  8
DETAIL
  6
CONTINUOUS
 62
     5
100
AcDbLine
 10
1724.220871
 20
790.489022
 30
0.0
 11
1742.22087
 21
790.489022
 31
0.0
  0
LINE
  5
661
100
AcDbEntity
  8
DETAIL
  6
CONTINUOUS
 62
     5
100
AcDbLine
 10
1719.432071
 20
786.470742
 30
0.0
 11
1728.559655
 21
797.348573
 31
0.0
  0
LINE
  5
662
100
AcDbEntity
  8
DETAIL
  6
CONTINUOUS
 62
     5
100
AcDbLine
 10
1751.220869
 20
774.900566
 30
0.0
 11
1742.22087
 21
759.31211
 31
0.0
  0
ARC
  5
663
100
AcDbEntity
  8
DETAIL
  6
CONTINUOUS
 62
     5
100
AcDbCircle
 10
1755.125699
 20
764.613757
 30
0.0
 40
6.2
100
AcDbArc
 50
154.844604
 51
169.573088
  0
ARC
  5
664
100
AcDbEntity
  8
DETAIL
  6
CONTINUOUS
 62
     5
100
AcDbCircle
 10
1760.63786
 20
770.548637
 30
0.0
 40
5.8
100
AcDbArc
 50
50.0
 51
140.0
  0
LINE
  5
665
100
AcDbEntity
  8
DETAIL
  6
CONTINUOUS
 62
     5
100
AcDbLine
 10
1747.00967
 20
763.33039
 30
0.0
 11
1756.194803
 21
774.276805
 31
0.0
  0
LINE
  5
666
100
AcDbEntity
  8
DETAIL
  6
CONTINUOUS
 62
     5
100
AcDbLine
 10
1715.220872
 20
774.900566
 30
0.0
 11
1724.220871
 21
759.31211
 31
0.0
  0
LINE
  5
667
100
AcDbEntity
  8
NOTE
  6
CONTINUOUS
 62
     4
100
AcDbLine
 10
1762.64944
 20
774.900566
 30
0.0
 11
1703.792301
 21
774.900566
 31
0.0
  0
LINE
  5
668
100
AcDbEntity
  8
DETAIL
  6
CONTINUOUS
 62
     5
100
AcDbLine
 10
1724.220871
 20
759.31211
 30
0.0
 11
1742.22087
 21
759.31211
 31
0.0
  0
CIRCLE
  5
669
100
AcDbEntity
  8
DETAIL
  6
CONTINUOUS
 62
     5
100
AcDbCircle
 10
1733.22087
 20
774.900566
 30
0.0
 40
9.999999
  0
LINE
  5
66A
100
AcDbEntity
  8
DETAIL
  6
CONTINUOUS
 62
     5
100
AcDbLine
 10
1715.220872
 20
774.900566
 30
0.0
 11
1724.220871
 21
790.489022
 31
0.0
  0
LINE
  5
66B
100
AcDbEntity
  8
DETAIL
  6
CONTINUOUS
 62
     5
100
AcDbLine
 10
1751.220869
 20
774.900566
 30
0.0
 11
1742.22087
 21
790.489022
 31
0.0
  0
ARC
  5
66C
100
AcDbEntity
  8
DETAIL
  6
CONTINUOUS
 62
     5
100
AcDbCircle
 10
1733.22087
 20
774.900566
 30
0.0
 40
17.999999
100
AcDbArc
 50
334.844604
 51
125.155396
  0
ARC
  5
66D
100
AcDbEntity
  8
DETAIL
  6
CONTINUOUS
 62
     5
100
AcDbCircle
 10
1733.22087
 20
774.900566
 30
0.0
 40
17.999999
100
AcDbArc
 50
140.0
 51
320.0
  0
LINE
  5
66E
100
AcDbEntity
  8
DETAIL
  6
CONTINUOUS
 62
     5
100
AcDbLine
 10
1764.366028
 20
774.991695
 30
0.0
 11
1775.025925
 21
766.04698
 31
0.0
  0
LINE
  5
66F
100
AcDbEntity
  8
DETAIL
  6
CONTINUOUS
 62
     5
100
AcDbLine
 10
1600.197768
 20
996.995685
 30
0.0
 11
1734.397759
 21
996.995685
 31
0.0
  0
POINT
  5
670
100
AcDbEntity
  8
DEFPOINTS
  6
CONTINUOUS
 62
     7
100
AcDbPoint
 10
1641.22087
 20
878.329136
 30
0.0
  0
LINE
  5
671
100
AcDbEntity
  8
DETAIL
  6
CONTINUOUS
 62
     5
100
AcDbLine
 10
1600.934978
 20
912.058026
 30
0.0
 11
1601.553996
 21
912.795743
 31
0.0
  0
CIRCLE
  5
672
100
AcDbEntity
  8
DETAIL
  6
CONTINUOUS
 62
     5
100
AcDbCircle
 10
1637.54702
 20
928.331337
 30
0.0
 40
2.5
  0
ARC
  5
673
100
AcDbEntity
  8
DETAIL
  6
CONTINUOUS
 62
     5
100
AcDbCircle
 10
1634.513173
 20
876.311214
 30
0.0
 40
5.8
100
AcDbArc
 50
320.0
 51
50.0
  0
LINE
  5
674
100
AcDbEntity
  8
DETAIL
  6
CONTINUOUS
 62
     5
100
AcDbLine
 10
1585.797768
 20
1006.695685
 30
0.0
 11
1585.797768
 21
1000.695685
 31
0.0
  0
ARC
  5
675
100
AcDbEntity
  8
DETAIL
  6
CONTINUOUS
 62
     5
100
AcDbCircle
 10
1600.197768
 20
991.195685
 30
0.0
 40
5.8
100
AcDbArc
 50
90.0
 51
180.0
  0
ARC
  5
676
100
AcDbEntity
  8
DETAIL
  6
CONTINUOUS
 62
     5
100
AcDbCircle
 10
1595.305245
 20
914.683114
 30
0.0
 40
3.0
100
AcDbArc
 50
230.0
 51
320.0
  0
LINE
  5
677
100
AcDbEntity
  8
DETAIL
  6
CONTINUOUS
 62
     5
100
AcDbLine
 10
1599.255863
 20
914.724106
 30
0.0
 11
1597.437013
 21
912.556484
 31
0.0
  0
LINE
  5
678
100
AcDbEntity
  8
DETAIL
  6
CONTINUOUS
 62
     5
100
AcDbLine
 10
1593.376883
 20
912.38498
 30
0.0
 11
1590.312705
 21
914.956131
 31
0.0
  0
LINE
  5
679
100
AcDbEntity
  8
DETAIL
  6
CONTINUOUS
 62
     5
100
AcDbLine
 10
1591.723977
 20
921.30519
 30
0.0
 11
1599.384421
 21
914.877314
 31
0.0
  0
ARC
  5
67A
100
AcDbEntity
  8
DETAIL
  6
CONTINUOUS
 62
     5
100
AcDbCircle
 10
1592.241068
 20
917.254264
 30
0.0
 40
3.0
100
AcDbArc
 50
140.0
 51
230.0
  0
ARC
  5
67B
100
AcDbEntity
  8
DETAIL
  6
CONTINUOUS
 62
     5
100
AcDbCircle
 10
1590.446353
 20
922.116163
 30
0.0
 40
1.5
100
AcDbArc
 50
320.0
 51
140.0
  0
LINE
  5
67C
100
AcDbEntity
  8
DETAIL
  6
CONTINUOUS
 62
     5
100
AcDbLine
 10
1589.297286
 20
923.080344
 30
0.0
 11
1588.678268
 21
922.342627
 31
0.0
  0
LINE
  5
67D
100
AcDbEntity
  8
DETAIL
  6
CONTINUOUS
 62
     5
100
AcDbLine
 10
1589.776569
 20
918.98436
 30
0.0
 11
1591.595419
 21
921.151981
 31
0.0
  0
ARC
  5
67E
100
AcDbEntity
  8
DETAIL
  6
CONTINUOUS
 62
     5
100
AcDbCircle
 10
1600.197768
 20
956.82986
 30
0.0
 40
5.8
100
AcDbArc
 50
180.0
 51
230.0
  0
LINE
  5
67F
100
AcDbEntity
  8
DETAIL
  6
CONTINUOUS
 62
     5
100
AcDbLine
 10
1594.397768
 20
956.82986
 30
0.0
 11
1594.397768
 21
991.195685
 31
0.0
  0
ARC
  5
680
100
AcDbEntity
  8
DETAIL
  6
CONTINUOUS
 62
     5
100
AcDbCircle
 10
1600.40493
 20
913.759924
 30
0.0
 40
1.5
100
AcDbArc
 50
320.0
 51
140.0
  0
LINE
  5
681
100
AcDbEntity
  8
DETAIL
  6
CONTINUOUS
 62
     5
100
AcDbLine
 10
1598.636845
 20
913.986389
 30
0.0
 11
1638.24134
 21
880.754271
 31
0.0
  0
LINE
  5
682
100
AcDbEntity
  8
DETAIL
  6
CONTINUOUS
 62
     5
100
AcDbLine
 10
1734.397759
 20
997.995685
 30
0.0
 11
1734.397759
 21
994.995685
 31
0.0
  0
LINE
  5
683
100
AcDbEntity
  8
DETAIL
  6
CONTINUOUS
 62
     5
100
AcDbLine
 10
1744.397759
 20
994.995685
 30
0.0
 11
1744.397759
 21
997.995685
 31
0.0
  0
LINE
  5
684
100
AcDbEntity
  8
DETAIL
  6
CONTINUOUS
 62
     5
100
AcDbLine
 10
1734.397759
 20
998.195685
 30
0.0
 11
1744.397759
 21
998.195685
 31
0.0
  0
LINE
  5
685
100
AcDbEntity
  8
DETAIL
  6
CONTINUOUS
 62
     5
100
AcDbLine
 10
1736.397759
 20
992.995685
 30
0.0
 11
1742.397759
 21
992.995685
 31
0.0
  0
ARC
  5
686
100
AcDbEntity
  8
DETAIL
  6
CONTINUOUS
 62
     5
100
AcDbCircle
 10
1742.397759
 20
994.995685
 30
0.0
 40
2.0
100
AcDbArc
 50
270.0
 51
0.0
  0
ARC
  5
687
100
AcDbEntity
  8
DETAIL
  6
CONTINUOUS
 62
     5
100
AcDbCircle
 10
1736.397759
 20
994.995685
 30
0.0
 40
2.0
100
AcDbArc
 50
180.0
 51
270.0
  0
LINE
  5
688
100
AcDbEntity
  8
DETAIL
  6
CONTINUOUS
 62
     5
100
AcDbLine
 10
1747.397759
 20
996.995685
 30
0.0
 11
1747.397759
 21
997.995685
 31
0.0
  0
LINE
  5
689
100
AcDbEntity
  8
DETAIL
  6
CONTINUOUS
 62
     5
100
AcDbLine
 10
1731.39776
 20
997.995685
 30
0.0
 11
1731.39776
 21
996.995685
 31
0.0
  0
ARC
  5
68A
100
AcDbEntity
  8
DETAIL
  6
CONTINUOUS
 62
     5
100
AcDbCircle
 10
1745.897759
 20
997.995685
 30
0.0
 40
1.5
100
AcDbArc
 50
0.0
 51
180.0
  0
ARC
  5
68B
100
AcDbEntity
  8
DETAIL
  6
CONTINUOUS
 62
     5
100
AcDbCircle
 10
1732.897759
 20
997.995685
 30
0.0
 40
1.5
100
AcDbArc
 50
0.0
 51
180.0
  0
CIRCLE
  5
68C
100
AcDbEntity
  8
DETAIL
  6
CONTINUOUS
 62
     5
100
AcDbCircle
 10
1699.412501
 20
1006.395685
 30
0.0
 40
1.7
  0
LINE
  5
68D
100
AcDbEntity
  8
DETAIL
  6
CONTINUOUS
 62
     5
100
AcDbLine
 10
1698.397762
 20
1003.395685
 30
0.0
 11
1700.397761
 21
1003.395685
 31
0.0
  0
ARC
  5
68E
100
AcDbEntity
  8
DETAIL
  6
CONTINUOUS
 62
     5
100
AcDbCircle
 10
1700.397761
 20
1006.395685
 30
0.0
 40
3.0
100
AcDbArc
 50
270.0
 51
90.0
  0
LINE
  5
68F
100
AcDbEntity
  8
DETAIL
  6
CONTINUOUS
 62
     5
100
AcDbLine
 10
1698.397762
 20
1009.395684
 30
0.0
 11
1700.397761
 21
1009.395684
 31
0.0
  0
ARC
  5
690
100
AcDbEntity
  8
DETAIL
  6
CONTINUOUS
 62
     5
100
AcDbCircle
 10
1698.397762
 20
1006.395685
 30
0.0
 40
3.0
100
AcDbArc
 50
90.0
 51
270.0
  0
LINE
  5
691
100
AcDbEntity
  8
NOTE
  6
CONTINUOUS
 62
     4
100
AcDbLine
 10
1947.220871
 20
872.968584
 30
0.0
 11
1947.220871
 21
854.832524
 31
0.0
  0
ARC
  5
692
100
AcDbEntity
  8
DETAIL
  6
CONTINUOUS
 62
     5
100
AcDbCircle
 10
1887.82694
 20
868.995693
 30
0.0
 40
3.0
100
AcDbArc
 50
90.0
 51
180.0
  0
LINE
  5
693
100
AcDbEntity
  8
DETAIL
  6
CONTINUOUS
 62
     5
100
AcDbLine
 10
1890.59775
 20
861.995693
 30
0.0
 11
1890.59775
 21
871.995693
 31
0.0
  0
LINE
  5
694
100
AcDbEntity
  8
DETAIL
  6
CONTINUOUS
 62
     5
100
AcDbLine
 10
1962.22087
 20
988.900566
 30
0.0
 11
1962.22087
 21
738.900566
 31
0.0
  0
ARC
  5
695
100
AcDbEntity
  8
DETAIL
  6
CONTINUOUS
 62
     5
100
AcDbCircle
 10
1887.82694
 20
864.995693
 30
0.0
 40
3.0
100
AcDbArc
 50
180.0
 51
270.0
  0
LINE
  5
696
100
AcDbEntity
  8
DETAIL
  6
CONTINUOUS
 62
     5
100
AcDbLine
 10
1890.39775
 20
861.995693
 30
0.0
 11
1887.568121
 21
861.995693
 31
0.0
  0
LINE
  5
697
100
AcDbEntity
  8
DETAIL
  6
CONTINUOUS
 62
     5
100
AcDbLine
 10
1884.82694
 20
864.995693
 30
0.0
 11
1884.82694
 21
868.995693
 31
0.0
  0
LINE
  5
698
100
AcDbEntity
  8
DETAIL
  6
CONTINUOUS
 62
     5
100
AcDbLine
 10
1890.39775
 20
858.995694
 30
0.0
 11
1889.39775
 21
858.995694
 31
0.0
  0
ARC
  5
699
100
AcDbEntity
  8
DETAIL
  6
CONTINUOUS
 62
     5
100
AcDbCircle
 10
1890.39775
 20
860.495693
 30
0.0
 40
1.5
100
AcDbArc
 50
270.0
 51
90.0
  0
CIRCLE
  5
69A
100
AcDbEntity
  8
DETAIL
  6
CONTINUOUS
 62
     5
100
AcDbCircle
 10
1906.797749
 20
787.895698
 30
0.0
 40
2.5
  0
ARC
  5
69B
100
AcDbEntity
  8
DETAIL
  6
CONTINUOUS
 62
     5
100
AcDbCircle
 10
1883.59775
 20
757.207235
 30
0.0
 40
5.8
100
AcDbArc
 50
270.0
 51
0.0
  0
CIRCLE
  5
69C
100
AcDbEntity
  8
DETAIL
  6
CONTINUOUS
 62
     5
100
AcDbCircle
 10
1806.076787
 20
786.918071
 30
0.0
 40
2.5
  0
ARC
  5
69D
100
AcDbEntity
  8
DETAIL
  6
CONTINUOUS
 62
     5
100
AcDbCircle
 10
1838.098747
 20
757.207235
 30
0.0
 40
5.8
100
AcDbArc
 50
230.0
 51
270.0
  0
LINE
  5
69E
100
AcDbEntity
  8
DETAIL
  6
CONTINUOUS
 62
     5
100
AcDbLine
 10
1838.098747
 20
751.407236
 30
0.0
 11
1883.59775
 21
751.407236
 31
0.0
  0
LINE
  5
69F
100
AcDbEntity
  8
DETAIL
  6
CONTINUOUS
 62
     5
100
AcDbLine
 10
1889.39775
 20
757.207235
 30
0.0
 11
1889.39775
 21
861.995693
 31
0.0
  0
POINT
  5
6A0
100
AcDbEntity
  8
DEFPOINTS
  6
CONTINUOUS
 62
     7
100
AcDbPoint
 10
1962.22087
 20
738.900566
 30
0.0
  0
POINT
  5
6A1
100
AcDbEntity
  8
DEFPOINTS
  6
CONTINUOUS
 62
     7
100
AcDbPoint
 10
1962.22087
 20
738.900566
 30
0.0
  0
POINT
  5
6A2
100
AcDbEntity
  8
DEFPOINTS
  6
CONTINUOUS
 62
     7
100
AcDbPoint
 10
1962.22087
 20
738.900566
 30
0.0
  0
POINT
  5
6A3
100
AcDbEntity
  8
DEFPOINTS
  6
CONTINUOUS
 62
     7
100
AcDbPoint
 10
1958.574731
 20
763.900554
 30
0.0
  0
POINT
  5
6A4
100
AcDbEntity
  8
DEFPOINTS
  6
CONTINUOUS
 62
     7
100
AcDbPoint
 10
1956.288901
 20
763.900554
 30
0.0
  0
POINT
  5
6A5
100
AcDbEntity
  8
DEFPOINTS
  6
CONTINUOUS
 62
     7
100
AcDbPoint
 10
1962.22087
 20
738.900566
 30
0.0
  0
POINT
  5
6A6
100
AcDbEntity
  8
DEFPOINTS
  6
CONTINUOUS
 62
     7
100
AcDbPoint
 10
1962.22087
 20
738.900566
 30
0.0
  0
CIRCLE
  5
6A7
100
AcDbEntity
  8
DETAIL
  6
CONTINUOUS
 62
     5
100
AcDbCircle
 10
1947.220871
 20
863.900554
 30
0.0
 40
1.55
  0
LINE
  5
6A8
100
AcDbEntity
  8
NOTE
  6
CONTINUOUS
 62
     4
100
AcDbLine
 10
1956.288901
 20
863.900554
 30
0.0
 11
1938.152841
 21
863.900554
 31
0.0
  0
CIRCLE
  5
6A9
100
AcDbEntity
  8
DETAIL
  6
CONTINUOUS
 62
     5
100
AcDbCircle
 10
1947.220871
 20
813.900554
 30
0.0
 40
1.55
  0
LINE
  5
6AA
100
AcDbEntity
  8
NOTE
  6
CONTINUOUS
 62
     4
100
AcDbLine
 10
1956.288901
 20
813.900554
 30
0.0
 11
1938.152841
 21
813.900554
 31
0.0
  0
LINE
  5
6AB
100
AcDbEntity
  8
NOTE
  6
CONTINUOUS
 62
     4
100
AcDbLine
 10
1947.220871
 20
822.968584
 30
0.0
 11
1947.220871
 21
804.832524
 31
0.0
  0
CIRCLE
  5
6AC
100
AcDbEntity
  8
DETAIL
  6
CONTINUOUS
 62
     5
100
AcDbCircle
 10
1947.220871
 20
763.900554
 30
0.0
 40
1.55
  0
LINE
  5
6AD
100
AcDbEntity
  8
NOTE
  6
CONTINUOUS
 62
     4
100
AcDbLine
 10
1956.288901
 20
763.900554
 30
0.0
 11
1938.152841
 21
763.900554
 31
0.0
  0
LINE
  5
6AE
100
AcDbEntity
  8
DETAIL
  6
CONTINUOUS
 62
     5
100
AcDbLine
 10
1962.22087
 20
738.900566
 30
0.0
 11
1933.22087
 21
738.900566
 31
0.0
  0
LINE
  5
6AF
100
AcDbEntity
  8
NOTE
  6
CONTINUOUS
 62
     4
100
AcDbLine
 10
1947.220871
 20
772.968584
 30
0.0
 11
1947.220871
 21
754.832524
 31
0.0
  0
LINE
  5
6B0
100
AcDbEntity
  8
DETAIL
  6
CONTINUOUS
 62
     5
100
AcDbLine
 10
1885.79775
 20
1000.695685
 30
0.0
 11
1933.22087
 21
1000.695685
 31
0.0
  0
CIRCLE
  5
6B1
100
AcDbEntity
  8
DETAIL
  6
CONTINUOUS
 62
     5
100
AcDbCircle
 10
1899.361192
 20
1006.395685
 30
0.0
 40
1.7
  0
LINE
  5
6B2
100
AcDbEntity
  8
DETAIL
  6
CONTINUOUS
 62
     5
100
AcDbLine
 10
1898.397749
 20
1003.395685
 30
0.0
 11
1900.397749
 21
1003.395685
 31
0.0
  0
ARC
  5
6B3
100
AcDbEntity
  8
DETAIL
  6
CONTINUOUS
 62
     5
100
AcDbCircle
 10
1900.397749
 20
1006.395685
 30
0.0
 40
3.0
100
AcDbArc
 50
270.0
 51
90.0
  0
LINE
  5
6B4
100
AcDbEntity
  8
DETAIL
  6
CONTINUOUS
 62
     5
100
AcDbLine
 10
1898.397749
 20
1009.395684
 30
0.0
 11
1900.397749
 21
1009.395684
 31
0.0
  0
ARC
  5
6B5
100
AcDbEntity
  8
DETAIL
  6
CONTINUOUS
 62
     5
100
AcDbCircle
 10
1898.397749
 20
1006.395685
 30
0.0
 40
3.0
100
AcDbArc
 50
90.0
 51
270.0
  0
CIRCLE
  5
6B6
100
AcDbEntity
  8
DETAIL
  6
CONTINUOUS
 62
     5
100
AcDbCircle
 10
1879.79775
 20
1006.395685
 30
0.0
 40
2.5
  0
ARC
  5
6B7
100
AcDbEntity
  8
DETAIL
  6
CONTINUOUS
 62
     5
100
AcDbCircle
 10
1879.79775
 20
1006.695685
 30
0.0
 40
6.0
100
AcDbArc
 50
0.0
 51
180.0
  0
LINE
  5
6B8
100
AcDbEntity
  8
DETAIL
  6
CONTINUOUS
 62
     5
100
AcDbLine
 10
1885.79775
 20
1006.695685
 30
0.0
 11
1885.79775
 21
1000.695685
 31
0.0
  0
LINE
  5
6B9
100
AcDbEntity
  8
DETAIL
  6
CONTINUOUS
 62
     5
100
AcDbLine
 10
1873.797751
 20
1006.695685
 30
0.0
 11
1873.797751
 21
1000.695685
 31
0.0
  0
ARC
  5
6BA
100
AcDbEntity
  8
DETAIL
  6
CONTINUOUS
 62
     5
100
AcDbCircle
 10
1883.59775
 20
991.195685
 30
0.0
 40
5.8
100
AcDbArc
 50
0.0
 51
90.0
  0
CIRCLE
  5
6BB
100
AcDbEntity
  8
DETAIL
  6
CONTINUOUS
 62
     5
100
AcDbCircle
 10
1906.797749
 20
937.895689
 30
0.0
 40
2.5
  0
LINE
  5
6BC
100
AcDbEntity
  8
DETAIL
  6
CONTINUOUS
 62
     5
100
AcDbLine
 10
1887.568121
 20
871.995693
 30
0.0
 11
1890.39775
 21
871.995693
 31
0.0
  0
LINE
  5
6BD
100
AcDbEntity
  8
DETAIL
  6
CONTINUOUS
 62
     5
100
AcDbLine
 10
1889.39775
 20
874.995693
 30
0.0
 11
1890.39775
 21
874.995693
 31
0.0
  0
ARC
  5
6BE
100
AcDbEntity
  8
DETAIL
  6
CONTINUOUS
 62
     5
100
AcDbCircle
 10
1890.39775
 20
873.495693
 30
0.0
 40
1.5
100
AcDbArc
 50
270.0
 51
90.0
  0
LINE
  5
6BF
100
AcDbEntity
  8
NOTE
  6
CONTINUOUS
 62
     4
100
AcDbLine
 10
1856.826323
 20
950.995688
 30
0.0
 11
1803.969184
 21
950.995688
 31
0.0
  0
LINE
  5
6C0
100
AcDbEntity
  8
NOTE
  6
CONTINUOUS
 62
     4
100
AcDbLine
 10
1830.397754
 20
977.424258
 30
0.0
 11
1830.397754
 21
924.567118
 31
0.0
  0
ARC
  5
6C1
100
AcDbEntity
  8
DETAIL
  6
CONTINUOUS
 62
     5
100
AcDbCircle
 10
1830.397754
 20
950.995688
 30
0.0
 40
9.999999
100
AcDbArc
 50
293.578178
 51
246.421822
  0
CIRCLE
  5
6C2
100
AcDbEntity
  8
DETAIL
  6
CONTINUOUS
 62
     5
100
AcDbCircle
 10
1830.397754
 20
950.995688
 30
0.0
 40
9.999999
  0
LINE
  5
6C3
100
AcDbEntity
  8
DETAIL
  6
CONTINUOUS
 62
     5
100
AcDbLine
 10
1889.39775
 20
871.995693
 30
0.0
 11
1889.39775
 21
991.195685
 31
0.0
  0
POLYLINE
  5
6C4
100
AcDbEntity
  8
NOTE
  6
CONTINUOUS
 62
     4
100
AcDb2dPolyline
 66
     1
 10
0.0
 20
0.0
 30
0.0
  0
VERTEX
  5
6C5
100
AcDbEntity
  8
NOTE
  6
CONTINUOUS
 62
     4
100
AcDbVertex
100
AcDb2dVertex
 10
1955.704691
 20
1002.990512
 30
0.0
  0
VERTEX
  5
6C6
100
AcDbEntity
  8
NOTE
  6
CONTINUOUS
 62
     4
100
AcDbVertex
100
AcDb2dVertex
 10
1947.220871
 20
963.900554
 30
0.0
  0
VERTEX
  5
6C7
100
AcDbEntity
  8
NOTE
  6
CONTINUOUS
 62
     4
100
AcDbVertex
100
AcDb2dVertex
 10
1974.113053
 20
993.511541
 30
0.0
  0
SEQEND
  5
6C8
100
AcDbEntity
  8
NOTE
  6
CONTINUOUS
 62
     4
  0
POINT
  5
6C9
100
AcDbEntity
  8
DEFPOINTS
  6
CONTINUOUS
 62
     7
100
AcDbPoint
 10
1962.22087
 20
988.900566
 30
0.0
  0
POINT
  5
6CA
100
AcDbEntity
  8
DEFPOINTS
  6
CONTINUOUS
 62
     7
100
AcDbPoint
 10
1958.574731
 20
963.900554
 30
0.0
  0
POINT
  5
6CB
100
AcDbEntity
  8
DEFPOINTS
  6
CONTINUOUS
 62
     7
100
AcDbPoint
 10
1962.22087
 20
988.900566
 30
0.0
  0
POINT
  5
6CC
100
AcDbEntity
  8
DEFPOINTS
  6
CONTINUOUS
 62
     7
100
AcDbPoint
 10
1962.22087
 20
988.900566
 30
0.0
  0
POINT
  5
6CD
100
AcDbEntity
  8
DEFPOINTS
  6
CONTINUOUS
 62
     7
100
AcDbPoint
 10
1947.220871
 20
972.968584
 30
0.0
  0
POINT
  5
6CE
100
AcDbEntity
  8
DEFPOINTS
  6
CONTINUOUS
 62
     7
100
AcDbPoint
 10
1962.22087
 20
988.900566
 30
0.0
  0
CIRCLE
  5
6CF
100
AcDbEntity
  8
DETAIL
  6
CONTINUOUS
 62
     5
100
AcDbCircle
 10
1947.220871
 20
963.900554
 30
0.0
 40
1.55
  0
LINE
  5
6D0
100
AcDbEntity
  8
NOTE
  6
CONTINUOUS
 62
     4
100
AcDbLine
 10
1956.288901
 20
963.900554
 30
0.0
 11
1938.152841
 21
963.900554
 31
0.0
  0
LINE
  5
6D1
100
AcDbEntity
  8
NOTE
  6
CONTINUOUS
 62
     4
100
AcDbLine
 10
1947.220871
 20
972.968584
 30
0.0
 11
1947.220871
 21
954.832524
 31
0.0
  0
CIRCLE
  5
6D2
100
AcDbEntity
  8
DETAIL
  6
CONTINUOUS
 62
     5
100
AcDbCircle
 10
1947.220871
 20
913.900554
 30
0.0
 40
1.55
  0
LINE
  5
6D3
100
AcDbEntity
  8
NOTE
  6
CONTINUOUS
 62
     4
100
AcDbLine
 10
1956.288901
 20
913.900554
 30
0.0
 11
1938.152841
 21
913.900554
 31
0.0
  0
LINE
  5
6D4
100
AcDbEntity
  8
NOTE
  6
CONTINUOUS
 62
     4
100
AcDbLine
 10
1947.220871
 20
922.968584
 30
0.0
 11
1947.220871
 21
904.832524
 31
0.0
  0
LINE
  5
6D5
100
AcDbEntity
  8
DETAIL
  6
CONTINUOUS
 62
     5
100
AcDbLine
 10
1934.420872
 20
988.900566
 30
0.0
 11
1962.22087
 21
988.900566
 31
0.0
  0
LINE
  5
6D6
100
AcDbEntity
  8
DETAIL
  6
CONTINUOUS
 62
     5
100
AcDbLine
 10
1962.22087
 20
988.900566
 30
0.0
 11
1933.22087
 21
988.900566
 31
0.0
  0
TEXT
  5
6D7
100
AcDbEntity
  8
SIZE
  6
CONTINUOUS
 62
    30
100
AcDbText
 10
2844.617035
 20
383.414852
 30
0.0
 40
55.0
  1
20以上
 50
90.0
 41
0.9
 72
     1
 11
2844.617035
 21
483.357709
 31
0.0
100
AcDbText
  0
LINE
  5
6D8
100
AcDbEntity
  8
SIZE
  6
CONTINUOUS
 62
    30
100
AcDbLine
 10
2859.617035
 20
614.900566
 30
0.0
 11
2859.617035
 21
361.814852
 31
0.0
  0
LINE
  5
6D9
100
AcDbEntity
  8
SIZE
  6
CONTINUOUS
 62
    30
100
AcDbLine
 10
2430.163945
 20
728.900566
 30
0.0
 11
2430.163945
 21
520.190922
 31
0.0
  0
LINE
  5
6DA
100
AcDbEntity
  8
SIZE
  6
CONTINUOUS
 62
    30
100
AcDbLine
 10
2296.98773
 20
764.900566
 30
0.0
 11
2296.98773
 21
654.900566
 31
0.0
  0
TEXT
  5
6DB
100
AcDbEntity
  8
SIZE
  6
CONTINUOUS
 62
    30
100
AcDbText
 10
2281.98773
 20
502.043424
 30
0.0
 40
55.0
  1
130
 50
90.0
 41
0.9
 72
     1
 11
2281.98773
 21
560.971995
 31
0.0
100
AcDbText
  0
TEXT
  5
6DC
100
AcDbEntity
  8
SIZE
  6
CONTINUOUS
 62
    30
100
AcDbText
 10
2130.580769
 20
529.757708
 30
0.0
 40
55.0
  1
30
 50
90.0
 41
0.9
 72
     1
 11
2130.580769
 21
569.829137
 31
0.0
100
AcDbText
  0
LINE
  5
6DD
100
AcDbEntity
  8
SIZE
  6
CONTINUOUS
 62
    30
100
AcDbLine
 10
2145.580769
 20
634.900566
 30
0.0
 11
2145.580769
 21
514.757709
 31
0.0
  0
POINT
  5
6DE
100
AcDbEntity
  8
DEFPOINTS
  6
CONTINUOUS
 62
     7
100
AcDbPoint
 10
2145.580769
 20
674.900566
 30
0.0
  0
LINE
  5
6DF
100
AcDbEntity
  8
SIZE
  6
CONTINUOUS
 62
    30
100
AcDbLine
 10
2145.580769
 20
639.900566
 30
0.0
 11
2145.580769
 21
634.900566
 31
0.0
  0
CIRCLE
  5
6E0
100
AcDbEntity
  8
SIZE
  6
CONTINUOUS
 62
    30
100
AcDbCircle
 10
2145.580769
 20
644.900566
 30
0.0
 40
5.0
  0
LINE
  5
6E1
100
AcDbEntity
  8
SIZE
  6
CONTINUOUS
 62
    30
100
AcDbLine
 10
2145.580769
 20
679.900566
 30
0.0
 11
2145.580769
 21
684.900566
 31
0.0
  0
CIRCLE
  5
6E2
100
AcDbEntity
  8
SIZE
  6
CONTINUOUS
 62
    30
100
AcDbCircle
 10
2145.580769
 20
674.900566
 30
0.0
 40
5.0
  0
LINE
  5
6E3
100
AcDbEntity
  8
SIZE
  6
CONTINUOUS
 62
    30
100
AcDbLine
 10
2145.580769
 20
674.900566
 30
0.0
 11
2145.580769
 21
644.900566
 31
0.0
  0
LINE
  5
6E4
100
AcDbEntity
  8
SIZE
  6
CONTINUOUS
 62
    30
100
AcDbLine
 10
2145.580769
 20
684.900566
 30
0.0
 11
2145.580769
 21
694.900566
 31
0.0
  0
TEXT
  5
6E5
100
AcDbEntity
  8
SIZE
  6
CONTINUOUS
 62
    30
100
AcDbText
 10
2415.163945
 20
535.190922
 30
0.0
 40
55.0
  1
25
 50
90.0
 41
0.9
 72
     1
 11
2415.163945
 21
575.262351
 31
0.0
100
AcDbText
  0
LINE
  5
6E6
100
AcDbEntity
  8
SIZE
  6
CONTINUOUS
 62
    30
100
AcDbLine
 10
2296.98773
 20
644.900566
 30
0.0
 11
2296.98773
 21
487.043423
 31
0.0
  0
LINE
  5
6E7
100
AcDbEntity
  8
SIZE
  6
CONTINUOUS
 62
    30
100
AcDbLine
 10
2296.98773
 20
649.900566
 30
0.0
 11
2296.98773
 21
654.900566
 31
0.0
  0
CIRCLE
  5
6E8
100
AcDbEntity
  8
SIZE
  6
CONTINUOUS
 62
    30
100
AcDbCircle
 10
2296.98773
 20
644.900566
 30
0.0
 40
5.0
  0
TEXT
  5
6E9
100
AcDbEntity
  8
SIZE
  6
CONTINUOUS
 62
    30
100
AcDbText
 10
2281.98773
 20
773.329137
 30
0.0
 40
55.0
  1
77
 50
90.0
 41
0.9
 72
     1
 11
2281.98773
 21
813.400566
 31
0.0
100
AcDbText
  0
LINE
  5
6EA
100
AcDbEntity
  8
SIZE
  6
CONTINUOUS
 62
    30
100
AcDbLine
 10
2430.163945
 20
773.900554
 30
0.0
 11
2430.163945
 21
953.900554
 31
0.0
  0
LINE
  5
6EB
100
AcDbEntity
  8
SIZE
  6
CONTINUOUS
 62
    30
100
AcDbLine
 10
2296.98773
 20
861.900566
 30
0.0
 11
2296.98773
 21
871.900566
 31
0.0
  0
POINT
  5
6EC
100
AcDbEntity
  8
DEFPOINTS
  6
CONTINUOUS
 62
     7
100
AcDbPoint
 10
2296.98773
 20
851.900566
 30
0.0
  0
LINE
  5
6ED
100
AcDbEntity
  8
SIZE
  6
CONTINUOUS
 62
    30
100
AcDbLine
 10
2296.98773
 20
856.900566
 30
0.0
 11
2296.98773
 21
861.900566
 31
0.0
  0
CIRCLE
  5
6EE
100
AcDbEntity
  8
SIZE
  6
CONTINUOUS
 62
    30
100
AcDbCircle
 10
2296.98773
 20
851.900566
 30
0.0
 40
5.0
  0
LINE
  5
6EF
100
AcDbEntity
  8
SIZE
  6
CONTINUOUS
 62
    30
100
AcDbLine
 10
2296.98773
 20
769.900566
 30
0.0
 11
2296.98773
 21
764.900566
 31
0.0
  0
CIRCLE
  5
6F0
100
AcDbEntity
  8
SIZE
  6
CONTINUOUS
 62
    30
100
AcDbCircle
 10
2296.98773
 20
774.900566
 30
0.0
 40
5.0
  0
LINE
  5
6F1
100
AcDbEntity
  8
SIZE
  6
CONTINUOUS
 62
    30
100
AcDbLine
 10
2296.98773
 20
774.900566
 30
0.0
 11
2296.98773
 21
851.900566
 31
0.0
  0
LINE
  5
6F2
100
AcDbEntity
  8
SIZE
  6
CONTINUOUS
 62
    30
100
AcDbLine
 10
2296.98773
 20
764.900566
 30
0.0
 11
2296.98773
 21
754.900566
 31
0.0
  0
POINT
  5
6F3
100
AcDbEntity
  8
DEFPOINTS
  6
CONTINUOUS
 62
     7
100
AcDbPoint
 10
2296.98773
 20
774.900566
 30
0.0
  0
LINE
  5
6F4
100
AcDbEntity
  8
SIZE
  6
CONTINUOUS
 62
    30
100
AcDbLine
 10
2296.98773
 20
769.900566
 30
0.0
 11
2296.98773
 21
764.900566
 31
0.0
  0
CIRCLE
  5
6F5
100
AcDbEntity
  8
SIZE
  6
CONTINUOUS
 62
    30
100
AcDbCircle
 10
2296.98773
 20
774.900566
 30
0.0
 40
5.0
  0
LINE
  5
6F6
100
AcDbEntity
  8
SIZE
  6
CONTINUOUS
 62
    30
100
AcDbLine
 10
2430.163945
 20
768.900554
 30
0.0
 11
2430.163945
 21
773.900554
 31
0.0
  0
CIRCLE
  5
6F7
100
AcDbEntity
  8
SIZE
  6
CONTINUOUS
 62
    30
100
AcDbCircle
 10
2430.163945
 20
763.900554
 30
0.0
 40
5.0
  0
POINT
  5
6F8
100
AcDbEntity
  8
DEFPOINTS
  6
CONTINUOUS
 62
     7
100
AcDbPoint
 10
2430.163945
 20
763.900554
 30
0.0
  0
LINE
  5
6F9
100
AcDbEntity
  8
SIZE
  6
CONTINUOUS
 62
    30
100
AcDbLine
 10
2430.163945
 20
733.900566
 30
0.0
 11
2430.163945
 21
728.900566
 31
0.0
  0
CIRCLE
  5
6FA
100
AcDbEntity
  8
SIZE
  6
CONTINUOUS
 62
    30
100
AcDbCircle
 10
2430.163945
 20
738.900566
 30
0.0
 40
5.0
  0
LINE
  5
6FB
100
AcDbEntity
  8
SIZE
  6
CONTINUOUS
 62
    30
100
AcDbLine
 10
2430.163945
 20
768.900554
 30
0.0
 11
2430.163945
 21
773.900554
 31
0.0
  0
CIRCLE
  5
6FC
100
AcDbEntity
  8
SIZE
  6
CONTINUOUS
 62
    30
100
AcDbCircle
 10
2430.163945
 20
763.900554
 30
0.0
 40
5.0
  0
LINE
  5
6FD
100
AcDbEntity
  8
SIZE
  6
CONTINUOUS
 62
    30
100
AcDbLine
 10
2430.163945
 20
763.900554
 30
0.0
 11
2430.163945
 21
738.900566
 31
0.0
  0
LINE
  5
6FE
100
AcDbEntity
  8
SIZE
  6
CONTINUOUS
 62
    30
100
AcDbLine
 10
2430.163945
 20
773.900554
 30
0.0
 11
2430.163945
 21
783.900554
 31
0.0
  0
POINT
  5
6FF
100
AcDbEntity
  8
DEFPOINTS
  6
CONTINUOUS
 62
     7
100
AcDbPoint
 10
2430.163945
 20
963.900554
 30
0.0
  0
LINE
  5
700
100
AcDbEntity
  8
SIZE
  6
CONTINUOUS
 62
    30
100
AcDbLine
 10
2430.163945
 20
958.900554
 30
0.0
 11
2430.163945
 21
953.900554
 31
0.0
  0
CIRCLE
  5
701
100
AcDbEntity
  8
SIZE
  6
CONTINUOUS
 62
    30
100
AcDbCircle
 10
2430.163945
 20
963.900554
 30
0.0
 40
5.0
  0
LINE
  5
702
100
AcDbEntity
  8
SIZE
  6
CONTINUOUS
 62
    30
100
AcDbLine
 10
2859.617035
 20
1014.900566
 30
0.0
 11
2859.617035
 21
654.900566
 31
0.0
  0
TEXT
  5
703
100
AcDbEntity
  8
SIZE
  6
CONTINUOUS
 62
    30
100
AcDbText
 10
2716.722742
 20
650.650566
 30
0.0
 40
55.0
  1
94
 50
90.0
 41
0.9
 72
     1
 11
2716.722742
 21
691.900566
 31
0.0
100
AcDbText
  0
LINE
  5
704
100
AcDbEntity
  8
SIZE
  6
CONTINUOUS
 62
    30
100
AcDbLine
 10
2731.722742
 20
644.900566
 30
0.0
 11
2731.722742
 21
738.900566
 31
0.0
  0
LINE
  5
705
100
AcDbEntity
  8
SIZE
  6
CONTINUOUS
 62
    30
100
AcDbLine
 10
2593.159136
 20
962.900566
 30
0.0
 11
2593.159136
 21
654.900566
 31
0.0
  0
POINT
  5
706
100
AcDbEntity
  8
DEFPOINTS
  6
CONTINUOUS
 62
     7
100
AcDbPoint
 10
2593.159136
 20
644.900566
 30
0.0
  0
LINE
  5
707
100
AcDbEntity
  8
SIZE
  6
CONTINUOUS
 62
    30
100
AcDbLine
 10
2593.159136
 20
649.900566
 30
0.0
 11
2593.159136
 21
654.900566
 31
0.0
  0
CIRCLE
  5
708
100
AcDbEntity
  8
SIZE
  6
CONTINUOUS
 62
    30
100
AcDbCircle
 10
2593.159136
 20
644.900566
 30
0.0
 40
5.0
  0
LINE
  5
709
100
AcDbEntity
  8
SIZE
  6
CONTINUOUS
 62
    30
100
AcDbLine
 10
2731.722742
 20
639.900566
 30
0.0
 11
2731.722742
 21
634.900566
 31
0.0
  0
CIRCLE
  5
70A
100
AcDbEntity
  8
SIZE
  6
CONTINUOUS
 62
    30
100
AcDbCircle
 10
2731.722742
 20
644.900566
 30
0.0
 40
5.0
  0
LINE
  5
70B
100
AcDbEntity
  8
SIZE
  6
CONTINUOUS
 62
    30
100
AcDbLine
 10
2731.722742
 20
634.900566
 30
0.0
 11
2731.722742
 21
624.900566
 31
0.0
  0
POINT
  5
70C
100
AcDbEntity
  8
DEFPOINTS
  6
CONTINUOUS
 62
     7
100
AcDbPoint
 10
2859.617035
 20
624.900566
 30
0.0
  0
LINE
  5
70D
100
AcDbEntity
  8
SIZE
  6
CONTINUOUS
 62
    30
100
AcDbLine
 10
2859.617035
 20
619.900566
 30
0.0
 11
2859.617035
 21
614.900566
 31
0.0
  0
CIRCLE
  5
70E
100
AcDbEntity
  8
SIZE
  6
CONTINUOUS
 62
    30
100
AcDbCircle
 10
2859.617035
 20
624.900566
 30
0.0
 40
5.0
  0
LINE
  5
70F
100
AcDbEntity
  8
SIZE
  6
CONTINUOUS
 62
    30
100
AcDbLine
 10
2859.617035
 20
649.900566
 30
0.0
 11
2859.617035
 21
654.900566
 31
0.0
  0
CIRCLE
  5
710
100
AcDbEntity
  8
SIZE
  6
CONTINUOUS
 62
    30
100
AcDbCircle
 10
2859.617035
 20
644.900566
 30
0.0
 40
5.0
  0
LINE
  5
711
100
AcDbEntity
  8
SIZE
  6
CONTINUOUS
 62
    30
100
AcDbLine
 10
2859.617035
 20
644.900566
 30
0.0
 11
2859.617035
 21
624.900566
 31
0.0
  0
LINE
  5
712
100
AcDbEntity
  8
SIZE
  6
CONTINUOUS
 62
    30
100
AcDbLine
 10
2859.617035
 20
654.900566
 30
0.0
 11
2859.617035
 21
664.900566
 31
0.0
  0
POINT
  5
713
100
AcDbEntity
  8
DEFPOINTS
  6
CONTINUOUS
 62
     7
100
AcDbPoint
 10
2859.617035
 20
644.900566
 30
0.0
  0
LINE
  5
714
100
AcDbEntity
  8
SIZE
  6
CONTINUOUS
 62
    30
100
AcDbLine
 10
2859.617035
 20
649.900566
 30
0.0
 11
2859.617035
 21
654.900566
 31
0.0
  0
CIRCLE
  5
715
100
AcDbEntity
  8
SIZE
  6
CONTINUOUS
 62
    30
100
AcDbCircle
 10
2859.617035
 20
644.900566
 30
0.0
 40
5.0
  0
TEXT
  5
716
100
AcDbEntity
  8
SIZE
  6
CONTINUOUS
 62
    30
100
AcDbText
 10
2716.722742
 20
800.257709
 30
0.0
 40
55.0
  1
250
 50
90.0
 41
0.9
 72
     1
 11
2716.722742
 21
863.900566
 31
0.0
100
AcDbText
  0
TEXT
  5
717
100
AcDbEntity
  8
SIZE
  6
CONTINUOUS
 62
    30
100
AcDbText
 10
2578.159136
 20
745.257709
 30
0.0
 40
55.0
  1
328
 50
90.0
 41
0.9
 72
     1
 11
2578.159136
 21
808.900566
 31
0.0
100
AcDbText
  0
LINE
  5
718
100
AcDbEntity
  8
SIZE
  6
CONTINUOUS
 62
    30
100
AcDbLine
 10
2593.159136
 20
967.900566
 30
0.0
 11
2593.159136
 21
962.900566
 31
0.0
  0
CIRCLE
  5
719
100
AcDbEntity
  8
SIZE
  6
CONTINUOUS
 62
    30
100
AcDbCircle
 10
2593.159136
 20
972.900566
 30
0.0
 40
5.0
  0
TEXT
  5
71A
100
AcDbEntity
  8
SIZE
  6
CONTINUOUS
 62
    30
100
AcDbText
 10
2844.617035
 20
771.257709
 30
0.0
 40
55.0
  1
380
 50
90.0
 41
0.9
 72
     1
 11
2844.617035
 21
834.900566
 31
0.0
100
AcDbText
  0
LINE
  5
71B
100
AcDbEntity
  8
SIZE
  6
CONTINUOUS
 62
    30
100
AcDbLine
 10
2731.722742
 20
748.900566
 30
0.0
 11
2731.722742
 21
978.900566
 31
0.0
  0
LINE
  5
71C
100
AcDbEntity
  8
SIZE
  6
CONTINUOUS
 62
    30
100
AcDbLine
 10
2731.722742
 20
743.900566
 30
0.0
 11
2731.722742
 21
748.900566
 31
0.0
  0
CIRCLE
  5
71D
100
AcDbEntity
  8
SIZE
  6
CONTINUOUS
 62
    30
100
AcDbCircle
 10
2731.722742
 20
738.900566
 30
0.0
 40
5.0
  0
POINT
  5
71E
100
AcDbEntity
  8
DEFPOINTS
  6
CONTINUOUS
 62
     7
100
AcDbPoint
 10
2731.722742
 20
738.900566
 30
0.0
  0
LINE
  5
71F
100
AcDbEntity
  8
SIZE
  6
CONTINUOUS
 62
    30
100
AcDbLine
 10
2731.722742
 20
743.900566
 30
0.0
 11
2731.722742
 21
748.900566
 31
0.0
  0
CIRCLE
  5
720
100
AcDbEntity
  8
SIZE
  6
CONTINUOUS
 62
    30
100
AcDbCircle
 10
2731.722742
 20
738.900566
 30
0.0
 40
5.0
  0
LINE
  5
721
100
AcDbEntity
  8
SIZE
  6
CONTINUOUS
 62
    30
100
AcDbLine
 10
2731.722742
 20
748.900566
 30
0.0
 11
2731.722742
 21
758.900566
 31
0.0
  0
POINT
  5
722
100
AcDbEntity
  8
DEFPOINTS
  6
CONTINUOUS
 62
     7
100
AcDbPoint
 10
2731.722742
 20
988.900566
 30
0.0
  0
LINE
  5
723
100
AcDbEntity
  8
SIZE
  6
CONTINUOUS
 62
    30
100
AcDbLine
 10
2731.722742
 20
983.900566
 30
0.0
 11
2731.722742
 21
978.900566
 31
0.0
  0
CIRCLE
  5
724
100
AcDbEntity
  8
SIZE
  6
CONTINUOUS
 62
    30
100
AcDbCircle
 10
2731.722742
 20
988.900566
 30
0.0
 40
5.0
  0
LINE
  5
725
100
AcDbEntity
  8
SIZE
  6
CONTINUOUS
 62
    30
100
AcDbLine
 10
2859.617035
 20
1019.900566
 30
0.0
 11
2859.617035
 21
1014.900566
 31
0.0
  0
LINE
  5
726
100
AcDbEntity
  8
SIZE
  6
CONTINUOUS
 62
    30
100
AcDbLine
 10
2859.617035
 20
1014.900566
 30
0.0
 11
2859.617035
 21
1004.900566
 31
0.0
  0
LINE
  5
727
100
AcDbEntity
  8
SIZE
  6
CONTINUOUS
 62
    30
100
AcDbLine
 10
2859.617035
 20
1019.900566
 30
0.0
 11
2859.617035
 21
1014.900566
 31
0.0
  0
LINE
  5
728
100
AcDbEntity
  8
SIZE
  6
CONTINUOUS
 62
    30
100
AcDbLine
 10
1953.41832
 20
1024.900566
 30
0.0
 11
2889.617035
 21
1024.900566
 31
0.0
  0
LINE
  5
729
100
AcDbEntity
  8
SIZE
  6
CONTINUOUS
 62
    30
100
AcDbLine
 10
2003.41832
 20
1044.900566
 30
0.0
 11
2889.617035
 21
1044.900566
 31
0.0
  0
LINE
  5
72A
100
AcDbEntity
  8
SIZE
  6
CONTINUOUS
 62
    30
100
AcDbLine
 10
1953.22087
 20
1024.900566
 30
0.0
 11
2889.617035
 21
1024.900566
 31
0.0
  0
TEXT
  5
72B
100
AcDbEntity
  8
SIZE
  6
CONTINUOUS
 62
    30
100
AcDbText
 10
1997.220871
 20
1391.636877
 30
0.0
 40
55.0
  1
29
 41
0.9
 72
     1
 11
2036.113728
 21
1391.636877
 31
0.0
100
AcDbText
  0
LINE
  5
72C
100
AcDbEntity
  8
SIZE
  6
CONTINUOUS
 62
    30
100
AcDbLine
 10
1972.22087
 20
1376.636877
 30
0.0
 11
2090.006585
 21
1376.636877
 31
0.0
  0
LINE
  5
72D
100
AcDbEntity
  8
SIZE
  6
CONTINUOUS
 62
    30
100
AcDbLine
 10
1556.22087
 20
1272.319374
 30
0.0
 11
1923.22087
 21
1272.319374
 31
0.0
  0
TEXT
  5
72E
100
AcDbEntity
  8
NOTE
  6
CONTINUOUS
 62
     4
100
AcDbText
 10
1133.152213
 20
1196.058116
 30
0.0
 40
64.0
  1
RL φ9.52
 41
0.9
100
AcDbText
  0
LINE
  5
72F
100
AcDbEntity
  8
DETAIL
  6
CONTINUOUS
 62
     5
100
AcDbLine
 10
1466.413721
 20
1024.900566
 30
0.0
 11
1409.399365
 21
1024.900566
 31
0.0
  0
LINE
  5
730
100
AcDbEntity
  8
SIZE
  6
CONTINUOUS
 62
    30
100
AcDbLine
 10
1551.22087
 20
1272.319374
 30
0.0
 11
1556.22087
 21
1272.319374
 31
0.0
  0
CIRCLE
  5
731
100
AcDbEntity
  8
SIZE
  6
CONTINUOUS
 62
    30
100
AcDbCircle
 10
1546.22087
 20
1272.319374
 30
0.0
 40
5.0
  0
TEXT
  5
732
100
AcDbEntity
  8
SIZE
  6
CONTINUOUS
 62
    30
100
AcDbText
 10
1446.078071
 20
1391.636877
 30
0.0
 40
55.0
  1
847
 41
0.9
 72
     1
 11
1509.720928
 21
1391.636877
 31
0.0
100
AcDbText
  0
TEXT
  5
733
100
AcDbEntity
  8
SIZE
  6
CONTINUOUS
 62
    30
100
AcDbText
 10
1399.578044
 20
1508.412695
 30
0.0
 40
55.0
  1
998
 41
0.9
 72
     1
 11
1463.220901
 21
1508.412695
 31
0.0
100
AcDbText
  0
LINE
  5
734
100
AcDbEntity
  8
SIZE
  6
CONTINUOUS
 62
    30
100
AcDbLine
 10
1933.22087
 20
1044.900566
 30
0.0
 11
1933.22087
 21
1406.636877
 31
0.0
  0
LINE
  5
735
100
AcDbEntity
  8
SIZE
  6
CONTINUOUS
 62
    30
100
AcDbLine
 10
1933.22087
 20
1044.900566
 30
0.0
 11
1933.22087
 21
1406.636877
 31
0.0
  0
TEXT
  5
736
100
AcDbEntity
  8
SIZE
  6
CONTINUOUS
 62
    30
100
AcDbText
 10
1683.895977
 20
1287.319374
 30
0.0
 40
55.0
  1
387
 41
0.9
 72
     1
 11
1747.538834
 21
1287.319374
 31
0.0
100
AcDbText
  0
TEXT
  5
737
100
AcDbEntity
  8
SIZE
  6
CONTINUOUS
 62
    30
100
AcDbText
 10
1769.578013
 20
1186.997531
 30
0.0
 40
55.0
  1
200
 41
0.9
 72
     1
 11
1833.22087
 21
1186.997531
 31
0.0
100
AcDbText
  0
LINE
  5
738
100
AcDbEntity
  8
SIZE
  6
CONTINUOUS
 62
    30
100
AcDbLine
 10
1923.22087
 20
1171.997531
 30
0.0
 11
1743.22087
 21
1171.997531
 31
0.0
  0
CIRCLE
  5
739
100
AcDbEntity
  8
SIZE
  6
CONTINUOUS
 62
    30
100
AcDbCircle
 10
1641.22087
 20
1171.997531
 30
0.0
 40
5.0
  0
CIRCLE
  5
73A
100
AcDbEntity
  8
SIZE
  6
CONTINUOUS
 62
    30
100
AcDbCircle
 10
1733.22087
 20
1171.997531
 30
0.0
 40
5.0
  0
CIRCLE
  5
73B
100
AcDbEntity
  8
SIZE
  6
CONTINUOUS
 62
    30
100
AcDbCircle
 10
1733.22087
 20
1171.997531
 30
0.0
 40
5.0
  0
LINE
  5
73C
100
AcDbEntity
  8
SIZE
  6
CONTINUOUS
 62
    30
100
AcDbLine
 10
1733.22087
 20
1171.997531
 30
0.0
 11
1641.22087
 21
1171.997531
 31
0.0
  0
POINT
  5
73D
100
AcDbEntity
  8
DEFPOINTS
  6
CONTINUOUS
 62
     7
100
AcDbPoint
 10
1641.22087
 20
1171.997531
 30
0.0
  0
LINE
  5
73E
100
AcDbEntity
  8
SIZE
  6
CONTINUOUS
 62
    30
100
AcDbLine
 10
1636.22087
 20
1171.997531
 30
0.0
 11
1631.22087
 21
1171.997531
 31
0.0
  0
LINE
  5
73F
100
AcDbEntity
  8
SIZE
  6
CONTINUOUS
 62
    30
100
AcDbLine
 10
1631.22087
 20
1171.997531
 30
0.0
 11
1621.22087
 21
1171.997531
 31
0.0
  0
LINE
  5
740
100
AcDbEntity
  8
SIZE
  6
CONTINUOUS
 62
    30
100
AcDbLine
 10
1738.22087
 20
1171.997531
 30
0.0
 11
1743.22087
 21
1171.997531
 31
0.0
  0
LINE
  5
741
100
AcDbEntity
  8
SIZE
  6
CONTINUOUS
 62
    30
100
AcDbLine
 10
1743.22087
 20
1171.997531
 30
0.0
 11
1753.22087
 21
1171.997531
 31
0.0
  0
POINT
  5
742
100
AcDbEntity
  8
DEFPOINTS
  6
CONTINUOUS
 62
     7
100
AcDbPoint
 10
1733.22087
 20
1171.997531
 30
0.0
  0
LINE
  5
743
100
AcDbEntity
  8
SIZE
  6
CONTINUOUS
 62
    30
100
AcDbLine
 10
1738.22087
 20
1171.997531
 30
0.0
 11
1743.22087
 21
1171.997531
 31
0.0
  0
TEXT
  5
744
100
AcDbEntity
  8
SIZE
  6
CONTINUOUS
 62
    30
100
AcDbText
 10
1647.149441
 20
1186.997531
 30
0.0
 40
55.0
  1
92
 41
0.9
 72
     1
 11
1687.22087
 21
1186.997531
 31
0.0
100
AcDbText
  0
CIRCLE
  5
745
100
AcDbEntity
  8
SIZE
  6
CONTINUOUS
 62
    30
100
AcDbCircle
 10
1933.22087
 20
1171.997531
 30
0.0
 40
5.0
  0
LINE
  5
746
100
AcDbEntity
  8
SIZE
  6
CONTINUOUS
 62
    30
100
AcDbLine
 10
1933.22087
 20
1044.900566
 30
0.0
 11
1933.22087
 21
1201.997531
 31
0.0
  0
LINE
  5
747
100
AcDbEntity
  8
SIZE
  6
CONTINUOUS
 62
    30
100
AcDbLine
 10
1933.22087
 20
1044.900566
 30
0.0
 11
1933.22087
 21
1302.319374
 31
0.0
  0
LINE
  5
748
100
AcDbEntity
  8
SIZE
  6
CONTINUOUS
 62
    30
100
AcDbLine
 10
1937.220871
 20
1063.399313
 30
0.0
 11
1816.592246
 21
1063.399313
 31
0.0
  0
TEXT
  5
749
100
AcDbEntity
  8
SIZE
  6
CONTINUOUS
 62
    30
100
AcDbText
 10
1831.592246
 20
1078.399313
 30
0.0
 40
55.0
  1
15
 41
0.9
 72
     1
 11
1866.949389
 21
1078.399313
 31
0.0
100
AcDbText
  0
POINT
  5
74A
100
AcDbEntity
  8
DEFPOINTS
  6
CONTINUOUS
 62
     7
100
AcDbPoint
 10
1933.41832
 20
1024.900566
 30
0.0
  0
POINT
  5
74B
100
AcDbEntity
  8
DEFPOINTS
  6
CONTINUOUS
 62
     7
100
AcDbPoint
 10
1983.41832
 20
1044.900566
 30
0.0
  0
LINE
  5
74C
100
AcDbEntity
  8
SERVICESPACE
  6
DASHDOT
 62
     2
100
AcDbLine
 10
1983.22087
 20
1044.900566
 30
0.0
 11
1933.22087
 21
1044.900566
 31
0.0
  0
POINT
  5
74D
100
AcDbEntity
  8
DEFPOINTS
  6
CONTINUOUS
 62
     7
100
AcDbPoint
 10
1933.22087
 20
1024.900566
 30
0.0
  0
POINT
  5
74E
100
AcDbEntity
  8
DEFPOINTS
  6
CONTINUOUS
 62
     7
100
AcDbPoint
 10
1933.22087
 20
1024.900566
 30
0.0
  0
POINT
  5
74F
100
AcDbEntity
  8
DEFPOINTS
  6
CONTINUOUS
 62
     7
100
AcDbPoint
 10
1933.22087
 20
1024.900566
 30
0.0
  0
POINT
  5
750
100
AcDbEntity
  8
DEFPOINTS
  6
CONTINUOUS
 62
     7
100
AcDbPoint
 10
1933.22087
 20
1024.900566
 30
0.0
  0
LINE
  5
751
100
AcDbEntity
  8
SIZE
  6
CONTINUOUS
 62
    30
100
AcDbLine
 10
1928.22087
 20
1171.997531
 30
0.0
 11
1923.22087
 21
1171.997531
 31
0.0
  0
POINT
  5
752
100
AcDbEntity
  8
DEFPOINTS
  6
CONTINUOUS
 62
     7
100
AcDbPoint
 10
1933.22087
 20
1024.900566
 30
0.0
  0
POINT
  5
753
100
AcDbEntity
  8
DEFPOINTS
  6
CONTINUOUS
 62
     7
100
AcDbPoint
 10
1947.220871
 20
1063.399313
 30
0.0
  0
LINE
  5
754
100
AcDbEntity
  8
SIZE
  6
CONTINUOUS
 62
    30
100
AcDbLine
 10
1942.220871
 20
1063.399313
 30
0.0
 11
1937.220871
 21
1063.399313
 31
0.0
  0
CIRCLE
  5
755
100
AcDbEntity
  8
SIZE
  6
CONTINUOUS
 62
    30
100
AcDbCircle
 10
1947.220871
 20
1063.399313
 30
0.0
 40
5.0
  0
LINE
  5
756
100
AcDbEntity
  8
SIZE
  6
CONTINUOUS
 62
    30
100
AcDbLine
 10
1967.22087
 20
1063.399313
 30
0.0
 11
1972.22087
 21
1063.399313
 31
0.0
  0
CIRCLE
  5
757
100
AcDbEntity
  8
SIZE
  6
CONTINUOUS
 62
    30
100
AcDbCircle
 10
1962.22087
 20
1063.399313
 30
0.0
 40
5.0
  0
LINE
  5
758
100
AcDbEntity
  8
SIZE
  6
CONTINUOUS
 62
    30
100
AcDbLine
 10
1962.22087
 20
1063.399313
 30
0.0
 11
1947.220871
 21
1063.399313
 31
0.0
  0
LINE
  5
759
100
AcDbEntity
  8
SIZE
  6
CONTINUOUS
 62
    30
100
AcDbLine
 10
1972.22087
 20
1063.399313
 30
0.0
 11
1982.22087
 21
1063.399313
 31
0.0
  0
POINT
  5
75A
100
AcDbEntity
  8
DEFPOINTS
  6
CONTINUOUS
 62
     7
100
AcDbPoint
 10
1933.22087
 20
1272.319374
 30
0.0
  0
LINE
  5
75B
100
AcDbEntity
  8
SIZE
  6
CONTINUOUS
 62
    30
100
AcDbLine
 10
1928.22087
 20
1272.319374
 30
0.0
 11
1923.22087
 21
1272.319374
 31
0.0
  0
CIRCLE
  5
75C
100
AcDbEntity
  8
SIZE
  6
CONTINUOUS
 62
    30
100
AcDbCircle
 10
1933.22087
 20
1272.319374
 30
0.0
 40
5.0
  0
LINE
  5
75D
100
AcDbEntity
  8
SIZE
  6
CONTINUOUS
 62
    30
100
AcDbLine
 10
1923.22087
 20
1376.636877
 30
0.0
 11
1913.22087
 21
1376.636877
 31
0.0
  0
LINE
  5
75E
100
AcDbEntity
  8
SIZE
  6
CONTINUOUS
 62
    30
100
AcDbLine
 10
1928.22087
 20
1376.636877
 30
0.0
 11
1923.22087
 21
1376.636877
 31
0.0
  0
CIRCLE
  5
75F
100
AcDbEntity
  8
SIZE
  6
CONTINUOUS
 62
    30
100
AcDbCircle
 10
1933.22087
 20
1376.636877
 30
0.0
 40
5.0
  0
POINT
  5
760
100
AcDbEntity
  8
DEFPOINTS
  6
CONTINUOUS
 62
     7
100
AcDbPoint
 10
1933.22087
 20
1376.636877
 30
0.0
  0
LINE
  5
761
100
AcDbEntity
  8
SIZE
  6
CONTINUOUS
 62
    30
100
AcDbLine
 10
1967.22087
 20
1376.636877
 30
0.0
 11
1972.22087
 21
1376.636877
 31
0.0
  0
CIRCLE
  5
762
100
AcDbEntity
  8
SIZE
  6
CONTINUOUS
 62
    30
100
AcDbCircle
 10
1962.22087
 20
1376.636877
 30
0.0
 40
5.0
  0
LINE
  5
763
100
AcDbEntity
  8
SIZE
  6
CONTINUOUS
 62
    30
100
AcDbLine
 10
1928.22087
 20
1376.636877
 30
0.0
 11
1923.22087
 21
1376.636877
 31
0.0
  0
CIRCLE
  5
764
100
AcDbEntity
  8
SIZE
  6
CONTINUOUS
 62
    30
100
AcDbCircle
 10
1933.22087
 20
1376.636877
 30
0.0
 40
5.0
  0
LINE
  5
765
100
AcDbEntity
  8
SIZE
  6
CONTINUOUS
 62
    30
100
AcDbLine
 10
1933.22087
 20
1376.636877
 30
0.0
 11
1962.22087
 21
1376.636877
 31
0.0
  0
POINT
  5
766
100
AcDbEntity
  8
DEFPOINTS
  6
CONTINUOUS
 62
     7
100
AcDbPoint
 10
1962.22087
 20
1493.412695
 30
0.0
  0
LINE
  5
767
100
AcDbEntity
  8
SIZE
  6
CONTINUOUS
 62
    30
100
AcDbLine
 10
1957.22087
 20
1493.412695
 30
0.0
 11
1952.22087
 21
1493.412695
 31
0.0
  0
CIRCLE
  5
768
100
AcDbEntity
  8
SIZE
  6
CONTINUOUS
 62
    30
100
AcDbCircle
 10
1962.22087
 20
1493.412695
 30
0.0
 40
5.0
  0
LINE
  5
769
100
AcDbEntity
  8
NOTE
  6
CONTINUOUS
 62
     4
100
AcDbLine
 10
2219.578007
 20
1526.371095
 30
0.0
 11
2650.16795
 21
1526.371095
 31
0.0
  0
TEXT
  5
76A
100
AcDbEntity
  8
NOTE
  6
CONTINUOUS
 62
     4
100
AcDbText
 10
2235.580116
 20
1538.598425
 30
0.0
 40
64.0
  1
48-%%C3打ﾇｷ
 41
0.9
100
AcDbText
  0
TEXT
  5
76B
100
AcDbEntity
  8
SIZE
  6
CONTINUOUS
 62
    30
100
AcDbText
 10
2415.163945
 20
1057.640753
 30
0.0
 40
55.0
  1
50×4＝200
 50
90.0
 41
0.9
 72
     1
 11
2415.163945
 21
1251.397896
 31
0.0
100
AcDbText
  0
TEXT
  5
76C
100
AcDbEntity
  8
SIZE
  6
CONTINUOUS
 62
    30
100
AcDbText
 10
2844.617035
 20
1086.500566
 30
0.0
 40
55.0
  1
20以上
 50
90.0
 41
0.9
 72
     1
 11
2844.617035
 21
1186.443423
 31
0.0
100
AcDbText
  0
LINE
  5
76D
100
AcDbEntity
  8
SIZE
  6
CONTINUOUS
 62
    30
100
AcDbLine
 10
2859.617035
 20
1054.900566
 30
0.0
 11
2859.617035
 21
1307.98628
 31
0.0
  0
POINT
  5
76E
100
AcDbEntity
  8
DEFPOINTS
  6
CONTINUOUS
 62
     7
100
AcDbPoint
 10
2859.617035
 20
1024.900566
 30
0.0
  0
LINE
  5
76F
100
AcDbEntity
  8
SIZE
  6
CONTINUOUS
 62
    30
100
AcDbLine
 10
2859.617035
 20
1049.900566
 30
0.0
 11
2859.617035
 21
1054.900566
 31
0.0
  0
CIRCLE
  5
770
100
AcDbEntity
  8
SIZE
  6
CONTINUOUS
 62
    30
100
AcDbCircle
 10
2859.617035
 20
1044.900566
 30
0.0
 40
5.0
  0
LINE
  5
771
100
AcDbEntity
  8
SIZE
  6
CONTINUOUS
 62
    30
100
AcDbLine
 10
2859.617035
 20
1024.900566
 30
0.0
 11
2859.617035
 21
1044.900566
 31
0.0
  0
ENDBLK
  5
773
100
AcDbEntity
  8
0
 62
     7
100
AcDbBlockEnd
  0
ENDSEC
  0
SECTION
  2
ENTITIES
  0
LINE
  5
775
100
AcDbEntity
  8
NOTE
  6
CONTINUOUS
 62
     4
100
AcDbLine
 10
826.277003
 20
-1024.90057
 30
0.0
 11
1579.332058
 21
-1024.90057
 31
0.0
  0
TEXT
  5
776
100
AcDbEntity
  8
NOTE
  6
CONTINUOUS
 62
     4
100
AcDbText
 10
831.750812
 20
-1001.351132
 30
0.0
 40
64.0
  1
RG φ19.05（R407C）
 41
0.8
100
AcDbText
  0
TEXT
  5
777
100
AcDbEntity
  8
NOTE
  6
CONTINUOUS
 62
     4
100
AcDbText
 10
831.750812
 20
-905.502002
 30
0.0
 40
64.0
  1
RG φ15.88（R410A）
 41
0.8
100
AcDbText
  0
LINE
  5
778
100
AcDbEntity
  8
NOTE
  6
CONTINUOUS
 62
     4
100
AcDbLine
 10
1516.167528
 20
-772.198268
 30
0.0
 11
843.974435
 21
-772.198268
 31
0.0
  0
TEXT
  5
779
100
AcDbEntity
  8
NOTE
  6
CONTINUOUS
 62
     4
100
AcDbText
 10
849.273608
 20
-752.32768
 30
0.0
 40
64.0
  1
AH4-14×30長穴
 41
0.9
100
AcDbText
  0
LINE
  5
77A
100
AcDbEntity
  8
SIZE
  6
CONTINUOUS
 62
    30
100
AcDbLine
 10
-182.499969
 20
-587.069773
 30
0.0
 11
-462.499969
 21
-587.069773
 31
0.0
  0
LINE
  5
77B
100
AcDbEntity
  8
SERVICESPACE
  6
DASHDOT
 62
     2
100
AcDbLine
 10
-472.499969
 20
-400.0
 30
0.0
 11
522.499969
 21
-400.0
 31
0.0
  0
LINE
  5
77C
100
AcDbEntity
  8
SERVICESPACE
  6
DASHDOT
 62
     2
100
AcDbLine
 10
-472.499969
 20
20.0
 30
0.0
 11
522.499969
 21
20.0
 31
0.0
  0
LINE
  5
77D
100
AcDbEntity
  8
SERVICESPACE
  6
DASHDOT
 62
     2
100
AcDbLine
 10
-472.499969
 20
-380.0
 30
0.0
 11
522.499969
 21
-380.0
 31
0.0
  0
LINE
  5
77E
100
AcDbEntity
  8
SERVICESPACE
  6
DASHDOT
 62
     2
100
AcDbLine
 10
-472.499969
 20
0.0
 30
0.0
 11
522.499969
 21
0.0
 31
0.0
  0
LINE
  5
77F
100
AcDbEntity
  8
NOTE
  6
CONTINUOUS
 62
     4
100
AcDbLine
 10
-350.537688
 20
148.319022
 30
0.0
 11
57.581395
 21
148.319022
 31
0.0
  0
TEXT
  5
780
100
AcDbEntity
  8
NOTE
  6
CONTINUOUS
 62
     4
100
AcDbText
 10
-346.533556
 20
-709.657141
 30
0.0
 40
64.0
  1
D1 VP-25
 41
0.9
100
AcDbText
  0
LINE
  5
781
100
AcDbEntity
  8
NOTE
  6
CONTINUOUS
 62
     4
100
AcDbLine
 10
-358.494507
 20
-732.495669
 30
0.0
 11
78.435512
 21
-732.495669
 31
0.0
  0
LINE
  5
782
100
AcDbEntity
  8
SIZE
  6
CONTINUOUS
 62
    30
100
AcDbLine
 10
-362.499969
 20
-880.465895
 30
0.0
 11
431.500031
 21
-880.465895
 31
0.0
  0
LINE
  5
783
100
AcDbEntity
  8
NOTE
  6
CONTINUOUS
 62
     4
100
AcDbLine
 10
85.499969
 20
-52.0
 30
0.0
 11
-459.652021
 21
-716.5421
 31
0.0
  0
TEXT
  5
784
100
AcDbEntity
  8
ETC
  6
CONTINUOUS
 62
    61
100
AcDbText
 10
-943.697606
 20
636.087306
 30
0.0
 40
64.0
  1
MPE-RP112_160CA2(F-BOX)_5
 41
0.9
100
AcDbText
  0
LINE
  5
785
100
AcDbEntity
  8
SIZE
  6
CONTINUOUS
 62
    30
100
AcDbLine
 10
491.499969
 20
-984.170386
 30
0.0
 11
-392.500031
 21
-984.170386
 31
0.0
  0
LINE
  5
786
100
AcDbEntity
  8
SIZE
  6
CONTINUOUS
 62
    30
100
AcDbLine
 10
-486.499969
 20
468.512129
 30
0.0
 11
491.499969
 21
468.512129
 31
0.0
  0
LINE
  5
787
100
AcDbEntity
  8
SIZE
  6
CONTINUOUS
 62
    30
100
AcDbLine
 10
462.499969
 20
351.736311
 30
0.0
 11
-364.499915
 21
351.736311
 31
0.0
  0
LINE
  5
788
100
AcDbEntity
  8
DETAIL
  6
CONTINUOUS
 62
     5
100
AcDbLine
 10
-472.499969
 20
0.0
 30
0.0
 11
472.499969
 21
0.0
 31
0.0
  0
LINE
  5
789
100
AcDbEntity
  8
DETAIL
  6
CONTINUOUS
 62
     5
100
AcDbLine
 10
-402.500031
 20
-380.0
 30
0.0
 11
472.499969
 21
-380.0
 31
0.0
  0
LINE
  5
78A
100
AcDbEntity
  8
OUTLINE
  6
CONTINUOUS
 62
     3
100
AcDbLine
 10
-402.299975
 20
-380.0
 30
0.0
 11
472.499969
 21
-380.0
 31
0.0
  0
LINE
  5
78B
100
AcDbEntity
  8
OUTLINE
  6
CONTINUOUS
 62
     3
100
AcDbLine
 10
-402.299975
 20
-380.0
 30
0.0
 11
472.499969
 21
-380.0
 31
0.0
  0
LINE
  5
78C
100
AcDbEntity
  8
OUTLINE
  6
CONTINUOUS
 62
     3
100
AcDbLine
 10
-472.499969
 20
0.0
 30
0.0
 11
472.499969
 21
0.0
 31
0.0
  0
LINE
  5
78D
100
AcDbEntity
  8
DETAIL
  6
CONTINUOUS
 62
     5
100
AcDbLine
 10
-372.299977
 20
0.0
 30
0.0
 11
-51.321536
 21
0.0
 31
0.0
  0
LINE
  5
78E
100
AcDbEntity
  8
DETAIL
  6
CONTINUOUS
 62
     5
100
AcDbLine
 10
-372.299977
 20
0.0
 30
0.0
 11
-51.321536
 21
0.0
 31
0.0
  0
LINE
  5
78F
100
AcDbEntity
  8
DETAIL
  6
CONTINUOUS
 62
     5
100
AcDbLine
 10
-333.999969
 20
-1.4
 30
0.0
 11
49.000031
 21
-1.4
 31
0.0
  0
LINE
  5
790
100
AcDbEntity
  8
DETAIL
  6
CONTINUOUS
 62
     5
100
AcDbLine
 10
-342.299979
 20
-345.0
 30
0.0
 11
-297.299982
 21
-345.0
 31
0.0
  0
LINE
  5
791
100
AcDbEntity
  8
DETAIL
  6
CONTINUOUS
 62
     5
100
AcDbLine
 10
-268.9576
 20
-365.627854
 30
0.0
 11
-355.760423
 21
-262.180279
 31
0.0
  0
ARC
  5
792
100
AcDbEntity
  8
DETAIL
  6
CONTINUOUS
 62
     5
100
AcDbCircle
 10
-165.29999
 20
-179.199989
 30
0.0
 40
177.999989
100
AcDbArc
 50
201.043339
 51
270.0
  0
LINE
  5
793
100
AcDbEntity
  8
DETAIL
  6
CONTINUOUS
 62
     5
100
AcDbLine
 10
-333.999969
 20
-243.11516
 30
0.0
 11
49.000031
 21
-243.11516
 31
0.0
  0
LINE
  5
794
100
AcDbEntity
  8
NOTE
  6
CONTINUOUS
 62
     4
100
AcDbLine
 10
-486.49997
 20
-320.0
 30
0.0
 11
-1044.620258
 21
16.374874
 31
0.0
  0
LINE
  5
795
100
AcDbEntity
  8
SERVICESPACE
  6
DASHDOT
 62
     2
100
AcDbLine
 10
-472.499969
 20
-400.0
 30
0.0
 11
-472.499969
 21
20.0
 31
0.0
  0
LINE
  5
796
100
AcDbEntity
  8
SIZE
  6
CONTINUOUS
 62
    30
100
AcDbLine
 10
-755.003035
 20
-70.0
 30
0.0
 11
-755.003035
 21
402.242205
 31
0.0
  0
LINE
  5
797
100
AcDbEntity
  8
SIZE
  6
CONTINUOUS
 62
    30
100
AcDbLine
 10
-496.499969
 20
-5.0
 30
0.0
 11
-496.499969
 21
498.512129
 31
0.0
  0
LINE
  5
798
100
AcDbEntity
  8
SIZE
  6
CONTINUOUS
 62
    30
100
AcDbLine
 10
-496.499969
 20
-5.0
 30
0.0
 11
-496.499969
 21
381.736311
 31
0.0
  0
LINE
  5
799
100
AcDbEntity
  8
SIZE
  6
CONTINUOUS
 62
    30
100
AcDbLine
 10
-486.49997
 20
-40.93197
 30
0.0
 11
-486.49997
 21
96.183558
 31
0.0
  0
LINE
  5
79A
100
AcDbEntity
  8
SIZE
  6
CONTINUOUS
 62
    30
100
AcDbLine
 10
-496.499969
 20
-5.0
 30
0.0
 11
-496.499969
 21
96.183558
 31
0.0
  0
LINE
  5
79B
100
AcDbEntity
  8
DETAIL
  6
CONTINUOUS
 62
     5
100
AcDbLine
 10
-333.999969
 20
-1.4
 30
0.0
 11
-333.999969
 21
-243.11516
 31
0.0
  0
LINE
  5
79C
100
AcDbEntity
  8
OUTLINE
  6
CONTINUOUS
 62
     3
100
AcDbLine
 10
-472.499969
 20
0.0
 30
0.0
 11
-472.499908
 21
-380.0
 31
0.0
  0
LINE
  5
79D
100
AcDbEntity
  8
DETAIL
  6
CONTINUOUS
 62
     5
100
AcDbLine
 10
-472.499969
 20
-365.0
 30
0.0
 11
-472.499969
 21
0.0
 31
0.0
  0
LINE
  5
79E
100
AcDbEntity
  8
DETAIL
  6
CONTINUOUS
 62
     5
100
AcDbLine
 10
-374.499915
 20
0.0
 30
0.0
 11
-374.499915
 21
-339.0
 31
0.0
  0
LINE
  5
79F
100
AcDbEntity
  8
SIZE
  6
CONTINUOUS
 62
    30
100
AcDbLine
 10
-472.499969
 20
-420.0
 30
0.0
 11
-472.499969
 21
-617.069773
 31
0.0
  0
LINE
  5
7A0
100
AcDbEntity
  8
SIZE
  6
CONTINUOUS
 62
    30
100
AcDbLine
 10
-372.499969
 20
-379.0
 30
0.0
 11
-372.499969
 21
-910.465895
 31
0.0
  0
LINE
  5
7A1
100
AcDbEntity
  8
SIZE
  6
CONTINUOUS
 62
    30
100
AcDbLine
 10
-402.500031
 20
-400.0
 30
0.0
 11
-402.500031
 21
-1014.170386
 31
0.0
  0
TEXT
  5
7A2
100
AcDbEntity
  8
NOTE
  6
CONTINUOUS
 62
     4
100
AcDbText
 10
-1122.031433
 20
-800.90012
 30
0.0
 40
64.0
  1
（別売ﾄﾞﾚﾝｱｯﾌﾟﾒｶ使用時）
 41
0.8
100
AcDbText
  0
POINT
  5
7A3
100
AcDbEntity
  8
DEFPOINTS
  6
CONTINUOUS
 62
     7
100
AcDbPoint
 10
-402.500031
 20
-984.170386
 30
0.0
  0
LINE
  5
7A4
100
AcDbEntity
  8
SIZE
  6
CONTINUOUS
 62
    30
100
AcDbLine
 10
-397.500031
 20
-984.170386
 30
0.0
 11
-392.500031
 21
-984.170386
 31
0.0
  0
CIRCLE
  5
7A5
100
AcDbEntity
  8
SIZE
  6
CONTINUOUS
 62
    30
100
AcDbCircle
 10
-402.500031
 20
-984.170386
 30
0.0
 40
5.0
  0
TEXT
  5
7A6
100
AcDbEntity
  8
NOTE
  6
CONTINUOUS
 62
     4
100
AcDbText
 10
-601.020064
 20
-698.814498
 30
0.0
 40
64.0
  1
D2
 41
0.9
100
AcDbText
  0
LINE
  5
7A7
100
AcDbEntity
  8
NOTE
  6
CONTINUOUS
 62
     4
100
AcDbLine
 10
-459.652021
 20
-716.5421
 30
0.0
 11
-655.690865
 21
-716.5421
 31
0.0
  0
LINE
  5
7A8
100
AcDbEntity
  8
SIZE
  6
CONTINUOUS
 62
    30
100
AcDbLine
 10
-367.499969
 20
-880.465895
 30
0.0
 11
-362.499969
 21
-880.465895
 31
0.0
  0
CIRCLE
  5
7A9
100
AcDbEntity
  8
SIZE
  6
CONTINUOUS
 62
    30
100
AcDbCircle
 10
-372.499969
 20
-880.465895
 30
0.0
 40
5.0
  0
TEXT
  5
7AA
100
AcDbEntity
  8
SIZE
  6
CONTINUOUS
 62
    30
100
AcDbText
 10
-825.614255
 20
-572.069773
 30
0.0
 40
55.0
  1
200～300
 41
0.9
 72
     1
 11
-661.557112
 21
-572.069773
 31
0.0
100
AcDbText
  0
LINE
  5
7AB
100
AcDbEntity
  8
SIZE
  6
CONTINUOUS
 62
    30
100
AcDbLine
 10
-472.499969
 20
-587.069773
 30
0.0
 11
-840.614255
 21
-587.069773
 31
0.0
  0
TEXT
  5
7AC
100
AcDbEntity
  8
SIZE
  6
CONTINUOUS
 62
    30
100
AcDbText
 10
-770.003035
 20
-482.526543
 30
0.0
 40
55.0
  1
45
 50
90.0
 41
0.9
 72
     1
 11
-770.003035
 21
-442.455114
 31
0.0
100
AcDbText
  0
LINE
  5
7AE
100
AcDbEntity
  8
SIZE
  6
CONTINUOUS
 62
    30
100
AcDbLine
 10
-516.732119
 20
-320.0
 30
0.0
 11
-785.003035
 21
-320.0
 31
0.0
  0
LINE
  5
7AF
100
AcDbEntity
  8
SIZE
  6
CONTINUOUS
 62
    30
100
AcDbLine
 10
-516.499969
 20
-25.0
 30
0.0
 11
-921.975959
 21
-25.0
 31
0.0
  0
LINE
  5
7B0
100
AcDbEntity
  8
SIZE
  6
CONTINUOUS
 62
    30
100
AcDbLine
 10
-516.499969
 20
-365.0
 30
0.0
 11
-921.975959
 21
-365.0
 31
0.0
  0
LINE
  5
7B1
100
AcDbEntity
  8
SIZE
  6
CONTINUOUS
 62
    30
100
AcDbLine
 10
-516.499969
 20
-365.0
 30
0.0
 11
-921.975959
 21
-365.0
 31
0.0
  0
LINE
  5
7B2
100
AcDbEntity
  8
SIZE
  6
CONTINUOUS
 62
    30
100
AcDbLine
 10
-422.299975
 20
-380.0
 30
0.0
 11
-921.975959
 21
-380.0
 31
0.0
  0
LINE
  5
7B3
100
AcDbEntity
  8
SIZE
  6
CONTINUOUS
 62
    30
100
AcDbLine
 10
-515.568
 20
-320.0
 30
0.0
 11
-785.003035
 21
-320.0
 31
0.0
  0
LINE
  5
7B4
100
AcDbEntity
  8
SIZE
  6
CONTINUOUS
 62
    30
100
AcDbLine
 10
-515.568
 20
-70.0
 30
0.0
 11
-785.003035
 21
-70.0
 31
0.0
  0
LINE
  5
7B5
100
AcDbEntity
  8
SIZE
  6
CONTINUOUS
 62
    30
100
AcDbLine
 10
-891.975959
 20
-355.0
 30
0.0
 11
-891.975959
 21
-35.0
 31
0.0
  0
TEXT
  5
7B6
100
AcDbEntity
  8
SIZE
  6
CONTINUOUS
 62
    30
100
AcDbText
 10
-906.975959
 20
-485.714286
 30
0.0
 40
55.0
  1
15
 50
90.0
 41
0.9
 72
     1
 11
-906.975959
 21
-450.357143
 31
0.0
100
AcDbText
  0
LINE
  5
7B7
100
AcDbEntity
  8
SIZE
  6
CONTINUOUS
 62
    30
100
AcDbLine
 10
-891.975959
 20
-390.0
 30
0.0
 11
-891.975959
 21
-500.714286
 31
0.0
  0
CIRCLE
  5
7B8
100
AcDbEntity
  8
SIZE
  6
CONTINUOUS
 62
    30
100
AcDbCircle
 10
-891.975959
 20
-365.0
 30
0.0
 40
5.0
  0
CIRCLE
  5
7B9
100
AcDbEntity
  8
SIZE
  6
CONTINUOUS
 62
    30
100
AcDbCircle
 10
-891.975959
 20
-380.0
 30
0.0
 40
5.0
  0
CIRCLE
  5
7BA
100
AcDbEntity
  8
SIZE
  6
CONTINUOUS
 62
    30
100
AcDbCircle
 10
-891.975959
 20
-365.0
 30
0.0
 40
5.0
  0
LINE
  5
7BB
100
AcDbEntity
  8
SIZE
  6
CONTINUOUS
 62
    30
100
AcDbLine
 10
-891.975959
 20
-360.0
 30
0.0
 11
-891.975959
 21
-355.0
 31
0.0
  0
POINT
  5
7BC
100
AcDbEntity
  8
DEFPOINTS
  6
CONTINUOUS
 62
     7
100
AcDbPoint
 10
-891.975959
 20
-365.0
 30
0.0
  0
LINE
  5
7BD
100
AcDbEntity
  8
SIZE
  6
CONTINUOUS
 62
    30
100
AcDbLine
 10
-891.975959
 20
-385.0
 30
0.0
 11
-891.975959
 21
-390.0
 31
0.0
  0
LINE
  5
7BE
100
AcDbEntity
  8
SIZE
  6
CONTINUOUS
 62
    30
100
AcDbLine
 10
-891.975959
 20
-360.0
 30
0.0
 11
-891.975959
 21
-355.0
 31
0.0
  0
LINE
  5
7BF
100
AcDbEntity
  8
SIZE
  6
CONTINUOUS
 62
    30
100
AcDbLine
 10
-891.975959
 20
-365.0
 30
0.0
 11
-891.975959
 21
-380.0
 31
0.0
  0
LINE
  5
7C0
100
AcDbEntity
  8
SIZE
  6
CONTINUOUS
 62
    30
100
AcDbLine
 10
-891.975959
 20
-355.0
 30
0.0
 11
-891.975959
 21
-345.0
 31
0.0
  0
TEXT
  5
7C1
100
AcDbEntity
  8
SIZE
  6
CONTINUOUS
 62
    30
100
AcDbText
 10
-906.975959
 20
-258.642857
 30
0.0
 40
55.0
  1
340
 50
90.0
 41
0.9
 72
     1
 11
-906.975959
 21
-195.0
 31
0.0
100
AcDbText
  0
CIRCLE
  5
7C2
100
AcDbEntity
  8
SIZE
  6
CONTINUOUS
 62
    30
100
AcDbCircle
 10
-891.975959
 20
-25.0
 30
0.0
 40
5.0
  0
POINT
  5
7C3
100
AcDbEntity
  8
DEFPOINTS
  6
CONTINUOUS
 62
     7
100
AcDbPoint
 10
-891.975959
 20
-25.0
 30
0.0
  0
LINE
  5
7C4
100
AcDbEntity
  8
SIZE
  6
CONTINUOUS
 62
    30
100
AcDbLine
 10
-891.975959
 20
-30.0
 30
0.0
 11
-891.975959
 21
-35.0
 31
0.0
  0
POLYLINE
  5
7C5
100
AcDbEntity
  8
NOTE
  6
CONTINUOUS
 62
     4
100
AcDb2dPolyline
 66
     1
 10
0.0
 20
0.0
 30
0.0
  0
VERTEX
  5
7C6
100
AcDbEntity
  8
NOTE
  6
CONTINUOUS
 62
     4
100
AcDbVertex
100
AcDb2dVertex
 10
-524.951674
 20
-308.978817
 30
0.0
  0
VERTEX
  5
7C7
100
AcDbEntity
  8
NOTE
  6
CONTINUOUS
 62
     4
100
AcDbVertex
100
AcDb2dVertex
 10
-486.49997
 20
-320.0
 30
0.0
  0
VERTEX
  5
7C8
100
AcDbEntity
  8
NOTE
  6
CONTINUOUS
 62
     4
100
AcDbVertex
100
AcDb2dVertex
 10
-514.289531
 20
-291.229524
 30
0.0
  0
SEQEND
  5
7C9
100
AcDbEntity
  8
NOTE
  6
CONTINUOUS
 62
     4
  0
LINE
  5
7CA
100
AcDbEntity
  8
SIZE
  6
CONTINUOUS
 62
    30
100
AcDbLine
 10
-755.003035
 20
-310.0
 30
0.0
 11
-755.003035
 21
-300.0
 31
0.0
  0
LINE
  5
7CB
100
AcDbEntity
  8
SIZE
  6
CONTINUOUS
 62
    30
100
AcDbLine
 10
-597.005109
 20
-280.0
 30
0.0
 11
-597.005109
 21
-310.0
 31
0.0
  0
LINE
  5
7CC
100
AcDbEntity
  8
SIZE
  6
CONTINUOUS
 62
    30
100
AcDbLine
 10
-755.003035
 20
-310.0
 30
0.0
 11
-755.003035
 21
-80.0
 31
0.0
  0
LINE
  5
7CD
100
AcDbEntity
  8
DETAIL
  6
CONTINUOUS
 62
     5
100
AcDbLine
 10
-377.299977
 20
-316.999981
 30
0.0
 11
-377.299977
 21
-42.599997
 31
0.0
  0
LINE
  5
7CE
100
AcDbEntity
  8
DETAIL
  6
CONTINUOUS
 62
     5
100
AcDbLine
 10
-496.499969
 20
-365.0
 30
0.0
 11
-496.499969
 21
-25.0
 31
0.0
  0
LINE
  5
7CF
100
AcDbEntity
  8
DETAIL
  6
CONTINUOUS
 62
     5
100
AcDbLine
 10
-496.499969
 20
-355.499978
 30
0.0
 11
-496.499969
 21
-25.0
 31
0.0
  0
LINE
  5
7D0
100
AcDbEntity
  8
SIZE
  6
CONTINUOUS
 62
    30
100
AcDbLine
 10
-515.568
 20
-320.0
 30
0.0
 11
-627.005109
 21
-320.0
 31
0.0
  0
LINE
  5
7D1
100
AcDbEntity
  8
SIZE
  6
CONTINUOUS
 62
    30
100
AcDbLine
 10
-755.003035
 20
-497.526542
 30
0.0
 11
-755.003035
 21
-365.0
 31
0.0
  0
TEXT
  5
7D2
100
AcDbEntity
  8
SIZE
  6
CONTINUOUS
 62
    30
100
AcDbText
 10
-612.005109
 20
-480.749412
 30
0.0
 40
55.0
  1
50
 50
90.0
 41
0.9
 72
     1
 11
-612.005109
 21
-440.677983
 31
0.0
100
AcDbText
  0
LINE
  5
7D3
100
AcDbEntity
  8
SIZE
  6
CONTINUOUS
 62
    30
100
AcDbLine
 10
-597.005109
 20
-320.0
 30
0.0
 11
-597.005109
 21
-495.749412
 31
0.0
  0
POINT
  5
7D4
100
AcDbEntity
  8
DEFPOINTS
  6
CONTINUOUS
 62
     7
100
AcDbPoint
 10
-755.003035
 20
-365.0
 30
0.0
  0
LINE
  5
7D5
100
AcDbEntity
  8
SIZE
  6
CONTINUOUS
 62
    30
100
AcDbLine
 10
-755.003035
 20
-370.0
 30
0.0
 11
-755.003035
 21
-375.0
 31
0.0
  0
CIRCLE
  5
7D6
100
AcDbEntity
  8
SIZE
  6
CONTINUOUS
 62
    30
100
AcDbCircle
 10
-755.003035
 20
-365.0
 30
0.0
 40
5.0
  0
LINE
  5
7D7
100
AcDbEntity
  8
SIZE
  6
CONTINUOUS
 62
    30
100
AcDbLine
 10
-755.003035
 20
-315.0
 30
0.0
 11
-755.003035
 21
-310.0
 31
0.0
  0
CIRCLE
  5
7D8
100
AcDbEntity
  8
SIZE
  6
CONTINUOUS
 62
    30
100
AcDbCircle
 10
-755.003035
 20
-320.0
 30
0.0
 40
5.0
  0
LINE
  5
7D9
100
AcDbEntity
  8
SIZE
  6
CONTINUOUS
 62
    30
100
AcDbLine
 10
-755.003035
 20
-320.0
 30
0.0
 11
-755.003035
 21
-365.0
 31
0.0
  0
LINE
  5
7DA
100
AcDbEntity
  8
SIZE
  6
CONTINUOUS
 62
    30
100
AcDbLine
 10
-755.003035
 20
-320.0
 30
0.0
 11
-755.003035
 21
-365.0
 31
0.0
  0
LINE
  5
7DB
100
AcDbEntity
  8
SIZE
  6
CONTINUOUS
 62
    30
100
AcDbLine
 10
-755.003035
 20
-375.0
 30
0.0
 11
-755.003035
 21
-385.0
 31
0.0
  0
POINT
  5
7DC
100
AcDbEntity
  8
DEFPOINTS
  6
CONTINUOUS
 62
     7
100
AcDbPoint
 10
-755.003035
 20
-320.0
 30
0.0
  0
LINE
  5
7DD
100
AcDbEntity
  8
SIZE
  6
CONTINUOUS
 62
    30
100
AcDbLine
 10
-755.003035
 20
-315.0
 30
0.0
 11
-755.003035
 21
-310.0
 31
0.0
  0
CIRCLE
  5
7DE
100
AcDbEntity
  8
SIZE
  6
CONTINUOUS
 62
    30
100
AcDbCircle
 10
-755.003035
 20
-320.0
 30
0.0
 40
5.0
  0
LINE
  5
7DF
100
AcDbEntity
  8
SIZE
  6
CONTINUOUS
 62
    30
100
AcDbLine
 10
-597.005109
 20
-315.0
 30
0.0
 11
-597.005109
 21
-310.0
 31
0.0
  0
CIRCLE
  5
7E0
100
AcDbEntity
  8
SIZE
  6
CONTINUOUS
 62
    30
100
AcDbCircle
 10
-597.005109
 20
-320.0
 30
0.0
 40
5.0
  0
LINE
  5
7E1
100
AcDbEntity
  8
SIZE
  6
CONTINUOUS
 62
    30
100
AcDbLine
 10
-467.499969
 20
-587.069773
 30
0.0
 11
-462.499969
 21
-587.069773
 31
0.0
  0
CIRCLE
  5
7E2
100
AcDbEntity
  8
SIZE
  6
CONTINUOUS
 62
    30
100
AcDbCircle
 10
-472.499969
 20
-587.069773
 30
0.0
 40
5.0
  0
LINE
  5
7E3
100
AcDbEntity
  8
OUTLINE
  6
CONTINUOUS
 62
     3
100
AcDbLine
 10
-471.499909
 20
-365.0
 30
0.0
 11
-402.500031
 21
-365.0
 31
0.0
  0
LINE
  5
7E4
100
AcDbEntity
  8
DETAIL
  6
CONTINUOUS
 62
     5
100
AcDbLine
 10
-472.499916
 20
-330.99998
 30
0.0
 11
-386.431347
 21
-330.99998
 31
0.0
  0
LINE
  5
7E5
100
AcDbEntity
  8
DETAIL
  6
CONTINUOUS
 62
     5
100
AcDbLine
 10
-472.499908
 20
-365.0
 30
0.0
 11
-402.500031
 21
-365.0
 31
0.0
  0
POINT
  5
7E6
100
AcDbEntity
  8
DEFPOINTS
  6
CONTINUOUS
 62
     7
100
AcDbPoint
 10
-472.499969
 20
-400.0
 30
0.0
  0
POINT
  5
7E7
100
AcDbEntity
  8
DEFPOINTS
  6
CONTINUOUS
 62
     7
100
AcDbPoint
 10
-497.66415
 20
-365.0
 30
0.0
  0
POINT
  5
7E8
100
AcDbEntity
  8
DEFPOINTS
  6
CONTINUOUS
 62
     7
100
AcDbPoint
 10
-496.732119
 20
-320.0
 30
0.0
  0
POINT
  5
7E9
100
AcDbEntity
  8
DEFPOINTS
  6
CONTINUOUS
 62
     7
100
AcDbPoint
 10
-495.568
 20
-320.0
 30
0.0
  0
POINT
  5
7EA
100
AcDbEntity
  8
DEFPOINTS
  6
CONTINUOUS
 62
     7
100
AcDbPoint
 10
-496.499969
 20
-365.0
 30
0.0
  0
POINT
  5
7EB
100
AcDbEntity
  8
DEFPOINTS
  6
CONTINUOUS
 62
     7
100
AcDbPoint
 10
-496.499969
 20
-365.0
 30
0.0
  0
POINT
  5
7EC
100
AcDbEntity
  8
DEFPOINTS
  6
CONTINUOUS
 62
     7
100
AcDbPoint
 10
-495.568
 20
-320.0
 30
0.0
  0
LINE
  5
7ED
100
AcDbEntity
  8
OUTLINE
  6
CONTINUOUS
 62
     3
100
AcDbLine
 10
-471.499909
 20
-365.0
 30
0.0
 11
-471.499909
 21
-380.0
 31
0.0
  0
LINE
  5
7EE
100
AcDbEntity
  8
DETAIL
  6
CONTINUOUS
 62
     5
100
AcDbLine
 10
-472.499908
 20
-380.0
 30
0.0
 11
-471.499909
 21
-380.0
 31
0.0
  0
LINE
  5
7EF
100
AcDbEntity
  8
OUTLINE
  6
CONTINUOUS
 62
     3
100
AcDbLine
 10
-472.499908
 20
-380.0
 30
0.0
 11
-471.499909
 21
-380.0
 31
0.0
  0
CIRCLE
  5
7F0
100
AcDbEntity
  8
DETAIL
  6
CONTINUOUS
 62
     5
100
AcDbCircle
 10
-486.49997
 20
-320.0
 30
0.0
 40
1.55
  0
LINE
  5
7F1
100
AcDbEntity
  8
NOTE
  6
CONTINUOUS
 62
     4
100
AcDbLine
 10
-477.43194
 20
-320.0
 30
0.0
 11
-495.568
 21
-320.0
 31
0.0
  0
LINE
  5
7F2
100
AcDbEntity
  8
NOTE
  6
CONTINUOUS
 62
     4
100
AcDbLine
 10
-486.49997
 20
-310.93197
 30
0.0
 11
-486.49997
 21
-329.06803
 31
0.0
  0
LINE
  5
7F3
100
AcDbEntity
  8
DETAIL
  6
CONTINUOUS
 62
     5
100
AcDbLine
 10
-472.499908
 20
-380.0
 30
0.0
 11
-472.499908
 21
-362.699999
 31
0.0
  0
LINE
  5
7F4
100
AcDbEntity
  8
DETAIL
  6
CONTINUOUS
 62
     5
100
AcDbLine
 10
-471.499909
 20
-365.0
 30
0.0
 11
-471.499909
 21
-380.0
 31
0.0
  0
LINE
  5
7F5
100
AcDbEntity
  8
DETAIL
  6
CONTINUOUS
 62
     5
100
AcDbLine
 10
-496.500031
 20
-365.0
 30
0.0
 11
-471.300032
 21
-365.0
 31
0.0
  0
POINT
  5
7F6
100
AcDbEntity
  8
DEFPOINTS
  6
CONTINUOUS
 62
     7
100
AcDbPoint
 10
-372.499969
 20
-359.0
 30
0.0
  0
POINT
  5
7F7
100
AcDbEntity
  8
DEFPOINTS
  6
CONTINUOUS
 62
     7
100
AcDbPoint
 10
-402.299975
 20
-380.0
 30
0.0
  0
POINT
  5
7F8
100
AcDbEntity
  8
DEFPOINTS
  6
CONTINUOUS
 62
     7
100
AcDbPoint
 10
-402.500031
 20
-380.0
 30
0.0
  0
LINE
  5
7F9
100
AcDbEntity
  8
OUTLINE
  6
CONTINUOUS
 62
     3
100
AcDbLine
 10
-402.500031
 20
-380.0
 30
0.0
 11
-402.299975
 21
-380.0
 31
0.0
  0
LINE
  5
7FA
100
AcDbEntity
  8
OUTLINE
  6
CONTINUOUS
 62
     3
100
AcDbLine
 10
-402.500031
 20
-365.0
 30
0.0
 11
-402.500031
 21
-380.0
 31
0.0
  0
LINE
  5
7FB
100
AcDbEntity
  8
DETAIL
  6
CONTINUOUS
 62
     5
100
AcDbLine
 10
-402.500031
 20
-380.0
 30
0.0
 11
-402.500031
 21
-339.0
 31
0.0
  0
CIRCLE
  5
7FC
100
AcDbEntity
  8
FIX
  6
CONTINUOUS
 62
    11
100
AcDbCircle
 10
-372.499969
 20
-339.0
 30
0.0
 40
5.0
  0
LINE
  5
7FD
100
AcDbEntity
  8
NOTE
  6
CONTINUOUS
 62
     4
100
AcDbLine
 10
-372.499969
 20
-359.0
 30
0.0
 11
-372.499969
 21
-319.0
 31
0.0
  0
LINE
  5
7FE
100
AcDbEntity
  8
NOTE
  6
CONTINUOUS
 62
     4
100
AcDbLine
 10
-352.499969
 20
-339.0
 30
0.0
 11
-392.499969
 21
-339.0
 31
0.0
  0
ARC
  5
7FF
100
AcDbEntity
  8
DETAIL
  6
CONTINUOUS
 62
     5
100
AcDbCircle
 10
-345.299979
 20
-347.999999
 30
0.0
 40
3.0
100
AcDbArc
 50
270.0
 51
0.0
  0
LINE
  5
800
100
AcDbEntity
  8
DETAIL
  6
CONTINUOUS
 62
     5
100
AcDbLine
 10
-342.299979
 20
-347.999999
 30
0.0
 11
-342.299979
 21
-339.0
 31
0.0
  0
ARC
  5
801
100
AcDbEntity
  8
DETAIL
  6
CONTINUOUS
 62
     5
100
AcDbCircle
 10
-345.299979
 20
-347.999999
 30
0.0
 40
3.0
100
AcDbArc
 50
270.0
 51
0.0
  0
LINE
  5
802
100
AcDbEntity
  8
DETAIL
  6
CONTINUOUS
 62
     5
100
AcDbLine
 10
-342.299979
 20
-347.999999
 30
0.0
 11
-342.299979
 21
-339.0
 31
0.0
  0
ARC
  5
805
100
AcDbEntity
  8
DETAIL
  6
CONTINUOUS
 62
     5
100
AcDbCircle
 10
-363.299978
 20
-347.999999
 30
0.0
 40
3.0
100
AcDbArc
 50
180.0
 51
270.0
  0
LINE
  5
806
100
AcDbEntity
  8
DETAIL
  6
CONTINUOUS
 62
     5
100
AcDbLine
 10
-366.299977
 20
-339.0
 30
0.0
 11
-366.299977
 21
-347.999999
 31
0.0
  0
ARC
  5
807
100
AcDbEntity
  8
DETAIL
  6
CONTINUOUS
 62
     5
100
AcDbCircle
 10
-381.299977
 20
-347.999999
 30
0.0
 40
3.0
100
AcDbArc
 50
270.0
 51
0.0
  0
LINE
  5
808
100
AcDbEntity
  8
DETAIL
  6
CONTINUOUS
 62
     5
100
AcDbLine
 10
-378.299977
 20
-339.0
 30
0.0
 11
-378.299977
 21
-347.999999
 31
0.0
  0
LINE
  5
809
100
AcDbEntity
  8
DETAIL
  6
CONTINUOUS
 62
     5
100
AcDbLine
 10
-378.299977
 20
-341.3
 30
0.0
 11
-366.299977
 21
-341.3
 31
0.0
  0
ARC
  5
80A
100
AcDbEntity
  8
DETAIL
  6
CONTINUOUS
 62
     5
100
AcDbCircle
 10
-381.299977
 20
-347.999999
 30
0.0
 40
3.0
100
AcDbArc
 50
270.0
 51
0.0
  0
LINE
  5
80B
100
AcDbEntity
  8
DETAIL
  6
CONTINUOUS
 62
     5
100
AcDbLine
 10
-378.299977
 20
-339.0
 30
0.0
 11
-378.299977
 21
-347.999999
 31
0.0
  0
ARC
  5
80C
100
AcDbEntity
  8
DETAIL
  6
CONTINUOUS
 62
     5
100
AcDbCircle
 10
-363.299978
 20
-347.999999
 30
0.0
 40
3.0
100
AcDbArc
 50
180.0
 51
270.0
  0
LINE
  5
80D
100
AcDbEntity
  8
DETAIL
  6
CONTINUOUS
 62
     5
100
AcDbLine
 10
-366.299977
 20
-339.0
 30
0.0
 11
-366.299977
 21
-347.999999
 31
0.0
  0
LINE
  5
80E
100
AcDbEntity
  8
DETAIL
  6
CONTINUOUS
 62
     5
100
AcDbLine
 10
-378.299977
 20
-341.3
 30
0.0
 11
-366.299977
 21
-341.3
 31
0.0
  0
LINE
  5
80F
100
AcDbEntity
  8
DETAIL
  6
CONTINUOUS
 62
     5
100
AcDbLine
 10
-383.431347
 20
-319.99998
 30
0.0
 11
-382.299976
 21
-319.99998
 31
0.0
  0
LINE
  5
810
100
AcDbEntity
  8
DETAIL
  6
CONTINUOUS
 62
     5
100
AcDbLine
 10
-380.299977
 20
-319.99998
 30
0.0
 11
-377.299977
 21
-316.999981
 31
0.0
  0
LINE
  5
811
100
AcDbEntity
  8
DETAIL
  6
CONTINUOUS
 62
     5
100
AcDbLine
 10
-383.431347
 20
-319.99998
 30
0.0
 11
-383.431347
 21
-320.79998
 31
0.0
  0
LINE
  5
812
100
AcDbEntity
  8
DETAIL
  6
CONTINUOUS
 62
     5
100
AcDbLine
 10
-383.431347
 20
-327.99998
 30
0.0
 11
-386.431347
 21
-330.99998
 31
0.0
  0
LINE
  5
813
100
AcDbEntity
  8
DETAIL
  6
CONTINUOUS
 62
     5
100
AcDbLine
 10
-382.299976
 20
-319.99998
 30
0.0
 11
-380.299977
 21
-319.99998
 31
0.0
  0
LINE
  5
814
100
AcDbEntity
  8
DETAIL
  6
CONTINUOUS
 62
     5
100
AcDbLine
 10
-383.431347
 20
-320.79998
 30
0.0
 11
-383.431347
 21
-327.99998
 31
0.0
  0
ARC
  5
815
100
AcDbEntity
  8
DETAIL
  6
CONTINUOUS
 62
     5
100
AcDbCircle
 10
-399.299975
 20
-347.999999
 30
0.0
 40
3.0
100
AcDbArc
 50
180.0
 51
270.0
  0
LINE
  5
821
100
AcDbEntity
  8
DETAIL
  6
CONTINUOUS
 62
     5
100
AcDbLine
 10
-399.299975
 20
-350.999999
 30
0.0
 11
-381.299977
 21
-350.999999
 31
0.0
  0
LINE
  5
824
100
AcDbEntity
  8
DETAIL
  6
CONTINUOUS
 62
     5
100
AcDbLine
 10
-363.299978
 20
-350.999999
 30
0.0
 11
-345.299979
 21
-350.999999
 31
0.0
  0
LINE
  5
825
100
AcDbEntity
  8
DETAIL
  6
CONTINUOUS
 62
     5
100
AcDbLine
 10
-402.500031
 20
-339.0
 30
0.0
 11
-342.299979
 21
-339.0
 31
0.0
  0
LINE
  5
826
100
AcDbEntity
  8
DETAIL
  6
CONTINUOUS
 62
     5
100
AcDbLine
 10
-363.299978
 20
-350.999999
 30
0.0
 11
-345.299979
 21
-350.999999
 31
0.0
  0
LINE
  5
827
100
AcDbEntity
  8
SIZE
  6
CONTINUOUS
 62
    30
100
AcDbLine
 10
-515.568
 20
-270.0
 30
0.0
 11
-627.005109
 21
-270.0
 31
0.0
  0
POINT
  5
828
100
AcDbEntity
  8
DEFPOINTS
  6
CONTINUOUS
 62
     7
100
AcDbPoint
 10
-597.005109
 20
-270.0
 30
0.0
  0
LINE
  5
829
100
AcDbEntity
  8
SIZE
  6
CONTINUOUS
 62
    30
100
AcDbLine
 10
-597.005109
 20
-275.0
 30
0.0
 11
-597.005109
 21
-280.0
 31
0.0
  0
CIRCLE
  5
82A
100
AcDbEntity
  8
SIZE
  6
CONTINUOUS
 62
    30
100
AcDbCircle
 10
-597.005109
 20
-270.0
 30
0.0
 40
5.0
  0
LINE
  5
82B
100
AcDbEntity
  8
SIZE
  6
CONTINUOUS
 62
    30
100
AcDbLine
 10
-755.003035
 20
-75.0
 30
0.0
 11
-755.003035
 21
-80.0
 31
0.0
  0
CIRCLE
  5
82C
100
AcDbEntity
  8
SIZE
  6
CONTINUOUS
 62
    30
100
AcDbCircle
 10
-755.003035
 20
-70.0
 30
0.0
 40
5.0
  0
LINE
  5
82D
100
AcDbEntity
  8
DETAIL
  6
CONTINUOUS
 62
     5
100
AcDbLine
 10
-358.099978
 20
-255.752403
 30
0.0
 11
-358.099978
 21
-14.799999
 31
0.0
  0
POINT
  5
82E
100
AcDbEntity
  8
DEFPOINTS
  6
CONTINUOUS
 62
     7
100
AcDbPoint
 10
-495.568
 20
-270.0
 30
0.0
  0
CIRCLE
  5
82F
100
AcDbEntity
  8
DETAIL
  6
CONTINUOUS
 62
     5
100
AcDbCircle
 10
-486.49997
 20
-170.0
 30
0.0
 40
1.55
  0
LINE
  5
830
100
AcDbEntity
  8
NOTE
  6
CONTINUOUS
 62
     4
100
AcDbLine
 10
-477.43194
 20
-170.0
 30
0.0
 11
-495.568
 21
-170.0
 31
0.0
  0
LINE
  5
831
100
AcDbEntity
  8
NOTE
  6
CONTINUOUS
 62
     4
100
AcDbLine
 10
-486.49997
 20
-160.93197
 30
0.0
 11
-486.49997
 21
-179.06803
 31
0.0
  0
CIRCLE
  5
832
100
AcDbEntity
  8
DETAIL
  6
CONTINUOUS
 62
     5
100
AcDbCircle
 10
-486.49997
 20
-220.0
 30
0.0
 40
1.55
  0
LINE
  5
833
100
AcDbEntity
  8
NOTE
  6
CONTINUOUS
 62
     4
100
AcDbLine
 10
-477.43194
 20
-220.0
 30
0.0
 11
-495.568
 21
-220.0
 31
0.0
  0
LINE
  5
834
100
AcDbEntity
  8
NOTE
  6
CONTINUOUS
 62
     4
100
AcDbLine
 10
-486.49997
 20
-210.93197
 30
0.0
 11
-486.49997
 21
-229.06803
 31
0.0
  0
CIRCLE
  5
835
100
AcDbEntity
  8
DETAIL
  6
CONTINUOUS
 62
     5
100
AcDbCircle
 10
-486.49997
 20
-270.0
 30
0.0
 40
1.55
  0
LINE
  5
836
100
AcDbEntity
  8
NOTE
  6
CONTINUOUS
 62
     4
100
AcDbLine
 10
-477.43194
 20
-270.0
 30
0.0
 11
-495.568
 21
-270.0
 31
0.0
  0
LINE
  5
837
100
AcDbEntity
  8
NOTE
  6
CONTINUOUS
 62
     4
100
AcDbLine
 10
-486.49997
 20
-260.93197
 30
0.0
 11
-486.49997
 21
-279.06803
 31
0.0
  0
ARC
  5
840
100
AcDbEntity
  8
DETAIL
  6
CONTINUOUS
 62
     5
100
AcDbCircle
 10
-348.099979
 20
-255.752403
 30
0.0
 40
9.999999
100
AcDbArc
 50
180.0
 51
220.0
  0
LINE
  5
841
100
AcDbEntity
  8
DETAIL
  6
CONTINUOUS
 62
     5
100
AcDbLine
 10
-472.499969
 20
-8.499999
 30
0.0
 11
-399.799975
 21
-8.499999
 31
0.0
  0
POINT
  5
842
100
AcDbEntity
  8
DEFPOINTS
  6
CONTINUOUS
 62
     7
100
AcDbPoint
 10
-496.499969
 20
-25.0
 30
0.0
  0
POINT
  5
843
100
AcDbEntity
  8
DEFPOINTS
  6
CONTINUOUS
 62
     7
100
AcDbPoint
 10
-495.568
 20
-70.0
 30
0.0
  0
POINT
  5
844
100
AcDbEntity
  8
DEFPOINTS
  6
CONTINUOUS
 62
     7
100
AcDbPoint
 10
-496.499969
 20
-25.0
 30
0.0
  0
POINT
  5
845
100
AcDbEntity
  8
DEFPOINTS
  6
CONTINUOUS
 62
     7
100
AcDbPoint
 10
-496.499969
 20
-25.0
 30
0.0
  0
POINT
  5
846
100
AcDbEntity
  8
DEFPOINTS
  6
CONTINUOUS
 62
     7
100
AcDbPoint
 10
-486.49997
 20
-60.93197
 30
0.0
  0
POINT
  5
847
100
AcDbEntity
  8
DEFPOINTS
  6
CONTINUOUS
 62
     7
100
AcDbPoint
 10
-496.499969
 20
-25.0
 30
0.0
  0
CIRCLE
  5
848
100
AcDbEntity
  8
DETAIL
  6
CONTINUOUS
 62
     5
100
AcDbCircle
 10
-486.49997
 20
-70.0
 30
0.0
 40
1.55
  0
LINE
  5
849
100
AcDbEntity
  8
NOTE
  6
CONTINUOUS
 62
     4
100
AcDbLine
 10
-477.43194
 20
-70.0
 30
0.0
 11
-495.568
 21
-70.0
 31
0.0
  0
LINE
  5
84A
100
AcDbEntity
  8
NOTE
  6
CONTINUOUS
 62
     4
100
AcDbLine
 10
-486.49997
 20
-60.93197
 30
0.0
 11
-486.49997
 21
-79.06803
 31
0.0
  0
LINE
  5
84B
100
AcDbEntity
  8
DETAIL
  6
CONTINUOUS
 62
     5
100
AcDbLine
 10
-496.499969
 20
-25.0
 30
0.0
 11
-472.499969
 21
-25.0
 31
0.0
  0
CIRCLE
  5
84C
100
AcDbEntity
  8
DETAIL
  6
CONTINUOUS
 62
     5
100
AcDbCircle
 10
-486.49997
 20
-120.0
 30
0.0
 40
1.55
  0
LINE
  5
84D
100
AcDbEntity
  8
NOTE
  6
CONTINUOUS
 62
     4
100
AcDbLine
 10
-477.43194
 20
-120.0
 30
0.0
 11
-495.568
 21
-120.0
 31
0.0
  0
LINE
  5
84E
100
AcDbEntity
  8
NOTE
  6
CONTINUOUS
 62
     4
100
AcDbLine
 10
-486.49997
 20
-110.93197
 30
0.0
 11
-486.49997
 21
-129.06803
 31
0.0
  0
LINE
  5
84F
100
AcDbEntity
  8
DETAIL
  6
CONTINUOUS
 62
     5
100
AcDbLine
 10
-348.099979
 20
-4.8
 30
0.0
 11
-333.999969
 21
-4.8
 31
0.0
  0
LINE
  5
855
100
AcDbEntity
  8
DETAIL
  6
CONTINUOUS
 62
     5
100
AcDbLine
 10
-380.299977
 20
-39.599998
 30
0.0
 11
-377.299977
 21
-42.599997
 31
0.0
  0
LINE
  5
856
100
AcDbEntity
  8
DETAIL
  6
CONTINUOUS
 62
     5
100
AcDbLine
 10
-396.799976
 20
-11.499999
 30
0.0
 11
-396.799976
 21
-13.499999
 31
0.0
  0
LINE
  5
857
100
AcDbEntity
  8
DETAIL
  6
CONTINUOUS
 62
     5
100
AcDbLine
 10
-383.431347
 20
-16.499999
 30
0.0
 11
-386.431347
 21
-13.499999
 31
0.0
  0
LINE
  5
858
100
AcDbEntity
  8
DETAIL
  6
CONTINUOUS
 62
     5
100
AcDbLine
 10
-396.799976
 20
-13.499999
 30
0.0
 11
-386.431347
 21
-13.499999
 31
0.0
  0
LINE
  5
859
100
AcDbEntity
  8
DETAIL
  6
CONTINUOUS
 62
     5
100
AcDbLine
 10
-383.431347
 20
-16.499999
 30
0.0
 11
-383.431347
 21
-39.599998
 31
0.0
  0
LINE
  5
85A
100
AcDbEntity
  8
DETAIL
  6
CONTINUOUS
 62
     5
100
AcDbLine
 10
-380.299977
 20
-39.599998
 30
0.0
 11
-382.299976
 21
-39.599998
 31
0.0
  0
LINE
  5
85B
100
AcDbEntity
  8
DETAIL
  6
CONTINUOUS
 62
     5
100
AcDbLine
 10
-382.299976
 20
-39.599998
 30
0.0
 11
-383.431347
 21
-39.599998
 31
0.0
  0
LINE
  5
868
100
AcDbEntity
  8
DETAIL
  6
CONTINUOUS
 62
     5
100
AcDbLine
 10
-399.799975
 20
-8.499999
 30
0.0
 11
-396.799976
 21
-11.499999
 31
0.0
  0
ARC
  5
86A
100
AcDbEntity
  8
DETAIL
  6
CONTINUOUS
 62
     5
100
AcDbCircle
 10
-348.099979
 20
-14.799999
 30
0.0
 40
9.999999
100
AcDbArc
 50
90.0
 51
180.0
  0
LINE
  5
879
100
AcDbEntity
  8
NOTE
  6
CONTINUOUS
 62
     4
100
AcDbLine
 10
-1460.720903
 20
16.374874
 30
0.0
 11
-1044.620258
 21
16.374874
 31
0.0
  0
TEXT
  5
87A
100
AcDbEntity
  8
NOTE
  6
CONTINUOUS
 62
     4
100
AcDbText
 10
-1459.208093
 20
28.602205
 30
0.0
 40
64.0
  1
54-%%C3打ﾇｷ
 41
0.9
100
AcDbText
  0
TEXT
  5
87B
100
AcDbEntity
  8
SIZE
  6
CONTINUOUS
 62
    30
100
AcDbText
 10
-770.003035
 20
-0.272081
 30
0.0
 40
55.0
  1
50×5＝250
 50
90.0
 41
0.9
 72
     1
 11
-770.003035
 21
193.485062
 31
0.0
100
AcDbText
  0
LINE
  5
87D
100
AcDbEntity
  8
SIZE
  6
CONTINUOUS
 62
    30
100
AcDbLine
 10
-472.499969
 20
20.0
 30
0.0
 11
-472.499969
 21
381.736311
 31
0.0
  0
LINE
  5
87E
100
AcDbEntity
  8
SIZE
  6
CONTINUOUS
 62
    30
100
AcDbLine
 10
-374.499915
 20
20.0
 30
0.0
 11
-374.499915
 21
381.736311
 31
0.0
  0
LINE
  5
87F
100
AcDbEntity
  8
SIZE
  6
CONTINUOUS
 62
    30
100
AcDbLine
 10
-374.499915
 20
20.0
 30
0.0
 11
-374.499915
 21
381.736311
 31
0.0
  0
TEXT
  5
880
100
AcDbEntity
  8
SIZE
  6
CONTINUOUS
 62
    30
100
AcDbText
 10
-602.214255
 20
81.183558
 30
0.0
 40
55.0
  1
10
 41
0.9
 72
     1
 11
-566.857112
 21
81.183558
 31
0.0
100
AcDbText
  0
LINE
  5
881
100
AcDbEntity
  8
SIZE
  6
CONTINUOUS
 62
    30
100
AcDbLine
 10
-506.499969
 20
66.183558
 30
0.0
 11
-617.214255
 21
66.183558
 31
0.0
  0
LINE
  5
882
100
AcDbEntity
  8
SERVICESPACE
  6
DASHDOT
 62
     2
100
AcDbLine
 10
-472.499969
 20
0.0
 30
0.0
 11
-472.499969
 21
20.0
 31
0.0
  0
POINT
  5
883
100
AcDbEntity
  8
DEFPOINTS
  6
CONTINUOUS
 62
     7
100
AcDbPoint
 10
-472.499969
 20
0.0
 30
0.0
  0
POINT
  5
884
100
AcDbEntity
  8
DEFPOINTS
  6
CONTINUOUS
 62
     7
100
AcDbPoint
 10
-472.499969
 20
0.0
 30
0.0
  0
POINT
  5
885
100
AcDbEntity
  8
DEFPOINTS
  6
CONTINUOUS
 62
     7
100
AcDbPoint
 10
-486.49997
 20
66.183558
 30
0.0
  0
LINE
  5
886
100
AcDbEntity
  8
SIZE
  6
CONTINUOUS
 62
    30
100
AcDbLine
 10
-501.499969
 20
66.183558
 30
0.0
 11
-506.499969
 21
66.183558
 31
0.0
  0
CIRCLE
  5
887
100
AcDbEntity
  8
SIZE
  6
CONTINUOUS
 62
    30
100
AcDbCircle
 10
-496.499969
 20
66.183558
 30
0.0
 40
5.0
  0
LINE
  5
888
100
AcDbEntity
  8
SIZE
  6
CONTINUOUS
 62
    30
100
AcDbLine
 10
-481.49997
 20
66.183558
 30
0.0
 11
-476.49997
 21
66.183558
 31
0.0
  0
CIRCLE
  5
889
100
AcDbEntity
  8
SIZE
  6
CONTINUOUS
 62
    30
100
AcDbCircle
 10
-486.49997
 20
66.183558
 30
0.0
 40
5.0
  0
LINE
  5
88A
100
AcDbEntity
  8
SIZE
  6
CONTINUOUS
 62
    30
100
AcDbLine
 10
-486.49997
 20
66.183558
 30
0.0
 11
-496.499969
 21
66.183558
 31
0.0
  0
LINE
  5
88B
100
AcDbEntity
  8
SIZE
  6
CONTINUOUS
 62
    30
100
AcDbLine
 10
-476.49997
 20
66.183558
 30
0.0
 11
-466.49997
 21
66.183558
 31
0.0
  0
POINT
  5
88C
100
AcDbEntity
  8
DEFPOINTS
  6
CONTINUOUS
 62
     7
100
AcDbPoint
 10
-374.499915
 20
0.0
 30
0.0
  0
POINT
  5
88D
100
AcDbEntity
  8
DEFPOINTS
  6
CONTINUOUS
 62
     7
100
AcDbPoint
 10
-374.499915
 20
0.0
 30
0.0
  0
LINE
  5
88E
100
AcDbEntity
  8
SIZE
  6
CONTINUOUS
 62
    30
100
AcDbLine
 10
-675.524682
 20
351.736311
 30
0.0
 11
-496.499969
 21
351.736311
 31
0.0
  0
TEXT
  5
88F
100
AcDbEntity
  8
SIZE
  6
CONTINUOUS
 62
    30
100
AcDbText
 10
-660.524682
 20
366.736311
 30
0.0
 40
55.0
  1
24
 41
0.9
 72
     1
 11
-619.274682
 21
366.736311
 31
0.0
100
AcDbText
  0
TEXT
  5
890
100
AcDbEntity
  8
SIZE
  6
CONTINUOUS
 62
    30
100
AcDbText
 10
-463.571371
 20
366.736311
 30
0.0
 40
55.0
  1
98
 41
0.9
 72
     1
 11
-423.499942
 21
366.736311
 31
0.0
100
AcDbText
  0
LINE
  5
891
100
AcDbEntity
  8
SIZE
  6
CONTINUOUS
 62
    30
100
AcDbLine
 10
-374.499915
 20
351.736311
 30
0.0
 11
-472.499969
 21
351.736311
 31
0.0
  0
POINT
  5
892
100
AcDbEntity
  8
DEFPOINTS
  6
CONTINUOUS
 62
     7
100
AcDbPoint
 10
-496.499969
 20
351.736311
 30
0.0
  0
LINE
  5
893
100
AcDbEntity
  8
SIZE
  6
CONTINUOUS
 62
    30
100
AcDbLine
 10
-501.499969
 20
351.736311
 30
0.0
 11
-506.499969
 21
351.736311
 31
0.0
  0
CIRCLE
  5
894
100
AcDbEntity
  8
SIZE
  6
CONTINUOUS
 62
    30
100
AcDbCircle
 10
-496.499969
 20
351.736311
 30
0.0
 40
5.0
  0
LINE
  5
895
100
AcDbEntity
  8
SIZE
  6
CONTINUOUS
 62
    30
100
AcDbLine
 10
-467.499969
 20
351.736311
 30
0.0
 11
-462.499969
 21
351.736311
 31
0.0
  0
CIRCLE
  5
896
100
AcDbEntity
  8
SIZE
  6
CONTINUOUS
 62
    30
100
AcDbCircle
 10
-472.499969
 20
351.736311
 30
0.0
 40
5.0
  0
LINE
  5
897
100
AcDbEntity
  8
SIZE
  6
CONTINUOUS
 62
    30
100
AcDbLine
 10
-472.499969
 20
351.736311
 30
0.0
 11
-496.499969
 21
351.736311
 31
0.0
  0
LINE
  5
898
100
AcDbEntity
  8
SIZE
  6
CONTINUOUS
 62
    30
100
AcDbLine
 10
-472.499969
 20
351.736311
 30
0.0
 11
-496.499969
 21
351.736311
 31
0.0
  0
LINE
  5
899
100
AcDbEntity
  8
SIZE
  6
CONTINUOUS
 62
    30
100
AcDbLine
 10
-506.499969
 20
351.736311
 30
0.0
 11
-516.499969
 21
351.736311
 31
0.0
  0
LINE
  5
89A
100
AcDbEntity
  8
SIZE
  6
CONTINUOUS
 62
    30
100
AcDbLine
 10
-462.499969
 20
351.736311
 30
0.0
 11
-452.499969
 21
351.736311
 31
0.0
  0
POINT
  5
89B
100
AcDbEntity
  8
DEFPOINTS
  6
CONTINUOUS
 62
     7
100
AcDbPoint
 10
-472.499969
 20
351.736311
 30
0.0
  0
LINE
  5
89C
100
AcDbEntity
  8
SIZE
  6
CONTINUOUS
 62
    30
100
AcDbLine
 10
-477.499969
 20
351.736311
 30
0.0
 11
-482.499969
 21
351.736311
 31
0.0
  0
CIRCLE
  5
89D
100
AcDbEntity
  8
SIZE
  6
CONTINUOUS
 62
    30
100
AcDbCircle
 10
-472.499969
 20
351.736311
 30
0.0
 40
5.0
  0
LINE
  5
89E
100
AcDbEntity
  8
SIZE
  6
CONTINUOUS
 62
    30
100
AcDbLine
 10
-482.499969
 20
351.736311
 30
0.0
 11
-492.499969
 21
351.736311
 31
0.0
  0
LINE
  5
89F
100
AcDbEntity
  8
SIZE
  6
CONTINUOUS
 62
    30
100
AcDbLine
 10
-369.499915
 20
351.736311
 30
0.0
 11
-364.499915
 21
351.736311
 31
0.0
  0
CIRCLE
  5
8A0
100
AcDbEntity
  8
SIZE
  6
CONTINUOUS
 62
    30
100
AcDbCircle
 10
-374.499915
 20
351.736311
 30
0.0
 40
5.0
  0
LINE
  5
8A1
100
AcDbEntity
  8
SIZE
  6
CONTINUOUS
 62
    30
100
AcDbLine
 10
-364.499915
 20
351.736311
 30
0.0
 11
-354.499915
 21
351.736311
 31
0.0
  0
POINT
  5
8A2
100
AcDbEntity
  8
DEFPOINTS
  6
CONTINUOUS
 62
     7
100
AcDbPoint
 10
-374.499915
 20
351.736311
 30
0.0
  0
LINE
  5
8A3
100
AcDbEntity
  8
SIZE
  6
CONTINUOUS
 62
    30
100
AcDbLine
 10
-369.499915
 20
351.736311
 30
0.0
 11
-364.499915
 21
351.736311
 31
0.0
  0
CIRCLE
  5
8A4
100
AcDbEntity
  8
SIZE
  6
CONTINUOUS
 62
    30
100
AcDbCircle
 10
-374.499915
 20
351.736311
 30
0.0
 40
5.0
  0
LINE
  5
8A5
100
AcDbEntity
  8
SIZE
  6
CONTINUOUS
 62
    30
100
AcDbLine
 10
-491.499969
 20
468.512129
 30
0.0
 11
-486.499969
 21
468.512129
 31
0.0
  0
CIRCLE
  5
8A6
100
AcDbEntity
  8
SIZE
  6
CONTINUOUS
 62
    30
100
AcDbCircle
 10
-496.499969
 20
468.512129
 30
0.0
 40
5.0
  0
POINT
  5
8A7
100
AcDbEntity
  8
ARRANGE
  6
CONTINUOUS
 62
     1
100
AcDbPoint
 10
0.0
 20
0.0
 30
0.0
  0
CIRCLE
  5
8A8
100
AcDbEntity
  8
ARRANGE
  6
CONTINUOUS
 62
     1
100
AcDbCircle
 10
0.0
 20
0.0
 30
0.0
 40
40.0
  0
CIRCLE
  5
8A9
100
AcDbEntity
  8
SIZE
  6
CONTINUOUS
 62
    30
100
AcDbCircle
 10
1398.896134
 20
0.0
 30
0.0
 40
5.0
  0
LINE
  5
8AA
100
AcDbEntity
  8
SERVICESPACE
  6
DASHDOT
 62
     2
100
AcDbLine
 10
522.499969
 20
-400.0
 30
0.0
 11
522.499969
 21
20.0
 31
0.0
  0
LINE
  5
8AB
100
AcDbEntity
  8
SERVICESPACE
  6
DASHDOT
 62
     2
100
AcDbLine
 10
472.499969
 20
-400.0
 30
0.0
 11
472.499969
 21
20.0
 31
0.0
  0
LINE
  5
8AC
100
AcDbEntity
  8
NOTE
  6
CONTINUOUS
 62
     4
100
AcDbLine
 10
486.49997
 20
-61.000012
 30
0.0
 11
752.084151
 21
501.470529
 31
0.0
  0
LINE
  5
8AD
100
AcDbEntity
  8
NOTE
  6
CONTINUOUS
 62
     4
100
AcDbLine
 10
180.424447
 20
-172.898806
 30
0.0
 11
57.581395
 21
148.319022
 31
0.0
  0
CIRCLE
  5
8AE
100
AcDbEntity
  8
SIZE
  6
CONTINUOUS
 62
    30
100
AcDbCircle
 10
1398.896134
 20
0.0
 30
0.0
 40
5.0
  0
LINE
  5
8AF
100
AcDbEntity
  8
SIZE
  6
CONTINUOUS
 62
    30
100
AcDbLine
 10
969.443044
 20
-61.000012
 30
0.0
 11
969.443044
 21
435.254473
 31
0.0
  0
LINE
  5
8B0
100
AcDbEntity
  8
SIZE
  6
CONTINUOUS
 62
    30
100
AcDbLine
 10
501.499969
 20
-16.0
 30
0.0
 11
501.499969
 21
498.512129
 31
0.0
  0
LINE
  5
8B1
100
AcDbEntity
  8
SIZE
  6
CONTINUOUS
 62
    30
100
AcDbLine
 10
501.499969
 20
-16.0
 30
0.0
 11
501.499969
 21
381.736311
 31
0.0
  0
LINE
  5
8B2
100
AcDbEntity
  8
SIZE
  6
CONTINUOUS
 62
    30
100
AcDbLine
 10
180.499969
 20
-126.57143
 30
0.0
 11
180.499969
 21
177.096965
 31
0.0
  0
LINE
  5
8B4
100
AcDbEntity
  8
SIZE
  6
CONTINUOUS
 62
    30
100
AcDbLine
 10
272.499969
 20
-200.57143
 30
0.0
 11
272.499969
 21
177.096965
 31
0.0
  0
LINE
  5
8B5
100
AcDbEntity
  8
SIZE
  6
CONTINUOUS
 62
    30
100
AcDbLine
 10
85.499969
 20
-4.204881
 30
0.0
 11
85.499969
 21
277.418808
 31
0.0
  0
LINE
  5
8B6
100
AcDbEntity
  8
SIZE
  6
CONTINUOUS
 62
    30
100
AcDbLine
 10
486.49997
 20
-31.931982
 30
0.0
 11
486.49997
 21
68.498747
 31
0.0
  0
LINE
  5
8B7
100
AcDbEntity
  8
SIZE
  6
CONTINUOUS
 62
    30
100
AcDbLine
 10
501.499969
 20
-16.0
 30
0.0
 11
501.499969
 21
68.498747
 31
0.0
  0
LINE
  5
8B8
100
AcDbEntity
  8
DETAIL
  6
CONTINUOUS
 62
     5
100
AcDbLine
 10
49.000031
 20
-1.4
 30
0.0
 11
49.000031
 21
-243.11516
 31
0.0
  0
LINE
  5
8B9
100
AcDbEntity
  8
BASIS
  6
DASHDOT
 62
     6
100
AcDbLine
 10
0.0
 20
89.133784
 30
0.0
 11
0.0
 21
-480.891467
 31
0.0
  0
LINE
  5
8BA
100
AcDbEntity
  8
OUTLINE
  6
CONTINUOUS
 62
     3
100
AcDbLine
 10
472.499969
 20
0.0
 30
0.0
 11
472.499969
 21
-380.0
 31
0.0
  0
LINE
  5
8BB
100
AcDbEntity
  8
DETAIL
  6
CONTINUOUS
 62
     5
100
AcDbLine
 10
472.499969
 20
0.0
 30
0.0
 11
472.499969
 21
-380.0
 31
0.0
  0
LINE
  5
8BC
100
AcDbEntity
  8
SIZE
  6
CONTINUOUS
 62
    30
100
AcDbLine
 10
543.334762
 20
-400.0
 30
0.0
 11
1428.896134
 21
-400.0
 31
0.0
  0
LINE
  5
8BE
100
AcDbEntity
  8
NOTE
  6
CONTINUOUS
 62
     4
100
AcDbLine
 10
441.500031
 20
-339.0
 30
0.0
 11
843.974435
 21
-772.198268
 31
0.0
  0
LINE
  5
8BF
100
AcDbEntity
  8
NOTE
  6
CONTINUOUS
 62
     4
100
AcDbLine
 10
272.497874
 20
-249.987179
 30
0.0
 11
826.277003
 21
-1024.90057
 31
0.0
  0
TEXT
  5
8C0
100
AcDbEntity
  8
SIZE
  6
CONTINUOUS
 62
    30
100
AcDbText
 10
546.354375
 20
-865.465895
 30
0.0
 40
55.0
  1
60
 41
0.9
 72
     1
 11
586.425804
 21
-865.465895
 31
0.0
100
AcDbText
  0
LINE
  5
8C1
100
AcDbEntity
  8
SIZE
  6
CONTINUOUS
 62
    30
100
AcDbLine
 10
641.497233
 20
-880.465895
 30
0.0
 11
501.499969
 21
-880.465895
 31
0.0
  0
LINE
  5
8C2
100
AcDbEntity
  8
SIZE
  6
CONTINUOUS
 62
    30
100
AcDbLine
 10
492.499969
 20
-380.0
 30
0.0
 11
1428.896134
 21
-380.0
 31
0.0
  0
LINE
  5
8C3
100
AcDbEntity
  8
SIZE
  6
CONTINUOUS
 62
    30
100
AcDbLine
 10
521.499969
 20
-36.0
 30
0.0
 11
1301.001841
 21
-36.0
 31
0.0
  0
LINE
  5
8C4
100
AcDbEntity
  8
SIZE
  6
CONTINUOUS
 62
    30
100
AcDbLine
 10
521.499969
 20
-286.0
 30
0.0
 11
1301.001841
 21
-286.0
 31
0.0
  0
LINE
  5
8C5
100
AcDbEntity
  8
SIZE
  6
CONTINUOUS
 62
    30
100
AcDbLine
 10
521.499969
 20
-286.0
 30
0.0
 11
1301.001841
 21
-286.0
 31
0.0
  0
LINE
  5
8C6
100
AcDbEntity
  8
SIZE
  6
CONTINUOUS
 62
    30
100
AcDbLine
 10
492.499969
 20
-380.0
 30
0.0
 11
1301.001841
 21
-380.0
 31
0.0
  0
LINE
  5
8C7
100
AcDbEntity
  8
SIZE
  6
CONTINUOUS
 62
    30
100
AcDbLine
 10
517.85383
 20
-61.000012
 30
0.0
 11
999.443044
 21
-61.000012
 31
0.0
  0
LINE
  5
8C8
100
AcDbEntity
  8
SIZE
  6
CONTINUOUS
 62
    30
100
AcDbLine
 10
517.85383
 20
-261.000012
 30
0.0
 11
999.443044
 21
-261.000012
 31
0.0
  0
LINE
  5
8C9
100
AcDbEntity
  8
SIZE
  6
CONTINUOUS
 62
    30
100
AcDbLine
 10
226.928539
 20
-173.0
 30
0.0
 11
866.266829
 21
-173.0
 31
0.0
  0
LINE
  5
8CB
100
AcDbEntity
  8
SIZE
  6
CONTINUOUS
 62
    30
100
AcDbLine
 10
515.568
 20
-261.000012
 30
0.0
 11
999.443044
 21
-261.000012
 31
0.0
  0
LINE
  5
8CC
100
AcDbEntity
  8
SIZE
  6
CONTINUOUS
 62
    30
100
AcDbLine
 10
521.499969
 20
-286.0
 30
0.0
 11
999.443044
 21
-286.0
 31
0.0
  0
LINE
  5
8CD
100
AcDbEntity
  8
SIZE
  6
CONTINUOUS
 62
    30
100
AcDbLine
 10
492.499969
 20
-380.0
 30
0.0
 11
1162.438235
 21
-380.0
 31
0.0
  0
LINE
  5
8CE
100
AcDbEntity
  8
SIZE
  6
CONTINUOUS
 62
    30
100
AcDbLine
 10
135.999968
 20
-52.0
 30
0.0
 11
1162.438235
 21
-52.0
 31
0.0
  0
LINE
  5
8CF
100
AcDbEntity
  8
SIZE
  6
CONTINUOUS
 62
    30
100
AcDbLine
 10
321.928539
 20
-250.0
 30
0.0
 11
866.266829
 21
-250.0
 31
0.0
  0
LINE
  5
8D0
100
AcDbEntity
  8
SIZE
  6
CONTINUOUS
 62
    30
100
AcDbLine
 10
492.499969
 20
-380.0
 30
0.0
 11
866.266829
 21
-380.0
 31
0.0
  0
LINE
  5
8D1
100
AcDbEntity
  8
SIZE
  6
CONTINUOUS
 62
    30
100
AcDbLine
 10
174.678539
 20
-350.0
 30
0.0
 11
714.859868
 21
-350.0
 31
0.0
  0
LINE
  5
8D2
100
AcDbEntity
  8
SIZE
  6
CONTINUOUS
 62
    30
100
AcDbLine
 10
492.499969
 20
-380.0
 30
0.0
 11
714.859868
 21
-380.0
 31
0.0
  0
LINE
  5
8D3
100
AcDbEntity
  8
SIZE
  6
CONTINUOUS
 62
    30
100
AcDbLine
 10
277.500031
 20
-420.0
 30
0.0
 11
277.500031
 21
-617.069773
 31
0.0
  0
LINE
  5
8D4
100
AcDbEntity
  8
SIZE
  6
CONTINUOUS
 62
    30
100
AcDbLine
 10
-172.499969
 20
-420.0
 30
0.0
 11
-172.499969
 21
-617.069773
 31
0.0
  0
LINE
  5
8D5
100
AcDbEntity
  8
SIZE
  6
CONTINUOUS
 62
    30
100
AcDbLine
 10
-172.499969
 20
-420.0
 30
0.0
 11
-172.499969
 21
-617.069773
 31
0.0
  0
LINE
  5
8D7
100
AcDbEntity
  8
SIZE
  6
CONTINUOUS
 62
    30
100
AcDbLine
 10
441.500031
 20
-379.0
 30
0.0
 11
441.500031
 21
-910.465895
 31
0.0
  0
LINE
  5
8D8
100
AcDbEntity
  8
SIZE
  6
CONTINUOUS
 62
    30
100
AcDbLine
 10
441.500031
 20
-379.0
 30
0.0
 11
441.500031
 21
-910.465895
 31
0.0
  0
LINE
  5
8D9
100
AcDbEntity
  8
NOTE
  6
CONTINUOUS
 62
     4
100
AcDbLine
 10
129.499969
 20
-350.0
 30
0.0
 11
78.815197
 21
-732.495669
 31
0.0
  0
LINE
  5
8DA
100
AcDbEntity
  8
SIZE
  6
CONTINUOUS
 62
    30
100
AcDbLine
 10
501.499969
 20
-306.0
 30
0.0
 11
501.499969
 21
-1014.170386
 31
0.0
  0
LINE
  5
8DB
100
AcDbEntity
  8
SIZE
  6
CONTINUOUS
 62
    30
100
AcDbLine
 10
129.499969
 20
-395.17857
 30
0.0
 11
129.499969
 21
-774.748729
 31
0.0
  0
LINE
  5
8DC
100
AcDbEntity
  8
SIZE
  6
CONTINUOUS
 62
    30
100
AcDbLine
 10
472.499969
 20
-400.0
 30
0.0
 11
472.499969
 21
-774.748729
 31
0.0
  0
TEXT
  5
8DD
100
AcDbEntity
  8
SIZE
  6
CONTINUOUS
 62
    30
100
AcDbText
 10
-293.849969
 20
-851.061133
 30
0.0
 40
55.0
  1
814(吊りボルトピッチ)
 41
0.9
 72
     1
 11
34.500031
 21
-851.061133
 31
0.0
100
AcDbText
  0
TEXT
  5
8DE
100
AcDbEntity
  8
SIZE
  6
CONTINUOUS
 62
    30
100
AcDbText
 10
-30.812471
 20
-969.170386
 30
0.0
 40
55.0
  1
904
 41
0.9
 72
     1
 11
34.008958
 21
-969.170386
 31
0.0
100
AcDbText
  0
LINE
  5
8DF
100
AcDbEntity
  8
SIZE
  6
CONTINUOUS
 62
    30
100
AcDbLine
 10
496.499969
 20
-984.170386
 30
0.0
 11
491.499969
 21
-984.170386
 31
0.0
  0
CIRCLE
  5
8E0
100
AcDbEntity
  8
SIZE
  6
CONTINUOUS
 62
    30
100
AcDbCircle
 10
501.499969
 20
-984.170386
 30
0.0
 40
5.0
  0
TEXT
  5
8E1
100
AcDbEntity
  8
SIZE
  6
CONTINUOUS
 62
    30
100
AcDbText
 10
221.818392
 20
-729.748729
 30
0.0
 40
55.0
  1
343
 41
0.9
 72
     1
 11
285.461249
 21
-729.748729
 31
0.0
100
AcDbText
  0
LINE
  5
8E2
100
AcDbEntity
  8
SIZE
  6
CONTINUOUS
 62
    30
100
AcDbLine
 10
462.499969
 20
-744.748729
 30
0.0
 11
139.499969
 21
-744.748729
 31
0.0
  0
POINT
  5
8E3
100
AcDbEntity
  8
DEFPOINTS
  6
CONTINUOUS
 62
     7
100
AcDbPoint
 10
129.499969
 20
-744.748729
 30
0.0
  0
LINE
  5
8E4
100
AcDbEntity
  8
SIZE
  6
CONTINUOUS
 62
    30
100
AcDbLine
 10
134.499969
 20
-744.748729
 30
0.0
 11
139.499969
 21
-744.748729
 31
0.0
  0
CIRCLE
  5
8E5
100
AcDbEntity
  8
SIZE
  6
CONTINUOUS
 62
    30
100
AcDbCircle
 10
129.499969
 20
-744.748729
 30
0.0
 40
5.0
  0
LINE
  5
8E6
100
AcDbEntity
  8
SIZE
  6
CONTINUOUS
 62
    30
100
AcDbLine
 10
451.500031
 20
-880.465895
 30
0.0
 11
491.499969
 21
-880.465895
 31
0.0
  0
LINE
  5
8E7
100
AcDbEntity
  8
SIZE
  6
CONTINUOUS
 62
    30
100
AcDbLine
 10
446.500031
 20
-880.465895
 30
0.0
 11
451.500031
 21
-880.465895
 31
0.0
  0
CIRCLE
  5
8E8
100
AcDbEntity
  8
SIZE
  6
CONTINUOUS
 62
    30
100
AcDbCircle
 10
441.500031
 20
-880.465895
 30
0.0
 40
5.0
  0
POINT
  5
8E9
100
AcDbEntity
  8
DEFPOINTS
  6
CONTINUOUS
 62
     7
100
AcDbPoint
 10
441.500031
 20
-880.465895
 30
0.0
  0
LINE
  5
8EA
100
AcDbEntity
  8
SIZE
  6
CONTINUOUS
 62
    30
100
AcDbLine
 10
436.500031
 20
-880.465895
 30
0.0
 11
431.500031
 21
-880.465895
 31
0.0
  0
CIRCLE
  5
8EB
100
AcDbEntity
  8
SIZE
  6
CONTINUOUS
 62
    30
100
AcDbCircle
 10
441.500031
 20
-880.465895
 30
0.0
 40
5.0
  0
POINT
  5
8EC
100
AcDbEntity
  8
DEFPOINTS
  6
CONTINUOUS
 62
     7
100
AcDbPoint
 10
501.499969
 20
-880.465895
 30
0.0
  0
LINE
  5
8ED
100
AcDbEntity
  8
SIZE
  6
CONTINUOUS
 62
    30
100
AcDbLine
 10
496.499969
 20
-880.465895
 30
0.0
 11
491.499969
 21
-880.465895
 31
0.0
  0
CIRCLE
  5
8EE
100
AcDbEntity
  8
SIZE
  6
CONTINUOUS
 62
    30
100
AcDbCircle
 10
501.499969
 20
-880.465895
 30
0.0
 40
5.0
  0
LINE
  5
8EF
100
AcDbEntity
  8
SIZE
  6
CONTINUOUS
 62
    30
100
AcDbLine
 10
467.499969
 20
-744.748729
 30
0.0
 11
462.499969
 21
-744.748729
 31
0.0
  0
CIRCLE
  5
8F0
100
AcDbEntity
  8
SIZE
  6
CONTINUOUS
 62
    30
100
AcDbCircle
 10
472.499969
 20
-744.748729
 30
0.0
 40
5.0
  0
LINE
  5
8F1
100
AcDbEntity
  8
SERVICESPACE
  6
DASHDOT
 62
     2
100
AcDbLine
 10
277.500031
 20
-380.0
 30
0.0
 11
-172.499969
 21
-400.0
 31
0.0
  0
LINE
  5
8F2
100
AcDbEntity
  8
SERVICESPACE
  6
DASHDOT
 62
     2
100
AcDbLine
 10
-172.499969
 20
-380.0
 30
0.0
 11
277.500031
 21
-400.0
 31
0.0
  0
LINE
  5
8F3
100
AcDbEntity
  8
SIZE
  6
CONTINUOUS
 62
    30
100
AcDbLine
 10
-162.499969
 20
-587.069773
 30
0.0
 11
267.500031
 21
-587.069773
 31
0.0
  0
POLYLINE
  5
8F4
100
AcDbEntity
  8
NOTE
  6
CONTINUOUS
 62
     4
100
AcDb2dPolyline
 66
     1
 10
0.0
 20
0.0
 30
0.0
  0
VERTEX
  5
8F5
100
AcDbEntity
  8
NOTE
  6
CONTINUOUS
 62
     4
100
AcDbVertex
100
AcDb2dVertex
 10
134.745343
 20
-389.654584
 30
0.0
  0
VERTEX
  5
8F6
100
AcDbEntity
  8
NOTE
  6
CONTINUOUS
 62
     4
100
AcDbVertex
100
AcDb2dVertex
 10
129.499969
 20
-350.0
 30
0.0
  0
VERTEX
  5
8F7
100
AcDbEntity
  8
NOTE
  6
CONTINUOUS
 62
     4
100
AcDbVertex
100
AcDb2dVertex
 10
114.215305
 20
-386.964564
 30
0.0
  0
SEQEND
  5
8F8
100
AcDbEntity
  8
NOTE
  6
CONTINUOUS
 62
     4
  0
ARC
  5
8FA
100
AcDbEntity
  8
DETAIL
  6
CONTINUOUS
 62
     5
100
AcDbCircle
 10
119.076868
 20
-18.204881
 30
0.0
 40
6.0
100
AcDbArc
 50
0.0
 51
180.0
  0
LINE
  5
8FB
100
AcDbEntity
  8
DETAIL
  6
CONTINUOUS
 62
     5
100
AcDbLine
 10
96.288908
 20
-75.984947
 30
0.0
 11
130.2555
 21
-104.486302
 31
0.0
  0
LINE
  5
8FC
100
AcDbEntity
  8
NOTE
  6
CONTINUOUS
 62
     4
100
AcDbLine
 10
154.678539
 20
-350.0
 30
0.0
 11
104.3214
 21
-350.0
 31
0.0
  0
ARC
  5
8FD
100
AcDbEntity
  8
DETAIL
  6
CONTINUOUS
 62
     5
100
AcDbCircle
 10
129.263063
 20
-350.0
 30
0.0
 40
20.999999
100
AcDbArc
 50
0.0
 51
180.0
  0
LINE
  5
8FE
100
AcDbEntity
  8
DETAIL
  6
CONTINUOUS
 62
     5
100
AcDbLine
 10
310.576856
 20
-319.004863
 30
0.0
 11
8.676875
 21
-319.004863
 31
0.0
  0
CIRCLE
  5
8FF
100
AcDbEntity
  8
DETAIL
  6
CONTINUOUS
 62
     5
100
AcDbCircle
 10
129.263063
 20
-350.0
 30
0.0
 40
16.249999
  0
CIRCLE
  5
900
100
AcDbEntity
  8
DETAIL
  6
CONTINUOUS
 62
     5
100
AcDbCircle
 10
129.499969
 20
-350.0
 30
0.0
 40
13.749999
  0
LINE
  5
901
100
AcDbEntity
  8
DETAIL
  6
CONTINUOUS
 62
     5
100
AcDbLine
 10
-4.9
 20
-334.19998
 30
0.0
 11
-4.9
 21
-243.11516
 31
0.0
  0
LINE
  5
902
100
AcDbEntity
  8
DETAIL
  6
CONTINUOUS
 62
     5
100
AcDbLine
 10
-14.899999
 20
-342.199979
 30
0.0
 11
-14.899999
 21
-243.11516
 31
0.0
  0
LINE
  5
903
100
AcDbEntity
  8
DETAIL
  6
CONTINUOUS
 62
     5
100
AcDbLine
 10
-16.585569
 20
-321.19998
 30
0.0
 11
-16.585569
 21
-247.01516
 31
0.0
  0
LINE
  5
904
100
AcDbEntity
  8
DETAIL
  6
CONTINUOUS
 62
     5
100
AcDbLine
 10
2.876875
 20
-248.120042
 30
0.0
 11
2.876875
 21
-313.204863
 31
0.0
  0
LINE
  5
905
100
AcDbEntity
  8
DETAIL
  6
CONTINUOUS
 62
     5
100
AcDbLine
 10
-262.886122
 20
-321.19998
 30
0.0
 11
-262.886122
 21
-247.01516
 31
0.0
  0
LINE
  5
907
100
AcDbEntity
  8
DETAIL
  6
CONTINUOUS
 62
     5
100
AcDbLine
 10
108.263064
 20
-373.999977
 30
0.0
 11
-297.299982
 21
-373.999977
 31
0.0
  0
LINE
  5
909
100
AcDbEntity
  8
DETAIL
  6
CONTINUOUS
 62
     5
100
AcDbLine
 10
-165.29999
 20
-357.199978
 30
0.0
 11
-14.899999
 21
-357.199978
 31
0.0
  0
LINE
  5
90A
100
AcDbEntity
  8
DETAIL
  6
CONTINUOUS
 62
     5
100
AcDbLine
 10
-2.197056
 20
-373.999977
 30
0.0
 11
-297.299982
 21
-373.999977
 31
0.0
  0
LINE
  5
90B
100
AcDbEntity
  8
DETAIL
  6
CONTINUOUS
 62
     5
100
AcDbLine
 10
-261.297156
 20
-369.199977
 30
0.0
 11
-21.899999
 21
-369.199977
 31
0.0
  0
LINE
  5
90C
100
AcDbEntity
  8
DETAIL
  6
CONTINUOUS
 62
     5
100
AcDbLine
 10
-18.185569
 20
-322.79998
 30
0.0
 11
-261.286122
 21
-322.79998
 31
0.0
  0
LINE
  5
90D
100
AcDbEntity
  8
SIZE
  6
CONTINUOUS
 62
    30
100
AcDbLine
 10
-167.499969
 20
-587.069773
 30
0.0
 11
-162.499969
 21
-587.069773
 31
0.0
  0
CIRCLE
  5
90E
100
AcDbEntity
  8
SIZE
  6
CONTINUOUS
 62
    30
100
AcDbCircle
 10
-172.499969
 20
-587.069773
 30
0.0
 40
5.0
  0
POINT
  5
90F
100
AcDbEntity
  8
DEFPOINTS
  6
CONTINUOUS
 62
     7
100
AcDbPoint
 10
-172.499969
 20
-587.069773
 30
0.0
  0
LINE
  5
910
100
AcDbEntity
  8
SIZE
  6
CONTINUOUS
 62
    30
100
AcDbLine
 10
-177.499969
 20
-587.069773
 30
0.0
 11
-182.499969
 21
-587.069773
 31
0.0
  0
CIRCLE
  5
911
100
AcDbEntity
  8
SIZE
  6
CONTINUOUS
 62
    30
100
AcDbCircle
 10
-172.499969
 20
-587.069773
 30
0.0
 40
5.0
  0
LINE
  5
912
100
AcDbEntity
  8
DETAIL
  6
CONTINUOUS
 62
     5
100
AcDbLine
 10
-261.286122
 20
-321.19998
 30
0.0
 11
-261.286122
 21
-322.79998
 31
0.0
  0
LINE
  5
913
100
AcDbEntity
  8
DETAIL
  6
CONTINUOUS
 62
     5
100
AcDbLine
 10
-262.886122
 20
-321.19998
 30
0.0
 11
-261.286122
 21
-321.19998
 31
0.0
  0
ARC
  5
914
100
AcDbEntity
  8
DETAIL
  6
CONTINUOUS
 62
     5
100
AcDbCircle
 10
-261.297156
 20
-359.199978
 30
0.0
 40
9.999999
100
AcDbArc
 50
220.0
 51
270.0
  0
LINE
  5
915
100
AcDbEntity
  8
DETAIL
  6
CONTINUOUS
 62
     5
100
AcDbLine
 10
-297.299982
 20
-345.0
 30
0.0
 11
-297.299982
 21
-378.999998
 31
0.0
  0
POINT
  5
917
100
AcDbEntity
  8
DEFPOINTS
  6
CONTINUOUS
 62
     7
100
AcDbPoint
 10
-172.499969
 20
-400.0
 30
0.0
  0
POINT
  5
918
100
AcDbEntity
  8
DEFPOINTS
  6
CONTINUOUS
 62
     7
100
AcDbPoint
 10
-172.499969
 20
-400.0
 30
0.0
  0
LINE
  5
919
100
AcDbEntity
  8
SERVICESPACE
  6
DASHDOT
 62
     2
100
AcDbLine
 10
-172.499969
 20
-380.0
 30
0.0
 11
-172.499969
 21
-400.0
 31
0.0
  0
TEXT
  5
91D
100
AcDbEntity
  8
SIZE
  6
CONTINUOUS
 62
    30
100
AcDbText
 10
-76.752103
 20
-571.072574
 30
0.0
 40
55.0
  1
450
 41
0.9
 72
     1
 11
-13.109246
 21
-571.072574
 31
0.0
100
AcDbText
  0
ARC
  5
91E
100
AcDbEntity
  8
DETAIL
  6
CONTINUOUS
 62
     5
100
AcDbCircle
 10
8.676875
 20
-313.204863
 30
0.0
 40
5.8
100
AcDbArc
 50
180.0
 51
270.0
  0
LINE
  5
91F
100
AcDbEntity
  8
DETAIL
  6
CONTINUOUS
 62
     5
100
AcDbLine
 10
-12.099999
 20
-357.199978
 30
0.0
 11
-12.099999
 21
-339.199979
 31
0.0
  0
ARC
  5
920
100
AcDbEntity
  8
DETAIL
  6
CONTINUOUS
 62
     5
100
AcDbCircle
 10
-9.899999
 20
-334.19998
 30
0.0
 40
5.0
100
AcDbArc
 50
270.0
 51
0.0
  0
LINE
  5
921
100
AcDbEntity
  8
DETAIL
  6
CONTINUOUS
 62
     5
100
AcDbLine
 10
-14.899999
 20
-339.199979
 30
0.0
 11
-9.899999
 21
-339.199979
 31
0.0
  0
LINE
  5
922
100
AcDbEntity
  8
DETAIL
  6
CONTINUOUS
 62
     5
100
AcDbLine
 10
-14.899999
 20
-342.199979
 30
0.0
 11
-12.099999
 21
-342.199979
 31
0.0
  0
LINE
  5
923
100
AcDbEntity
  8
DETAIL
  6
CONTINUOUS
 62
     5
100
AcDbLine
 10
-18.185569
 20
-321.19998
 30
0.0
 11
-16.585569
 21
-321.19998
 31
0.0
  0
LINE
  5
924
100
AcDbEntity
  8
DETAIL
  6
CONTINUOUS
 62
     5
100
AcDbLine
 10
-18.185569
 20
-321.19998
 30
0.0
 11
-18.185569
 21
-322.79998
 31
0.0
  0
LINE
  5
925
100
AcDbEntity
  8
DETAIL
  6
CONTINUOUS
 62
     5
100
AcDbLine
 10
-16.899999
 20
-364.199978
 30
0.0
 11
-16.899999
 21
-357.199978
 31
0.0
  0
ARC
  5
926
100
AcDbEntity
  8
DETAIL
  6
CONTINUOUS
 62
     5
100
AcDbCircle
 10
-21.899999
 20
-364.199978
 30
0.0
 40
5.0
100
AcDbArc
 50
270.0
 51
0.0
  0
LINE
  5
927
100
AcDbEntity
  8
DETAIL
  6
CONTINUOUS
 62
     5
100
AcDbLine
 10
-14.899999
 20
-357.199978
 30
0.0
 11
-12.099999
 21
-357.199978
 31
0.0
  0
LINE
  5
92A
100
AcDbEntity
  8
DETAIL
  6
CONTINUOUS
 62
     5
100
AcDbLine
 10
108.263064
 20
-350.0
 30
0.0
 11
108.263064
 21
-380.0
 31
0.0
  0
LINE
  5
92B
100
AcDbEntity
  8
DETAIL
  6
CONTINUOUS
 62
     5
100
AcDbLine
 10
-18.185569
 20
-245.41516
 30
0.0
 11
-262.086122
 21
-245.41516
 31
0.0
  0
LINE
  5
92C
100
AcDbEntity
  8
DETAIL
  6
CONTINUOUS
 62
     5
100
AcDbLine
 10
-262.086122
 20
-245.41516
 30
0.0
 11
-262.086122
 21
-247.01516
 31
0.0
  0
LINE
  5
936
100
AcDbEntity
  8
DETAIL
  6
CONTINUOUS
 62
     5
100
AcDbLine
 10
-18.185569
 20
-247.01516
 30
0.0
 11
-18.185569
 21
-245.41516
 31
0.0
  0
LINE
  5
937
100
AcDbEntity
  8
DETAIL
  6
CONTINUOUS
 62
     5
100
AcDbLine
 10
-16.585569
 20
-247.01516
 30
0.0
 11
-18.185569
 21
-247.01516
 31
0.0
  0
LINE
  5
938
100
AcDbEntity
  8
DETAIL
  6
CONTINUOUS
 62
     5
100
AcDbLine
 10
2.876875
 20
-243.11516
 30
0.0
 11
2.876875
 21
-248.120042
 31
0.0
  0
LINE
  5
939
100
AcDbEntity
  8
DETAIL
  6
CONTINUOUS
 62
     5
100
AcDbLine
 10
46.791302
 20
-243.11516
 30
0.0
 11
46.814427
 21
-243.11516
 31
0.0
  0
POLYLINE
  5
93A
100
AcDbEntity
  8
NOTE
  6
CONTINUOUS
 62
     4
100
AcDb2dPolyline
 66
     1
 10
0.0
 20
0.0
 30
0.0
  0
VERTEX
  5
93B
100
AcDbEntity
  8
NOTE
  6
CONTINUOUS
 62
     4
100
AcDbVertex
100
AcDb2dVertex
 10
67.75636
 20
-87.849189
 30
0.0
  0
VERTEX
  5
93C
100
AcDbEntity
  8
NOTE
  6
CONTINUOUS
 62
     4
100
AcDbVertex
100
AcDb2dVertex
 10
85.499969
 20
-52.0
 30
0.0
  0
VERTEX
  5
93D
100
AcDbEntity
  8
NOTE
  6
CONTINUOUS
 62
     4
100
AcDbVertex
100
AcDb2dVertex
 10
52.208959
 20
-74.174504
 30
0.0
  0
SEQEND
  5
93E
100
AcDbEntity
  8
NOTE
  6
CONTINUOUS
 62
     4
  0
POINT
  5
93F
100
AcDbEntity
  8
DEFPOINTS
  6
CONTINUOUS
 62
     7
100
AcDbPoint
 10
115.999968
 20
-52.0
 30
0.0
  0
POINT
  5
940
100
AcDbEntity
  8
DEFPOINTS
  6
CONTINUOUS
 62
     7
100
AcDbPoint
 10
85.499969
 20
-24.204881
 30
0.0
  0
LINE
  5
942
100
AcDbEntity
  8
DETAIL
  6
CONTINUOUS
 62
     5
100
AcDbLine
 10
103.493023
 20
-51.5
 30
0.0
 11
102.74427
 21
-51.5
 31
0.0
  0
LINE
  5
943
100
AcDbEntity
  8
DETAIL
  6
CONTINUOUS
 62
     5
100
AcDbLine
 10
103.493023
 20
-52.5
 30
0.0
 11
102.74427
 21
-52.5
 31
0.0
  0
LINE
  5
945
100
AcDbEntity
  8
DETAIL
  6
CONTINUOUS
 62
     5
100
AcDbLine
 10
113.076868
 20
-18.204881
 30
0.0
 11
113.076868
 21
-24.204881
 31
0.0
  0
LINE
  5
946
100
AcDbEntity
  8
DETAIL
  6
CONTINUOUS
 62
     5
100
AcDbLine
 10
67.506916
 20
-52.5
 30
0.0
 11
68.255669
 21
-52.5
 31
0.0
  0
LINE
  5
947
100
AcDbEntity
  8
DETAIL
  6
CONTINUOUS
 62
     5
100
AcDbLine
 10
67.506916
 20
-51.5
 30
0.0
 11
68.255669
 21
-51.5
 31
0.0
  0
LINE
  5
948
100
AcDbEntity
  8
DETAIL
  6
CONTINUOUS
 62
     5
100
AcDbLine
 10
85.999969
 20
-34.006947
 30
0.0
 11
85.999969
 21
-34.755699
 31
0.0
  0
LINE
  5
949
100
AcDbEntity
  8
DETAIL
  6
CONTINUOUS
 62
     5
100
AcDbLine
 10
84.99997
 20
-34.006947
 30
0.0
 11
84.99997
 21
-34.755699
 31
0.0
  0
ARC
  5
94A
100
AcDbEntity
  8
DETAIL
  6
CONTINUOUS
 62
     5
100
AcDbCircle
 10
85.499969
 20
-52.0
 30
0.0
 40
17.999999
100
AcDbArc
 50
91.591754
 51
178.408246
  0
LINE
  5
94B
100
AcDbEntity
  8
DETAIL
  6
CONTINUOUS
 62
     5
100
AcDbLine
 10
59.591302
 20
-15.604882
 30
0.0
 11
59.591302
 21
-40.60488
 31
0.0
  0
ARC
  5
94C
100
AcDbEntity
  8
DETAIL
  6
CONTINUOUS
 62
     5
100
AcDbCircle
 10
85.499969
 20
-52.0
 30
0.0
 40
17.999999
100
AcDbArc
 50
1.591754
 51
88.408246
  0
LINE
  5
94D
100
AcDbEntity
  8
DETAIL
  6
CONTINUOUS
 62
     5
100
AcDbLine
 10
59.591302
 20
-24.204881
 30
0.0
 11
113.076868
 21
-24.204881
 31
0.0
  0
LINE
  5
94F
100
AcDbEntity
  8
DETAIL
  6
CONTINUOUS
 62
     5
100
AcDbLine
 10
49.000031
 20
-45.60488
 30
0.0
 11
54.591302
 21
-45.60488
 31
0.0
  0
LINE
  5
950
100
AcDbEntity
  8
DETAIL
  6
CONTINUOUS
 62
     5
100
AcDbLine
 10
49.000031
 20
-10.604882
 30
0.0
 11
54.591302
 21
-10.604882
 31
0.0
  0
LINE
  5
951
100
AcDbEntity
  8
NOTE
  6
CONTINUOUS
 62
     4
100
AcDbLine
 10
115.999968
 20
-52.0
 30
0.0
 11
54.999971
 21
-52.0
 31
0.0
  0
ARC
  5
954
100
AcDbEntity
  8
DETAIL
  6
CONTINUOUS
 62
     5
100
AcDbCircle
 10
54.591302
 20
-40.60488
 30
0.0
 40
5.0
100
AcDbArc
 50
270.0
 51
0.0
  0
ARC
  5
955
100
AcDbEntity
  8
DETAIL
  6
CONTINUOUS
 62
     5
100
AcDbCircle
 10
54.591302
 20
-15.604882
 30
0.0
 40
5.0
100
AcDbArc
 50
0.0
 51
90.0
  0
LINE
  5
956
100
AcDbEntity
  8
DETAIL
  6
CONTINUOUS
 62
     5
100
AcDbLine
 10
85.999969
 20
-69.993053
 30
0.0
 11
85.999969
 21
-69.244301
 31
0.0
  0
LINE
  5
957
100
AcDbEntity
  8
DETAIL
  6
CONTINUOUS
 62
     5
100
AcDbLine
 10
84.99997
 20
-69.993053
 30
0.0
 11
84.99997
 21
-69.244301
 31
0.0
  0
ARC
  5
958
100
AcDbEntity
  8
DETAIL
  6
CONTINUOUS
 62
     5
100
AcDbCircle
 10
93.07497
 20
-79.815169
 30
0.0
 40
5.0
100
AcDbArc
 50
50.0
 51
90.0
  0
LINE
  5
959
100
AcDbEntity
  8
DETAIL
  6
CONTINUOUS
 62
     5
100
AcDbLine
 10
49.000031
 20
-74.815169
 30
0.0
 11
93.07497
 21
-74.815169
 31
0.0
  0
LINE
  5
95A
100
AcDbEntity
  8
NOTE
  6
CONTINUOUS
 62
     4
100
AcDbLine
 10
85.499969
 20
-21.500002
 30
0.0
 11
85.499969
 21
-82.499998
 31
0.0
  0
ARC
  5
95B
100
AcDbEntity
  8
DETAIL
  6
CONTINUOUS
 62
     5
100
AcDbCircle
 10
85.499969
 20
-52.0
 30
0.0
 40
17.999999
100
AcDbArc
 50
271.591754
 51
358.408246
  0
ARC
  5
95C
100
AcDbEntity
  8
DETAIL
  6
CONTINUOUS
 62
     5
100
AcDbCircle
 10
85.499969
 20
-52.0
 30
0.0
 40
17.999999
100
AcDbArc
 50
181.591754
 51
268.408246
  0
LINE
  5
95E
100
AcDbEntity
  8
DETAIL
  6
CONTINUOUS
 62
     5
100
AcDbLine
 10
316.376856
 20
-263.296644
 30
0.0
 11
316.376856
 21
-313.204863
 31
0.0
  0
LINE
  5
961
100
AcDbEntity
  8
SIZE
  6
CONTINUOUS
 62
    30
100
AcDbLine
 10
472.499969
 20
-580.939321
 30
0.0
 11
334.468956
 21
-580.939321
 31
0.0
  0
LINE
  5
962
100
AcDbEntity
  8
DETAIL
  6
CONTINUOUS
 62
     5
100
AcDbLine
 10
366.499978
 20
-373.999977
 30
0.0
 11
150.263062
 21
-373.999977
 31
0.0
  0
POINT
  5
963
100
AcDbEntity
  8
DEFPOINTS
  6
CONTINUOUS
 62
     7
100
AcDbPoint
 10
277.500031
 20
-587.069773
 30
0.0
  0
LINE
  5
964
100
AcDbEntity
  8
SIZE
  6
CONTINUOUS
 62
    30
100
AcDbLine
 10
272.500031
 20
-587.069773
 30
0.0
 11
267.500031
 21
-587.069773
 31
0.0
  0
CIRCLE
  5
965
100
AcDbEntity
  8
SIZE
  6
CONTINUOUS
 62
    30
100
AcDbCircle
 10
277.500031
 20
-587.069773
 30
0.0
 40
5.0
  0
POINT
  5
966
100
AcDbEntity
  8
DEFPOINTS
  6
CONTINUOUS
 62
     7
100
AcDbPoint
 10
154.678539
 20
-350.0
 30
0.0
  0
POINT
  5
967
100
AcDbEntity
  8
DEFPOINTS
  6
CONTINUOUS
 62
     7
100
AcDbPoint
 10
129.499969
 20
-375.17857
 30
0.0
  0
LINE
  5
968
100
AcDbEntity
  8
DETAIL
  6
CONTINUOUS
 62
     5
100
AcDbLine
 10
150.263062
 20
-350.0
 30
0.0
 11
150.263062
 21
-380.0
 31
0.0
  0
LINE
  5
969
100
AcDbEntity
  8
NOTE
  6
CONTINUOUS
 62
     4
100
AcDbLine
 10
129.499969
 20
-324.82143
 30
0.0
 11
129.499969
 21
-375.17857
 31
0.0
  0
LINE
  5
96A
100
AcDbEntity
  8
SERVICESPACE
  6
DASHDOT
 62
     2
100
AcDbLine
 10
277.500031
 20
-380.0
 30
0.0
 11
277.500031
 21
-400.0
 31
0.0
  0
POINT
  5
96B
100
AcDbEntity
  8
DEFPOINTS
  6
CONTINUOUS
 62
     7
100
AcDbPoint
 10
277.500031
 20
-400.0
 30
0.0
  0
ARC
  5
96C
100
AcDbEntity
  8
DETAIL
  6
CONTINUOUS
 62
     5
100
AcDbCircle
 10
310.576856
 20
-313.204863
 30
0.0
 40
5.8
100
AcDbArc
 50
270.0
 51
0.0
  0
LINE
  5
96D
100
AcDbEntity
  8
SIZE
  6
CONTINUOUS
 62
    30
100
AcDbLine
 10
522.499969
 20
-420.0
 30
0.0
 11
522.499969
 21
-610.939321
 31
0.0
  0
LINE
  5
96E
100
AcDbEntity
  8
SIZE
  6
CONTINUOUS
 62
    30
100
AcDbLine
 10
472.499969
 20
-420.0
 30
0.0
 11
472.499969
 21
-610.939321
 31
0.0
  0
TEXT
  5
96F
100
AcDbEntity
  8
SIZE
  6
CONTINUOUS
 62
    30
100
AcDbText
 10
349.468955
 20
-565.939321
 30
0.0
 40
55.0
  1
50
 41
0.9
 72
     1
 11
389.540384
 21
-565.939321
 31
0.0
100
AcDbText
  0
POINT
  5
970
100
AcDbEntity
  8
DEFPOINTS
  6
CONTINUOUS
 62
     7
100
AcDbPoint
 10
522.499969
 20
-580.939321
 30
0.0
  0
LINE
  5
971
100
AcDbEntity
  8
SIZE
  6
CONTINUOUS
 62
    30
100
AcDbLine
 10
477.499969
 20
-580.939321
 30
0.0
 11
482.499969
 21
-580.939321
 31
0.0
  0
CIRCLE
  5
972
100
AcDbEntity
  8
SIZE
  6
CONTINUOUS
 62
    30
100
AcDbCircle
 10
472.499969
 20
-580.939321
 30
0.0
 40
5.0
  0
LINE
  5
973
100
AcDbEntity
  8
SIZE
  6
CONTINUOUS
 62
    30
100
AcDbLine
 10
517.499969
 20
-580.939321
 30
0.0
 11
512.499969
 21
-580.939321
 31
0.0
  0
CIRCLE
  5
974
100
AcDbEntity
  8
SIZE
  6
CONTINUOUS
 62
    30
100
AcDbCircle
 10
522.499969
 20
-580.939321
 30
0.0
 40
5.0
  0
LINE
  5
975
100
AcDbEntity
  8
SIZE
  6
CONTINUOUS
 62
    30
100
AcDbLine
 10
512.499969
 20
-580.939321
 30
0.0
 11
482.499969
 21
-580.939321
 31
0.0
  0
POLYLINE
  5
976
100
AcDbEntity
  8
NOTE
  6
CONTINUOUS
 62
     4
100
AcDb2dPolyline
 66
     1
 10
0.0
 20
0.0
 30
0.0
  0
VERTEX
  5
977
100
AcDbEntity
  8
NOTE
  6
CONTINUOUS
 62
     4
100
AcDbVertex
100
AcDb2dVertex
 10
475.413783
 20
-360.209841
 30
0.0
  0
VERTEX
  5
978
100
AcDbEntity
  8
NOTE
  6
CONTINUOUS
 62
     4
100
AcDbVertex
100
AcDb2dVertex
 10
441.500031
 20
-339.0
 30
0.0
  0
VERTEX
  5
979
100
AcDbEntity
  8
NOTE
  6
CONTINUOUS
 62
     4
100
AcDbVertex
100
AcDb2dVertex
 10
460.265281
 20
-374.325138
 30
0.0
  0
SEQEND
  5
97A
100
AcDbEntity
  8
NOTE
  6
CONTINUOUS
 62
     4
  0
LINE
  5
97B
100
AcDbEntity
  8
NOTE
  6
CONTINUOUS
 62
     4
100
AcDbLine
 10
461.500031
 20
-339.0
 30
0.0
 11
421.500031
 21
-339.0
 31
0.0
  0
LINE
  5
97C
100
AcDbEntity
  8
DETAIL
  6
CONTINUOUS
 62
     5
100
AcDbLine
 10
469.49997
 20
-350.999999
 30
0.0
 11
451.499971
 21
-350.999999
 31
0.0
  0
LINE
  5
97D
100
AcDbEntity
  8
DETAIL
  6
CONTINUOUS
 62
     5
100
AcDbLine
 10
472.499969
 20
-339.0
 30
0.0
 11
412.499973
 21
-339.0
 31
0.0
  0
POINT
  5
97E
100
AcDbEntity
  8
DEFPOINTS
  6
CONTINUOUS
 62
     7
100
AcDbPoint
 10
441.500031
 20
-359.0
 30
0.0
  0
POINT
  5
97F
100
AcDbEntity
  8
DEFPOINTS
  6
CONTINUOUS
 62
     7
100
AcDbPoint
 10
441.500031
 20
-359.0
 30
0.0
  0
CIRCLE
  5
980
100
AcDbEntity
  8
FIX
  6
CONTINUOUS
 62
    11
100
AcDbCircle
 10
441.500031
 20
-339.0
 30
0.0
 40
5.0
  0
LINE
  5
981
100
AcDbEntity
  8
NOTE
  6
CONTINUOUS
 62
     4
100
AcDbLine
 10
441.500031
 20
-359.0
 30
0.0
 11
441.500031
 21
-319.0
 31
0.0
  0
ARC
  5
985
100
AcDbEntity
  8
DETAIL
  6
CONTINUOUS
 62
     5
100
AcDbCircle
 10
451.499971
 20
-347.999999
 30
0.0
 40
3.0
100
AcDbArc
 50
180.0
 51
270.0
  0
LINE
  5
986
100
AcDbEntity
  8
DETAIL
  6
CONTINUOUS
 62
     5
100
AcDbLine
 10
448.499971
 20
-339.0
 30
0.0
 11
448.499971
 21
-347.999999
 31
0.0
  0
ARC
  5
987
100
AcDbEntity
  8
DETAIL
  6
CONTINUOUS
 62
     5
100
AcDbCircle
 10
433.499972
 20
-347.999999
 30
0.0
 40
3.0
100
AcDbArc
 50
270.0
 51
0.0
  0
LINE
  5
988
100
AcDbEntity
  8
DETAIL
  6
CONTINUOUS
 62
     5
100
AcDbLine
 10
436.499972
 20
-339.0
 30
0.0
 11
436.499972
 21
-347.999999
 31
0.0
  0
LINE
  5
989
100
AcDbEntity
  8
DETAIL
  6
CONTINUOUS
 62
     5
100
AcDbLine
 10
448.499971
 20
-341.3
 30
0.0
 11
436.499972
 21
-341.3
 31
0.0
  0
ARC
  5
98A
100
AcDbEntity
  8
DETAIL
  6
CONTINUOUS
 62
     5
100
AcDbCircle
 10
415.499973
 20
-347.999999
 30
0.0
 40
3.0
100
AcDbArc
 50
180.0
 51
270.0
  0
LINE
  5
98B
100
AcDbEntity
  8
DETAIL
  6
CONTINUOUS
 62
     5
100
AcDbLine
 10
412.499973
 20
-347.999999
 30
0.0
 11
412.499973
 21
-339.0
 31
0.0
  0
LINE
  5
98C
100
AcDbEntity
  8
DETAIL
  6
CONTINUOUS
 62
     5
100
AcDbLine
 10
433.499972
 20
-350.999999
 30
0.0
 11
415.499973
 21
-350.999999
 31
0.0
  0
LINE
  5
98D
100
AcDbEntity
  8
DETAIL
  6
CONTINUOUS
 62
     5
100
AcDbLine
 10
366.499978
 20
-345.0
 30
0.0
 11
366.499978
 21
-378.999998
 31
0.0
  0
LINE
  5
98E
100
AcDbEntity
  8
DETAIL
  6
CONTINUOUS
 62
     5
100
AcDbLine
 10
412.499973
 20
-345.0
 30
0.0
 11
366.499978
 21
-345.0
 31
0.0
  0
POINT
  5
98F
100
AcDbEntity
  8
DEFPOINTS
  6
CONTINUOUS
 62
     7
100
AcDbPoint
 10
523.334762
 20
-400.0
 30
0.0
  0
POINT
  5
990
100
AcDbEntity
  8
DEFPOINTS
  6
CONTINUOUS
 62
     7
100
AcDbPoint
 10
473.334762
 20
-380.0
 30
0.0
  0
POINT
  5
991
100
AcDbEntity
  8
DEFPOINTS
  6
CONTINUOUS
 62
     7
100
AcDbPoint
 10
522.499969
 20
-400.0
 30
0.0
  0
POINT
  5
992
100
AcDbEntity
  8
DEFPOINTS
  6
CONTINUOUS
 62
     7
100
AcDbPoint
 10
472.499969
 20
-400.0
 30
0.0
  0
LINE
  5
993
100
AcDbEntity
  8
SERVICESPACE
  6
DASHDOT
 62
     2
100
AcDbLine
 10
522.499969
 20
-380.0
 30
0.0
 11
522.499969
 21
-400.0
 31
0.0
  0
POINT
  5
994
100
AcDbEntity
  8
DEFPOINTS
  6
CONTINUOUS
 62
     7
100
AcDbPoint
 10
472.499969
 20
-380.0
 30
0.0
  0
POINT
  5
995
100
AcDbEntity
  8
DEFPOINTS
  6
CONTINUOUS
 62
     7
100
AcDbPoint
 10
472.499969
 20
-380.0
 30
0.0
  0
POINT
  5
996
100
AcDbEntity
  8
DEFPOINTS
  6
CONTINUOUS
 62
     7
100
AcDbPoint
 10
472.499969
 20
-380.0
 30
0.0
  0
POINT
  5
997
100
AcDbEntity
  8
DEFPOINTS
  6
CONTINUOUS
 62
     7
100
AcDbPoint
 10
472.499969
 20
-380.0
 30
0.0
  0
POINT
  5
998
100
AcDbEntity
  8
DEFPOINTS
  6
CONTINUOUS
 62
     7
100
AcDbPoint
 10
472.499969
 20
-380.0
 30
0.0
  0
POINT
  5
999
100
AcDbEntity
  8
DEFPOINTS
  6
CONTINUOUS
 62
     7
100
AcDbPoint
 10
472.499969
 20
-380.0
 30
0.0
  0
ARC
  5
99A
100
AcDbEntity
  8
DETAIL
  6
CONTINUOUS
 62
     5
100
AcDbCircle
 10
469.49997
 20
-347.999999
 30
0.0
 40
3.0
100
AcDbArc
 50
270.0
 51
0.0
  0
LINE
  5
99B
100
AcDbEntity
  8
DETAIL
  6
CONTINUOUS
 62
     5
100
AcDbLine
 10
283.676858
 20
-27.904881
 30
0.0
 11
422.876849
 21
-27.904881
 31
0.0
  0
LINE
  5
99C
100
AcDbEntity
  8
DETAIL
  6
CONTINUOUS
 62
     5
100
AcDbLine
 10
125.076867
 20
-24.204881
 30
0.0
 11
413.07685
 21
-24.204881
 31
0.0
  0
LINE
  5
99D
100
AcDbEntity
  8
DETAIL
  6
CONTINUOUS
 62
     5
100
AcDbLine
 10
373.649678
 20
-272.136388
 30
0.0
 11
135.748699
 21
-72.513764
 31
0.0
  0
POLYLINE
  5
99E
100
AcDbEntity
  8
NOTE
  6
CONTINUOUS
 62
     4
100
AcDb2dPolyline
 66
     1
 10
0.0
 20
0.0
 30
0.0
  0
VERTEX
  5
99F
100
AcDbEntity
  8
NOTE
  6
CONTINUOUS
 62
     4
100
AcDbVertex
100
AcDb2dVertex
 10
156.308452
 20
-135.417624
 30
0.0
  0
VERTEX
  5
9A0
100
AcDbEntity
  8
NOTE
  6
CONTINUOUS
 62
     4
100
AcDbVertex
100
AcDb2dVertex
 10
180.424447
 20
-172.898806
 30
0.0
  0
VERTEX
  5
9A1
100
AcDbEntity
  8
NOTE
  6
CONTINUOUS
 62
     4
100
AcDbVertex
100
AcDb2dVertex
 10
176.244323
 20
-128.138095
 30
0.0
  0
SEQEND
  5
9A2
100
AcDbEntity
  8
NOTE
  6
CONTINUOUS
 62
     4
  0
LINE
  5
9A3
100
AcDbEntity
  8
DETAIL
  6
CONTINUOUS
 62
     5
100
AcDbLine
 10
169.083976
 20
-163.223678
 30
0.0
 11
178.235329
 21
-152.31752
 31
0.0
  0
ARC
  5
9A4
100
AcDbEntity
  8
DETAIL
  6
CONTINUOUS
 62
     5
100
AcDbCircle
 10
180.574642
 20
-172.865492
 30
0.0
 40
14.999999
100
AcDbArc
 50
337.004861
 51
122.995139
  0
LINE
  5
9A5
100
AcDbEntity
  8
NOTE
  6
CONTINUOUS
 62
     4
100
AcDbLine
 10
180.499969
 20
-146.57143
 30
0.0
 11
180.499969
 21
-199.42857
 31
0.0
  0
LINE
  5
9A7
100
AcDbEntity
  8
DETAIL
  6
CONTINUOUS
 62
     5
100
AcDbLine
 10
267.123864
 20
-219.380768
 30
0.0
 11
209.364117
 21
-170.914585
 31
0.0
  0
POINT
  5
9A8
100
AcDbEntity
  8
DEFPOINTS
  6
CONTINUOUS
 62
     7
100
AcDbPoint
 10
206.928539
 20
-173.0
 30
0.0
  0
ARC
  5
9AA
100
AcDbEntity
  8
DETAIL
  6
CONTINUOUS
 62
     5
100
AcDbCircle
 10
200.090046
 20
-181.147335
 30
0.0
 40
6.2
100
AcDbArc
 50
157.004861
 51
171.733292
  0
ARC
  5
9AB
100
AcDbEntity
  8
DETAIL
  6
CONTINUOUS
 62
     5
100
AcDbCircle
 10
205.635949
 20
-175.357643
 30
0.0
 40
5.8
100
AcDbArc
 50
50.0
 51
140.0
  0
LINE
  5
9AC
100
AcDbEntity
  8
DETAIL
  6
CONTINUOUS
 62
     5
100
AcDbLine
 10
192.065308
 20
-182.507305
 30
0.0
 11
201.192891
 21
-171.629475
 31
0.0
  0
ARC
  5
9AE
100
AcDbEntity
  8
DETAIL
  6
CONTINUOUS
 62
     5
100
AcDbCircle
 10
169.029803
 20
-155.084697
 30
0.0
 40
6.2
100
AcDbArc
 50
288.266708
 51
302.995139
  0
CIRCLE
  5
9AF
100
AcDbEntity
  8
DETAIL
  6
CONTINUOUS
 62
     5
100
AcDbCircle
 10
180.499969
 20
-173.0
 30
0.0
 40
7.0
  0
LINE
  5
9B0
100
AcDbEntity
  8
NOTE
  6
CONTINUOUS
 62
     4
100
AcDbLine
 10
206.928539
 20
-173.0
 30
0.0
 11
154.0714
 21
-173.0
 31
0.0
  0
ARC
  5
9BA
100
AcDbEntity
  8
DETAIL
  6
CONTINUOUS
 62
     5
100
AcDbCircle
 10
180.574642
 20
-172.865492
 30
0.0
 40
14.999999
100
AcDbArc
 50
140.0
 51
320.0
  0
LINE
  5
9BB
100
AcDbEntity
  8
NOTE
  6
CONTINUOUS
 62
     4
100
AcDbLine
 10
272.425297
 20
-223.705939
 30
0.0
 11
272.425297
 21
-276.563078
 31
0.0
  0
POLYLINE
  5
9BC
100
AcDbEntity
  8
NOTE
  6
CONTINUOUS
 62
     4
100
AcDb2dPolyline
 66
     1
 10
0.0
 20
0.0
 30
0.0
  0
VERTEX
  5
9BD
100
AcDbEntity
  8
NOTE
  6
CONTINUOUS
 62
     4
100
AcDbVertex
100
AcDb2dVertex
 10
303.422432
 20
-275.357865
 30
0.0
  0
VERTEX
  5
9BE
100
AcDbEntity
  8
NOTE
  6
CONTINUOUS
 62
     4
100
AcDbVertex
100
AcDb2dVertex
 10
272.497874
 20
-249.987179
 30
0.0
  0
VERTEX
  5
9BF
100
AcDbEntity
  8
NOTE
  6
CONTINUOUS
 62
     4
100
AcDbVertex
100
AcDb2dVertex
 10
286.593984
 20
-287.421116
 30
0.0
  0
SEQEND
  5
9C0
100
AcDbEntity
  8
NOTE
  6
CONTINUOUS
 62
     4
  0
POINT
  5
9C1
100
AcDbEntity
  8
DEFPOINTS
  6
CONTINUOUS
 62
     7
100
AcDbPoint
 10
301.928539
 20
-250.0
 30
0.0
  0
POINT
  5
9C2
100
AcDbEntity
  8
DEFPOINTS
  6
CONTINUOUS
 62
     7
100
AcDbPoint
 10
301.928539
 20
-250.0
 30
0.0
  0
POINT
  5
9C3
100
AcDbEntity
  8
DEFPOINTS
  6
CONTINUOUS
 62
     7
100
AcDbPoint
 10
272.499969
 20
-220.57143
 30
0.0
  0
POINT
  5
9C4
100
AcDbEntity
  8
DEFPOINTS
  6
CONTINUOUS
 62
     7
100
AcDbPoint
 10
272.499969
 20
-220.57143
 30
0.0
  0
ARC
  5
9C5
100
AcDbEntity
  8
DETAIL
  6
CONTINUOUS
 62
     5
100
AcDbCircle
 10
310.576856
 20
-263.296644
 30
0.0
 40
5.8
100
AcDbArc
 50
0.0
 51
50.0
  0
ARC
  5
9C6
100
AcDbEntity
  8
DETAIL
  6
CONTINUOUS
 62
     5
100
AcDbCircle
 10
263.395696
 20
-223.823825
 30
0.0
 40
5.8
100
AcDbArc
 50
320.0
 51
50.0
  0
ARC
  5
9C7
100
AcDbEntity
  8
DETAIL
  6
CONTINUOUS
 62
     5
100
AcDbCircle
 10
258.565707
 20
-230.214241
 30
0.0
 40
6.2
100
AcDbArc
 50
290.426912
 51
305.155396
  0
LINE
  5
9C9
100
AcDbEntity
  8
DETAIL
  6
CONTINUOUS
 62
     5
100
AcDbLine
 10
258.71117
 20
-238.429824
 30
0.0
 11
267.838754
 21
-227.551993
 31
0.0
  0
ARC
  5
9CB
100
AcDbEntity
  8
DETAIL
  6
CONTINUOUS
 62
     5
100
AcDbCircle
 10
294.404798
 20
-260.286809
 30
0.0
 40
6.2
100
AcDbArc
 50
154.844604
 51
169.573088
  0
ARC
  5
9CC
100
AcDbEntity
  8
DETAIL
  6
CONTINUOUS
 62
     5
100
AcDbCircle
 10
299.916959
 20
-254.351929
 30
0.0
 40
5.8
100
AcDbArc
 50
50.0
 51
140.0
  0
LINE
  5
9CD
100
AcDbEntity
  8
DETAIL
  6
CONTINUOUS
 62
     5
100
AcDbLine
 10
286.288769
 20
-261.570176
 30
0.0
 11
295.473902
 21
-250.623761
 31
0.0
  0
LINE
  5
9CF
100
AcDbEntity
  8
NOTE
  6
CONTINUOUS
 62
     4
100
AcDbLine
 10
301.928539
 20
-250.0
 30
0.0
 11
243.0714
 21
-250.0
 31
0.0
  0
CIRCLE
  5
9D1
100
AcDbEntity
  8
DETAIL
  6
CONTINUOUS
 62
     5
100
AcDbCircle
 10
272.499969
 20
-250.0
 30
0.0
 40
9.999999
  0
ARC
  5
9D4
100
AcDbEntity
  8
DETAIL
  6
CONTINUOUS
 62
     5
100
AcDbCircle
 10
272.499969
 20
-250.0
 30
0.0
 40
17.999999
100
AcDbArc
 50
334.844604
 51
125.155396
  0
ARC
  5
9D5
100
AcDbEntity
  8
DETAIL
  6
CONTINUOUS
 62
     5
100
AcDbCircle
 10
272.499969
 20
-250.0
 30
0.0
 40
17.999999
100
AcDbArc
 50
140.0
 51
320.0
  0
LINE
  5
9D6
100
AcDbEntity
  8
DETAIL
  6
CONTINUOUS
 62
     5
100
AcDbLine
 10
303.645127
 20
-249.908871
 30
0.0
 11
314.305024
 21
-258.853586
 31
0.0
  0
LINE
  5
9D7
100
AcDbEntity
  8
DETAIL
  6
CONTINUOUS
 62
     5
100
AcDbLine
 10
139.476867
 20
-27.904881
 30
0.0
 11
273.676858
 21
-27.904881
 31
0.0
  0
POINT
  5
9D8
100
AcDbEntity
  8
DEFPOINTS
  6
CONTINUOUS
 62
     7
100
AcDbPoint
 10
180.499969
 20
-146.57143
 30
0.0
  0
LINE
  5
9D9
100
AcDbEntity
  8
DETAIL
  6
CONTINUOUS
 62
     5
100
AcDbLine
 10
140.214077
 20
-112.84254
 30
0.0
 11
140.833095
 21
-112.104823
 31
0.0
  0
ARC
  5
9DB
100
AcDbEntity
  8
DETAIL
  6
CONTINUOUS
 62
     5
100
AcDbCircle
 10
173.792272
 20
-148.589352
 30
0.0
 40
5.8
100
AcDbArc
 50
320.0
 51
50.0
  0
LINE
  5
9DC
100
AcDbEntity
  8
DETAIL
  6
CONTINUOUS
 62
     5
100
AcDbLine
 10
125.076867
 20
-18.204881
 30
0.0
 11
125.076867
 21
-24.204881
 31
0.0
  0
ARC
  5
9DD
100
AcDbEntity
  8
DETAIL
  6
CONTINUOUS
 62
     5
100
AcDbCircle
 10
139.476867
 20
-33.704881
 30
0.0
 40
5.8
100
AcDbArc
 50
90.0
 51
180.0
  0
ARC
  5
9DE
100
AcDbEntity
  8
DETAIL
  6
CONTINUOUS
 62
     5
100
AcDbCircle
 10
134.584344
 20
-110.217452
 30
0.0
 40
3.0
100
AcDbArc
 50
230.0
 51
320.0
  0
LINE
  5
9DF
100
AcDbEntity
  8
DETAIL
  6
CONTINUOUS
 62
     5
100
AcDbLine
 10
138.534962
 20
-110.17646
 30
0.0
 11
136.716112
 21
-112.344082
 31
0.0
  0
LINE
  5
9E0
100
AcDbEntity
  8
DETAIL
  6
CONTINUOUS
 62
     5
100
AcDbLine
 10
132.655982
 20
-112.515586
 30
0.0
 11
129.591804
 21
-109.944435
 31
0.0
  0
LINE
  5
9E1
100
AcDbEntity
  8
DETAIL
  6
CONTINUOUS
 62
     5
100
AcDbLine
 10
131.003076
 20
-103.595376
 30
0.0
 11
138.66352
 21
-110.023252
 31
0.0
  0
ARC
  5
9E2
100
AcDbEntity
  8
DETAIL
  6
CONTINUOUS
 62
     5
100
AcDbCircle
 10
131.520167
 20
-107.646302
 30
0.0
 40
3.0
100
AcDbArc
 50
140.0
 51
230.0
  0
ARC
  5
9E3
100
AcDbEntity
  8
DETAIL
  6
CONTINUOUS
 62
     5
100
AcDbCircle
 10
129.725452
 20
-102.784403
 30
0.0
 40
1.5
100
AcDbArc
 50
320.0
 51
140.0
  0
LINE
  5
9E4
100
AcDbEntity
  8
DETAIL
  6
CONTINUOUS
 62
     5
100
AcDbLine
 10
128.576385
 20
-101.820222
 30
0.0
 11
127.957367
 21
-102.557939
 31
0.0
  0
LINE
  5
9E5
100
AcDbEntity
  8
DETAIL
  6
CONTINUOUS
 62
     5
100
AcDbLine
 10
129.055668
 20
-105.916206
 30
0.0
 11
130.874518
 21
-103.748585
 31
0.0
  0
ARC
  5
9E6
100
AcDbEntity
  8
DETAIL
  6
CONTINUOUS
 62
     5
100
AcDbCircle
 10
139.476867
 20
-68.070706
 30
0.0
 40
5.8
100
AcDbArc
 50
180.0
 51
230.0
  0
LINE
  5
9E7
100
AcDbEntity
  8
DETAIL
  6
CONTINUOUS
 62
     5
100
AcDbLine
 10
133.676867
 20
-68.070706
 30
0.0
 11
133.676867
 21
-33.704881
 31
0.0
  0
ARC
  5
9E8
100
AcDbEntity
  8
DETAIL
  6
CONTINUOUS
 62
     5
100
AcDbCircle
 10
139.684029
 20
-111.140642
 30
0.0
 40
1.5
100
AcDbArc
 50
320.0
 51
140.0
  0
LINE
  5
9E9
100
AcDbEntity
  8
DETAIL
  6
CONTINUOUS
 62
     5
100
AcDbLine
 10
137.915944
 20
-110.914177
 30
0.0
 11
177.520439
 21
-144.146295
 31
0.0
  0
LINE
  5
9EA
100
AcDbEntity
  8
DETAIL
  6
CONTINUOUS
 62
     5
100
AcDbLine
 10
273.676858
 20
-26.904881
 30
0.0
 11
273.676858
 21
-29.904881
 31
0.0
  0
LINE
  5
9EB
100
AcDbEntity
  8
DETAIL
  6
CONTINUOUS
 62
     5
100
AcDbLine
 10
283.676858
 20
-29.904881
 30
0.0
 11
283.676858
 21
-26.904881
 31
0.0
  0
LINE
  5
9EC
100
AcDbEntity
  8
DETAIL
  6
CONTINUOUS
 62
     5
100
AcDbLine
 10
273.676858
 20
-26.704881
 30
0.0
 11
283.676858
 21
-26.704881
 31
0.0
  0
LINE
  5
9ED
100
AcDbEntity
  8
DETAIL
  6
CONTINUOUS
 62
     5
100
AcDbLine
 10
275.676858
 20
-31.904881
 30
0.0
 11
281.676858
 21
-31.904881
 31
0.0
  0
ARC
  5
9EE
100
AcDbEntity
  8
DETAIL
  6
CONTINUOUS
 62
     5
100
AcDbCircle
 10
281.676858
 20
-29.904881
 30
0.0
 40
2.0
100
AcDbArc
 50
270.0
 51
0.0
  0
ARC
  5
9EF
100
AcDbEntity
  8
DETAIL
  6
CONTINUOUS
 62
     5
100
AcDbCircle
 10
275.676858
 20
-29.904881
 30
0.0
 40
2.0
100
AcDbArc
 50
180.0
 51
270.0
  0
LINE
  5
9F0
100
AcDbEntity
  8
DETAIL
  6
CONTINUOUS
 62
     5
100
AcDbLine
 10
286.676858
 20
-27.904881
 30
0.0
 11
286.676858
 21
-26.904881
 31
0.0
  0
LINE
  5
9F1
100
AcDbEntity
  8
DETAIL
  6
CONTINUOUS
 62
     5
100
AcDbLine
 10
270.676859
 20
-26.904881
 30
0.0
 11
270.676859
 21
-27.904881
 31
0.0
  0
ARC
  5
9F2
100
AcDbEntity
  8
DETAIL
  6
CONTINUOUS
 62
     5
100
AcDbCircle
 10
285.176858
 20
-26.904881
 30
0.0
 40
1.5
100
AcDbArc
 50
0.0
 51
180.0
  0
ARC
  5
9F3
100
AcDbEntity
  8
DETAIL
  6
CONTINUOUS
 62
     5
100
AcDbCircle
 10
272.176858
 20
-26.904881
 30
0.0
 40
1.5
100
AcDbArc
 50
0.0
 51
180.0
  0
LINE
  5
9F9
100
AcDbEntity
  8
NOTE
  6
CONTINUOUS
 62
     4
100
AcDbLine
 10
486.49997
 20
-151.931982
 30
0.0
 11
486.49997
 21
-170.068042
 31
0.0
  0
ARC
  5
9FA
100
AcDbEntity
  8
DETAIL
  6
CONTINUOUS
 62
     5
100
AcDbCircle
 10
427.106039
 20
-155.904873
 30
0.0
 40
3.0
100
AcDbArc
 50
90.0
 51
180.0
  0
LINE
  5
9FB
100
AcDbEntity
  8
DETAIL
  6
CONTINUOUS
 62
     5
100
AcDbLine
 10
429.876849
 20
-162.904873
 30
0.0
 11
429.876849
 21
-152.904873
 31
0.0
  0
LINE
  5
9FC
100
AcDbEntity
  8
DETAIL
  6
CONTINUOUS
 62
     5
100
AcDbLine
 10
501.499969
 20
-36.0
 30
0.0
 11
501.499969
 21
-286.0
 31
0.0
  0
ARC
  5
9FD
100
AcDbEntity
  8
DETAIL
  6
CONTINUOUS
 62
     5
100
AcDbCircle
 10
427.106039
 20
-159.904873
 30
0.0
 40
3.0
100
AcDbArc
 50
180.0
 51
270.0
  0
LINE
  5
9FE
100
AcDbEntity
  8
DETAIL
  6
CONTINUOUS
 62
     5
100
AcDbLine
 10
429.676849
 20
-162.904873
 30
0.0
 11
426.84722
 21
-162.904873
 31
0.0
  0
LINE
  5
9FF
100
AcDbEntity
  8
DETAIL
  6
CONTINUOUS
 62
     5
100
AcDbLine
 10
424.106039
 20
-159.904873
 30
0.0
 11
424.106039
 21
-155.904873
 31
0.0
  0
LINE
  5
A00
100
AcDbEntity
  8
DETAIL
  6
CONTINUOUS
 62
     5
100
AcDbLine
 10
429.676849
 20
-165.904872
 30
0.0
 11
428.676849
 21
-165.904872
 31
0.0
  0
ARC
  5
A01
100
AcDbEntity
  8
DETAIL
  6
CONTINUOUS
 62
     5
100
AcDbCircle
 10
429.676849
 20
-164.404873
 30
0.0
 40
1.5
100
AcDbArc
 50
270.0
 51
90.0
  0
ARC
  5
A03
100
AcDbEntity
  8
DETAIL
  6
CONTINUOUS
 62
     5
100
AcDbCircle
 10
422.876849
 20
-267.693331
 30
0.0
 40
5.8
100
AcDbArc
 50
270.0
 51
0.0
  0
ARC
  5
A05
100
AcDbEntity
  8
DETAIL
  6
CONTINUOUS
 62
     5
100
AcDbCircle
 10
377.377846
 20
-267.693331
 30
0.0
 40
5.8
100
AcDbArc
 50
230.0
 51
270.0
  0
LINE
  5
A06
100
AcDbEntity
  8
DETAIL
  6
CONTINUOUS
 62
     5
100
AcDbLine
 10
377.377846
 20
-273.49333
 30
0.0
 11
422.876849
 21
-273.49333
 31
0.0
  0
LINE
  5
A07
100
AcDbEntity
  8
DETAIL
  6
CONTINUOUS
 62
     5
100
AcDbLine
 10
428.676849
 20
-267.693331
 30
0.0
 11
428.676849
 21
-162.904873
 31
0.0
  0
POINT
  5
A08
100
AcDbEntity
  8
DEFPOINTS
  6
CONTINUOUS
 62
     7
100
AcDbPoint
 10
501.499969
 20
-286.0
 30
0.0
  0
POINT
  5
A09
100
AcDbEntity
  8
DEFPOINTS
  6
CONTINUOUS
 62
     7
100
AcDbPoint
 10
501.499969
 20
-286.0
 30
0.0
  0
POINT
  5
A0A
100
AcDbEntity
  8
DEFPOINTS
  6
CONTINUOUS
 62
     7
100
AcDbPoint
 10
501.499969
 20
-286.0
 30
0.0
  0
POINT
  5
A0B
100
AcDbEntity
  8
DEFPOINTS
  6
CONTINUOUS
 62
     7
100
AcDbPoint
 10
497.85383
 20
-261.000012
 30
0.0
  0
POINT
  5
A0C
100
AcDbEntity
  8
DEFPOINTS
  6
CONTINUOUS
 62
     7
100
AcDbPoint
 10
495.568
 20
-261.000012
 30
0.0
  0
POINT
  5
A0D
100
AcDbEntity
  8
DEFPOINTS
  6
CONTINUOUS
 62
     7
100
AcDbPoint
 10
501.499969
 20
-286.0
 30
0.0
  0
POINT
  5
A0E
100
AcDbEntity
  8
DEFPOINTS
  6
CONTINUOUS
 62
     7
100
AcDbPoint
 10
501.499969
 20
-286.0
 30
0.0
  0
CIRCLE
  5
A0F
100
AcDbEntity
  8
DETAIL
  6
CONTINUOUS
 62
     5
100
AcDbCircle
 10
486.49997
 20
-161.000012
 30
0.0
 40
1.55
  0
LINE
  5
A10
100
AcDbEntity
  8
NOTE
  6
CONTINUOUS
 62
     4
100
AcDbLine
 10
495.568
 20
-161.000012
 30
0.0
 11
477.43194
 21
-161.000012
 31
0.0
  0
CIRCLE
  5
A11
100
AcDbEntity
  8
DETAIL
  6
CONTINUOUS
 62
     5
100
AcDbCircle
 10
486.49997
 20
-211.000012
 30
0.0
 40
1.55
  0
LINE
  5
A12
100
AcDbEntity
  8
NOTE
  6
CONTINUOUS
 62
     4
100
AcDbLine
 10
495.568
 20
-211.000012
 30
0.0
 11
477.43194
 21
-211.000012
 31
0.0
  0
LINE
  5
A13
100
AcDbEntity
  8
NOTE
  6
CONTINUOUS
 62
     4
100
AcDbLine
 10
486.49997
 20
-201.931982
 30
0.0
 11
486.49997
 21
-220.068042
 31
0.0
  0
CIRCLE
  5
A14
100
AcDbEntity
  8
DETAIL
  6
CONTINUOUS
 62
     5
100
AcDbCircle
 10
486.49997
 20
-261.000012
 30
0.0
 40
1.55
  0
LINE
  5
A15
100
AcDbEntity
  8
NOTE
  6
CONTINUOUS
 62
     4
100
AcDbLine
 10
495.568
 20
-261.000012
 30
0.0
 11
477.43194
 21
-261.000012
 31
0.0
  0
LINE
  5
A16
100
AcDbEntity
  8
DETAIL
  6
CONTINUOUS
 62
     5
100
AcDbLine
 10
501.499969
 20
-286.0
 30
0.0
 11
472.499969
 21
-286.0
 31
0.0
  0
LINE
  5
A17
100
AcDbEntity
  8
NOTE
  6
CONTINUOUS
 62
     4
100
AcDbLine
 10
486.49997
 20
-251.931982
 30
0.0
 11
486.49997
 21
-270.068042
 31
0.0
  0
LINE
  5
A18
100
AcDbEntity
  8
DETAIL
  6
CONTINUOUS
 62
     5
100
AcDbLine
 10
425.076849
 20
-24.204881
 30
0.0
 11
472.499969
 21
-24.204881
 31
0.0
  0
LINE
  5
A1A
100
AcDbEntity
  8
DETAIL
  6
CONTINUOUS
 62
     5
100
AcDbLine
 10
437.676848
 20
-21.504881
 30
0.0
 11
439.676848
 21
-21.504881
 31
0.0
  0
ARC
  5
A1F
100
AcDbEntity
  8
DETAIL
  6
CONTINUOUS
 62
     5
100
AcDbCircle
 10
419.076849
 20
-18.204881
 30
0.0
 40
6.0
100
AcDbArc
 50
0.0
 51
180.0
  0
LINE
  5
A20
100
AcDbEntity
  8
DETAIL
  6
CONTINUOUS
 62
     5
100
AcDbLine
 10
425.076849
 20
-18.204881
 30
0.0
 11
425.076849
 21
-24.204881
 31
0.0
  0
LINE
  5
A21
100
AcDbEntity
  8
DETAIL
  6
CONTINUOUS
 62
     5
100
AcDbLine
 10
413.07685
 20
-18.204881
 30
0.0
 11
413.07685
 21
-24.204881
 31
0.0
  0
ARC
  5
A22
100
AcDbEntity
  8
DETAIL
  6
CONTINUOUS
 62
     5
100
AcDbCircle
 10
422.876849
 20
-33.704881
 30
0.0
 40
5.8
100
AcDbArc
 50
0.0
 51
90.0
  0
LINE
  5
A24
100
AcDbEntity
  8
DETAIL
  6
CONTINUOUS
 62
     5
100
AcDbLine
 10
426.84722
 20
-152.904873
 30
0.0
 11
429.676849
 21
-152.904873
 31
0.0
  0
LINE
  5
A25
100
AcDbEntity
  8
DETAIL
  6
CONTINUOUS
 62
     5
100
AcDbLine
 10
428.676849
 20
-149.904873
 30
0.0
 11
429.676849
 21
-149.904873
 31
0.0
  0
ARC
  5
A26
100
AcDbEntity
  8
DETAIL
  6
CONTINUOUS
 62
     5
100
AcDbCircle
 10
429.676849
 20
-151.404873
 30
0.0
 40
1.5
100
AcDbArc
 50
270.0
 51
90.0
  0
LINE
  5
A27
100
AcDbEntity
  8
NOTE
  6
CONTINUOUS
 62
     4
100
AcDbLine
 10
396.105422
 20
-73.904878
 30
0.0
 11
343.248283
 21
-73.904878
 31
0.0
  0
LINE
  5
A28
100
AcDbEntity
  8
NOTE
  6
CONTINUOUS
 62
     4
100
AcDbLine
 10
369.676853
 20
-47.476308
 30
0.0
 11
369.676853
 21
-100.333448
 31
0.0
  0
CIRCLE
  5
A2A
100
AcDbEntity
  8
DETAIL
  6
CONTINUOUS
 62
     5
100
AcDbCircle
 10
369.676853
 20
-73.904878
 30
0.0
 40
9.999999
  0
LINE
  5
A2B
100
AcDbEntity
  8
DETAIL
  6
CONTINUOUS
 62
     5
100
AcDbLine
 10
428.676849
 20
-152.904873
 30
0.0
 11
428.676849
 21
-33.704881
 31
0.0
  0
POLYLINE
  5
A2C
100
AcDbEntity
  8
NOTE
  6
CONTINUOUS
 62
     4
100
AcDb2dPolyline
 66
     1
 10
0.0
 20
0.0
 30
0.0
  0
VERTEX
  5
A2D
100
AcDbEntity
  8
NOTE
  6
CONTINUOUS
 62
     4
100
AcDbVertex
100
AcDb2dVertex
 10
494.98379
 20
-21.910054
 30
0.0
  0
VERTEX
  5
A2E
100
AcDbEntity
  8
NOTE
  6
CONTINUOUS
 62
     4
100
AcDbVertex
100
AcDb2dVertex
 10
486.49997
 20
-61.000012
 30
0.0
  0
VERTEX
  5
A2F
100
AcDbEntity
  8
NOTE
  6
CONTINUOUS
 62
     4
100
AcDbVertex
100
AcDb2dVertex
 10
513.392152
 20
-31.389025
 30
0.0
  0
SEQEND
  5
A30
100
AcDbEntity
  8
NOTE
  6
CONTINUOUS
 62
     4
  0
POINT
  5
A31
100
AcDbEntity
  8
DEFPOINTS
  6
CONTINUOUS
 62
     7
100
AcDbPoint
 10
501.499969
 20
-36.0
 30
0.0
  0
POINT
  5
A32
100
AcDbEntity
  8
DEFPOINTS
  6
CONTINUOUS
 62
     7
100
AcDbPoint
 10
497.85383
 20
-61.000012
 30
0.0
  0
POINT
  5
A33
100
AcDbEntity
  8
DEFPOINTS
  6
CONTINUOUS
 62
     7
100
AcDbPoint
 10
501.499969
 20
-36.0
 30
0.0
  0
POINT
  5
A34
100
AcDbEntity
  8
DEFPOINTS
  6
CONTINUOUS
 62
     7
100
AcDbPoint
 10
501.499969
 20
-36.0
 30
0.0
  0
POINT
  5
A35
100
AcDbEntity
  8
DEFPOINTS
  6
CONTINUOUS
 62
     7
100
AcDbPoint
 10
486.49997
 20
-51.931982
 30
0.0
  0
POINT
  5
A36
100
AcDbEntity
  8
DEFPOINTS
  6
CONTINUOUS
 62
     7
100
AcDbPoint
 10
501.499969
 20
-36.0
 30
0.0
  0
CIRCLE
  5
A37
100
AcDbEntity
  8
DETAIL
  6
CONTINUOUS
 62
     5
100
AcDbCircle
 10
486.49997
 20
-61.000012
 30
0.0
 40
1.55
  0
LINE
  5
A38
100
AcDbEntity
  8
NOTE
  6
CONTINUOUS
 62
     4
100
AcDbLine
 10
495.568
 20
-61.000012
 30
0.0
 11
477.43194
 21
-61.000012
 31
0.0
  0
LINE
  5
A39
100
AcDbEntity
  8
NOTE
  6
CONTINUOUS
 62
     4
100
AcDbLine
 10
486.49997
 20
-51.931982
 30
0.0
 11
486.49997
 21
-70.068042
 31
0.0
  0
CIRCLE
  5
A3A
100
AcDbEntity
  8
DETAIL
  6
CONTINUOUS
 62
     5
100
AcDbCircle
 10
486.49997
 20
-111.000012
 30
0.0
 40
1.55
  0
LINE
  5
A3B
100
AcDbEntity
  8
NOTE
  6
CONTINUOUS
 62
     4
100
AcDbLine
 10
495.568
 20
-111.000012
 30
0.0
 11
477.43194
 21
-111.000012
 31
0.0
  0
LINE
  5
A3C
100
AcDbEntity
  8
NOTE
  6
CONTINUOUS
 62
     4
100
AcDbLine
 10
486.49997
 20
-101.931982
 30
0.0
 11
486.49997
 21
-120.068042
 31
0.0
  0
LINE
  5
A3D
100
AcDbEntity
  8
DETAIL
  6
CONTINUOUS
 62
     5
100
AcDbLine
 10
473.699971
 20
-36.0
 30
0.0
 11
501.499969
 21
-36.0
 31
0.0
  0
LINE
  5
A3E
100
AcDbEntity
  8
DETAIL
  6
CONTINUOUS
 62
     5
100
AcDbLine
 10
501.499969
 20
-36.0
 30
0.0
 11
472.499969
 21
-36.0
 31
0.0
  0
TEXT
  5
A3F
100
AcDbEntity
  8
SIZE
  6
CONTINUOUS
 62
    30
100
AcDbText
 10
1383.896134
 20
-641.485714
 30
0.0
 40
55.0
  1
20以上
 50
90.0
 41
0.9
 72
     1
 11
1383.896134
 21
-541.542857
 31
0.0
100
AcDbText
  0
LINE
  5
A40
100
AcDbEntity
  8
SIZE
  6
CONTINUOUS
 62
    30
100
AcDbLine
 10
1398.896134
 20
-410.0
 30
0.0
 11
1398.896134
 21
-663.085714
 31
0.0
  0
LINE
  5
A41
100
AcDbEntity
  8
SIZE
  6
CONTINUOUS
 62
    30
100
AcDbLine
 10
969.443044
 20
-296.0
 30
0.0
 11
969.443044
 21
-504.709644
 31
0.0
  0
LINE
  5
A42
100
AcDbEntity
  8
SIZE
  6
CONTINUOUS
 62
    30
100
AcDbLine
 10
836.266829
 20
-260.0
 30
0.0
 11
836.266829
 21
-370.0
 31
0.0
  0
TEXT
  5
A43
100
AcDbEntity
  8
SIZE
  6
CONTINUOUS
 62
    30
100
AcDbText
 10
821.266829
 20
-522.857142
 30
0.0
 40
55.0
  1
130
 50
90.0
 41
0.9
 72
     1
 11
821.266829
 21
-463.928571
 31
0.0
100
AcDbText
  0
TEXT
  5
A44
100
AcDbEntity
  8
SIZE
  6
CONTINUOUS
 62
    30
100
AcDbText
 10
669.859868
 20
-495.142858
 30
0.0
 40
55.0
  1
30
 50
90.0
 41
0.9
 72
     1
 11
669.859868
 21
-455.071429
 31
0.0
100
AcDbText
  0
LINE
  5
A45
100
AcDbEntity
  8
SIZE
  6
CONTINUOUS
 62
    30
100
AcDbLine
 10
684.859868
 20
-390.0
 30
0.0
 11
684.859868
 21
-510.142857
 31
0.0
  0
POINT
  5
A46
100
AcDbEntity
  8
DEFPOINTS
  6
CONTINUOUS
 62
     7
100
AcDbPoint
 10
684.859868
 20
-350.0
 30
0.0
  0
LINE
  5
A47
100
AcDbEntity
  8
SIZE
  6
CONTINUOUS
 62
    30
100
AcDbLine
 10
684.859868
 20
-385.0
 30
0.0
 11
684.859868
 21
-390.0
 31
0.0
  0
CIRCLE
  5
A48
100
AcDbEntity
  8
SIZE
  6
CONTINUOUS
 62
    30
100
AcDbCircle
 10
684.859868
 20
-380.0
 30
0.0
 40
5.0
  0
LINE
  5
A49
100
AcDbEntity
  8
SIZE
  6
CONTINUOUS
 62
    30
100
AcDbLine
 10
684.859868
 20
-345.0
 30
0.0
 11
684.859868
 21
-340.0
 31
0.0
  0
CIRCLE
  5
A4A
100
AcDbEntity
  8
SIZE
  6
CONTINUOUS
 62
    30
100
AcDbCircle
 10
684.859868
 20
-350.0
 30
0.0
 40
5.0
  0
LINE
  5
A4B
100
AcDbEntity
  8
SIZE
  6
CONTINUOUS
 62
    30
100
AcDbLine
 10
684.859868
 20
-350.0
 30
0.0
 11
684.859868
 21
-380.0
 31
0.0
  0
LINE
  5
A4C
100
AcDbEntity
  8
SIZE
  6
CONTINUOUS
 62
    30
100
AcDbLine
 10
684.859868
 20
-340.0
 30
0.0
 11
684.859868
 21
-330.0
 31
0.0
  0
TEXT
  5
A4D
100
AcDbEntity
  8
SIZE
  6
CONTINUOUS
 62
    30
100
AcDbText
 10
954.443044
 20
-489.709644
 30
0.0
 40
55.0
  1
25
 50
90.0
 41
0.9
 72
     1
 11
954.443044
 21
-449.638215
 31
0.0
100
AcDbText
  0
LINE
  5
A4E
100
AcDbEntity
  8
SIZE
  6
CONTINUOUS
 62
    30
100
AcDbLine
 10
836.266829
 20
-380.0
 30
0.0
 11
836.266829
 21
-537.857143
 31
0.0
  0
LINE
  5
A4F
100
AcDbEntity
  8
SIZE
  6
CONTINUOUS
 62
    30
100
AcDbLine
 10
836.266829
 20
-375.0
 30
0.0
 11
836.266829
 21
-370.0
 31
0.0
  0
CIRCLE
  5
A50
100
AcDbEntity
  8
SIZE
  6
CONTINUOUS
 62
    30
100
AcDbCircle
 10
836.266829
 20
-380.0
 30
0.0
 40
5.0
  0
TEXT
  5
A51
100
AcDbEntity
  8
SIZE
  6
CONTINUOUS
 62
    30
100
AcDbText
 10
821.266829
 20
-251.571429
 30
0.0
 40
55.0
  1
77
 50
90.0
 41
0.9
 72
     1
 11
821.266829
 21
-211.5
 31
0.0
100
AcDbText
  0
LINE
  5
A52
100
AcDbEntity
  8
SIZE
  6
CONTINUOUS
 62
    30
100
AcDbLine
 10
969.443044
 20
-251.000012
 30
0.0
 11
969.443044
 21
-71.000012
 31
0.0
  0
LINE
  5
A53
100
AcDbEntity
  8
SIZE
  6
CONTINUOUS
 62
    30
100
AcDbLine
 10
836.266829
 20
-163.0
 30
0.0
 11
836.266829
 21
-153.0
 31
0.0
  0
POINT
  5
A54
100
AcDbEntity
  8
DEFPOINTS
  6
CONTINUOUS
 62
     7
100
AcDbPoint
 10
836.266829
 20
-173.0
 30
0.0
  0
LINE
  5
A55
100
AcDbEntity
  8
SIZE
  6
CONTINUOUS
 62
    30
100
AcDbLine
 10
836.266829
 20
-168.0
 30
0.0
 11
836.266829
 21
-163.0
 31
0.0
  0
CIRCLE
  5
A56
100
AcDbEntity
  8
SIZE
  6
CONTINUOUS
 62
    30
100
AcDbCircle
 10
836.266829
 20
-173.0
 30
0.0
 40
5.0
  0
LINE
  5
A57
100
AcDbEntity
  8
SIZE
  6
CONTINUOUS
 62
    30
100
AcDbLine
 10
836.266829
 20
-255.0
 30
0.0
 11
836.266829
 21
-260.0
 31
0.0
  0
CIRCLE
  5
A58
100
AcDbEntity
  8
SIZE
  6
CONTINUOUS
 62
    30
100
AcDbCircle
 10
836.266829
 20
-250.0
 30
0.0
 40
5.0
  0
LINE
  5
A59
100
AcDbEntity
  8
SIZE
  6
CONTINUOUS
 62
    30
100
AcDbLine
 10
836.266829
 20
-250.0
 30
0.0
 11
836.266829
 21
-173.0
 31
0.0
  0
LINE
  5
A5A
100
AcDbEntity
  8
SIZE
  6
CONTINUOUS
 62
    30
100
AcDbLine
 10
836.266829
 20
-260.0
 30
0.0
 11
836.266829
 21
-270.0
 31
0.0
  0
POINT
  5
A5B
100
AcDbEntity
  8
DEFPOINTS
  6
CONTINUOUS
 62
     7
100
AcDbPoint
 10
836.266829
 20
-250.0
 30
0.0
  0
LINE
  5
A5C
100
AcDbEntity
  8
SIZE
  6
CONTINUOUS
 62
    30
100
AcDbLine
 10
836.266829
 20
-255.0
 30
0.0
 11
836.266829
 21
-260.0
 31
0.0
  0
CIRCLE
  5
A5D
100
AcDbEntity
  8
SIZE
  6
CONTINUOUS
 62
    30
100
AcDbCircle
 10
836.266829
 20
-250.0
 30
0.0
 40
5.0
  0
LINE
  5
A5E
100
AcDbEntity
  8
SIZE
  6
CONTINUOUS
 62
    30
100
AcDbLine
 10
969.443044
 20
-256.000012
 30
0.0
 11
969.443044
 21
-251.000012
 31
0.0
  0
CIRCLE
  5
A5F
100
AcDbEntity
  8
SIZE
  6
CONTINUOUS
 62
    30
100
AcDbCircle
 10
969.443044
 20
-261.000012
 30
0.0
 40
5.0
  0
POINT
  5
A60
100
AcDbEntity
  8
DEFPOINTS
  6
CONTINUOUS
 62
     7
100
AcDbPoint
 10
969.443044
 20
-261.000012
 30
0.0
  0
LINE
  5
A61
100
AcDbEntity
  8
SIZE
  6
CONTINUOUS
 62
    30
100
AcDbLine
 10
969.443044
 20
-291.0
 30
0.0
 11
969.443044
 21
-296.0
 31
0.0
  0
CIRCLE
  5
A62
100
AcDbEntity
  8
SIZE
  6
CONTINUOUS
 62
    30
100
AcDbCircle
 10
969.443044
 20
-286.0
 30
0.0
 40
5.0
  0
LINE
  5
A63
100
AcDbEntity
  8
SIZE
  6
CONTINUOUS
 62
    30
100
AcDbLine
 10
969.443044
 20
-256.000012
 30
0.0
 11
969.443044
 21
-251.000012
 31
0.0
  0
CIRCLE
  5
A64
100
AcDbEntity
  8
SIZE
  6
CONTINUOUS
 62
    30
100
AcDbCircle
 10
969.443044
 20
-261.000012
 30
0.0
 40
5.0
  0
LINE
  5
A65
100
AcDbEntity
  8
SIZE
  6
CONTINUOUS
 62
    30
100
AcDbLine
 10
969.443044
 20
-261.000012
 30
0.0
 11
969.443044
 21
-286.0
 31
0.0
  0
LINE
  5
A66
100
AcDbEntity
  8
SIZE
  6
CONTINUOUS
 62
    30
100
AcDbLine
 10
969.443044
 20
-251.000012
 30
0.0
 11
969.443044
 21
-241.000012
 31
0.0
  0
POINT
  5
A67
100
AcDbEntity
  8
DEFPOINTS
  6
CONTINUOUS
 62
     7
100
AcDbPoint
 10
969.443044
 20
-61.000012
 30
0.0
  0
LINE
  5
A68
100
AcDbEntity
  8
SIZE
  6
CONTINUOUS
 62
    30
100
AcDbLine
 10
969.443044
 20
-66.000012
 30
0.0
 11
969.443044
 21
-71.000012
 31
0.0
  0
CIRCLE
  5
A69
100
AcDbEntity
  8
SIZE
  6
CONTINUOUS
 62
    30
100
AcDbCircle
 10
969.443044
 20
-61.000012
 30
0.0
 40
5.0
  0
LINE
  5
A6A
100
AcDbEntity
  8
SIZE
  6
CONTINUOUS
 62
    30
100
AcDbLine
 10
1398.896134
 20
-10.0
 30
0.0
 11
1398.896134
 21
-370.0
 31
0.0
  0
TEXT
  5
A6B
100
AcDbEntity
  8
SIZE
  6
CONTINUOUS
 62
    30
100
AcDbText
 10
1256.001841
 20
-374.25
 30
0.0
 40
55.0
  1
94
 50
90.0
 41
0.9
 72
     1
 11
1256.001841
 21
-333.0
 31
0.0
100
AcDbText
  0
LINE
  5
A6C
100
AcDbEntity
  8
SIZE
  6
CONTINUOUS
 62
    30
100
AcDbLine
 10
1271.001841
 20
-380.0
 30
0.0
 11
1271.001841
 21
-286.0
 31
0.0
  0
LINE
  5
A6D
100
AcDbEntity
  8
SIZE
  6
CONTINUOUS
 62
    30
100
AcDbLine
 10
1132.438235
 20
-62.0
 30
0.0
 11
1132.438235
 21
-370.0
 31
0.0
  0
POINT
  5
A6E
100
AcDbEntity
  8
DEFPOINTS
  6
CONTINUOUS
 62
     7
100
AcDbPoint
 10
1132.438235
 20
-380.0
 30
0.0
  0
LINE
  5
A6F
100
AcDbEntity
  8
SIZE
  6
CONTINUOUS
 62
    30
100
AcDbLine
 10
1132.438235
 20
-375.0
 30
0.0
 11
1132.438235
 21
-370.0
 31
0.0
  0
CIRCLE
  5
A70
100
AcDbEntity
  8
SIZE
  6
CONTINUOUS
 62
    30
100
AcDbCircle
 10
1132.438235
 20
-380.0
 30
0.0
 40
5.0
  0
LINE
  5
A71
100
AcDbEntity
  8
SIZE
  6
CONTINUOUS
 62
    30
100
AcDbLine
 10
1271.001841
 20
-385.0
 30
0.0
 11
1271.001841
 21
-390.0
 31
0.0
  0
CIRCLE
  5
A72
100
AcDbEntity
  8
SIZE
  6
CONTINUOUS
 62
    30
100
AcDbCircle
 10
1271.001841
 20
-380.0
 30
0.0
 40
5.0
  0
LINE
  5
A73
100
AcDbEntity
  8
SIZE
  6
CONTINUOUS
 62
    30
100
AcDbLine
 10
1271.001841
 20
-390.0
 30
0.0
 11
1271.001841
 21
-400.0
 31
0.0
  0
POINT
  5
A74
100
AcDbEntity
  8
DEFPOINTS
  6
CONTINUOUS
 62
     7
100
AcDbPoint
 10
1398.896134
 20
-400.0
 30
0.0
  0
LINE
  5
A75
100
AcDbEntity
  8
SIZE
  6
CONTINUOUS
 62
    30
100
AcDbLine
 10
1398.896134
 20
-405.0
 30
0.0
 11
1398.896134
 21
-410.0
 31
0.0
  0
CIRCLE
  5
A76
100
AcDbEntity
  8
SIZE
  6
CONTINUOUS
 62
    30
100
AcDbCircle
 10
1398.896134
 20
-400.0
 30
0.0
 40
5.0
  0
LINE
  5
A77
100
AcDbEntity
  8
SIZE
  6
CONTINUOUS
 62
    30
100
AcDbLine
 10
1398.896134
 20
-375.0
 30
0.0
 11
1398.896134
 21
-370.0
 31
0.0
  0
CIRCLE
  5
A78
100
AcDbEntity
  8
SIZE
  6
CONTINUOUS
 62
    30
100
AcDbCircle
 10
1398.896134
 20
-380.0
 30
0.0
 40
5.0
  0
LINE
  5
A79
100
AcDbEntity
  8
SIZE
  6
CONTINUOUS
 62
    30
100
AcDbLine
 10
1398.896134
 20
-380.0
 30
0.0
 11
1398.896134
 21
-400.0
 31
0.0
  0
LINE
  5
A7A
100
AcDbEntity
  8
SIZE
  6
CONTINUOUS
 62
    30
100
AcDbLine
 10
1398.896134
 20
-370.0
 30
0.0
 11
1398.896134
 21
-360.0
 31
0.0
  0
POINT
  5
A7B
100
AcDbEntity
  8
DEFPOINTS
  6
CONTINUOUS
 62
     7
100
AcDbPoint
 10
1398.896134
 20
-380.0
 30
0.0
  0
LINE
  5
A7C
100
AcDbEntity
  8
SIZE
  6
CONTINUOUS
 62
    30
100
AcDbLine
 10
1398.896134
 20
-375.0
 30
0.0
 11
1398.896134
 21
-370.0
 31
0.0
  0
CIRCLE
  5
A7D
100
AcDbEntity
  8
SIZE
  6
CONTINUOUS
 62
    30
100
AcDbCircle
 10
1398.896134
 20
-380.0
 30
0.0
 40
5.0
  0
TEXT
  5
A7E
100
AcDbEntity
  8
SIZE
  6
CONTINUOUS
 62
    30
100
AcDbText
 10
1256.001841
 20
-224.642857
 30
0.0
 40
55.0
  1
250
 50
90.0
 41
0.9
 72
     1
 11
1256.001841
 21
-161.0
 31
0.0
100
AcDbText
  0
TEXT
  5
A7F
100
AcDbEntity
  8
SIZE
  6
CONTINUOUS
 62
    30
100
AcDbText
 10
1117.438235
 20
-279.642857
 30
0.0
 40
55.0
  1
328
 50
90.0
 41
0.9
 72
     1
 11
1117.438235
 21
-216.0
 31
0.0
100
AcDbText
  0
LINE
  5
A80
100
AcDbEntity
  8
SIZE
  6
CONTINUOUS
 62
    30
100
AcDbLine
 10
1132.438235
 20
-57.0
 30
0.0
 11
1132.438235
 21
-62.0
 31
0.0
  0
CIRCLE
  5
A81
100
AcDbEntity
  8
SIZE
  6
CONTINUOUS
 62
    30
100
AcDbCircle
 10
1132.438235
 20
-52.0
 30
0.0
 40
5.0
  0
TEXT
  5
A82
100
AcDbEntity
  8
SIZE
  6
CONTINUOUS
 62
    30
100
AcDbText
 10
1383.896134
 20
-253.642857
 30
0.0
 40
55.0
  1
380
 50
90.0
 41
0.9
 72
     1
 11
1383.896134
 21
-190.0
 31
0.0
100
AcDbText
  0
LINE
  5
A83
100
AcDbEntity
  8
SIZE
  6
CONTINUOUS
 62
    30
100
AcDbLine
 10
1271.001841
 20
-276.0
 30
0.0
 11
1271.001841
 21
-46.0
 31
0.0
  0
LINE
  5
A84
100
AcDbEntity
  8
SIZE
  6
CONTINUOUS
 62
    30
100
AcDbLine
 10
1271.001841
 20
-281.0
 30
0.0
 11
1271.001841
 21
-276.0
 31
0.0
  0
CIRCLE
  5
A85
100
AcDbEntity
  8
SIZE
  6
CONTINUOUS
 62
    30
100
AcDbCircle
 10
1271.001841
 20
-286.0
 30
0.0
 40
5.0
  0
POINT
  5
A86
100
AcDbEntity
  8
DEFPOINTS
  6
CONTINUOUS
 62
     7
100
AcDbPoint
 10
1271.001841
 20
-286.0
 30
0.0
  0
LINE
  5
A87
100
AcDbEntity
  8
SIZE
  6
CONTINUOUS
 62
    30
100
AcDbLine
 10
1271.001841
 20
-281.0
 30
0.0
 11
1271.001841
 21
-276.0
 31
0.0
  0
CIRCLE
  5
A88
100
AcDbEntity
  8
SIZE
  6
CONTINUOUS
 62
    30
100
AcDbCircle
 10
1271.001841
 20
-286.0
 30
0.0
 40
5.0
  0
LINE
  5
A89
100
AcDbEntity
  8
SIZE
  6
CONTINUOUS
 62
    30
100
AcDbLine
 10
1271.001841
 20
-276.0
 30
0.0
 11
1271.001841
 21
-266.0
 31
0.0
  0
POINT
  5
A8A
100
AcDbEntity
  8
DEFPOINTS
  6
CONTINUOUS
 62
     7
100
AcDbPoint
 10
1271.001841
 20
-36.0
 30
0.0
  0
LINE
  5
A8B
100
AcDbEntity
  8
SIZE
  6
CONTINUOUS
 62
    30
100
AcDbLine
 10
1271.001841
 20
-41.0
 30
0.0
 11
1271.001841
 21
-46.0
 31
0.0
  0
CIRCLE
  5
A8C
100
AcDbEntity
  8
SIZE
  6
CONTINUOUS
 62
    30
100
AcDbCircle
 10
1271.001841
 20
-36.0
 30
0.0
 40
5.0
  0
LINE
  5
A8D
100
AcDbEntity
  8
SIZE
  6
CONTINUOUS
 62
    30
100
AcDbLine
 10
1398.896134
 20
-5.0
 30
0.0
 11
1398.896134
 21
-10.0
 31
0.0
  0
LINE
  5
A8E
100
AcDbEntity
  8
SIZE
  6
CONTINUOUS
 62
    30
100
AcDbLine
 10
1398.896134
 20
-10.0
 30
0.0
 11
1398.896134
 21
-20.0
 31
0.0
  0
LINE
  5
A8F
100
AcDbEntity
  8
SIZE
  6
CONTINUOUS
 62
    30
100
AcDbLine
 10
1398.896134
 20
-5.0
 30
0.0
 11
1398.896134
 21
-10.0
 31
0.0
  0
LINE
  5
A91
100
AcDbEntity
  8
SIZE
  6
CONTINUOUS
 62
    30
100
AcDbLine
 10
542.697419
 20
20.0
 30
0.0
 11
1428.896134
 21
20.0
 31
0.0
  0
LINE
  5
A92
100
AcDbEntity
  8
SIZE
  6
CONTINUOUS
 62
    30
100
AcDbLine
 10
492.499969
 20
0.0
 30
0.0
 11
1428.896134
 21
0.0
 31
0.0
  0
TEXT
  5
A93
100
AcDbEntity
  8
SIZE
  6
CONTINUOUS
 62
    30
100
AcDbText
 10
536.49997
 20
366.736311
 30
0.0
 40
55.0
  1
29
 41
0.9
 72
     1
 11
575.392827
 21
366.736311
 31
0.0
100
AcDbText
  0
LINE
  5
A94
100
AcDbEntity
  8
SIZE
  6
CONTINUOUS
 62
    30
100
AcDbLine
 10
511.499969
 20
351.736311
 30
0.0
 11
629.285684
 21
351.736311
 31
0.0
  0
LINE
  5
A95
100
AcDbEntity
  8
SIZE
  6
CONTINUOUS
 62
    30
100
AcDbLine
 10
95.499969
 20
247.418808
 30
0.0
 11
462.499969
 21
247.418808
 31
0.0
  0
TEXT
  5
A96
100
AcDbEntity
  8
NOTE
  6
CONTINUOUS
 62
     4
100
AcDbText
 10
-327.568688
 20
171.15755
 30
0.0
 40
64.0
  1
RL φ9.52
 41
0.9
100
AcDbText
  0
LINE
  5
A97
100
AcDbEntity
  8
DETAIL
  6
CONTINUOUS
 62
     5
100
AcDbLine
 10
5.69282
 20
0.0
 30
0.0
 11
-51.321536
 21
0.0
 31
0.0
  0
LINE
  5
A98
100
AcDbEntity
  8
SIZE
  6
CONTINUOUS
 62
    30
100
AcDbLine
 10
90.499969
 20
247.418808
 30
0.0
 11
95.499969
 21
247.418808
 31
0.0
  0
CIRCLE
  5
A99
100
AcDbEntity
  8
SIZE
  6
CONTINUOUS
 62
    30
100
AcDbCircle
 10
85.499969
 20
247.418808
 30
0.0
 40
5.0
  0
TEXT
  5
A9A
100
AcDbEntity
  8
SIZE
  6
CONTINUOUS
 62
    30
100
AcDbText
 10
-14.64283
 20
366.736311
 30
0.0
 40
55.0
  1
847
 41
0.9
 72
     1
 11
49.000027
 21
366.736311
 31
0.0
100
AcDbText
  0
TEXT
  5
A9B
100
AcDbEntity
  8
SIZE
  6
CONTINUOUS
 62
    30
100
AcDbText
 10
-61.142857
 20
483.512129
 30
0.0
 40
55.0
  1
998
 41
0.9
 72
     1
 11
2.5
 21
483.512129
 31
0.0
100
AcDbText
  0
LINE
  5
A9D
100
AcDbEntity
  8
SIZE
  6
CONTINUOUS
 62
    30
100
AcDbLine
 10
472.499969
 20
20.0
 30
0.0
 11
472.499969
 21
381.736311
 31
0.0
  0
TEXT
  5
A9E
100
AcDbEntity
  8
SIZE
  6
CONTINUOUS
 62
    30
100
AcDbText
 10
223.175076
 20
262.418808
 30
0.0
 40
55.0
  1
387
 41
0.9
 72
     1
 11
286.817933
 21
262.418808
 31
0.0
100
AcDbText
  0
TEXT
  5
A9F
100
AcDbEntity
  8
SIZE
  6
CONTINUOUS
 62
    30
100
AcDbText
 10
308.857112
 20
162.096965
 30
0.0
 40
55.0
  1
200
 41
0.9
 72
     1
 11
372.499969
 21
162.096965
 31
0.0
100
AcDbText
  0
LINE
  5
AA0
100
AcDbEntity
  8
SIZE
  6
CONTINUOUS
 62
    30
100
AcDbLine
 10
462.499969
 20
147.096965
 30
0.0
 11
282.499969
 21
147.096965
 31
0.0
  0
CIRCLE
  5
AA1
100
AcDbEntity
  8
SIZE
  6
CONTINUOUS
 62
    30
100
AcDbCircle
 10
180.499969
 20
147.096965
 30
0.0
 40
5.0
  0
CIRCLE
  5
AA2
100
AcDbEntity
  8
SIZE
  6
CONTINUOUS
 62
    30
100
AcDbCircle
 10
272.499969
 20
147.096965
 30
0.0
 40
5.0
  0
CIRCLE
  5
AA3
100
AcDbEntity
  8
SIZE
  6
CONTINUOUS
 62
    30
100
AcDbCircle
 10
272.499969
 20
147.096965
 30
0.0
 40
5.0
  0
LINE
  5
AA4
100
AcDbEntity
  8
SIZE
  6
CONTINUOUS
 62
    30
100
AcDbLine
 10
272.499969
 20
147.096965
 30
0.0
 11
180.499969
 21
147.096965
 31
0.0
  0
POINT
  5
AA5
100
AcDbEntity
  8
DEFPOINTS
  6
CONTINUOUS
 62
     7
100
AcDbPoint
 10
180.499969
 20
147.096965
 30
0.0
  0
LINE
  5
AA6
100
AcDbEntity
  8
SIZE
  6
CONTINUOUS
 62
    30
100
AcDbLine
 10
175.499969
 20
147.096965
 30
0.0
 11
170.499969
 21
147.096965
 31
0.0
  0
LINE
  5
AA7
100
AcDbEntity
  8
SIZE
  6
CONTINUOUS
 62
    30
100
AcDbLine
 10
170.499969
 20
147.096965
 30
0.0
 11
160.499969
 21
147.096965
 31
0.0
  0
LINE
  5
AA8
100
AcDbEntity
  8
SIZE
  6
CONTINUOUS
 62
    30
100
AcDbLine
 10
277.499969
 20
147.096965
 30
0.0
 11
282.499969
 21
147.096965
 31
0.0
  0
LINE
  5
AA9
100
AcDbEntity
  8
SIZE
  6
CONTINUOUS
 62
    30
100
AcDbLine
 10
282.499969
 20
147.096965
 30
0.0
 11
292.499969
 21
147.096965
 31
0.0
  0
POINT
  5
AAA
100
AcDbEntity
  8
DEFPOINTS
  6
CONTINUOUS
 62
     7
100
AcDbPoint
 10
272.499969
 20
147.096965
 30
0.0
  0
LINE
  5
AAB
100
AcDbEntity
  8
SIZE
  6
CONTINUOUS
 62
    30
100
AcDbLine
 10
277.499969
 20
147.096965
 30
0.0
 11
282.499969
 21
147.096965
 31
0.0
  0
TEXT
  5
AAC
100
AcDbEntity
  8
SIZE
  6
CONTINUOUS
 62
    30
100
AcDbText
 10
186.42854
 20
162.096965
 30
0.0
 40
55.0
  1
92
 41
0.9
 72
     1
 11
226.499969
 21
162.096965
 31
0.0
100
AcDbText
  0
CIRCLE
  5
AAD
100
AcDbEntity
  8
SIZE
  6
CONTINUOUS
 62
    30
100
AcDbCircle
 10
472.499969
 20
147.096965
 30
0.0
 40
5.0
  0
LINE
  5
AAE
100
AcDbEntity
  8
SIZE
  6
CONTINUOUS
 62
    30
100
AcDbLine
 10
472.499969
 20
20.0
 30
0.0
 11
472.499969
 21
177.096965
 31
0.0
  0
LINE
  5
AAF
100
AcDbEntity
  8
SIZE
  6
CONTINUOUS
 62
    30
100
AcDbLine
 10
472.499969
 20
20.0
 30
0.0
 11
472.499969
 21
277.418808
 31
0.0
  0
LINE
  5
AB0
100
AcDbEntity
  8
SIZE
  6
CONTINUOUS
 62
    30
100
AcDbLine
 10
476.49997
 20
38.498747
 30
0.0
 11
355.871345
 21
38.498747
 31
0.0
  0
TEXT
  5
AB1
100
AcDbEntity
  8
SIZE
  6
CONTINUOUS
 62
    30
100
AcDbText
 10
370.871345
 20
53.498747
 30
0.0
 40
55.0
  1
15
 41
0.9
 72
     1
 11
406.228488
 21
53.498747
 31
0.0
100
AcDbText
  0
POINT
  5
AB2
100
AcDbEntity
  8
DEFPOINTS
  6
CONTINUOUS
 62
     7
100
AcDbPoint
 10
472.697419
 20
0.0
 30
0.0
  0
POINT
  5
AB3
100
AcDbEntity
  8
DEFPOINTS
  6
CONTINUOUS
 62
     7
100
AcDbPoint
 10
522.697419
 20
20.0
 30
0.0
  0
LINE
  5
AB4
100
AcDbEntity
  8
SERVICESPACE
  6
DASHDOT
 62
     2
100
AcDbLine
 10
522.499969
 20
20.0
 30
0.0
 11
472.499969
 21
20.0
 31
0.0
  0
POINT
  5
AB5
100
AcDbEntity
  8
DEFPOINTS
  6
CONTINUOUS
 62
     7
100
AcDbPoint
 10
472.499969
 20
0.0
 30
0.0
  0
POINT
  5
AB6
100
AcDbEntity
  8
DEFPOINTS
  6
CONTINUOUS
 62
     7
100
AcDbPoint
 10
472.499969
 20
0.0
 30
0.0
  0
POINT
  5
AB7
100
AcDbEntity
  8
DEFPOINTS
  6
CONTINUOUS
 62
     7
100
AcDbPoint
 10
472.499969
 20
0.0
 30
0.0
  0
POINT
  5
AB8
100
AcDbEntity
  8
DEFPOINTS
  6
CONTINUOUS
 62
     7
100
AcDbPoint
 10
472.499969
 20
0.0
 30
0.0
  0
LINE
  5
AB9
100
AcDbEntity
  8
SIZE
  6
CONTINUOUS
 62
    30
100
AcDbLine
 10
467.499969
 20
147.096965
 30
0.0
 11
462.499969
 21
147.096965
 31
0.0
  0
POINT
  5
ABA
100
AcDbEntity
  8
DEFPOINTS
  6
CONTINUOUS
 62
     7
100
AcDbPoint
 10
472.499969
 20
0.0
 30
0.0
  0
POINT
  5
ABB
100
AcDbEntity
  8
DEFPOINTS
  6
CONTINUOUS
 62
     7
100
AcDbPoint
 10
486.49997
 20
38.498747
 30
0.0
  0
LINE
  5
ABC
100
AcDbEntity
  8
SIZE
  6
CONTINUOUS
 62
    30
100
AcDbLine
 10
481.49997
 20
38.498747
 30
0.0
 11
476.49997
 21
38.498747
 31
0.0
  0
CIRCLE
  5
ABD
100
AcDbEntity
  8
SIZE
  6
CONTINUOUS
 62
    30
100
AcDbCircle
 10
486.49997
 20
38.498747
 30
0.0
 40
5.0
  0
LINE
  5
ABE
100
AcDbEntity
  8
SIZE
  6
CONTINUOUS
 62
    30
100
AcDbLine
 10
506.499969
 20
38.498747
 30
0.0
 11
511.499969
 21
38.498747
 31
0.0
  0
CIRCLE
  5
ABF
100
AcDbEntity
  8
SIZE
  6
CONTINUOUS
 62
    30
100
AcDbCircle
 10
501.499969
 20
38.498747
 30
0.0
 40
5.0
  0
LINE
  5
AC0
100
AcDbEntity
  8
SIZE
  6
CONTINUOUS
 62
    30
100
AcDbLine
 10
501.499969
 20
38.498747
 30
0.0
 11
486.49997
 21
38.498747
 31
0.0
  0
LINE
  5
AC1
100
AcDbEntity
  8
SIZE
  6
CONTINUOUS
 62
    30
100
AcDbLine
 10
511.499969
 20
38.498747
 30
0.0
 11
521.499969
 21
38.498747
 31
0.0
  0
POINT
  5
AC2
100
AcDbEntity
  8
DEFPOINTS
  6
CONTINUOUS
 62
     7
100
AcDbPoint
 10
472.499969
 20
247.418808
 30
0.0
  0
LINE
  5
AC3
100
AcDbEntity
  8
SIZE
  6
CONTINUOUS
 62
    30
100
AcDbLine
 10
467.499969
 20
247.418808
 30
0.0
 11
462.499969
 21
247.418808
 31
0.0
  0
CIRCLE
  5
AC4
100
AcDbEntity
  8
SIZE
  6
CONTINUOUS
 62
    30
100
AcDbCircle
 10
472.499969
 20
247.418808
 30
0.0
 40
5.0
  0
LINE
  5
AC5
100
AcDbEntity
  8
SIZE
  6
CONTINUOUS
 62
    30
100
AcDbLine
 10
462.499969
 20
351.736311
 30
0.0
 11
452.499969
 21
351.736311
 31
0.0
  0
LINE
  5
AC6
100
AcDbEntity
  8
SIZE
  6
CONTINUOUS
 62
    30
100
AcDbLine
 10
467.499969
 20
351.736311
 30
0.0
 11
462.499969
 21
351.736311
 31
0.0
  0
CIRCLE
  5
AC7
100
AcDbEntity
  8
SIZE
  6
CONTINUOUS
 62
    30
100
AcDbCircle
 10
472.499969
 20
351.736311
 30
0.0
 40
5.0
  0
POINT
  5
AC8
100
AcDbEntity
  8
DEFPOINTS
  6
CONTINUOUS
 62
     7
100
AcDbPoint
 10
472.499969
 20
351.736311
 30
0.0
  0
LINE
  5
AC9
100
AcDbEntity
  8
SIZE
  6
CONTINUOUS
 62
    30
100
AcDbLine
 10
506.499969
 20
351.736311
 30
0.0
 11
511.499969
 21
351.736311
 31
0.0
  0
CIRCLE
  5
ACA
100
AcDbEntity
  8
SIZE
  6
CONTINUOUS
 62
    30
100
AcDbCircle
 10
501.499969
 20
351.736311
 30
0.0
 40
5.0
  0
LINE
  5
ACB
100
AcDbEntity
  8
SIZE
  6
CONTINUOUS
 62
    30
100
AcDbLine
 10
467.499969
 20
351.736311
 30
0.0
 11
462.499969
 21
351.736311
 31
0.0
  0
CIRCLE
  5
ACC
100
AcDbEntity
  8
SIZE
  6
CONTINUOUS
 62
    30
100
AcDbCircle
 10
472.499969
 20
351.736311
 30
0.0
 40
5.0
  0
LINE
  5
ACD
100
AcDbEntity
  8
SIZE
  6
CONTINUOUS
 62
    30
100
AcDbLine
 10
472.499969
 20
351.736311
 30
0.0
 11
501.499969
 21
351.736311
 31
0.0
  0
POINT
  5
ACE
100
AcDbEntity
  8
DEFPOINTS
  6
CONTINUOUS
 62
     7
100
AcDbPoint
 10
501.499969
 20
468.512129
 30
0.0
  0
LINE
  5
ACF
100
AcDbEntity
  8
SIZE
  6
CONTINUOUS
 62
    30
100
AcDbLine
 10
496.499969
 20
468.512129
 30
0.0
 11
491.499969
 21
468.512129
 31
0.0
  0
CIRCLE
  5
AD0
100
AcDbEntity
  8
SIZE
  6
CONTINUOUS
 62
    30
100
AcDbCircle
 10
501.499969
 20
468.512129
 30
0.0
 40
5.0
  0
LINE
  5
AD1
100
AcDbEntity
  8
NOTE
  6
CONTINUOUS
 62
     4
100
AcDbLine
 10
758.857106
 20
501.470529
 30
0.0
 11
1189.447049
 21
501.470529
 31
0.0
  0
TEXT
  5
AD2
100
AcDbEntity
  8
NOTE
  6
CONTINUOUS
 62
     4
100
AcDbText
 10
774.859215
 20
513.697859
 30
0.0
 40
64.0
  1
48-%%C3打ﾇｷ
 41
0.9
100
AcDbText
  0
TEXT
  5
AD3
100
AcDbEntity
  8
SIZE
  6
CONTINUOUS
 62
    30
100
AcDbText
 10
954.443044
 20
32.740187
 30
0.0
 40
55.0
  1
50×4＝200
 50
90.0
 41
0.9
 72
     1
 11
954.443044
 21
226.49733
 31
0.0
100
AcDbText
  0
TEXT
  5
AD4
100
AcDbEntity
  8
SIZE
  6
CONTINUOUS
 62
    30
100
AcDbText
 10
1383.896134
 20
61.6
 30
0.0
 40
55.0
  1
20以上
 50
90.0
 41
0.9
 72
     1
 11
1383.896134
 21
161.542857
 31
0.0
100
AcDbText
  0
LINE
  5
AD5
100
AcDbEntity
  8
SIZE
  6
CONTINUOUS
 62
    30
100
AcDbLine
 10
1398.896134
 20
30.0
 30
0.0
 11
1398.896134
 21
283.085714
 31
0.0
  0
POINT
  5
AD6
100
AcDbEntity
  8
DEFPOINTS
  6
CONTINUOUS
 62
     7
100
AcDbPoint
 10
1398.896134
 20
0.0
 30
0.0
  0
LINE
  5
AD7
100
AcDbEntity
  8
SIZE
  6
CONTINUOUS
 62
    30
100
AcDbLine
 10
1398.896134
 20
25.0
 30
0.0
 11
1398.896134
 21
30.0
 31
0.0
  0
CIRCLE
  5
AD8
100
AcDbEntity
  8
SIZE
  6
CONTINUOUS
 62
    30
100
AcDbCircle
 10
1398.896134
 20
20.0
 30
0.0
 40
5.0
  0
LINE
  5
AD9
100
AcDbEntity
  8
SIZE
  6
CONTINUOUS
 62
    30
100
AcDbLine
 10
1398.896134
 20
0.0
 30
0.0
 11
1398.896134
 21
20.0
 31
0.0
  0
ENDSEC
  0
SECTION
  2
OBJECTS
  0
DICTIONARY
  5
3E0
100
AcDbDictionary
  3
ACAD_GROUP
350
3E1
  3
ACAD_MLINESTYLE
350
3EF
  0
DICTIONARY
  5
3E1
102
{ACAD_REACTORS
330
3E0
102
}
100
AcDbDictionary
  0
DICTIONARY
  5
3EF
102
{ACAD_REACTORS
330
3E0
102
}
100
AcDbDictionary
  3
STANDARD
350
3F0
  0
MLINESTYLE
  5
3F0
102
{ACAD_REACTORS
330
3EF
102
}
100
AcDbMlineStyle
  2
STANDARD
 70
     0
  3

 62
   256
 51
90.0
 52
90.0
 71
     2
 49
0.5
 62
   256
  6
BYLAYER
 49
-0.5
 62
   256
  6
BYLAYER
  0
ENDSEC
  0
EOF
