  0
SECTION
  2
HEADER
  9
$ACADVER
  1
AC1014
  9
$ACADMAINTVER
 70
     0
  9
$DWGCODEPAGE
  3
ANSI_932
  9
$INSBASE
 10
0.0
 20
0.0
 30
0.0
  9
$EXTMIN
 10
-1974.56423
 20
-1151.859226
 30
0.0
  9
$EXTMAX
 10
1250.234429
 20
1322.391044
 30
0.0
  9
$LIMMIN
 10
-4267.152221
 20
-2696.08321
  9
$LIMMAX
 10
7190.717423
 20
5141.155364
  9
$ORTHOMODE
 70
     0
  9
$REGENMODE
 70
     1
  9
$FILLMODE
 70
     1
  9
$QTEXTMODE
 70
     0
  9
$MIRRTEXT
 70
     0
  9
$DRAGMODE
 70
     2
  9
$LTSCALE
 40
20.0
  9
$OSMODE
 70
    39
  9
$ATTMODE
 70
     1
  9
$TEXTSIZE
 40
64.0
  9
$TRACEWID
 40
0.05
  9
$TEXTSTYLE
  7
STANDARD
  9
$CLAYER
  8
SIZE
  9
$CELTYPE
  6
CONTINUOUS
  9
$CECOLOR
 62
     7
  9
$CELTSCALE
 40
1.0
  9
$DELOBJ
 70
     1
  9
$DISPSILH
 70
     0
  9
$DIMSCALE
 40
1.0
  9
$DIMASZ
 40
10.0
  9
$DIMEXO
 40
20.0
  9
$DIMDLI
 40
200.0
  9
$DIMRND
 40
0.0
  9
$DIMDLE
 40
0.0
  9
$DIMEXE
 40
30.0
  9
$DIMTP
 40
0.0
  9
$DIMTM
 40
0.0
  9
$DIMTXT
 40
55.0
  9
$DIMCEN
 40
0.0
  9
$DIMTSZ
 40
0.0
  9
$DIMTOL
 70
     0
  9
$DIMLIM
 70
     0
  9
$DIMTIH
 70
     0
  9
$DIMTOH
 70
     0
  9
$DIMSE1
 70
     0
  9
$DIMSE2
 70
     0
  9
$DIMTAD
 70
     1
  9
$DIMZIN
 70
     8
  9
$DIMBLK
  1

  9
$DIMASO
 70
     1
  9
$DIMSHO
 70
     0
  9
$DIMPOST
  1

  9
$DIMAPOST
  1

  9
$DIMALT
 70
     0
  9
$DIMALTD
 70
     2
  9
$DIMALTF
 40
25.4
  9
$DIMLFAC
 40
1.0
  9
$DIMTOFL
 70
     1
  9
$DIMTVP
 40
0.0
  9
$DIMTIX
 70
     1
  9
$DIMSOXD
 70
     0
  9
$DIMSAH
 70
     1
  9
$DIMBLK1
  1
_DOTBLANK
  9
$DIMBLK2
  1
_DOTBLANK
  9
$DIMSTYLE
  2
STANDARD
  9
$DIMCLRD
 70
     0
  9
$DIMCLRE
 70
     0
  9
$DIMCLRT
 70
     0
  9
$DIMTFAC
 40
1.0
  9
$DIMGAP
 40
0.09
  9
$DIMJUST
 70
     0
  9
$DIMSD1
 70
     0
  9
$DIMSD2
 70
     0
  9
$DIMTOLJ
 70
     1
  9
$DIMTZIN
 70
     0
  9
$DIMALTZ
 70
     0
  9
$DIMALTTZ
 70
     0
  9
$DIMFIT
 70
     3
  9
$DIMUPT
 70
     0
  9
$DIMUNIT
 70
     2
  9
$DIMDEC
 70
     4
  9
$DIMTDEC
 70
     4
  9
$DIMALTU
 70
     2
  9
$DIMALTTD
 70
     2
  9
$DIMTXSTY
  7
STANDARD
  9
$DIMAUNIT
 70
     0
  9
$LUNITS
 70
     2
  9
$LUPREC
 70
     4
  9
$SKETCHINC
 40
0.1
  9
$FILLETRAD
 40
30.0
  9
$AUNITS
 70
     1
  9
$AUPREC
 70
     3
  9
$MENU
  1
ACAD
  9
$ELEVATION
 40
0.0
  9
$PELEVATION
 40
0.0
  9
$THICKNESS
 40
0.0
  9
$LIMCHECK
 70
     0
  9
$BLIPMODE
 70
     0
  9
$CHAMFERA
 40
0.0
  9
$CHAMFERB
 40
0.0
  9
$CHAMFERC
 40
0.0
  9
$CHAMFERD
 40
0.0
  9
$SKPOLY
 70
     0
  9
$TDCREATE
 40
2450330.439930995
  9
$TDUPDATE
 40
2454246.567305000
  9
$TDINDWG
 40
3.5417920023
  9
$TDUSRTIMER
 40
3.5417920023
  9
$USRTIMER
 70
     1
  9
$ANGBASE
 50
0.0
  9
$ANGDIR
 70
     0
  9
$PDMODE
 70
     3
  9
$PDSIZE
 40
-2.0
  9
$PLINEWID
 40
0.0
  9
$COORDS
 70
     2
  9
$SPLFRAME
 70
     0
  9
$SPLINETYPE
 70
     6
  9
$SPLINESEGS
 70
     8
  9
$ATTDIA
 70
     0
  9
$ATTREQ
 70
     1
  9
$HANDLING
 70
     1
  9
$HANDSEED
  5
A6F
  9
$SURFTAB1
 70
     6
  9
$SURFTAB2
 70
     6
  9
$SURFTYPE
 70
     6
  9
$SURFU
 70
     6
  9
$SURFV
 70
     6
  9
$UCSNAME
  2

  9
$UCSORG
 10
0.0
 20
0.0
 30
0.0
  9
$UCSXDIR
 10
1.0
 20
0.0
 30
0.0
  9
$UCSYDIR
 10
0.0
 20
1.0
 30
0.0
  9
$PUCSNAME
  2

  9
$PUCSORG
 10
0.0
 20
0.0
 30
0.0
  9
$PUCSXDIR
 10
1.0
 20
0.0
 30
0.0
  9
$PUCSYDIR
 10
0.0
 20
1.0
 30
0.0
  9
$USERI1
 70
     0
  9
$USERI2
 70
     0
  9
$USERI3
 70
     0
  9
$USERI4
 70
     0
  9
$USERI5
 70
     0
  9
$USERR1
 40
20.0
  9
$USERR2
 40
0.0
  9
$USERR3
 40
0.0
  9
$USERR4
 40
0.0
  9
$USERR5
 40
0.0
  9
$WORLDVIEW
 70
     1
  9
$SHADEDGE
 70
     3
  9
$SHADEDIF
 70
    70
  9
$TILEMODE
 70
     1
  9
$MAXACTVP
 70
    48
  9
$PINSBASE
 10
0.0
 20
0.0
 30
0.0
  9
$PLIMCHECK
 70
     0
  9
$PEXTMIN
 10
1.000000E+20
 20
1.000000E+20
 30
1.000000E+20
  9
$PEXTMAX
 10
-1.000000E+20
 20
-1.000000E+20
 30
-1.000000E+20
  9
$PLIMMIN
 10
0.0
 20
0.0
  9
$PLIMMAX
 10
12.0
 20
9.0
  9
$UNITMODE
 70
     0
  9
$VISRETAIN
 70
     1
  9
$PLINEGEN
 70
     0
  9
$PSLTSCALE
 70
     1
  9
$TREEDEPTH
 70
  3020
  9
$PICKSTYLE
 70
     1
  9
$CMLSTYLE
  2
STANDARD
  9
$CMLJUST
 70
     0
  9
$CMLSCALE
 40
1.0
  9
$PROXYGRAPHICS
 70
     1
  9
$MEASUREMENT
 70
     0
  0
ENDSEC
  0
SECTION
  2
CLASSES
  0
ENDSEC
  0
SECTION
  2
TABLES
  0
TABLE
  2
VPORT
  5
3B8
100
AcDbSymbolTable
 70
     3
  0
VPORT
  5
A6E
100
AcDbSymbolTableRecord
100
AcDbViewportTableRecord
  2
*ACTIVE
 70
     0
 10
0.0
 20
0.0
 11
1.0
 21
1.0
 12
1461.782601
 22
1331.287491
 13
0.0
 23
0.0
 14
50.0
 24
50.0
 15
100.0
 25
100.0
 16
0.0
 26
0.0
 36
1.0
 17
0.0
 27
0.0
 37
0.0
 40
8054.741402
 41
1.4225
 42
50.0
 43
0.0
 44
0.0
 50
0.0
 51
0.0
 71
     0
 72
  1000
 73
     1
 74
     0
 75
     0
 76
     0
 77
     0
 78
     0
  0
ENDTAB
  0
TABLE
  2
LTYPE
  5
3B5
100
AcDbSymbolTable
 70
     2
  0
LTYPE
  5
3C2
100
AcDbSymbolTableRecord
100
AcDbLinetypeTableRecord
  2
BYBLOCK
 70
     0
  3

 72
    65
 73
     0
 40
0.0
  0
LTYPE
  5
3C3
100
AcDbSymbolTableRecord
100
AcDbLinetypeTableRecord
  2
BYLAYER
 70
     0
  3

 72
    65
 73
     0
 40
0.0
  0
LTYPE
  5
3C4
100
AcDbSymbolTableRecord
100
AcDbLinetypeTableRecord
  2
CONTINUOUS
 70
     0
  3
実線
 72
    65
 73
     0
 40
0.0
  0
LTYPE
  5
3D0
100
AcDbSymbolTableRecord
100
AcDbLinetypeTableRecord
  2
DASHDOT
 70
     0
  3
____ _ ____ _ ____ _ ____ _ ____ _ ____ _ ____
 72
    65
 73
     4
 40
5.5
 49
4.0
 74
     0
 49
-0.6
 74
     0
 49
0.3
 74
     0
 49
-0.6
 74
     0
  0
ENDTAB
  0
TABLE
  2
LAYER
  5
3B2
100
AcDbSymbolTable
 70
    12
  0
LAYER
  5
3BE
100
AcDbSymbolTableRecord
100
AcDbLayerTableRecord
  2
0
 70
     0
 62
     7
  6
CONTINUOUS
  0
LAYER
  5
3CF
100
AcDbSymbolTableRecord
100
AcDbLayerTableRecord
  2
SIZE
 70
     0
 62
    30
  6
CONTINUOUS
  0
LAYER
  5
3D1
100
AcDbSymbolTableRecord
100
AcDbLayerTableRecord
  2
OUTLINE
 70
     0
 62
     3
  6
CONTINUOUS
  0
LAYER
  5
3D2
100
AcDbSymbolTableRecord
100
AcDbLayerTableRecord
  2
DETAIL
 70
     0
 62
     5
  6
CONTINUOUS
  0
LAYER
  5
3D3
100
AcDbSymbolTableRecord
100
AcDbLayerTableRecord
  2
BASIS
 70
     0
 62
     6
  6
DASHDOT
  0
LAYER
  5
3D4
100
AcDbSymbolTableRecord
100
AcDbLayerTableRecord
  2
NOTE
 70
     0
 62
     4
  6
CONTINUOUS
  0
LAYER
  5
3D5
100
AcDbSymbolTableRecord
100
AcDbLayerTableRecord
  2
ARRANGE
 70
     0
 62
     1
  6
CONTINUOUS
  0
LAYER
  5
3D6
100
AcDbSymbolTableRecord
100
AcDbLayerTableRecord
  2
FIX
 70
     0
 62
    11
  6
CONTINUOUS
  0
LAYER
  5
3D7
100
AcDbSymbolTableRecord
100
AcDbLayerTableRecord
  2
SERVICESPACE
 70
     0
 62
     2
  6
DASHDOT
  0
LAYER
  5
3D8
100
AcDbSymbolTableRecord
100
AcDbLayerTableRecord
  2
ETC
 70
     0
 62
    61
  6
CONTINUOUS
  0
LAYER
  5
3D9
100
AcDbSymbolTableRecord
100
AcDbLayerTableRecord
  2
SYMBOLLINE
 70
     0
 62
    15
  6
CONTINUOUS
  0
LAYER
  5
3DA
100
AcDbSymbolTableRecord
100
AcDbLayerTableRecord
  2
DEFPOINTS
 70
     0
 62
     7
  6
CONTINUOUS
  0
ENDTAB
  0
TABLE
  2
STYLE
  5
3B3
100
AcDbSymbolTable
 70
     2
  0
STYLE
  5
3BF
100
AcDbSymbolTableRecord
100
AcDbTextStyleTableRecord
  2
STANDARD
 70
     0
 40
0.0
 41
0.9
 50
0.0
 71
     0
 42
64.0
  3
SIMPLEX
  4
BIGFONT
  0
STYLE
  5
3DB
100
AcDbSymbolTableRecord
100
AcDbTextStyleTableRecord
  2
STANDARD1
 70
     0
 40
0.0
 41
1.0
 50
0.0
 71
     0
 42
64.0
  3
MONOTXT
  4
BIGFONT
  0
ENDTAB
  0
TABLE
  2
VIEW
  5
3B6
100
AcDbSymbolTable
 70
     1
  0
VIEW
  5
3DC
100
AcDbSymbolTableRecord
100
AcDbViewTableRecord
  2
ALL
 70
     0
 40
9000.0
 10
241.506647
 20
0.0
 41
12483.01
 11
0.0
 21
0.0
 31
1.0
 12
0.0
 22
0.0
 32
0.0
 42
50.0
 43
0.0
 44
0.0
 50
0.0
 71
     0
  0
ENDTAB
  0
TABLE
  2
UCS
  5
3B7
100
AcDbSymbolTable
 70
     0
  0
ENDTAB
  0
TABLE
  2
APPID
  5
3B9
100
AcDbSymbolTable
 70
     1
  0
APPID
  5
3C0
100
AcDbSymbolTableRecord
100
AcDbRegAppTableRecord
  2
ACAD
 70
     0
  0
ENDTAB
  0
TABLE
  2
DIMSTYLE
  5
3BA
100
AcDbSymbolTable
 70
     1
  0
DIMSTYLE
105
3DD
100
AcDbSymbolTableRecord
100
AcDbDimStyleTableRecord
  2
STANDARD
 70
     0
  3

  4

  5

  6

  7

 40
1.0
 41
0.18
 42
0.0625
 43
0.38
 44
0.18
 45
0.0
 46
0.0
 47
0.0
 48
0.0
140
0.18
141
0.09
142
0.0
143
25.4
144
1.0
145
0.0
146
1.0
147
0.09
 71
     0
 72
     0
 73
     1
 74
     1
 75
     0
 76
     0
 77
     0
 78
     0
170
     0
171
     2
172
     0
173
     0
174
     0
175
     0
176
     0
177
     0
178
     0
270
     2
271
     4
272
     4
273
     2
274
     2
340
3BF
275
     0
280
     0
281
     0
282
     0
283
     1
284
     0
285
     0
286
     0
287
     3
288
     0
  0
ENDTAB
  0
TABLE
  2
BLOCK_RECORD
  5
3B1
100
AcDbSymbolTable
 70
     4
  0
BLOCK_RECORD
  5
3C8
100
AcDbSymbolTableRecord
100
AcDbBlockTableRecord
  2
*MODEL_SPACE
  0
BLOCK_RECORD
  5
3C5
100
AcDbSymbolTableRecord
100
AcDbBlockTableRecord
  2
*PAPER_SPACE
  0
BLOCK_RECORD
  5
3E1
100
AcDbSymbolTableRecord
100
AcDbBlockTableRecord
  2
$MODEL_SPACE
  0
BLOCK_RECORD
  5
3E3
100
AcDbSymbolTableRecord
100
AcDbBlockTableRecord
  2
$PAPER_SPACE
  0
BLOCK_RECORD
  5
3E5
100
AcDbSymbolTableRecord
100
AcDbBlockTableRecord
  2
_DOTBLANK
  0
BLOCK_RECORD
  5
3E8
100
AcDbSymbolTableRecord
100
AcDbBlockTableRecord
  2
A$C4A8667AF
  0
ENDTAB
  0
ENDSEC
  0
SECTION
  2
BLOCKS
  0
BLOCK
  5
3C9
100
AcDbEntity
  8
0
100
AcDbBlockBegin
  2
*MODEL_SPACE
 70
     0
 10
0.0
 20
0.0
 30
0.0
  3
*MODEL_SPACE
  1

  0
ENDBLK
  5
3CA
100
AcDbEntity
  8
0
100
AcDbBlockEnd
  0
BLOCK
  5
3C6
100
AcDbEntity
 67
     1
  8
0
100
AcDbBlockBegin
  2
*PAPER_SPACE
 70
     0
 10
0.0
 20
0.0
 30
0.0
  3
*PAPER_SPACE
  1

  0
ENDBLK
  5
3C7
100
AcDbEntity
 67
     1
  8
0
100
AcDbBlockEnd
  0
BLOCK
  5
3E2
100
AcDbEntity
  8
0
100
AcDbBlockBegin
  2
$MODEL_SPACE
 70
     0
 10
0.0
 20
0.0
 30
0.0
  3
$MODEL_SPACE
  1

  0
ENDBLK
  5
393
100
AcDbEntity
  8
0
100
AcDbBlockEnd
  0
BLOCK
  5
3E4
100
AcDbEntity
  8
0
100
AcDbBlockBegin
  2
$PAPER_SPACE
 70
     0
 10
0.0
 20
0.0
 30
0.0
  3
$PAPER_SPACE
  1

  0
ENDBLK
  5
390
100
AcDbEntity
  8
0
100
AcDbBlockEnd
  0
BLOCK
  5
3E6
100
AcDbEntity
  8
0
100
AcDbBlockBegin
  2
_DOTBLANK
 70
     0
 10
0.0
 20
0.0
 30
0.0
  3
_DOTBLANK
  1

  0
CIRCLE
  5
32
100
AcDbEntity
  8
0
  6
CONTINUOUS
 62
     7
100
AcDbCircle
 10
0.0
 20
0.0
 30
0.0
 40
0.5
  0
LINE
  5
33
100
AcDbEntity
  8
0
  6
CONTINUOUS
 62
     7
100
AcDbLine
 10
-0.5
 20
0.0
 30
0.0
 11
-1.0
 21
0.0
 31
0.0
  0
ENDBLK
  5
34
100
AcDbEntity
  8
0
100
AcDbBlockEnd
  0
BLOCK
  5
72A
100
AcDbEntity
  8
0
 62
     7
100
AcDbBlockBegin
  2
A$C4A8667AF
 70
     0
 10
0.0
 20
0.0
 30
0.0
  3
A$C4A8667AF
  1

  0
LINE
  5
3E9
100
AcDbEntity
  8
SIZE
  6
CONTINUOUS
 62
    30
100
AcDbLine
 10
1368.937783
 20
30.000003
 30
0.0
 11
2578.937783
 21
30.000003
 31
0.0
  0
LINE
  5
3EA
100
AcDbEntity
  8
SIZE
  6
CONTINUOUS
 62
    30
100
AcDbLine
 10
1498.937783
 20
149.241537
 30
0.0
 11
2478.937783
 21
149.241537
 31
0.0
  0
LINE
  5
3EB
100
AcDbEntity
  8
SIZE
  6
CONTINUOUS
 62
    30
100
AcDbLine
 10
1418.937783
 20
2245.057752
 30
0.0
 11
2528.937783
 21
2245.057752
 31
0.0
  0
LINE
  5
3EC
100
AcDbEntity
  8
SIZE
  6
CONTINUOUS
 62
    30
100
AcDbLine
 10
1358.937783
 20
2129.658609
 30
0.0
 11
2588.937783
 21
2129.658609
 31
0.0
  0
TEXT
  5
3ED
100
AcDbEntity
  8
SIZE
  6
CONTINUOUS
 62
    30
100
AcDbText
 10
1622.016355
 20
2040.62266
 30
0.0
 40
55.0
  1
1204(吊りボルトピッチ)
 41
0.9
 72
     1
 11
1973.937783
 21
2040.62266
 31
0.0
100
AcDbText
  0
LINE
  5
3EE
100
AcDbEntity
  8
SIZE
  6
CONTINUOUS
 62
    30
100
AcDbLine
 10
1381.937783
 20
2021.217898
 30
0.0
 11
2565.937783
 21
2021.217898
 31
0.0
  0
LINE
  5
3EF
100
AcDbEntity
  8
SIZE
  6
CONTINUOUS
 62
    30
100
AcDbLine
 10
1459.937783
 20
1902.14849
 30
0.0
 11
2489.937783
 21
1902.14849
 31
0.0
  0
LINE
  5
3F0
100
AcDbEntity
  8
SIZE
  6
CONTINUOUS
 62
    30
100
AcDbLine
 10
1548.937783
 20
261.434153
 30
0.0
 11
2428.937783
 21
261.434153
 31
0.0
  0
LINE
  5
3F1
100
AcDbEntity
  8
SIZE
  6
CONTINUOUS
 62
    30
100
AcDbLine
 10
1484.937783
 20
1812.675499
 30
0.0
 11
2464.937783
 21
1812.675499
 31
0.0
  0
LINE
  5
3F2
100
AcDbEntity
  8
SERVICESPACE
  6
DASHDOT
 62
     2
100
AcDbLine
 10
708.937783
 20
1624.201202
 30
0.0
 11
2588.937783
 21
1624.201202
 31
0.0
  0
LINE
  5
3F3
100
AcDbEntity
  8
SERVICESPACE
  6
DASHDOT
 62
     2
100
AcDbLine
 10
2588.937783
 20
1254.201202
 30
0.0
 11
1358.937783
 21
629.201202
 31
0.0
  0
LINE
  5
3F4
100
AcDbEntity
  8
SERVICESPACE
  6
DASHDOT
 62
     2
100
AcDbLine
 10
1358.937783
 20
1254.201202
 30
0.0
 11
2588.937783
 21
629.201202
 31
0.0
  0
LINE
  5
3F5
100
AcDbEntity
  8
NOTE
  6
CONTINUOUS
 62
     4
100
AcDbLine
 10
1408.937783
 20
1066.201202
 30
0.0
 11
1656.971872
 21
1420.840397
 31
0.0
  0
TEXT
  5
3F6
100
AcDbEntity
  8
SIZE
  6
CONTINUOUS
 62
    30
100
AcDbText
 10
1608.686718
 20
402.313611
 30
0.0
 40
55.0
  1
50
 41
0.9
 72
     1
 11
1648.758146
 21
402.313611
 31
0.0
100
AcDbText
  0
LINE
  5
3F7
100
AcDbEntity
  8
SIZE
  6
CONTINUOUS
 62
    30
100
AcDbLine
 10
1593.686717
 20
387.313611
 30
0.0
 11
1703.829575
 21
387.313611
 31
0.0
  0
TEXT
  5
3F8
100
AcDbEntity
  8
SIZE
  6
CONTINUOUS
 62
    30
100
AcDbText
 10
1613.937784
 20
541.794623
 30
0.0
 40
55.0
  1
50
 41
0.9
 72
     1
 11
1654.009212
 21
541.794623
 31
0.0
100
AcDbText
  0
LINE
  5
3F9
100
AcDbEntity
  8
SIZE
  6
CONTINUOUS
 62
    30
100
AcDbLine
 10
1588.937783
 20
526.794623
 30
0.0
 11
1709.08064
 21
526.794623
 31
0.0
  0
TEXT
  5
3FA
100
AcDbEntity
  8
NOTE
  6
CONTINUOUS
 62
     4
100
AcDbText
 10
1447.700492
 20
741.946861
 30
0.0
 40
64.0
  1
下部サービススペース
 41
0.8
100
AcDbText
  0
TEXT
  5
3FB
100
AcDbEntity
  8
NOTE
  6
CONTINUOUS
 62
     4
100
AcDbText
 10
1453.564669
 20
821.072308
 30
0.0
 40
64.0
  1
補助電気ヒータ・熱交換器用
 41
0.8
100
AcDbText
  0
LINE
  5
3FC
100
AcDbEntity
  8
SERVICESPACE
  6
DASHDOT
 62
     2
100
AcDbLine
 10
2588.937783
 20
1254.201202
 30
0.0
 11
1358.937783
 21
1254.201202
 31
0.0
  0
LINE
  5
3FD
100
AcDbEntity
  8
SERVICESPACE
  6
DASHDOT
 62
     2
100
AcDbLine
 10
2588.937783
 20
629.201202
 30
0.0
 11
1358.937783
 21
629.201202
 31
0.0
  0
LINE
  5
3FE
100
AcDbEntity
  8
DETAIL
  6
CONTINUOUS
 62
     5
100
AcDbLine
 10
1408.937783
 20
1624.201202
 30
0.0
 11
2538.937783
 21
1624.201202
 31
0.0
  0
LINE
  5
3FF
100
AcDbEntity
  8
OUTLINE
  6
CONTINUOUS
 62
     3
100
AcDbLine
 10
1408.937783
 20
1624.201202
 30
0.0
 11
2538.937783
 21
1624.201202
 31
0.0
  0
LINE
  5
400
100
AcDbEntity
  8
DETAIL
  6
CONTINUOUS
 62
     5
100
AcDbLine
 10
2538.937783
 20
1526.201202
 30
0.0
 11
1408.937783
 21
1526.201202
 31
0.0
  0
LINE
  5
401
100
AcDbEntity
  8
DETAIL
  6
CONTINUOUS
 62
     5
100
AcDbLine
 10
2538.937783
 20
679.201202
 30
0.0
 11
1408.937783
 21
679.201202
 31
0.0
  0
LINE
  5
402
100
AcDbEntity
  8
OUTLINE
  6
CONTINUOUS
 62
     3
100
AcDbLine
 10
1408.937783
 20
679.201202
 30
0.0
 11
2538.937783
 21
679.201202
 31
0.0
  0
LINE
  5
403
100
AcDbEntity
  8
NOTE
  6
CONTINUOUS
 62
     4
100
AcDbLine
 10
1618.937783
 20
665.201202
 30
0.0
 11
1658.937783
 21
665.201202
 31
0.0
  0
LINE
  5
404
100
AcDbEntity
  8
BASIS
  6
DASHDOT
 62
     6
100
AcDbLine
 10
1483.973163
 20
1151.701202
 30
0.0
 11
2648.816721
 21
1151.701202
 31
0.0
  0
LINE
  5
405
100
AcDbEntity
  8
DETAIL
  6
CONTINUOUS
 62
     5
100
AcDbLine
 10
1449.937783
 20
1648.201202
 30
0.0
 11
2499.937783
 21
1648.201202
 31
0.0
  0
LINE
  5
406
100
AcDbEntity
  8
DETAIL
  6
CONTINUOUS
 62
     5
100
AcDbLine
 10
1488.937783
 20
650.201202
 30
0.0
 11
2163.937783
 21
650.201202
 31
0.0
  0
TEXT
  5
407
100
AcDbEntity
  8
SIZE
  6
CONTINUOUS
 62
    30
100
AcDbText
 10
54.999995
 20
1039.058345
 30
0.0
 40
55.0
  1
847
 50
90.0
 41
0.9
 72
     1
 11
54.999995
 21
1102.701202
 31
0.0
100
AcDbText
  0
LINE
  5
408
100
AcDbEntity
  8
SIZE
  6
CONTINUOUS
 62
    30
100
AcDbLine
 10
69.999995
 20
689.201202
 30
0.0
 11
69.999995
 21
1516.201202
 31
0.0
  0
TEXT
  5
409
100
AcDbEntity
  8
SIZE
  6
CONTINUOUS
 62
    30
100
AcDbText
 10
176.542966
 20
1035.558345
 30
0.0
 40
55.0
  1
450
 50
90.0
 41
0.9
 72
     1
 11
176.542966
 21
1099.201202
 31
0.0
100
AcDbText
  0
LINE
  5
40A
100
AcDbEntity
  8
SIZE
  6
CONTINUOUS
 62
    30
100
AcDbLine
 10
191.542966
 20
1314.201202
 30
0.0
 11
191.542966
 21
884.201202
 31
0.0
  0
LINE
  5
40B
100
AcDbEntity
  8
SIZE
  6
CONTINUOUS
 62
    30
100
AcDbLine
 10
1310.15196
 20
1475.701202
 30
0.0
 11
1310.15196
 21
1112.701202
 31
0.0
  0
LINE
  5
40C
100
AcDbEntity
  8
SERVICESPACE
  6
DASHDOT
 62
     2
100
AcDbLine
 10
708.937783
 20
1324.201202
 30
0.0
 11
1208.937783
 21
874.201202
 31
0.0
  0
LINE
  5
40D
100
AcDbEntity
  8
SERVICESPACE
  6
DASHDOT
 62
     2
100
AcDbLine
 10
1208.937783
 20
1324.201202
 30
0.0
 11
708.937783
 21
874.201202
 31
0.0
  0
LINE
  5
40E
100
AcDbEntity
  8
SERVICESPACE
  6
DASHDOT
 62
     2
100
AcDbLine
 10
1358.937783
 20
1254.201202
 30
0.0
 11
1358.937783
 21
629.201202
 31
0.0
  0
LINE
  5
40F
100
AcDbEntity
  8
SERVICESPACE
  6
DASHDOT
 62
     2
100
AcDbLine
 10
1208.937783
 20
1324.201202
 30
0.0
 11
1208.937783
 21
874.201202
 31
0.0
  0
LINE
  5
410
100
AcDbEntity
  8
SERVICESPACE
  6
DASHDOT
 62
     2
100
AcDbLine
 10
708.937783
 20
1624.201202
 30
0.0
 11
708.937783
 21
679.201202
 31
0.0
  0
LINE
  5
411
100
AcDbEntity
  8
SERVICESPACE
  6
DASHDOT
 62
     2
100
AcDbLine
 10
1408.937783
 20
1624.201202
 30
0.0
 11
1408.937783
 21
679.201202
 31
0.0
  0
LINE
  5
412
100
AcDbEntity
  8
DETAIL
  6
CONTINUOUS
 62
     5
100
AcDbLine
 10
1408.937783
 20
679.201202
 30
0.0
 11
1408.937783
 21
1624.201202
 31
0.0
  0
LINE
  5
413
100
AcDbEntity
  8
DETAIL
  6
CONTINUOUS
 62
     5
100
AcDbLine
 10
1338.937783
 20
1102.701202
 30
0.0
 11
1338.937783
 21
1485.701202
 31
0.0
  0
LINE
  5
414
100
AcDbEntity
  8
OUTLINE
  6
CONTINUOUS
 62
     3
100
AcDbLine
 10
1408.937783
 20
1624.201202
 30
0.0
 11
1408.937783
 21
679.201202
 31
0.0
  0
LINE
  5
415
100
AcDbEntity
  8
NOTE
  6
CONTINUOUS
 62
     4
100
AcDbLine
 10
217.97895
 20
115.758907
 30
0.0
 11
971.034004
 21
115.758907
 31
0.0
  0
TEXT
  5
416
100
AcDbEntity
  8
NOTE
  6
CONTINUOUS
 62
     4
100
AcDbText
 10
223.452759
 20
139.308344
 30
0.0
 40
64.0
  1
RG φ19.05（R407C）
 41
0.8
100
AcDbText
  0
TEXT
  5
417
100
AcDbEntity
  8
NOTE
  6
CONTINUOUS
 62
     4
100
AcDbText
 10
223.452759
 20
235.157474
 30
0.0
 40
64.0
  1
RG φ15.88（R410A）
 41
0.8
100
AcDbText
  0
LINE
  5
418
100
AcDbEntity
  8
SIZE
  6
CONTINUOUS
 62
    30
100
AcDbLine
 10
1388.937783
 20
679.201202
 30
0.0
 11
39.999995
 21
679.201202
 31
0.0
  0
LINE
  5
419
100
AcDbEntity
  8
SIZE
  6
CONTINUOUS
 62
    30
100
AcDbLine
 10
1388.937783
 20
679.201202
 30
0.0
 11
39.999995
 21
679.201202
 31
0.0
  0
LINE
  5
41A
100
AcDbEntity
  8
SIZE
  6
CONTINUOUS
 62
    30
100
AcDbLine
 10
1468.937783
 20
650.201202
 30
0.0
 11
39.999995
 21
650.201202
 31
0.0
  0
TEXT
  5
41B
100
AcDbEntity
  8
NOTE
  6
CONTINUOUS
 62
     4
100
AcDbText
 10
524.658949
 20
429.546822
 30
0.0
 40
64.0
  1
RL φ9.52
 41
0.9
100
AcDbText
  0
LINE
  5
41C
100
AcDbEntity
  8
NOTE
  6
CONTINUOUS
 62
     4
100
AcDbLine
 10
513.579886
 20
408.028656
 30
0.0
 11
922.138515
 21
408.028656
 31
0.0
  0
TEXT
  5
41D
100
AcDbEntity
  8
NOTE
  6
CONTINUOUS
 62
     4
100
AcDbText
 10
474.11193
 20
565.07606
 30
0.0
 40
64.0
  1
D1 VP-25
 41
0.9
100
AcDbText
  0
LINE
  5
41E
100
AcDbEntity
  8
NOTE
  6
CONTINUOUS
 62
     4
100
AcDbLine
 10
462.150979
 20
542.237532
 30
0.0
 11
909.947212
 21
542.237532
 31
0.0
  0
LINE
  5
41F
100
AcDbEntity
  8
SIZE
  6
CONTINUOUS
 62
    30
100
AcDbLine
 10
1388.937783
 20
1066.201202
 30
0.0
 11
280.390352
 21
1066.201202
 31
0.0
  0
LINE
  5
420
100
AcDbEntity
  8
SIZE
  6
CONTINUOUS
 62
    30
100
AcDbLine
 10
1388.937783
 20
679.201202
 30
0.0
 11
280.390352
 21
679.201202
 31
0.0
  0
LINE
  5
421
100
AcDbEntity
  8
SIZE
  6
CONTINUOUS
 62
    30
100
AcDbLine
 10
1388.937783
 20
679.201202
 30
0.0
 11
416.421624
 21
679.201202
 31
0.0
  0
LINE
  5
422
100
AcDbEntity
  8
SIZE
  6
CONTINUOUS
 62
    30
100
AcDbLine
 10
1259.137786
 20
1022.201202
 30
0.0
 11
416.421624
 21
1022.201202
 31
0.0
  0
LINE
  5
423
100
AcDbEntity
  8
SIZE
  6
CONTINUOUS
 62
    30
100
AcDbLine
 10
1306.937783
 20
971.201202
 30
0.0
 11
530.592274
 21
971.201202
 31
0.0
  0
LINE
  5
424
100
AcDbEntity
  8
SIZE
  6
CONTINUOUS
 62
    30
100
AcDbLine
 10
1290.937783
 20
879.201202
 30
0.0
 11
530.592274
 21
879.201202
 31
0.0
  0
LINE
  5
425
100
AcDbEntity
  8
SIZE
  6
CONTINUOUS
 62
    30
100
AcDbLine
 10
1290.937783
 20
879.201202
 30
0.0
 11
530.592274
 21
879.201202
 31
0.0
  0
LINE
  5
426
100
AcDbEntity
  8
SIZE
  6
CONTINUOUS
 62
    30
100
AcDbLine
 10
1388.937783
 20
679.201202
 30
0.0
 11
530.592274
 21
679.201202
 31
0.0
  0
LINE
  5
427
100
AcDbEntity
  8
SERVICESPACE
  6
DASHDOT
 62
     2
100
AcDbLine
 10
1158.937783
 20
874.201202
 30
0.0
 11
708.937783
 21
874.201202
 31
0.0
  0
LINE
  5
428
100
AcDbEntity
  8
SERVICESPACE
  6
DASHDOT
 62
     2
100
AcDbLine
 10
708.937783
 20
679.201202
 30
0.0
 11
1408.937783
 21
679.201202
 31
0.0
  0
LINE
  5
429
100
AcDbEntity
  8
SIZE
  6
CONTINUOUS
 62
    30
100
AcDbLine
 10
69.999995
 20
640.201202
 30
0.0
 11
69.999995
 21
522.415488
 31
0.0
  0
LINE
  5
42A
100
AcDbEntity
  8
SIZE
  6
CONTINUOUS
 62
    30
100
AcDbLine
 10
688.937783
 20
874.201202
 30
0.0
 11
161.542966
 21
874.201202
 31
0.0
  0
TEXT
  5
42B
100
AcDbEntity
  8
SIZE
  6
CONTINUOUS
 62
    30
100
AcDbText
 10
295.390352
 20
729.973101
 30
0.0
 40
55.0
  1
387
 50
90.0
 41
0.9
 72
     1
 11
295.390352
 21
793.615958
 31
0.0
100
AcDbText
  0
LINE
  5
42C
100
AcDbEntity
  8
SIZE
  6
CONTINUOUS
 62
    30
100
AcDbLine
 10
69.999995
 20
689.201202
 30
0.0
 11
69.999995
 21
699.201202
 31
0.0
  0
LINE
  5
42D
100
AcDbEntity
  8
SIZE
  6
CONTINUOUS
 62
    30
100
AcDbLine
 10
69.999995
 20
684.201202
 30
0.0
 11
69.999995
 21
689.201202
 31
0.0
  0
CIRCLE
  5
42E
100
AcDbEntity
  8
SIZE
  6
CONTINUOUS
 62
    30
100
AcDbCircle
 10
69.999995
 20
679.201202
 30
0.0
 40
5.0
  0
POINT
  5
42F
100
AcDbEntity
  8
DEFPOINTS
  6
CONTINUOUS
 62
     7
100
AcDbPoint
 10
69.999995
 20
679.201202
 30
0.0
  0
TEXT
  5
430
100
AcDbEntity
  8
SIZE
  6
CONTINUOUS
 62
    30
100
AcDbText
 10
54.999995
 20
537.415488
 30
0.0
 40
55.0
  1
29
 50
90.0
 41
0.9
 72
     1
 11
54.999995
 21
576.308345
 31
0.0
100
AcDbText
  0
LINE
  5
431
100
AcDbEntity
  8
SIZE
  6
CONTINUOUS
 62
    30
100
AcDbLine
 10
69.999995
 20
645.201202
 30
0.0
 11
69.999995
 21
640.201202
 31
0.0
  0
CIRCLE
  5
432
100
AcDbEntity
  8
SIZE
  6
CONTINUOUS
 62
    30
100
AcDbCircle
 10
69.999995
 20
650.201202
 30
0.0
 40
5.0
  0
LINE
  5
433
100
AcDbEntity
  8
SIZE
  6
CONTINUOUS
 62
    30
100
AcDbLine
 10
69.999995
 20
684.201202
 30
0.0
 11
69.999995
 21
689.201202
 31
0.0
  0
CIRCLE
  5
434
100
AcDbEntity
  8
SIZE
  6
CONTINUOUS
 62
    30
100
AcDbCircle
 10
69.999995
 20
679.201202
 30
0.0
 40
5.0
  0
LINE
  5
435
100
AcDbEntity
  8
SIZE
  6
CONTINUOUS
 62
    30
100
AcDbLine
 10
69.999995
 20
679.201202
 30
0.0
 11
69.999995
 21
650.201202
 31
0.0
  0
CIRCLE
  5
436
100
AcDbEntity
  8
SIZE
  6
CONTINUOUS
 62
    30
100
AcDbCircle
 10
191.542966
 20
874.201202
 30
0.0
 40
5.0
  0
POINT
  5
437
100
AcDbEntity
  8
DEFPOINTS
  6
CONTINUOUS
 62
     7
100
AcDbPoint
 10
191.542966
 20
874.201202
 30
0.0
  0
LINE
  5
438
100
AcDbEntity
  8
SIZE
  6
CONTINUOUS
 62
    30
100
AcDbLine
 10
191.542966
 20
879.201202
 30
0.0
 11
191.542966
 21
884.201202
 31
0.0
  0
LINE
  5
439
100
AcDbEntity
  8
SIZE
  6
CONTINUOUS
 62
    30
100
AcDbLine
 10
310.390352
 20
689.201202
 30
0.0
 11
310.390352
 21
1056.201202
 31
0.0
  0
TEXT
  5
43A
100
AcDbEntity
  8
SIZE
  6
CONTINUOUS
 62
    30
100
AcDbText
 10
431.421624
 20
724.146221
 30
0.0
 40
55.0
  1
343
 50
90.0
 41
0.9
 72
     1
 11
431.421624
 21
787.789078
 31
0.0
100
AcDbText
  0
LINE
  5
43B
100
AcDbEntity
  8
SIZE
  6
CONTINUOUS
 62
    30
100
AcDbLine
 10
446.421624
 20
1012.201202
 30
0.0
 11
446.421624
 21
689.201202
 31
0.0
  0
LINE
  5
43C
100
AcDbEntity
  8
SIZE
  6
CONTINUOUS
 62
    30
100
AcDbLine
 10
560.592274
 20
689.201202
 30
0.0
 11
560.592274
 21
869.201202
 31
0.0
  0
TEXT
  5
43D
100
AcDbEntity
  8
SIZE
  6
CONTINUOUS
 62
    30
100
AcDbText
 10
545.592274
 20
715.558345
 30
0.0
 40
55.0
  1
200
 50
90.0
 41
0.9
 72
     1
 11
545.592274
 21
779.201202
 31
0.0
100
AcDbText
  0
LINE
  5
43E
100
AcDbEntity
  8
SIZE
  6
CONTINUOUS
 62
    30
100
AcDbLine
 10
310.390352
 20
684.201202
 30
0.0
 11
310.390352
 21
689.201202
 31
0.0
  0
CIRCLE
  5
43F
100
AcDbEntity
  8
SIZE
  6
CONTINUOUS
 62
    30
100
AcDbCircle
 10
310.390352
 20
679.201202
 30
0.0
 40
5.0
  0
POINT
  5
440
100
AcDbEntity
  8
DEFPOINTS
  6
CONTINUOUS
 62
     7
100
AcDbPoint
 10
446.421624
 20
679.201202
 30
0.0
  0
LINE
  5
441
100
AcDbEntity
  8
SIZE
  6
CONTINUOUS
 62
    30
100
AcDbLine
 10
446.421624
 20
684.201202
 30
0.0
 11
446.421624
 21
689.201202
 31
0.0
  0
CIRCLE
  5
442
100
AcDbEntity
  8
SIZE
  6
CONTINUOUS
 62
    30
100
AcDbCircle
 10
446.421624
 20
679.201202
 30
0.0
 40
5.0
  0
LINE
  5
443
100
AcDbEntity
  8
SIZE
  6
CONTINUOUS
 62
    30
100
AcDbLine
 10
560.592274
 20
684.201202
 30
0.0
 11
560.592274
 21
689.201202
 31
0.0
  0
CIRCLE
  5
444
100
AcDbEntity
  8
SIZE
  6
CONTINUOUS
 62
    30
100
AcDbCircle
 10
560.592274
 20
679.201202
 30
0.0
 40
5.0
  0
TEXT
  5
445
100
AcDbEntity
  8
SIZE
  6
CONTINUOUS
 62
    30
100
AcDbText
 10
545.592274
 20
885.129774
 30
0.0
 40
55.0
  1
92
 50
90.0
 41
0.9
 72
     1
 11
545.592274
 21
925.201202
 31
0.0
100
AcDbText
  0
POINT
  5
446
100
AcDbEntity
  8
DEFPOINTS
  6
CONTINUOUS
 62
     7
100
AcDbPoint
 10
310.390352
 20
1066.201202
 30
0.0
  0
LINE
  5
447
100
AcDbEntity
  8
SIZE
  6
CONTINUOUS
 62
    30
100
AcDbLine
 10
310.390352
 20
1061.201202
 30
0.0
 11
310.390352
 21
1056.201202
 31
0.0
  0
CIRCLE
  5
448
100
AcDbEntity
  8
SIZE
  6
CONTINUOUS
 62
    30
100
AcDbCircle
 10
310.390352
 20
1066.201202
 30
0.0
 40
5.0
  0
LINE
  5
449
100
AcDbEntity
  8
SIZE
  6
CONTINUOUS
 62
    30
100
AcDbLine
 10
446.421624
 20
1017.201202
 30
0.0
 11
446.421624
 21
1012.201202
 31
0.0
  0
CIRCLE
  5
44A
100
AcDbEntity
  8
SIZE
  6
CONTINUOUS
 62
    30
100
AcDbCircle
 10
446.421624
 20
1022.201202
 30
0.0
 40
5.0
  0
POINT
  5
44B
100
AcDbEntity
  8
DEFPOINTS
  6
CONTINUOUS
 62
     7
100
AcDbPoint
 10
560.592274
 20
971.201202
 30
0.0
  0
LINE
  5
44C
100
AcDbEntity
  8
SIZE
  6
CONTINUOUS
 62
    30
100
AcDbLine
 10
560.592274
 20
976.201202
 30
0.0
 11
560.592274
 21
981.201202
 31
0.0
  0
CIRCLE
  5
44D
100
AcDbEntity
  8
SIZE
  6
CONTINUOUS
 62
    30
100
AcDbCircle
 10
560.592274
 20
971.201202
 30
0.0
 40
5.0
  0
LINE
  5
44E
100
AcDbEntity
  8
SIZE
  6
CONTINUOUS
 62
    30
100
AcDbLine
 10
560.592274
 20
874.201202
 30
0.0
 11
560.592274
 21
869.201202
 31
0.0
  0
CIRCLE
  5
44F
100
AcDbEntity
  8
SIZE
  6
CONTINUOUS
 62
    30
100
AcDbCircle
 10
560.592274
 20
879.201202
 30
0.0
 40
5.0
  0
LINE
  5
450
100
AcDbEntity
  8
SIZE
  6
CONTINUOUS
 62
    30
100
AcDbLine
 10
560.592274
 20
879.201202
 30
0.0
 11
560.592274
 21
971.201202
 31
0.0
  0
LINE
  5
451
100
AcDbEntity
  8
SIZE
  6
CONTINUOUS
 62
    30
100
AcDbLine
 10
560.592274
 20
981.201202
 30
0.0
 11
560.592274
 21
991.201202
 31
0.0
  0
LINE
  5
452
100
AcDbEntity
  8
SIZE
  6
CONTINUOUS
 62
    30
100
AcDbLine
 10
560.592274
 20
869.201202
 30
0.0
 11
560.592274
 21
859.201202
 31
0.0
  0
POINT
  5
453
100
AcDbEntity
  8
DEFPOINTS
  6
CONTINUOUS
 62
     7
100
AcDbPoint
 10
560.592274
 20
879.201202
 30
0.0
  0
LINE
  5
454
100
AcDbEntity
  8
SIZE
  6
CONTINUOUS
 62
    30
100
AcDbLine
 10
560.592274
 20
874.201202
 30
0.0
 11
560.592274
 21
869.201202
 31
0.0
  0
CIRCLE
  5
455
100
AcDbEntity
  8
SIZE
  6
CONTINUOUS
 62
    30
100
AcDbCircle
 10
560.592274
 20
879.201202
 30
0.0
 40
5.0
  0
POINT
  5
456
100
AcDbEntity
  8
DEFPOINTS
  6
CONTINUOUS
 62
     7
100
AcDbPoint
 10
708.937783
 20
874.201202
 30
0.0
  0
LINE
  5
457
100
AcDbEntity
  8
SIZE
  6
CONTINUOUS
 62
    30
100
AcDbLine
 10
1358.937783
 20
609.201202
 30
0.0
 11
1358.937783
 21
0.000003
 31
0.0
  0
LINE
  5
458
100
AcDbEntity
  8
SIZE
  6
CONTINUOUS
 62
    30
100
AcDbLine
 10
1488.937783
 20
630.201202
 30
0.0
 11
1488.937783
 21
119.241537
 31
0.0
  0
LINE
  5
459
100
AcDbEntity
  8
SIZE
  6
CONTINUOUS
 62
    30
100
AcDbLine
 10
1538.937783
 20
625.201202
 30
0.0
 11
1538.937783
 21
231.434153
 31
0.0
  0
LINE
  5
45A
100
AcDbEntity
  8
NOTE
  6
CONTINUOUS
 62
     4
100
AcDbLine
 10
1330.937783
 20
879.201202
 30
0.0
 11
971.034004
 21
115.758907
 31
0.0
  0
LINE
  5
45B
100
AcDbEntity
  8
NOTE
  6
CONTINUOUS
 62
     4
100
AcDbLine
 10
1346.937783
 20
971.201202
 30
0.0
 11
922.138515
 21
408.028656
 31
0.0
  0
LINE
  5
45C
100
AcDbEntity
  8
SIZE
  6
CONTINUOUS
 62
    30
100
AcDbLine
 10
1538.937783
 20
605.201202
 30
0.0
 11
1538.937783
 21
231.434153
 31
0.0
  0
LINE
  5
45D
100
AcDbEntity
  8
SIZE
  6
CONTINUOUS
 62
    30
100
AcDbLine
 10
1488.937783
 20
630.201202
 30
0.0
 11
1488.937783
 21
231.434153
 31
0.0
  0
LINE
  5
45E
100
AcDbEntity
  8
SIZE
  6
CONTINUOUS
 62
    30
100
AcDbLine
 10
1488.937783
 20
630.201202
 30
0.0
 11
1488.937783
 21
231.434153
 31
0.0
  0
LINE
  5
45F
100
AcDbEntity
  8
SIZE
  6
CONTINUOUS
 62
    30
100
AcDbLine
 10
1408.937783
 20
659.201202
 30
0.0
 11
1408.937783
 21
231.434153
 31
0.0
  0
LINE
  5
460
100
AcDbEntity
  8
SIZE
  6
CONTINUOUS
 62
    30
100
AcDbLine
 10
1408.937783
 20
659.201202
 30
0.0
 11
1408.937783
 21
231.434153
 31
0.0
  0
LINE
  5
461
100
AcDbEntity
  8
SIZE
  6
CONTINUOUS
 62
    30
100
AcDbLine
 10
1330.937783
 20
839.201202
 30
0.0
 11
1330.937783
 21
231.434153
 31
0.0
  0
LINE
  5
462
100
AcDbEntity
  8
SIZE
  6
CONTINUOUS
 62
    30
100
AcDbLine
 10
1408.937783
 20
659.201202
 30
0.0
 11
1408.937783
 21
496.836546
 31
0.0
  0
LINE
  5
463
100
AcDbEntity
  8
SIZE
  6
CONTINUOUS
 62
    30
100
AcDbLine
 10
1358.937783
 20
609.201202
 30
0.0
 11
1358.937783
 21
496.836546
 31
0.0
  0
LINE
  5
464
100
AcDbEntity
  8
SIZE
  6
CONTINUOUS
 62
    30
100
AcDbLine
 10
1346.937783
 20
931.201202
 30
0.0
 11
1346.937783
 21
361.718641
 31
0.0
  0
LINE
  5
465
100
AcDbEntity
  8
SIZE
  6
CONTINUOUS
 62
    30
100
AcDbLine
 10
1408.937783
 20
659.201202
 30
0.0
 11
1408.937783
 21
361.718641
 31
0.0
  0
LINE
  5
466
100
AcDbEntity
  8
SIZE
  6
CONTINUOUS
 62
    30
100
AcDbLine
 10
1588.937783
 20
625.201202
 30
0.0
 11
1588.937783
 21
496.794623
 31
0.0
  0
LINE
  5
467
100
AcDbEntity
  8
SIZE
  6
CONTINUOUS
 62
    30
100
AcDbLine
 10
1538.937783
 20
625.201202
 30
0.0
 11
1538.937783
 21
496.794623
 31
0.0
  0
LINE
  5
468
100
AcDbEntity
  8
SIZE
  6
CONTINUOUS
 62
    30
100
AcDbLine
 10
1363.937783
 20
30.000003
 30
0.0
 11
1368.937783
 21
30.000003
 31
0.0
  0
CIRCLE
  5
469
100
AcDbEntity
  8
SIZE
  6
CONTINUOUS
 62
    30
100
AcDbCircle
 10
1358.937783
 20
30.000003
 30
0.0
 40
5.0
  0
LINE
  5
46A
100
AcDbEntity
  8
SIZE
  6
CONTINUOUS
 62
    30
100
AcDbLine
 10
1493.937783
 20
149.241537
 30
0.0
 11
1498.937783
 21
149.241537
 31
0.0
  0
CIRCLE
  5
46B
100
AcDbEntity
  8
SIZE
  6
CONTINUOUS
 62
    30
100
AcDbCircle
 10
1488.937783
 20
149.241537
 30
0.0
 40
5.0
  0
TEXT
  5
46C
100
AcDbEntity
  8
SIZE
  6
CONTINUOUS
 62
    30
100
AcDbText
 10
1408.866355
 20
276.434153
 30
0.0
 40
55.0
  1
80
 41
0.9
 72
     1
 11
1448.937783
 21
276.434153
 31
0.0
100
AcDbText
  0
LINE
  5
46D
100
AcDbEntity
  8
SIZE
  6
CONTINUOUS
 62
    30
100
AcDbLine
 10
1408.937783
 20
261.434153
 30
0.0
 11
1488.937783
 21
261.434153
 31
0.0
  0
LINE
  5
46E
100
AcDbEntity
  8
SIZE
  6
CONTINUOUS
 62
    30
100
AcDbLine
 10
1330.937783
 20
261.434153
 30
0.0
 11
1210.794926
 21
261.434153
 31
0.0
  0
TEXT
  5
46F
100
AcDbEntity
  8
SIZE
  6
CONTINUOUS
 62
    30
100
AcDbText
 10
1225.794926
 20
276.434153
 30
0.0
 40
55.0
  1
78
 41
0.9
 72
     1
 11
1265.866354
 21
276.434153
 31
0.0
100
AcDbText
  0
LINE
  5
470
100
AcDbEntity
  8
SIZE
  6
CONTINUOUS
 62
    30
100
AcDbLine
 10
1403.937783
 20
261.434153
 30
0.0
 11
1398.937783
 21
261.434153
 31
0.0
  0
CIRCLE
  5
471
100
AcDbEntity
  8
SIZE
  6
CONTINUOUS
 62
    30
100
AcDbCircle
 10
1408.937783
 20
261.434153
 30
0.0
 40
5.0
  0
LINE
  5
472
100
AcDbEntity
  8
SIZE
  6
CONTINUOUS
 62
    30
100
AcDbLine
 10
1398.937783
 20
261.434153
 30
0.0
 11
1388.937783
 21
261.434153
 31
0.0
  0
POINT
  5
473
100
AcDbEntity
  8
DEFPOINTS
  6
CONTINUOUS
 62
     7
100
AcDbPoint
 10
1408.937783
 20
261.434153
 30
0.0
  0
LINE
  5
474
100
AcDbEntity
  8
SIZE
  6
CONTINUOUS
 62
    30
100
AcDbLine
 10
1335.937783
 20
261.434153
 30
0.0
 11
1340.937783
 21
261.434153
 31
0.0
  0
CIRCLE
  5
475
100
AcDbEntity
  8
SIZE
  6
CONTINUOUS
 62
    30
100
AcDbCircle
 10
1330.937783
 20
261.434153
 30
0.0
 40
5.0
  0
LINE
  5
476
100
AcDbEntity
  8
SIZE
  6
CONTINUOUS
 62
    30
100
AcDbLine
 10
1403.937783
 20
261.434153
 30
0.0
 11
1398.937783
 21
261.434153
 31
0.0
  0
CIRCLE
  5
477
100
AcDbEntity
  8
SIZE
  6
CONTINUOUS
 62
    30
100
AcDbCircle
 10
1408.937783
 20
261.434153
 30
0.0
 40
5.0
  0
LINE
  5
478
100
AcDbEntity
  8
SIZE
  6
CONTINUOUS
 62
    30
100
AcDbLine
 10
1398.937783
 20
261.434153
 30
0.0
 11
1340.937783
 21
261.434153
 31
0.0
  0
LINE
  5
479
100
AcDbEntity
  8
SIZE
  6
CONTINUOUS
 62
    30
100
AcDbLine
 10
1358.937783
 20
526.836546
 30
0.0
 11
1222.425978
 21
526.836546
 31
0.0
  0
TEXT
  5
47A
100
AcDbEntity
  8
SIZE
  6
CONTINUOUS
 62
    30
100
AcDbText
 10
1241.794926
 20
406.718641
 30
0.0
 40
55.0
  1
62
 41
0.9
 72
     1
 11
1281.866354
 21
406.718641
 31
0.0
100
AcDbText
  0
LINE
  5
47B
100
AcDbEntity
  8
SIZE
  6
CONTINUOUS
 62
    30
100
AcDbLine
 10
1346.937783
 20
391.718641
 30
0.0
 11
1226.794926
 21
391.718641
 31
0.0
  0
POINT
  5
47C
100
AcDbEntity
  8
DEFPOINTS
  6
CONTINUOUS
 62
     7
100
AcDbPoint
 10
1408.937783
 20
526.836546
 30
0.0
  0
LINE
  5
47D
100
AcDbEntity
  8
SIZE
  6
CONTINUOUS
 62
    30
100
AcDbLine
 10
1363.937783
 20
526.836546
 30
0.0
 11
1368.937783
 21
526.836546
 31
0.0
  0
CIRCLE
  5
47E
100
AcDbEntity
  8
SIZE
  6
CONTINUOUS
 62
    30
100
AcDbCircle
 10
1358.937783
 20
526.836546
 30
0.0
 40
5.0
  0
LINE
  5
47F
100
AcDbEntity
  8
SIZE
  6
CONTINUOUS
 62
    30
100
AcDbLine
 10
1403.937783
 20
526.836546
 30
0.0
 11
1398.937783
 21
526.836546
 31
0.0
  0
CIRCLE
  5
480
100
AcDbEntity
  8
SIZE
  6
CONTINUOUS
 62
    30
100
AcDbCircle
 10
1408.937783
 20
526.836546
 30
0.0
 40
5.0
  0
LINE
  5
481
100
AcDbEntity
  8
SIZE
  6
CONTINUOUS
 62
    30
100
AcDbLine
 10
1398.937783
 20
526.836546
 30
0.0
 11
1368.937783
 21
526.836546
 31
0.0
  0
POINT
  5
482
100
AcDbEntity
  8
DEFPOINTS
  6
CONTINUOUS
 62
     7
100
AcDbPoint
 10
1346.937783
 20
391.718641
 30
0.0
  0
LINE
  5
483
100
AcDbEntity
  8
SIZE
  6
CONTINUOUS
 62
    30
100
AcDbLine
 10
1351.937783
 20
391.718641
 30
0.0
 11
1356.937783
 21
391.718641
 31
0.0
  0
CIRCLE
  5
484
100
AcDbEntity
  8
SIZE
  6
CONTINUOUS
 62
    30
100
AcDbCircle
 10
1346.937783
 20
391.718641
 30
0.0
 40
5.0
  0
LINE
  5
485
100
AcDbEntity
  8
SIZE
  6
CONTINUOUS
 62
    30
100
AcDbLine
 10
1403.937783
 20
391.718641
 30
0.0
 11
1398.937783
 21
391.718641
 31
0.0
  0
CIRCLE
  5
486
100
AcDbEntity
  8
SIZE
  6
CONTINUOUS
 62
    30
100
AcDbCircle
 10
1408.937783
 20
391.718641
 30
0.0
 40
5.0
  0
LINE
  5
487
100
AcDbEntity
  8
SIZE
  6
CONTINUOUS
 62
    30
100
AcDbLine
 10
1398.937783
 20
391.718641
 30
0.0
 11
1356.937783
 21
391.718641
 31
0.0
  0
LINE
  5
488
100
AcDbEntity
  8
SIZE
  6
CONTINUOUS
 62
    30
100
AcDbLine
 10
1513.937783
 20
261.434153
 30
0.0
 11
1593.686717
 21
387.313611
 31
0.0
  0
LINE
  5
489
100
AcDbEntity
  8
SIZE
  6
CONTINUOUS
 62
    30
100
AcDbLine
 10
1533.937783
 20
261.434153
 30
0.0
 11
1528.937783
 21
261.434153
 31
0.0
  0
LINE
  5
48A
100
AcDbEntity
  8
SIZE
  6
CONTINUOUS
 62
    30
100
AcDbLine
 10
1493.937783
 20
261.434153
 30
0.0
 11
1498.937783
 21
261.434153
 31
0.0
  0
CIRCLE
  5
48B
100
AcDbEntity
  8
SIZE
  6
CONTINUOUS
 62
    30
100
AcDbCircle
 10
1488.937783
 20
261.434153
 30
0.0
 40
5.0
  0
LINE
  5
48C
100
AcDbEntity
  8
SIZE
  6
CONTINUOUS
 62
    30
100
AcDbLine
 10
1498.937783
 20
261.434153
 30
0.0
 11
1528.937783
 21
261.434153
 31
0.0
  0
POINT
  5
48D
100
AcDbEntity
  8
DEFPOINTS
  6
CONTINUOUS
 62
     7
100
AcDbPoint
 10
1488.937783
 20
261.434153
 30
0.0
  0
LINE
  5
48E
100
AcDbEntity
  8
SIZE
  6
CONTINUOUS
 62
    30
100
AcDbLine
 10
1493.937783
 20
261.434153
 30
0.0
 11
1498.937783
 21
261.434153
 31
0.0
  0
CIRCLE
  5
48F
100
AcDbEntity
  8
SIZE
  6
CONTINUOUS
 62
    30
100
AcDbCircle
 10
1488.937783
 20
261.434153
 30
0.0
 40
5.0
  0
LINE
  5
490
100
AcDbEntity
  8
SIZE
  6
CONTINUOUS
 62
    30
100
AcDbLine
 10
1498.937783
 20
261.434153
 30
0.0
 11
1508.937783
 21
261.434153
 31
0.0
  0
LINE
  5
491
100
AcDbEntity
  8
SIZE
  6
CONTINUOUS
 62
    30
100
AcDbLine
 10
1543.937783
 20
261.434153
 30
0.0
 11
1548.937783
 21
261.434153
 31
0.0
  0
CIRCLE
  5
492
100
AcDbEntity
  8
SIZE
  6
CONTINUOUS
 62
    30
100
AcDbCircle
 10
1538.937783
 20
261.434153
 30
0.0
 40
5.0
  0
POINT
  5
493
100
AcDbEntity
  8
DEFPOINTS
  6
CONTINUOUS
 62
     7
100
AcDbPoint
 10
1538.937783
 20
261.434153
 30
0.0
  0
CIRCLE
  5
494
100
AcDbEntity
  8
SIZE
  6
CONTINUOUS
 62
    30
100
AcDbCircle
 10
1538.937783
 20
261.434153
 30
0.0
 40
5.0
  0
POINT
  5
495
100
AcDbEntity
  8
DEFPOINTS
  6
CONTINUOUS
 62
     7
100
AcDbPoint
 10
1588.937783
 20
526.794623
 30
0.0
  0
LINE
  5
496
100
AcDbEntity
  8
SIZE
  6
CONTINUOUS
 62
    30
100
AcDbLine
 10
1583.937783
 20
526.794623
 30
0.0
 11
1578.937783
 21
526.794623
 31
0.0
  0
CIRCLE
  5
497
100
AcDbEntity
  8
SIZE
  6
CONTINUOUS
 62
    30
100
AcDbCircle
 10
1588.937783
 20
526.794623
 30
0.0
 40
5.0
  0
LINE
  5
498
100
AcDbEntity
  8
SIZE
  6
CONTINUOUS
 62
    30
100
AcDbLine
 10
1543.937783
 20
526.794623
 30
0.0
 11
1548.937783
 21
526.794623
 31
0.0
  0
CIRCLE
  5
499
100
AcDbEntity
  8
SIZE
  6
CONTINUOUS
 62
    30
100
AcDbCircle
 10
1538.937783
 20
526.794623
 30
0.0
 40
5.0
  0
LINE
  5
49A
100
AcDbEntity
  8
SIZE
  6
CONTINUOUS
 62
    30
100
AcDbLine
 10
1548.937783
 20
526.794623
 30
0.0
 11
1578.937783
 21
526.794623
 31
0.0
  0
LINE
  5
49B
100
AcDbEntity
  8
NOTE
  6
CONTINUOUS
 62
     4
100
AcDbLine
 10
1299.137786
 20
1022.201202
 30
0.0
 11
909.947212
 21
542.237532
 31
0.0
  0
POLYLINE
  5
49C
100
AcDbEntity
  8
NOTE
  6
CONTINUOUS
 62
     4
100
AcDb2dPolyline
 66
     1
 10
0.0
 20
0.0
 30
0.0
  0
VERTEX
  5
49D
100
AcDbEntity
  8
NOTE
  6
CONTINUOUS
 62
     4
100
AcDbVertex
100
AcDb2dVertex
 10
1323.884103
 20
839.828044
 30
0.0
  0
VERTEX
  5
49E
100
AcDbEntity
  8
NOTE
  6
CONTINUOUS
 62
     4
100
AcDbVertex
100
AcDb2dVertex
 10
1330.937783
 20
879.201202
 30
0.0
  0
VERTEX
  5
49F
100
AcDbEntity
  8
NOTE
  6
CONTINUOUS
 62
     4
100
AcDbVertex
100
AcDb2dVertex
 10
1305.142538
 20
848.629886
 30
0.0
  0
SEQEND
  5
4A0
100
AcDbEntity
  8
NOTE
  6
CONTINUOUS
 62
     4
  0
LINE
  5
4A1
100
AcDbEntity
  8
NOTE
  6
CONTINUOUS
 62
     4
100
AcDbLine
 10
1371.937783
 20
690.201202
 30
0.0
 11
1371.937783
 21
730.201202
 31
0.0
  0
LINE
  5
4A2
100
AcDbEntity
  8
DETAIL
  6
CONTINUOUS
 62
     5
100
AcDbLine
 10
1348.937783
 20
680.201202
 30
0.0
 11
1348.937783
 21
704.201202
 31
0.0
  0
LINE
  5
4A3
100
AcDbEntity
  8
DETAIL
  6
CONTINUOUS
 62
     5
100
AcDbLine
 10
1408.937783
 20
740.201202
 30
0.0
 11
1408.937783
 21
680.201202
 31
0.0
  0
TEXT
  5
4A4
100
AcDbEntity
  8
SIZE
  6
CONTINUOUS
 62
    30
100
AcDbText
 10
1237.425978
 20
541.836546
 30
0.0
 40
55.0
  1
50
 41
0.9
 72
     1
 11
1277.497406
 21
541.836546
 31
0.0
100
AcDbText
  0
POINT
  5
4A5
100
AcDbEntity
  8
DEFPOINTS
  6
CONTINUOUS
 62
     7
100
AcDbPoint
 10
1358.937783
 20
629.201202
 30
0.0
  0
POINT
  5
4A6
100
AcDbEntity
  8
DEFPOINTS
  6
CONTINUOUS
 62
     7
100
AcDbPoint
 10
1408.937783
 20
679.201202
 30
0.0
  0
POINT
  5
4A7
100
AcDbEntity
  8
DEFPOINTS
  6
CONTINUOUS
 62
     7
100
AcDbPoint
 10
1408.937783
 20
679.201202
 30
0.0
  0
POINT
  5
4A8
100
AcDbEntity
  8
DEFPOINTS
  6
CONTINUOUS
 62
     7
100
AcDbPoint
 10
1408.937783
 20
679.201202
 30
0.0
  0
POINT
  5
4A9
100
AcDbEntity
  8
DEFPOINTS
  6
CONTINUOUS
 62
     7
100
AcDbPoint
 10
1408.937783
 20
679.201202
 30
0.0
  0
POINT
  5
4AA
100
AcDbEntity
  8
DEFPOINTS
  6
CONTINUOUS
 62
     7
100
AcDbPoint
 10
1408.937783
 20
679.201202
 30
0.0
  0
POINT
  5
4AB
100
AcDbEntity
  8
DEFPOINTS
  6
CONTINUOUS
 62
     7
100
AcDbPoint
 10
1408.937783
 20
679.201202
 30
0.0
  0
POINT
  5
4AC
100
AcDbEntity
  8
DEFPOINTS
  6
CONTINUOUS
 62
     7
100
AcDbPoint
 10
1408.937783
 20
679.201202
 30
0.0
  0
POINT
  5
4AD
100
AcDbEntity
  8
DEFPOINTS
  6
CONTINUOUS
 62
     7
100
AcDbPoint
 10
1408.937783
 20
679.201202
 30
0.0
  0
POINT
  5
4AE
100
AcDbEntity
  8
DEFPOINTS
  6
CONTINUOUS
 62
     7
100
AcDbPoint
 10
1358.937783
 20
629.201202
 30
0.0
  0
POINT
  5
4AF
100
AcDbEntity
  8
DEFPOINTS
  6
CONTINUOUS
 62
     7
100
AcDbPoint
 10
1408.937783
 20
679.201202
 30
0.0
  0
LINE
  5
4B0
100
AcDbEntity
  8
DETAIL
  6
CONTINUOUS
 62
     5
100
AcDbLine
 10
1348.937783
 20
680.201202
 30
0.0
 11
1408.937783
 21
680.201202
 31
0.0
  0
CIRCLE
  5
4B1
100
AcDbEntity
  8
FIX
  6
CONTINUOUS
 62
    11
100
AcDbCircle
 10
1371.937783
 20
710.201202
 30
0.0
 40
5.0
  0
LINE
  5
4B2
100
AcDbEntity
  8
NOTE
  6
CONTINUOUS
 62
     4
100
AcDbLine
 10
1351.937783
 20
710.201202
 30
0.0
 11
1391.937783
 21
710.201202
 31
0.0
  0
LINE
  5
4B3
100
AcDbEntity
  8
DETAIL
  6
CONTINUOUS
 62
     5
100
AcDbLine
 10
1348.937783
 20
740.201202
 30
0.0
 11
1408.937783
 21
740.201202
 31
0.0
  0
ARC
  5
4B4
100
AcDbEntity
  8
DETAIL
  6
CONTINUOUS
 62
     5
100
AcDbCircle
 10
1371.937783
 20
702.201202
 30
0.0
 40
7.0
100
AcDbArc
 50
180.0
 51
0.0
  0
ARC
  5
4B5
100
AcDbEntity
  8
DETAIL
  6
CONTINUOUS
 62
     5
100
AcDbCircle
 10
1371.937783
 20
718.201202
 30
0.0
 40
7.0
100
AcDbArc
 50
0.0
 51
180.0
  0
LINE
  5
4B6
100
AcDbEntity
  8
DETAIL
  6
CONTINUOUS
 62
     5
100
AcDbLine
 10
1378.937783
 20
702.201202
 30
0.0
 11
1378.937783
 21
718.201202
 31
0.0
  0
LINE
  5
4B7
100
AcDbEntity
  8
DETAIL
  6
CONTINUOUS
 62
     5
100
AcDbLine
 10
1364.937783
 20
702.201202
 30
0.0
 11
1364.937783
 21
704.201202
 31
0.0
  0
LINE
  5
4B8
100
AcDbEntity
  8
DETAIL
  6
CONTINUOUS
 62
     5
100
AcDbLine
 10
1364.937783
 20
716.201202
 30
0.0
 11
1364.937783
 21
718.201202
 31
0.0
  0
LINE
  5
4B9
100
AcDbEntity
  8
DETAIL
  6
CONTINUOUS
 62
     5
100
AcDbLine
 10
1348.937783
 20
704.201202
 30
0.0
 11
1364.937783
 21
704.201202
 31
0.0
  0
LINE
  5
4BA
100
AcDbEntity
  8
DETAIL
  6
CONTINUOUS
 62
     5
100
AcDbLine
 10
1348.937783
 20
716.201202
 30
0.0
 11
1364.937783
 21
716.201202
 31
0.0
  0
LINE
  5
4BB
100
AcDbEntity
  8
DETAIL
  6
CONTINUOUS
 62
     5
100
AcDbLine
 10
1348.937783
 20
716.201202
 30
0.0
 11
1348.937783
 21
740.201202
 31
0.0
  0
LINE
  5
4BC
100
AcDbEntity
  8
NOTE
  6
CONTINUOUS
 62
     4
100
AcDbLine
 10
1518.937783
 20
665.201202
 30
0.0
 11
1558.937783
 21
665.201202
 31
0.0
  0
POINT
  5
4BD
100
AcDbEntity
  8
DEFPOINTS
  6
CONTINUOUS
 62
     7
100
AcDbPoint
 10
1488.937783
 20
650.201202
 30
0.0
  0
POINT
  5
4BE
100
AcDbEntity
  8
DEFPOINTS
  6
CONTINUOUS
 62
     7
100
AcDbPoint
 10
1488.937783
 20
650.201202
 30
0.0
  0
POINT
  5
4BF
100
AcDbEntity
  8
DEFPOINTS
  6
CONTINUOUS
 62
     7
100
AcDbPoint
 10
1488.937783
 20
650.201202
 30
0.0
  0
POINT
  5
4C0
100
AcDbEntity
  8
DEFPOINTS
  6
CONTINUOUS
 62
     7
100
AcDbPoint
 10
1488.937783
 20
650.201202
 30
0.0
  0
LINE
  5
4C1
100
AcDbEntity
  8
DETAIL
  6
CONTINUOUS
 62
     5
100
AcDbLine
 10
1488.937783
 20
650.201202
 30
0.0
 11
1488.937783
 21
679.201202
 31
0.0
  0
POINT
  5
4C2
100
AcDbEntity
  8
DEFPOINTS
  6
CONTINUOUS
 62
     7
100
AcDbPoint
 10
1538.937783
 20
645.201202
 30
0.0
  0
POINT
  5
4C3
100
AcDbEntity
  8
DEFPOINTS
  6
CONTINUOUS
 62
     7
100
AcDbPoint
 10
1538.937783
 20
625.201202
 30
0.0
  0
POINT
  5
4C4
100
AcDbEntity
  8
DEFPOINTS
  6
CONTINUOUS
 62
     7
100
AcDbPoint
 10
1588.937783
 20
645.201202
 30
0.0
  0
POINT
  5
4C5
100
AcDbEntity
  8
DEFPOINTS
  6
CONTINUOUS
 62
     7
100
AcDbPoint
 10
1538.937783
 20
645.201202
 30
0.0
  0
CIRCLE
  5
4C6
100
AcDbEntity
  8
DETAIL
  6
CONTINUOUS
 62
     5
100
AcDbCircle
 10
1588.937783
 20
665.201202
 30
0.0
 40
1.5
  0
CIRCLE
  5
4C7
100
AcDbEntity
  8
DETAIL
  6
CONTINUOUS
 62
     5
100
AcDbCircle
 10
1638.937783
 20
665.201202
 30
0.0
 40
1.5
  0
LINE
  5
4C8
100
AcDbEntity
  8
NOTE
  6
CONTINUOUS
 62
     4
100
AcDbLine
 10
1588.937783
 20
645.201202
 30
0.0
 11
1588.937783
 21
685.201202
 31
0.0
  0
LINE
  5
4C9
100
AcDbEntity
  8
NOTE
  6
CONTINUOUS
 62
     4
100
AcDbLine
 10
1638.937783
 20
645.201202
 30
0.0
 11
1638.937783
 21
685.201202
 31
0.0
  0
CIRCLE
  5
4CA
100
AcDbEntity
  8
DETAIL
  6
CONTINUOUS
 62
     5
100
AcDbCircle
 10
1538.937783
 20
665.201202
 30
0.0
 40
1.5
  0
LINE
  5
4CB
100
AcDbEntity
  8
NOTE
  6
CONTINUOUS
 62
     4
100
AcDbLine
 10
1538.937783
 20
645.201202
 30
0.0
 11
1538.937783
 21
685.201202
 31
0.0
  0
LINE
  5
4CC
100
AcDbEntity
  8
NOTE
  6
CONTINUOUS
 62
     4
100
AcDbLine
 10
1568.937783
 20
665.201202
 30
0.0
 11
1608.937783
 21
665.201202
 31
0.0
  0
POLYLINE
  5
4CD
100
AcDbEntity
  8
NOTE
  6
CONTINUOUS
 62
     4
100
AcDb2dPolyline
 66
     1
 10
0.0
 20
0.0
 30
0.0
  0
VERTEX
  5
4CE
100
AcDbEntity
  8
NOTE
  6
CONTINUOUS
 62
     4
100
AcDbVertex
100
AcDb2dVertex
 10
1422.543384
 20
1103.816194
 30
0.0
  0
VERTEX
  5
4CF
100
AcDbEntity
  8
NOTE
  6
CONTINUOUS
 62
     4
100
AcDbVertex
100
AcDb2dVertex
 10
1408.937783
 20
1066.201202
 30
0.0
  0
VERTEX
  5
4D0
100
AcDbEntity
  8
NOTE
  6
CONTINUOUS
 62
     4
100
AcDbVertex
100
AcDb2dVertex
 10
1439.528075
 20
1091.97394
 30
0.0
  0
SEQEND
  5
4D1
100
AcDbEntity
  8
NOTE
  6
CONTINUOUS
 62
     4
  0
LINE
  5
4D2
100
AcDbEntity
  8
NOTE
  6
CONTINUOUS
 62
     4
100
AcDbLine
 10
1388.937783
 20
1066.201202
 30
0.0
 11
1428.937783
 21
1066.201202
 31
0.0
  0
POLYLINE
  5
4D3
100
AcDbEntity
  8
NOTE
  6
CONTINUOUS
 62
     4
100
AcDb2dPolyline
 66
     1
 10
0.0
 20
0.0
 30
0.0
  0
VERTEX
  5
4D4
100
AcDbEntity
  8
NOTE
  6
CONTINUOUS
 62
     4
100
AcDbVertex
100
AcDb2dVertex
 10
1282.897498
 20
985.646407
 30
0.0
  0
VERTEX
  5
4D5
100
AcDbEntity
  8
NOTE
  6
CONTINUOUS
 62
     4
100
AcDbVertex
100
AcDb2dVertex
 10
1299.137786
 20
1022.201202
 30
0.0
  0
VERTEX
  5
4D6
100
AcDbEntity
  8
NOTE
  6
CONTINUOUS
 62
     4
100
AcDbVertex
100
AcDb2dVertex
 10
1266.795887
 20
998.663965
 30
0.0
  0
SEQEND
  5
4D7
100
AcDbEntity
  8
NOTE
  6
CONTINUOUS
 62
     4
  0
POLYLINE
  5
4D8
100
AcDbEntity
  8
NOTE
  6
CONTINUOUS
 62
     4
100
AcDb2dPolyline
 66
     1
 10
0.0
 20
0.0
 30
0.0
  0
VERTEX
  5
4D9
100
AcDbEntity
  8
NOTE
  6
CONTINUOUS
 62
     4
100
AcDbVertex
100
AcDb2dVertex
 10
1331.989996
 20
934.099131
 30
0.0
  0
VERTEX
  5
4DA
100
AcDbEntity
  8
NOTE
  6
CONTINUOUS
 62
     4
100
AcDbVertex
100
AcDb2dVertex
 10
1346.937783
 20
971.201202
 30
0.0
  0
VERTEX
  5
4DB
100
AcDbEntity
  8
NOTE
  6
CONTINUOUS
 62
     4
100
AcDbVertex
100
AcDb2dVertex
 10
1315.441584
 20
946.54376
 30
0.0
  0
SEQEND
  5
4DC
100
AcDbEntity
  8
NOTE
  6
CONTINUOUS
 62
     4
  0
POINT
  5
4DD
100
AcDbEntity
  8
DEFPOINTS
  6
CONTINUOUS
 62
     7
100
AcDbPoint
 10
1326.937783
 20
971.201202
 30
0.0
  0
POINT
  5
4DE
100
AcDbEntity
  8
DEFPOINTS
  6
CONTINUOUS
 62
     7
100
AcDbPoint
 10
1310.937783
 20
879.201202
 30
0.0
  0
POINT
  5
4DF
100
AcDbEntity
  8
DEFPOINTS
  6
CONTINUOUS
 62
     7
100
AcDbPoint
 10
1310.937783
 20
879.201202
 30
0.0
  0
POINT
  5
4E0
100
AcDbEntity
  8
DEFPOINTS
  6
CONTINUOUS
 62
     7
100
AcDbPoint
 10
1330.937783
 20
859.201202
 30
0.0
  0
POINT
  5
4E1
100
AcDbEntity
  8
DEFPOINTS
  6
CONTINUOUS
 62
     7
100
AcDbPoint
 10
1346.937783
 20
951.201202
 30
0.0
  0
LINE
  5
4E2
100
AcDbEntity
  8
DETAIL
  6
CONTINUOUS
 62
     5
100
AcDbLine
 10
1361.384868
 20
863.612745
 30
0.0
 11
1381.384867
 21
863.612745
 31
0.0
  0
LINE
  5
4E3
100
AcDbEntity
  8
DETAIL
  6
CONTINUOUS
 62
     5
100
AcDbLine
 10
1381.384867
 20
861.201202
 30
0.0
 11
1408.937783
 21
861.201202
 31
0.0
  0
LINE
  5
4E4
100
AcDbEntity
  8
DETAIL
  6
CONTINUOUS
 62
     5
100
AcDbLine
 10
1361.384868
 20
870.201202
 30
0.0
 11
1381.384867
 21
870.201202
 31
0.0
  0
LINE
  5
4E5
100
AcDbEntity
  8
DETAIL
  6
CONTINUOUS
 62
     5
100
AcDbLine
 10
1361.384868
 20
894.789659
 30
0.0
 11
1381.384867
 21
894.789659
 31
0.0
  0
LINE
  5
4E6
100
AcDbEntity
  8
DETAIL
  6
CONTINUOUS
 62
     5
100
AcDbLine
 10
1381.384867
 20
897.201202
 30
0.0
 11
1408.937783
 21
897.201202
 31
0.0
  0
LINE
  5
4E7
100
AcDbEntity
  8
DETAIL
  6
CONTINUOUS
 62
     5
100
AcDbLine
 10
1361.384868
 20
888.201202
 30
0.0
 11
1381.384867
 21
888.201202
 31
0.0
  0
LINE
  5
4E8
100
AcDbEntity
  8
DETAIL
  6
CONTINUOUS
 62
     5
100
AcDbLine
 10
1381.384867
 20
861.201202
 30
0.0
 11
1381.384867
 21
897.201202
 31
0.0
  0
LINE
  5
4E9
100
AcDbEntity
  8
DETAIL
  6
CONTINUOUS
 62
     5
100
AcDbLine
 10
1361.384868
 20
863.612745
 30
0.0
 11
1361.384868
 21
894.789659
 31
0.0
  0
LINE
  5
4EA
100
AcDbEntity
  8
DETAIL
  6
CONTINUOUS
 62
     5
100
AcDbLine
 10
1345.384868
 20
863.612745
 30
0.0
 11
1338.984868
 21
867.307787
 31
0.0
  0
LINE
  5
4EB
100
AcDbEntity
  8
DETAIL
  6
CONTINUOUS
 62
     5
100
AcDbLine
 10
1358.984868
 20
863.612745
 30
0.0
 11
1345.384868
 21
863.612745
 31
0.0
  0
LINE
  5
4EC
100
AcDbEntity
  8
DETAIL
  6
CONTINUOUS
 62
     5
100
AcDbLine
 10
1345.384868
 20
870.201202
 30
0.0
 11
1358.984868
 21
870.201202
 31
0.0
  0
LINE
  5
4ED
100
AcDbEntity
  8
DETAIL
  6
CONTINUOUS
 62
     5
100
AcDbLine
 10
1345.384868
 20
894.789659
 30
0.0
 11
1338.984868
 21
891.094617
 31
0.0
  0
LINE
  5
4EE
100
AcDbEntity
  8
DETAIL
  6
CONTINUOUS
 62
     5
100
AcDbLine
 10
1358.984868
 20
894.789659
 30
0.0
 11
1345.384868
 21
894.789659
 31
0.0
  0
LINE
  5
4EF
100
AcDbEntity
  8
DETAIL
  6
CONTINUOUS
 62
     5
100
AcDbLine
 10
1345.384868
 20
888.201202
 30
0.0
 11
1358.984868
 21
888.201202
 31
0.0
  0
LINE
  5
4F0
100
AcDbEntity
  8
DETAIL
  6
CONTINUOUS
 62
     5
100
AcDbLine
 10
1338.984868
 20
867.307787
 30
0.0
 11
1338.984868
 21
891.094617
 31
0.0
  0
LINE
  5
4F1
100
AcDbEntity
  8
DETAIL
  6
CONTINUOUS
 62
     5
100
AcDbLine
 10
1345.384868
 20
863.612745
 30
0.0
 11
1345.384868
 21
894.789659
 31
0.0
  0
LINE
  5
4F2
100
AcDbEntity
  8
DETAIL
  6
CONTINUOUS
 62
     5
100
AcDbLine
 10
1358.984868
 20
863.612745
 30
0.0
 11
1358.984868
 21
894.789659
 31
0.0
  0
ARC
  5
4F3
100
AcDbEntity
  8
DETAIL
  6
CONTINUOUS
 62
     5
100
AcDbCircle
 10
1341.174755
 20
879.201202
 30
0.0
 40
10.236972
100
AcDbArc
 50
102.352137
 51
257.647863
  0
LINE
  5
4F4
100
AcDbEntity
  8
DETAIL
  6
CONTINUOUS
 62
     5
100
AcDbLine
 10
1361.384868
 20
889.757608
 30
0.0
 11
1358.984868
 21
889.757608
 31
0.0
  0
LINE
  5
4F5
100
AcDbEntity
  8
DETAIL
  6
CONTINUOUS
 62
     5
100
AcDbLine
 10
1361.384868
 20
868.644796
 30
0.0
 11
1358.984868
 21
868.644796
 31
0.0
  0
LINE
  5
4F6
100
AcDbEntity
  8
DETAIL
  6
CONTINUOUS
 62
     5
100
AcDbLine
 10
1381.154213
 20
956.201202
 30
0.0
 11
1408.937783
 21
956.201202
 31
0.0
  0
LINE
  5
4F7
100
AcDbEntity
  8
DETAIL
  6
CONTINUOUS
 62
     5
100
AcDbLine
 10
1367.154213
 20
964.344796
 30
0.0
 11
1365.154214
 21
964.344796
 31
0.0
  0
LINE
  5
4F8
100
AcDbEntity
  8
DETAIL
  6
CONTINUOUS
 62
     5
100
AcDbLine
 10
1367.154213
 20
958.210821
 30
0.0
 11
1381.154213
 21
958.210821
 31
0.0
  0
LINE
  5
4F9
100
AcDbEntity
  8
DETAIL
  6
CONTINUOUS
 62
     5
100
AcDbLine
 10
1367.154213
 20
963.701202
 30
0.0
 11
1381.154213
 21
963.701202
 31
0.0
  0
LINE
  5
4FA
100
AcDbEntity
  8
DETAIL
  6
CONTINUOUS
 62
     5
100
AcDbLine
 10
1381.154213
 20
986.201202
 30
0.0
 11
1408.937783
 21
986.201202
 31
0.0
  0
LINE
  5
4FB
100
AcDbEntity
  8
DETAIL
  6
CONTINUOUS
 62
     5
100
AcDbLine
 10
1367.154213
 20
978.057608
 30
0.0
 11
1365.154214
 21
978.057608
 31
0.0
  0
LINE
  5
4FC
100
AcDbEntity
  8
DETAIL
  6
CONTINUOUS
 62
     5
100
AcDbLine
 10
1367.154213
 20
984.191583
 30
0.0
 11
1381.154213
 21
984.191583
 31
0.0
  0
LINE
  5
4FD
100
AcDbEntity
  8
DETAIL
  6
CONTINUOUS
 62
     5
100
AcDbLine
 10
1367.154213
 20
978.701202
 30
0.0
 11
1381.154213
 21
978.701202
 31
0.0
  0
LINE
  5
4FE
100
AcDbEntity
  8
DETAIL
  6
CONTINUOUS
 62
     5
100
AcDbLine
 10
1367.154213
 20
958.210821
 30
0.0
 11
1367.154213
 21
984.191583
 31
0.0
  0
LINE
  5
4FF
100
AcDbEntity
  8
DETAIL
  6
CONTINUOUS
 62
     5
100
AcDbLine
 10
1365.154214
 20
958.210821
 30
0.0
 11
1365.154214
 21
984.191583
 31
0.0
  0
LINE
  5
500
100
AcDbEntity
  8
DETAIL
  6
CONTINUOUS
 62
     5
100
AcDbLine
 10
1381.154213
 20
956.201202
 30
0.0
 11
1381.154213
 21
986.201202
 31
0.0
  0
LINE
  5
501
100
AcDbEntity
  8
DETAIL
  6
CONTINUOUS
 62
     5
100
AcDbLine
 10
1351.76216
 20
961.282618
 30
0.0
 11
1354.76216
 21
958.210821
 31
0.0
  0
LINE
  5
502
100
AcDbEntity
  8
DETAIL
  6
CONTINUOUS
 62
     5
100
AcDbLine
 10
1351.76216
 20
981.119786
 30
0.0
 11
1354.76216
 21
984.191583
 31
0.0
  0
LINE
  5
503
100
AcDbEntity
  8
DETAIL
  6
CONTINUOUS
 62
     5
100
AcDbLine
 10
1351.76216
 20
961.282618
 30
0.0
 11
1351.76216
 21
981.119786
 31
0.0
  0
LINE
  5
504
100
AcDbEntity
  8
DETAIL
  6
CONTINUOUS
 62
     5
100
AcDbLine
 10
1354.76216
 20
958.210821
 30
0.0
 11
1354.76216
 21
984.191583
 31
0.0
  0
ARC
  5
505
100
AcDbEntity
  8
DETAIL
  6
CONTINUOUS
 62
     5
100
AcDbCircle
 10
1354.428347
 20
971.201202
 30
0.0
 40
7.490564
100
AcDbArc
 50
110.851032
 51
249.148968
  0
LINE
  5
506
100
AcDbEntity
  8
DETAIL
  6
CONTINUOUS
 62
     5
100
AcDbLine
 10
1354.76216
 20
984.191583
 30
0.0
 11
1365.154214
 21
984.191583
 31
0.0
  0
LINE
  5
507
100
AcDbEntity
  8
DETAIL
  6
CONTINUOUS
 62
     5
100
AcDbLine
 10
1354.76216
 20
958.210821
 30
0.0
 11
1365.154214
 21
958.210821
 31
0.0
  0
LINE
  5
508
100
AcDbEntity
  8
DETAIL
  6
CONTINUOUS
 62
     5
100
AcDbLine
 10
1354.76216
 20
963.701202
 30
0.0
 11
1365.154214
 21
963.701202
 31
0.0
  0
LINE
  5
509
100
AcDbEntity
  8
DETAIL
  6
CONTINUOUS
 62
     5
100
AcDbLine
 10
1354.76216
 20
978.701202
 30
0.0
 11
1365.154214
 21
978.701202
 31
0.0
  0
LINE
  5
50A
100
AcDbEntity
  8
NOTE
  6
CONTINUOUS
 62
     4
100
AcDbLine
 10
1346.937783
 20
951.201202
 30
0.0
 11
1346.937783
 21
991.201202
 31
0.0
  0
LINE
  5
50B
100
AcDbEntity
  8
NOTE
  6
CONTINUOUS
 62
     4
100
AcDbLine
 10
1326.937783
 20
971.201202
 30
0.0
 11
1366.937783
 21
971.201202
 31
0.0
  0
LINE
  5
50C
100
AcDbEntity
  8
NOTE
  6
CONTINUOUS
 62
     4
100
AcDbLine
 10
1330.937783
 20
859.201202
 30
0.0
 11
1330.937783
 21
899.201202
 31
0.0
  0
LINE
  5
50D
100
AcDbEntity
  8
NOTE
  6
CONTINUOUS
 62
     4
100
AcDbLine
 10
1310.937783
 20
879.201202
 30
0.0
 11
1350.937783
 21
879.201202
 31
0.0
  0
CIRCLE
  5
50E
100
AcDbEntity
  8
SIZE
  6
CONTINUOUS
 62
    30
100
AcDbCircle
 10
1310.15196
 20
1102.701202
 30
0.0
 40
5.0
  0
LINE
  5
50F
100
AcDbEntity
  8
SIZE
  6
CONTINUOUS
 62
    30
100
AcDbLine
 10
1318.937783
 20
1102.701202
 30
0.0
 11
1280.15196
 21
1102.701202
 31
0.0
  0
LINE
  5
510
100
AcDbEntity
  8
NOTE
  6
CONTINUOUS
 62
     4
100
AcDbLine
 10
1279.137786
 20
1022.201202
 30
0.0
 11
1319.137786
 21
1022.201202
 31
0.0
  0
LINE
  5
511
100
AcDbEntity
  8
NOTE
  6
CONTINUOUS
 62
     4
100
AcDbLine
 10
1279.137786
 20
1022.201202
 30
0.0
 11
1319.137786
 21
1022.201202
 31
0.0
  0
LINE
  5
512
100
AcDbEntity
  8
DETAIL
  6
CONTINUOUS
 62
     5
100
AcDbLine
 10
1323.657053
 20
1002.201202
 30
0.0
 11
1299.137786
 21
1002.201202
 31
0.0
  0
LINE
  5
513
100
AcDbEntity
  8
DETAIL
  6
CONTINUOUS
 62
     5
100
AcDbLine
 10
1323.657053
 20
1042.201202
 30
0.0
 11
1299.137786
 21
1042.201202
 31
0.0
  0
POINT
  5
514
100
AcDbEntity
  8
DEFPOINTS
  6
CONTINUOUS
 62
     7
100
AcDbPoint
 10
1279.137786
 20
1022.201202
 30
0.0
  0
LINE
  5
515
100
AcDbEntity
  8
DETAIL
  6
CONTINUOUS
 62
     5
100
AcDbLine
 10
1299.137786
 20
1002.201202
 30
0.0
 11
1299.137786
 21
1042.201202
 31
0.0
  0
POINT
  5
516
100
AcDbEntity
  8
DEFPOINTS
  6
CONTINUOUS
 62
     7
100
AcDbPoint
 10
1408.937783
 20
1066.201202
 30
0.0
  0
POINT
  5
517
100
AcDbEntity
  8
DEFPOINTS
  6
CONTINUOUS
 62
     7
100
AcDbPoint
 10
1310.15196
 20
1102.701202
 30
0.0
  0
POINT
  5
518
100
AcDbEntity
  8
DEFPOINTS
  6
CONTINUOUS
 62
     7
100
AcDbPoint
 10
1338.937783
 20
1102.701202
 30
0.0
  0
LINE
  5
519
100
AcDbEntity
  8
SIZE
  6
CONTINUOUS
 62
    30
100
AcDbLine
 10
1310.15196
 20
1107.701202
 30
0.0
 11
1310.15196
 21
1112.701202
 31
0.0
  0
LINE
  5
51A
100
AcDbEntity
  8
DETAIL
  6
CONTINUOUS
 62
     5
100
AcDbLine
 10
1408.937783
 20
1042.201202
 30
0.0
 11
1408.937783
 21
1002.201202
 31
0.0
  0
LINE
  5
51B
100
AcDbEntity
  8
NOTE
  6
CONTINUOUS
 62
     4
100
AcDbLine
 10
1408.937783
 20
1046.201202
 30
0.0
 11
1408.937783
 21
1086.201202
 31
0.0
  0
LINE
  5
51C
100
AcDbEntity
  8
DETAIL
  6
CONTINUOUS
 62
     5
100
AcDbLine
 10
1408.937783
 20
1002.201202
 30
0.0
 11
1389.137783
 21
1002.201202
 31
0.0
  0
ARC
  5
51D
100
AcDbEntity
  8
DETAIL
  6
CONTINUOUS
 62
     5
100
AcDbCircle
 10
1386.637784
 20
1007.201202
 30
0.0
 40
2.5
100
AcDbArc
 50
180.0
 51
0.0
  0
ARC
  5
51E
100
AcDbEntity
  8
DETAIL
  6
CONTINUOUS
 62
     5
100
AcDbCircle
 10
1381.637784
 20
1007.201202
 30
0.0
 40
2.5
100
AcDbArc
 50
180.0
 51
0.0
  0
ARC
  5
51F
100
AcDbEntity
  8
DETAIL
  6
CONTINUOUS
 62
     5
100
AcDbCircle
 10
1371.637784
 20
1007.201202
 30
0.0
 40
2.5
100
AcDbArc
 50
180.0
 51
0.0
  0
ARC
  5
520
100
AcDbEntity
  8
DETAIL
  6
CONTINUOUS
 62
     5
100
AcDbCircle
 10
1376.637784
 20
1007.201202
 30
0.0
 40
2.5
100
AcDbArc
 50
180.0
 51
0.0
  0
ARC
  5
521
100
AcDbEntity
  8
DETAIL
  6
CONTINUOUS
 62
     5
100
AcDbCircle
 10
1361.637784
 20
1007.201202
 30
0.0
 40
2.5
100
AcDbArc
 50
180.0
 51
0.0
  0
ARC
  5
522
100
AcDbEntity
  8
DETAIL
  6
CONTINUOUS
 62
     5
100
AcDbCircle
 10
1366.637784
 20
1007.201202
 30
0.0
 40
2.5
100
AcDbArc
 50
180.0
 51
0.0
  0
LINE
  5
523
100
AcDbEntity
  8
DETAIL
  6
CONTINUOUS
 62
     5
100
AcDbLine
 10
1324.137785
 20
1007.201202
 30
0.0
 11
1323.657053
 21
1007.201202
 31
0.0
  0
ARC
  5
524
100
AcDbEntity
  8
DETAIL
  6
CONTINUOUS
 62
     5
100
AcDbCircle
 10
1351.637784
 20
1007.201202
 30
0.0
 40
2.5
100
AcDbArc
 50
180.0
 51
0.0
  0
ARC
  5
525
100
AcDbEntity
  8
DETAIL
  6
CONTINUOUS
 62
     5
100
AcDbCircle
 10
1341.637785
 20
1007.201202
 30
0.0
 40
2.5
100
AcDbArc
 50
180.0
 51
0.0
  0
ARC
  5
526
100
AcDbEntity
  8
DETAIL
  6
CONTINUOUS
 62
     5
100
AcDbCircle
 10
1346.637785
 20
1007.201202
 30
0.0
 40
2.5
100
AcDbArc
 50
180.0
 51
0.0
  0
ARC
  5
527
100
AcDbEntity
  8
DETAIL
  6
CONTINUOUS
 62
     5
100
AcDbCircle
 10
1331.637785
 20
1007.201202
 30
0.0
 40
2.5
100
AcDbArc
 50
180.0
 51
0.0
  0
ARC
  5
528
100
AcDbEntity
  8
DETAIL
  6
CONTINUOUS
 62
     5
100
AcDbCircle
 10
1336.637785
 20
1007.201202
 30
0.0
 40
2.5
100
AcDbArc
 50
180.0
 51
0.0
  0
ARC
  5
529
100
AcDbEntity
  8
DETAIL
  6
CONTINUOUS
 62
     5
100
AcDbCircle
 10
1326.637785
 20
1007.201202
 30
0.0
 40
2.5
100
AcDbArc
 50
180.0
 51
0.0
  0
ARC
  5
52A
100
AcDbEntity
  8
DETAIL
  6
CONTINUOUS
 62
     5
100
AcDbCircle
 10
1356.637784
 20
1007.201202
 30
0.0
 40
2.5
100
AcDbArc
 50
180.0
 51
0.0
  0
LINE
  5
52B
100
AcDbEntity
  8
DETAIL
  6
CONTINUOUS
 62
     5
100
AcDbLine
 10
1408.937783
 20
1042.201202
 30
0.0
 11
1389.137783
 21
1042.201202
 31
0.0
  0
LINE
  5
52C
100
AcDbEntity
  8
DETAIL
  6
CONTINUOUS
 62
     5
100
AcDbLine
 10
1389.137783
 20
1037.201202
 30
0.0
 11
1386.637784
 21
1037.201202
 31
0.0
  0
ARC
  5
52D
100
AcDbEntity
  8
DETAIL
  6
CONTINUOUS
 62
     5
100
AcDbCircle
 10
1379.137784
 20
1037.201202
 30
0.0
 40
2.5
100
AcDbArc
 50
0.0
 51
189.527283
  0
ARC
  5
52E
100
AcDbEntity
  8
DETAIL
  6
CONTINUOUS
 62
     5
100
AcDbCircle
 10
1384.137784
 20
1037.201202
 30
0.0
 40
2.5
100
AcDbArc
 50
0.0
 51
189.527283
  0
ARC
  5
52F
100
AcDbEntity
  8
DETAIL
  6
CONTINUOUS
 62
     5
100
AcDbCircle
 10
1374.137784
 20
1037.201202
 30
0.0
 40
2.5
100
AcDbArc
 50
0.0
 51
189.527283
  0
ARC
  5
530
100
AcDbEntity
  8
DETAIL
  6
CONTINUOUS
 62
     5
100
AcDbCircle
 10
1369.137784
 20
1037.201202
 30
0.0
 40
2.5
100
AcDbArc
 50
0.0
 51
189.527283
  0
ARC
  5
531
100
AcDbEntity
  8
DETAIL
  6
CONTINUOUS
 62
     5
100
AcDbCircle
 10
1364.137784
 20
1037.201202
 30
0.0
 40
2.5
100
AcDbArc
 50
0.0
 51
189.527283
  0
LINE
  5
532
100
AcDbEntity
  8
DETAIL
  6
CONTINUOUS
 62
     5
100
AcDbLine
 10
1408.937783
 20
1018.601202
 30
0.0
 11
1408.937783
 21
1021.401202
 31
0.0
  0
ARC
  5
533
100
AcDbEntity
  8
DETAIL
  6
CONTINUOUS
 62
     5
100
AcDbCircle
 10
1354.137784
 20
1037.201202
 30
0.0
 40
2.5
100
AcDbArc
 50
0.0
 51
189.527283
  0
ARC
  5
534
100
AcDbEntity
  8
DETAIL
  6
CONTINUOUS
 62
     5
100
AcDbCircle
 10
1349.137784
 20
1037.201202
 30
0.0
 40
2.5
100
AcDbArc
 50
0.0
 51
189.527283
  0
ARC
  5
535
100
AcDbEntity
  8
DETAIL
  6
CONTINUOUS
 62
     5
100
AcDbCircle
 10
1344.137785
 20
1037.201202
 30
0.0
 40
2.5
100
AcDbArc
 50
0.0
 51
189.527283
  0
ARC
  5
536
100
AcDbEntity
  8
DETAIL
  6
CONTINUOUS
 62
     5
100
AcDbCircle
 10
1339.137785
 20
1037.201202
 30
0.0
 40
2.5
100
AcDbArc
 50
0.0
 51
189.527283
  0
ARC
  5
537
100
AcDbEntity
  8
DETAIL
  6
CONTINUOUS
 62
     5
100
AcDbCircle
 10
1334.137785
 20
1037.201202
 30
0.0
 40
2.5
100
AcDbArc
 50
0.0
 51
189.527283
  0
ARC
  5
538
100
AcDbEntity
  8
DETAIL
  6
CONTINUOUS
 62
     5
100
AcDbCircle
 10
1329.137785
 20
1037.201202
 30
0.0
 40
2.5
100
AcDbArc
 50
0.0
 51
189.527283
  0
LINE
  5
539
100
AcDbEntity
  8
DETAIL
  6
CONTINUOUS
 62
     5
100
AcDbLine
 10
1326.637785
 20
1037.201202
 30
0.0
 11
1323.657053
 21
1037.201202
 31
0.0
  0
ARC
  5
53A
100
AcDbEntity
  8
DETAIL
  6
CONTINUOUS
 62
     5
100
AcDbCircle
 10
1359.137784
 20
1037.201202
 30
0.0
 40
2.5
100
AcDbArc
 50
0.0
 51
189.527283
  0
LINE
  5
53B
100
AcDbEntity
  8
DETAIL
  6
CONTINUOUS
 62
     5
100
AcDbLine
 10
1389.137783
 20
1002.201202
 30
0.0
 11
1389.137783
 21
1042.201202
 31
0.0
  0
LINE
  5
53C
100
AcDbEntity
  8
DETAIL
  6
CONTINUOUS
 62
     5
100
AcDbLine
 10
1323.657053
 20
1002.201202
 30
0.0
 11
1323.657053
 21
1042.201202
 31
0.0
  0
LINE
  5
53D
100
AcDbEntity
  8
DETAIL
  6
CONTINUOUS
 62
     5
100
AcDbLine
 10
1381.637784
 20
1037.201202
 30
0.0
 11
1384.137784
 21
1007.201202
 31
0.0
  0
LINE
  5
53E
100
AcDbEntity
  8
DETAIL
  6
CONTINUOUS
 62
     5
100
AcDbLine
 10
1376.637784
 20
1037.201202
 30
0.0
 11
1379.137784
 21
1007.201202
 31
0.0
  0
LINE
  5
53F
100
AcDbEntity
  8
DETAIL
  6
CONTINUOUS
 62
     5
100
AcDbLine
 10
1386.637784
 20
1037.201202
 30
0.0
 11
1389.137783
 21
1007.201202
 31
0.0
  0
LINE
  5
540
100
AcDbEntity
  8
DETAIL
  6
CONTINUOUS
 62
     5
100
AcDbLine
 10
1366.637784
 20
1037.201202
 30
0.0
 11
1369.137784
 21
1007.201202
 31
0.0
  0
LINE
  5
541
100
AcDbEntity
  8
DETAIL
  6
CONTINUOUS
 62
     5
100
AcDbLine
 10
1371.637784
 20
1037.201202
 30
0.0
 11
1374.137784
 21
1007.201202
 31
0.0
  0
LINE
  5
542
100
AcDbEntity
  8
DETAIL
  6
CONTINUOUS
 62
     5
100
AcDbLine
 10
1356.637784
 20
1037.201202
 30
0.0
 11
1359.137784
 21
1007.201202
 31
0.0
  0
LINE
  5
543
100
AcDbEntity
  8
DETAIL
  6
CONTINUOUS
 62
     5
100
AcDbLine
 10
1361.637784
 20
1037.201202
 30
0.0
 11
1364.137784
 21
1007.201202
 31
0.0
  0
LINE
  5
544
100
AcDbEntity
  8
DETAIL
  6
CONTINUOUS
 62
     5
100
AcDbLine
 10
1346.637785
 20
1037.201202
 30
0.0
 11
1349.137784
 21
1007.201202
 31
0.0
  0
LINE
  5
545
100
AcDbEntity
  8
DETAIL
  6
CONTINUOUS
 62
     5
100
AcDbLine
 10
1351.637784
 20
1037.201202
 30
0.0
 11
1354.137784
 21
1007.201202
 31
0.0
  0
LINE
  5
546
100
AcDbEntity
  8
DETAIL
  6
CONTINUOUS
 62
     5
100
AcDbLine
 10
1341.637785
 20
1037.201202
 30
0.0
 11
1344.137785
 21
1007.201202
 31
0.0
  0
LINE
  5
547
100
AcDbEntity
  8
DETAIL
  6
CONTINUOUS
 62
     5
100
AcDbLine
 10
1336.637785
 20
1037.201202
 30
0.0
 11
1339.137785
 21
1007.201202
 31
0.0
  0
LINE
  5
548
100
AcDbEntity
  8
DETAIL
  6
CONTINUOUS
 62
     5
100
AcDbLine
 10
1331.637785
 20
1037.201202
 30
0.0
 11
1334.137785
 21
1007.201202
 31
0.0
  0
LINE
  5
549
100
AcDbEntity
  8
DETAIL
  6
CONTINUOUS
 62
     5
100
AcDbLine
 10
1326.637785
 20
1037.201202
 30
0.0
 11
1329.137785
 21
1007.201202
 31
0.0
  0
LINE
  5
54A
100
AcDbEntity
  8
DETAIL
  6
CONTINUOUS
 62
     5
100
AcDbLine
 10
1323.657053
 20
1012.969986
 30
0.0
 11
1324.137785
 21
1007.201202
 31
0.0
  0
LINE
  5
54B
100
AcDbEntity
  8
DETAIL
  6
CONTINUOUS
 62
     5
100
AcDbLine
 10
1389.137783
 20
1006.903696
 30
0.0
 11
1389.137783
 21
1037.498708
 31
0.0
  0
LINE
  5
54C
100
AcDbEntity
  8
DETAIL
  6
CONTINUOUS
 62
     5
100
AcDbLine
 10
1338.937783
 20
1102.701202
 30
0.0
 11
1408.937783
 21
1102.701202
 31
0.0
  0
LINE
  5
54D
100
AcDbEntity
  8
SIZE
  6
CONTINUOUS
 62
    30
100
AcDbLine
 10
1429.937783
 20
1648.201202
 30
0.0
 11
39.999995
 21
1648.201202
 31
0.0
  0
LINE
  5
54E
100
AcDbEntity
  8
SIZE
  6
CONTINUOUS
 62
    30
100
AcDbLine
 10
1388.937783
 20
1624.201202
 30
0.0
 11
39.999995
 21
1624.201202
 31
0.0
  0
LINE
  5
54F
100
AcDbEntity
  8
SIZE
  6
CONTINUOUS
 62
    30
100
AcDbLine
 10
1388.937783
 20
1624.201202
 30
0.0
 11
39.999995
 21
1624.201202
 31
0.0
  0
LINE
  5
550
100
AcDbEntity
  8
SIZE
  6
CONTINUOUS
 62
    30
100
AcDbLine
 10
1388.937783
 20
1526.201202
 30
0.0
 11
39.999995
 21
1526.201202
 31
0.0
  0
LINE
  5
551
100
AcDbEntity
  8
SIZE
  6
CONTINUOUS
 62
    30
100
AcDbLine
 10
1388.937783
 20
1526.201202
 30
0.0
 11
39.999995
 21
1526.201202
 31
0.0
  0
LINE
  5
552
100
AcDbEntity
  8
SIZE
  6
CONTINUOUS
 62
    30
100
AcDbLine
 10
718.937783
 20
2245.057752
 30
0.0
 11
1398.937783
 21
2245.057752
 31
0.0
  0
LINE
  5
553
100
AcDbEntity
  8
SERVICESPACE
  6
DASHDOT
 62
     2
100
AcDbLine
 10
1208.937783
 20
1324.201202
 30
0.0
 11
708.937783
 21
1324.201202
 31
0.0
  0
LINE
  5
554
100
AcDbEntity
  8
SERVICESPACE
  6
DASHDOT
 62
     2
100
AcDbLine
 10
1408.937783
 20
1624.201202
 30
0.0
 11
708.937783
 21
1624.201202
 31
0.0
  0
LINE
  5
555
100
AcDbEntity
  8
NOTE
  6
CONTINUOUS
 62
     4
100
AcDbLine
 10
1153.00005
 20
1874.666628
 30
0.0
 11
480.806956
 21
1874.666628
 31
0.0
  0
TEXT
  5
556
100
AcDbEntity
  8
NOTE
  6
CONTINUOUS
 62
     4
100
AcDbText
 10
486.106129
 20
1894.537216
 30
0.0
 40
64.0
  1
AH4-14×30長穴
 41
0.9
100
AcDbText
  0
TEXT
  5
557
100
AcDbEntity
  8
NOTE
  6
CONTINUOUS
 62
     4
100
AcDbText
 10
723.452855
 20
1438.423066
 30
0.0
 40
64.0
  1
サービススペース
 41
0.8
100
AcDbText
  0
TEXT
  5
558
100
AcDbEntity
  8
SIZE
  6
CONTINUOUS
 62
    30
100
AcDbText
 10
54.999995
 20
1705.208165
 30
0.0
 40
55.0
  1
24
 50
90.0
 41
0.9
 72
     1
 11
54.999995
 21
1746.458165
 31
0.0
100
AcDbText
  0
LINE
  5
559
100
AcDbEntity
  8
SIZE
  6
CONTINUOUS
 62
    30
100
AcDbLine
 10
69.999995
 20
1802.708165
 30
0.0
 11
69.999995
 21
1648.201202
 31
0.0
  0
TEXT
  5
55A
100
AcDbEntity
  8
SIZE
  6
CONTINUOUS
 62
    30
100
AcDbText
 10
176.542966
 20
1684.74319
 30
0.0
 40
55.0
  1
200～300
 50
90.0
 41
0.9
 72
     1
 11
176.542966
 21
1848.800332
 31
0.0
100
AcDbText
  0
LINE
  5
55B
100
AcDbEntity
  8
SIZE
  6
CONTINUOUS
 62
    30
100
AcDbLine
 10
191.542966
 20
1624.201202
 30
0.0
 11
191.542966
 21
2027.857475
 31
0.0
  0
LINE
  5
55C
100
AcDbEntity
  8
SIZE
  6
CONTINUOUS
 62
    30
100
AcDbLine
 10
708.937783
 20
1644.201202
 30
0.0
 11
708.937783
 21
2275.057752
 31
0.0
  0
LINE
  5
55D
100
AcDbEntity
  8
SIZE
  6
CONTINUOUS
 62
    30
100
AcDbLine
 10
688.937783
 20
1324.201202
 30
0.0
 11
161.542966
 21
1324.201202
 31
0.0
  0
LINE
  5
55E
100
AcDbEntity
  8
SIZE
  6
CONTINUOUS
 62
    30
100
AcDbLine
 10
692.873509
 20
1324.201202
 30
0.0
 11
161.542966
 21
1324.201202
 31
0.0
  0
LINE
  5
55F
100
AcDbEntity
  8
SIZE
  6
CONTINUOUS
 62
    30
100
AcDbLine
 10
692.873509
 20
1624.201202
 30
0.0
 11
161.542966
 21
1624.201202
 31
0.0
  0
LINE
  5
560
100
AcDbEntity
  8
SIZE
  6
CONTINUOUS
 62
    30
100
AcDbLine
 10
191.542966
 20
1334.201202
 30
0.0
 11
191.542966
 21
1614.201202
 31
0.0
  0
CIRCLE
  5
561
100
AcDbEntity
  8
SIZE
  6
CONTINUOUS
 62
    30
100
AcDbCircle
 10
191.542966
 20
1324.201202
 30
0.0
 40
5.0
  0
CIRCLE
  5
562
100
AcDbEntity
  8
SIZE
  6
CONTINUOUS
 62
    30
100
AcDbCircle
 10
191.542966
 20
1324.201202
 30
0.0
 40
5.0
  0
LINE
  5
563
100
AcDbEntity
  8
SIZE
  6
CONTINUOUS
 62
    30
100
AcDbLine
 10
191.542966
 20
1319.201202
 30
0.0
 11
191.542966
 21
1314.201202
 31
0.0
  0
POINT
  5
564
100
AcDbEntity
  8
DEFPOINTS
  6
CONTINUOUS
 62
     7
100
AcDbPoint
 10
191.542966
 20
1324.201202
 30
0.0
  0
LINE
  5
565
100
AcDbEntity
  8
SIZE
  6
CONTINUOUS
 62
    30
100
AcDbLine
 10
191.542966
 20
1329.201202
 30
0.0
 11
191.542966
 21
1334.201202
 31
0.0
  0
LINE
  5
566
100
AcDbEntity
  8
SIZE
  6
CONTINUOUS
 62
    30
100
AcDbLine
 10
69.999995
 20
1614.201202
 30
0.0
 11
69.999995
 21
1604.201202
 31
0.0
  0
TEXT
  5
567
100
AcDbEntity
  8
SIZE
  6
CONTINUOUS
 62
    30
100
AcDbText
 10
54.999995
 20
1535.129774
 30
0.0
 40
55.0
  1
98
 50
90.0
 41
0.9
 72
     1
 11
54.999995
 21
1575.201202
 31
0.0
100
AcDbText
  0
LINE
  5
568
100
AcDbEntity
  8
SIZE
  6
CONTINUOUS
 62
    30
100
AcDbLine
 10
69.999995
 20
1526.201202
 30
0.0
 11
69.999995
 21
1624.201202
 31
0.0
  0
LINE
  5
569
100
AcDbEntity
  8
SIZE
  6
CONTINUOUS
 62
    30
100
AcDbLine
 10
69.999995
 20
1521.201202
 30
0.0
 11
69.999995
 21
1516.201202
 31
0.0
  0
CIRCLE
  5
56A
100
AcDbEntity
  8
SIZE
  6
CONTINUOUS
 62
    30
100
AcDbCircle
 10
69.999995
 20
1526.201202
 30
0.0
 40
5.0
  0
LINE
  5
56B
100
AcDbEntity
  8
SIZE
  6
CONTINUOUS
 62
    30
100
AcDbLine
 10
69.999995
 20
1516.201202
 30
0.0
 11
69.999995
 21
1506.201202
 31
0.0
  0
POINT
  5
56C
100
AcDbEntity
  8
DEFPOINTS
  6
CONTINUOUS
 62
     7
100
AcDbPoint
 10
69.999995
 20
1526.201202
 30
0.0
  0
LINE
  5
56D
100
AcDbEntity
  8
SIZE
  6
CONTINUOUS
 62
    30
100
AcDbLine
 10
69.999995
 20
1521.201202
 30
0.0
 11
69.999995
 21
1516.201202
 31
0.0
  0
CIRCLE
  5
56E
100
AcDbEntity
  8
SIZE
  6
CONTINUOUS
 62
    30
100
AcDbCircle
 10
69.999995
 20
1526.201202
 30
0.0
 40
5.0
  0
POINT
  5
56F
100
AcDbEntity
  8
DEFPOINTS
  6
CONTINUOUS
 62
     7
100
AcDbPoint
 10
69.999995
 20
1648.201202
 30
0.0
  0
LINE
  5
570
100
AcDbEntity
  8
SIZE
  6
CONTINUOUS
 62
    30
100
AcDbLine
 10
69.999995
 20
1653.201202
 30
0.0
 11
69.999995
 21
1658.201202
 31
0.0
  0
CIRCLE
  5
571
100
AcDbEntity
  8
SIZE
  6
CONTINUOUS
 62
    30
100
AcDbCircle
 10
69.999995
 20
1648.201202
 30
0.0
 40
5.0
  0
LINE
  5
572
100
AcDbEntity
  8
SIZE
  6
CONTINUOUS
 62
    30
100
AcDbLine
 10
69.999995
 20
1619.201202
 30
0.0
 11
69.999995
 21
1614.201202
 31
0.0
  0
CIRCLE
  5
573
100
AcDbEntity
  8
SIZE
  6
CONTINUOUS
 62
    30
100
AcDbCircle
 10
69.999995
 20
1624.201202
 30
0.0
 40
5.0
  0
LINE
  5
574
100
AcDbEntity
  8
SIZE
  6
CONTINUOUS
 62
    30
100
AcDbLine
 10
69.999995
 20
1624.201202
 30
0.0
 11
69.999995
 21
1648.201202
 31
0.0
  0
LINE
  5
575
100
AcDbEntity
  8
SIZE
  6
CONTINUOUS
 62
    30
100
AcDbLine
 10
69.999995
 20
1624.201202
 30
0.0
 11
69.999995
 21
1648.201202
 31
0.0
  0
LINE
  5
576
100
AcDbEntity
  8
SIZE
  6
CONTINUOUS
 62
    30
100
AcDbLine
 10
69.999995
 20
1658.201202
 30
0.0
 11
69.999995
 21
1668.201202
 31
0.0
  0
POINT
  5
577
100
AcDbEntity
  8
DEFPOINTS
  6
CONTINUOUS
 62
     7
100
AcDbPoint
 10
69.999995
 20
1624.201202
 30
0.0
  0
LINE
  5
578
100
AcDbEntity
  8
SIZE
  6
CONTINUOUS
 62
    30
100
AcDbLine
 10
69.999995
 20
1629.201202
 30
0.0
 11
69.999995
 21
1634.201202
 31
0.0
  0
CIRCLE
  5
579
100
AcDbEntity
  8
SIZE
  6
CONTINUOUS
 62
    30
100
AcDbCircle
 10
69.999995
 20
1624.201202
 30
0.0
 40
5.0
  0
LINE
  5
57A
100
AcDbEntity
  8
SIZE
  6
CONTINUOUS
 62
    30
100
AcDbLine
 10
69.999995
 20
1634.201202
 30
0.0
 11
69.999995
 21
1644.201202
 31
0.0
  0
CIRCLE
  5
57B
100
AcDbEntity
  8
SIZE
  6
CONTINUOUS
 62
    30
100
AcDbCircle
 10
191.542966
 20
1624.201202
 30
0.0
 40
5.0
  0
LINE
  5
57C
100
AcDbEntity
  8
SIZE
  6
CONTINUOUS
 62
    30
100
AcDbLine
 10
191.542966
 20
1619.201202
 30
0.0
 11
191.542966
 21
1614.201202
 31
0.0
  0
POINT
  5
57D
100
AcDbEntity
  8
DEFPOINTS
  6
CONTINUOUS
 62
     7
100
AcDbPoint
 10
708.937783
 20
1324.201202
 30
0.0
  0
POINT
  5
57E
100
AcDbEntity
  8
DEFPOINTS
  6
CONTINUOUS
 62
     7
100
AcDbPoint
 10
712.873509
 20
1324.201202
 30
0.0
  0
POINT
  5
57F
100
AcDbEntity
  8
DEFPOINTS
  6
CONTINUOUS
 62
     7
100
AcDbPoint
 10
712.873509
 20
1624.201202
 30
0.0
  0
POINT
  5
580
100
AcDbEntity
  8
DEFPOINTS
  6
CONTINUOUS
 62
     7
100
AcDbPoint
 10
708.937783
 20
1624.201202
 30
0.0
  0
LINE
  5
581
100
AcDbEntity
  8
SIZE
  6
CONTINUOUS
 62
    30
100
AcDbLine
 10
713.937783
 20
2245.057752
 30
0.0
 11
718.937783
 21
2245.057752
 31
0.0
  0
CIRCLE
  5
582
100
AcDbEntity
  8
SIZE
  6
CONTINUOUS
 62
    30
100
AcDbCircle
 10
708.937783
 20
2245.057752
 30
0.0
 40
5.0
  0
LINE
  5
583
100
AcDbEntity
  8
SIZE
  6
CONTINUOUS
 62
    30
100
AcDbLine
 10
1408.937783
 20
1644.201202
 30
0.0
 11
1408.937783
 21
2275.057752
 31
0.0
  0
LINE
  5
584
100
AcDbEntity
  8
SIZE
  6
CONTINUOUS
 62
    30
100
AcDbLine
 10
1348.937783
 20
1574.201202
 30
0.0
 11
1348.937783
 21
2159.658609
 31
0.0
  0
LINE
  5
585
100
AcDbEntity
  8
SIZE
  6
CONTINUOUS
 62
    30
100
AcDbLine
 10
1371.937783
 20
1564.201202
 30
0.0
 11
1371.937783
 21
2051.217898
 31
0.0
  0
LINE
  5
586
100
AcDbEntity
  8
SIZE
  6
CONTINUOUS
 62
    30
100
AcDbLine
 10
1449.937783
 20
1668.201202
 30
0.0
 11
1449.937783
 21
1932.14849
 31
0.0
  0
LINE
  5
587
100
AcDbEntity
  8
SIZE
  6
CONTINUOUS
 62
    30
100
AcDbLine
 10
1474.937783
 20
1678.201202
 30
0.0
 11
1474.937783
 21
1842.675499
 31
0.0
  0
LINE
  5
588
100
AcDbEntity
  8
SIZE
  6
CONTINUOUS
 62
    30
100
AcDbLine
 10
1371.937783
 20
1564.201202
 30
0.0
 11
1371.937783
 21
2051.217898
 31
0.0
  0
LINE
  5
589
100
AcDbEntity
  8
SIZE
  6
CONTINUOUS
 62
    30
100
AcDbLine
 10
1348.937783
 20
1574.201202
 30
0.0
 11
1348.937783
 21
2051.217898
 31
0.0
  0
LINE
  5
58A
100
AcDbEntity
  8
SIZE
  6
CONTINUOUS
 62
    30
100
AcDbLine
 10
1449.937783
 20
1668.201202
 30
0.0
 11
1449.937783
 21
1932.14849
 31
0.0
  0
LINE
  5
58B
100
AcDbEntity
  8
SIZE
  6
CONTINUOUS
 62
    30
100
AcDbLine
 10
1408.937783
 20
1644.201202
 30
0.0
 11
1408.937783
 21
1932.14849
 31
0.0
  0
LINE
  5
58C
100
AcDbEntity
  8
SIZE
  6
CONTINUOUS
 62
    30
100
AcDbLine
 10
1474.937783
 20
1678.201202
 30
0.0
 11
1474.937783
 21
1842.675499
 31
0.0
  0
LINE
  5
58D
100
AcDbEntity
  8
SIZE
  6
CONTINUOUS
 62
    30
100
AcDbLine
 10
1449.937783
 20
1668.201202
 30
0.0
 11
1449.937783
 21
1842.675499
 31
0.0
  0
LINE
  5
58E
100
AcDbEntity
  8
SIZE
  6
CONTINUOUS
 62
    30
100
AcDbLine
 10
1408.937783
 20
1644.201202
 30
0.0
 11
1408.937783
 21
2275.057752
 31
0.0
  0
LINE
  5
58F
100
AcDbEntity
  8
NOTE
  6
CONTINUOUS
 62
     4
100
AcDbLine
 10
1371.937783
 20
1524.201202
 30
0.0
 11
1153.00005
 21
1874.666628
 31
0.0
  0
LINE
  5
590
100
AcDbEntity
  8
SIZE
  6
CONTINUOUS
 62
    30
100
AcDbLine
 10
1208.937783
 20
1689.209429
 30
0.0
 11
850.252069
 21
1689.209429
 31
0.0
  0
TEXT
  5
591
100
AcDbEntity
  8
NOTE
  6
CONTINUOUS
 62
     4
100
AcDbText
 10
855.421305
 20
1180.739829
 30
0.0
 40
64.0
  1
点検口
 41
0.8
100
AcDbText
  0
TEXT
  5
592
100
AcDbEntity
  8
SIZE
  6
CONTINUOUS
 62
    30
100
AcDbText
 10
865.252069
 20
1704.209429
 30
0.0
 40
55.0
  1
150～200
 41
0.9
 72
     1
 11
1024.594926
 21
1704.209429
 31
0.0
100
AcDbText
  0
LINE
  5
593
100
AcDbEntity
  8
SIZE
  6
CONTINUOUS
 62
    30
100
AcDbLine
 10
1208.937783
 20
1344.201202
 30
0.0
 11
1208.937783
 21
1719.209429
 31
0.0
  0
LINE
  5
594
100
AcDbEntity
  8
SIZE
  6
CONTINUOUS
 62
    30
100
AcDbLine
 10
1408.937783
 20
1465.701202
 30
0.0
 11
1408.937783
 21
1339.351904
 31
0.0
  0
LINE
  5
595
100
AcDbEntity
  8
SIZE
  6
CONTINUOUS
 62
    30
100
AcDbLine
 10
1338.937783
 20
1465.701202
 30
0.0
 11
1338.937783
 21
1339.351904
 31
0.0
  0
LINE
  5
596
100
AcDbEntity
  8
SIZE
  6
CONTINUOUS
 62
    30
100
AcDbLine
 10
1408.937783
 20
1369.351904
 30
0.0
 11
1563.527872
 21
1369.351904
 31
0.0
  0
TEXT
  5
597
100
AcDbEntity
  8
SIZE
  6
CONTINUOUS
 62
    30
100
AcDbText
 10
1295.15196
 20
1230.558345
 30
0.0
 40
55.0
  1
383
 50
90.0
 41
0.9
 72
     1
 11
1295.15196
 21
1294.201202
 31
0.0
100
AcDbText
  0
POINT
  5
598
100
AcDbEntity
  8
DEFPOINTS
  6
CONTINUOUS
 62
     7
100
AcDbPoint
 10
1208.937783
 20
1324.201202
 30
0.0
  0
POINT
  5
599
100
AcDbEntity
  8
DEFPOINTS
  6
CONTINUOUS
 62
     7
100
AcDbPoint
 10
1408.937783
 20
1369.351904
 30
0.0
  0
LINE
  5
59A
100
AcDbEntity
  8
SIZE
  6
CONTINUOUS
 62
    30
100
AcDbLine
 10
1403.937783
 20
1369.351904
 30
0.0
 11
1398.937783
 21
1369.351904
 31
0.0
  0
CIRCLE
  5
59B
100
AcDbEntity
  8
SIZE
  6
CONTINUOUS
 62
    30
100
AcDbCircle
 10
1408.937783
 20
1369.351904
 30
0.0
 40
5.0
  0
LINE
  5
59C
100
AcDbEntity
  8
SIZE
  6
CONTINUOUS
 62
    30
100
AcDbLine
 10
1343.937783
 20
1369.351904
 30
0.0
 11
1348.937783
 21
1369.351904
 31
0.0
  0
CIRCLE
  5
59D
100
AcDbEntity
  8
SIZE
  6
CONTINUOUS
 62
    30
100
AcDbCircle
 10
1338.937783
 20
1369.351904
 30
0.0
 40
5.0
  0
LINE
  5
59E
100
AcDbEntity
  8
SIZE
  6
CONTINUOUS
 62
    30
100
AcDbLine
 10
1348.937783
 20
1369.351904
 30
0.0
 11
1398.937783
 21
1369.351904
 31
0.0
  0
TEXT
  5
59F
100
AcDbEntity
  8
SIZE
  6
CONTINUOUS
 62
    30
100
AcDbText
 10
1468.385016
 20
1384.351904
 30
0.0
 40
55.0
  1
70
 41
0.9
 72
     1
 11
1508.456444
 21
1384.351904
 31
0.0
100
AcDbText
  0
CIRCLE
  5
5A0
100
AcDbEntity
  8
SIZE
  6
CONTINUOUS
 62
    30
100
AcDbCircle
 10
1310.15196
 20
1485.701202
 30
0.0
 40
5.0
  0
LINE
  5
5A1
100
AcDbEntity
  8
SIZE
  6
CONTINUOUS
 62
    30
100
AcDbLine
 10
1318.937783
 20
1485.701202
 30
0.0
 11
1280.15196
 21
1485.701202
 31
0.0
  0
POINT
  5
5A2
100
AcDbEntity
  8
DEFPOINTS
  6
CONTINUOUS
 62
     7
100
AcDbPoint
 10
1348.937783
 20
1554.201202
 30
0.0
  0
POINT
  5
5A3
100
AcDbEntity
  8
DEFPOINTS
  6
CONTINUOUS
 62
     7
100
AcDbPoint
 10
1371.937783
 20
1544.201202
 30
0.0
  0
POINT
  5
5A4
100
AcDbEntity
  8
DEFPOINTS
  6
CONTINUOUS
 62
     7
100
AcDbPoint
 10
1408.937783
 20
1526.201202
 30
0.0
  0
POINT
  5
5A5
100
AcDbEntity
  8
DEFPOINTS
  6
CONTINUOUS
 62
     7
100
AcDbPoint
 10
1408.937783
 20
1526.201202
 30
0.0
  0
POINT
  5
5A6
100
AcDbEntity
  8
DEFPOINTS
  6
CONTINUOUS
 62
     7
100
AcDbPoint
 10
1371.937783
 20
1544.201202
 30
0.0
  0
POINT
  5
5A7
100
AcDbEntity
  8
DEFPOINTS
  6
CONTINUOUS
 62
     7
100
AcDbPoint
 10
1348.937783
 20
1554.201202
 30
0.0
  0
POINT
  5
5A8
100
AcDbEntity
  8
DEFPOINTS
  6
CONTINUOUS
 62
     7
100
AcDbPoint
 10
1338.937783
 20
1485.701202
 30
0.0
  0
LINE
  5
5A9
100
AcDbEntity
  8
SIZE
  6
CONTINUOUS
 62
    30
100
AcDbLine
 10
1310.15196
 20
1480.701202
 30
0.0
 11
1310.15196
 21
1475.701202
 31
0.0
  0
POINT
  5
5AA
100
AcDbEntity
  8
DEFPOINTS
  6
CONTINUOUS
 62
     7
100
AcDbPoint
 10
1408.937783
 20
1485.701202
 30
0.0
  0
POINT
  5
5AB
100
AcDbEntity
  8
DEFPOINTS
  6
CONTINUOUS
 62
     7
100
AcDbPoint
 10
1338.937783
 20
1485.701202
 30
0.0
  0
CIRCLE
  5
5AC
100
AcDbEntity
  8
FIX
  6
CONTINUOUS
 62
    11
100
AcDbCircle
 10
1371.937783
 20
1524.201202
 30
0.0
 40
5.0
  0
LINE
  5
5AD
100
AcDbEntity
  8
NOTE
  6
CONTINUOUS
 62
     4
100
AcDbLine
 10
1351.937783
 20
1524.201202
 30
0.0
 11
1391.937783
 21
1524.201202
 31
0.0
  0
LINE
  5
5AE
100
AcDbEntity
  8
NOTE
  6
CONTINUOUS
 62
     4
100
AcDbLine
 10
1371.937783
 20
1504.201202
 30
0.0
 11
1371.937783
 21
1544.201202
 31
0.0
  0
LINE
  5
5AF
100
AcDbEntity
  8
DETAIL
  6
CONTINUOUS
 62
     5
100
AcDbLine
 10
1348.937783
 20
1554.201202
 30
0.0
 11
1408.937783
 21
1554.201202
 31
0.0
  0
LINE
  5
5B0
100
AcDbEntity
  8
DETAIL
  6
CONTINUOUS
 62
     5
100
AcDbLine
 10
1348.937783
 20
1494.201202
 30
0.0
 11
1348.937783
 21
1518.201202
 31
0.0
  0
ARC
  5
5B1
100
AcDbEntity
  8
DETAIL
  6
CONTINUOUS
 62
     5
100
AcDbCircle
 10
1371.937783
 20
1516.201202
 30
0.0
 40
7.0
100
AcDbArc
 50
180.0
 51
0.0
  0
ARC
  5
5B2
100
AcDbEntity
  8
DETAIL
  6
CONTINUOUS
 62
     5
100
AcDbCircle
 10
1371.937783
 20
1532.201202
 30
0.0
 40
7.0
100
AcDbArc
 50
0.0
 51
180.0
  0
LINE
  5
5B3
100
AcDbEntity
  8
DETAIL
  6
CONTINUOUS
 62
     5
100
AcDbLine
 10
1378.937783
 20
1516.201202
 30
0.0
 11
1378.937783
 21
1532.201202
 31
0.0
  0
LINE
  5
5B4
100
AcDbEntity
  8
DETAIL
  6
CONTINUOUS
 62
     5
100
AcDbLine
 10
1364.937783
 20
1516.201202
 30
0.0
 11
1364.937783
 21
1518.201202
 31
0.0
  0
LINE
  5
5B5
100
AcDbEntity
  8
DETAIL
  6
CONTINUOUS
 62
     5
100
AcDbLine
 10
1364.937783
 20
1530.201202
 30
0.0
 11
1364.937783
 21
1532.201202
 31
0.0
  0
LINE
  5
5B6
100
AcDbEntity
  8
DETAIL
  6
CONTINUOUS
 62
     5
100
AcDbLine
 10
1348.937783
 20
1494.201202
 30
0.0
 11
1408.937783
 21
1494.201202
 31
0.0
  0
LINE
  5
5B7
100
AcDbEntity
  8
DETAIL
  6
CONTINUOUS
 62
     5
100
AcDbLine
 10
1348.937783
 20
1518.201202
 30
0.0
 11
1364.937783
 21
1518.201202
 31
0.0
  0
LINE
  5
5B8
100
AcDbEntity
  8
DETAIL
  6
CONTINUOUS
 62
     5
100
AcDbLine
 10
1348.937783
 20
1530.201202
 30
0.0
 11
1364.937783
 21
1530.201202
 31
0.0
  0
LINE
  5
5B9
100
AcDbEntity
  8
DETAIL
  6
CONTINUOUS
 62
     5
100
AcDbLine
 10
1348.937783
 20
1530.201202
 30
0.0
 11
1348.937783
 21
1554.201202
 31
0.0
  0
LINE
  5
5BA
100
AcDbEntity
  8
DETAIL
  6
CONTINUOUS
 62
     5
100
AcDbLine
 10
1408.937783
 20
1554.201202
 30
0.0
 11
1408.937783
 21
1494.201202
 31
0.0
  0
POLYLINE
  5
5BB
100
AcDbEntity
  8
NOTE
  6
CONTINUOUS
 62
     4
100
AcDb2dPolyline
 66
     1
 10
0.0
 20
0.0
 30
0.0
  0
VERTEX
  5
5BC
100
AcDbEntity
  8
NOTE
  6
CONTINUOUS
 62
     4
100
AcDbVertex
100
AcDb2dVertex
 10
1343.066592
 20
1551.886113
 30
0.0
  0
VERTEX
  5
5BD
100
AcDbEntity
  8
NOTE
  6
CONTINUOUS
 62
     4
100
AcDbVertex
100
AcDb2dVertex
 10
1371.937783
 20
1524.201202
 30
0.0
  0
VERTEX
  5
5BE
100
AcDbEntity
  8
NOTE
  6
CONTINUOUS
 62
     4
100
AcDbVertex
100
AcDb2dVertex
 10
1360.777053
 20
1562.612633
 30
0.0
  0
SEQEND
  5
5BF
100
AcDbEntity
  8
NOTE
  6
CONTINUOUS
 62
     4
  0
LINE
  5
5C0
100
AcDbEntity
  8
DETAIL
  6
CONTINUOUS
 62
     5
100
AcDbLine
 10
1338.937783
 20
1485.701202
 30
0.0
 11
1408.937783
 21
1485.701202
 31
0.0
  0
LINE
  5
5C1
100
AcDbEntity
  8
SIZE
  6
CONTINUOUS
 62
    30
100
AcDbLine
 10
1398.937783
 20
1689.209429
 30
0.0
 11
1218.937783
 21
1689.209429
 31
0.0
  0
POINT
  5
5C2
100
AcDbEntity
  8
DEFPOINTS
  6
CONTINUOUS
 62
     7
100
AcDbPoint
 10
1208.937783
 20
1689.209429
 30
0.0
  0
LINE
  5
5C3
100
AcDbEntity
  8
SIZE
  6
CONTINUOUS
 62
    30
100
AcDbLine
 10
1213.937783
 20
1689.209429
 30
0.0
 11
1218.937783
 21
1689.209429
 31
0.0
  0
CIRCLE
  5
5C4
100
AcDbEntity
  8
SIZE
  6
CONTINUOUS
 62
    30
100
AcDbCircle
 10
1208.937783
 20
1689.209429
 30
0.0
 40
5.0
  0
POINT
  5
5C5
100
AcDbEntity
  8
DEFPOINTS
  6
CONTINUOUS
 62
     7
100
AcDbPoint
 10
1408.937783
 20
1624.201202
 30
0.0
  0
POINT
  5
5C6
100
AcDbEntity
  8
DEFPOINTS
  6
CONTINUOUS
 62
     7
100
AcDbPoint
 10
1408.937783
 20
1624.201202
 30
0.0
  0
POINT
  5
5C7
100
AcDbEntity
  8
DEFPOINTS
  6
CONTINUOUS
 62
     7
100
AcDbPoint
 10
1408.937783
 20
1624.201202
 30
0.0
  0
POINT
  5
5C8
100
AcDbEntity
  8
DEFPOINTS
  6
CONTINUOUS
 62
     7
100
AcDbPoint
 10
1408.937783
 20
1624.201202
 30
0.0
  0
POINT
  5
5C9
100
AcDbEntity
  8
DEFPOINTS
  6
CONTINUOUS
 62
     7
100
AcDbPoint
 10
1408.937783
 20
1624.201202
 30
0.0
  0
POINT
  5
5CA
100
AcDbEntity
  8
DEFPOINTS
  6
CONTINUOUS
 62
     7
100
AcDbPoint
 10
1408.937783
 20
1624.201202
 30
0.0
  0
LINE
  5
5CB
100
AcDbEntity
  8
SIZE
  6
CONTINUOUS
 62
    30
100
AcDbLine
 10
1403.937783
 20
1689.209429
 30
0.0
 11
1398.937783
 21
1689.209429
 31
0.0
  0
CIRCLE
  5
5CC
100
AcDbEntity
  8
SIZE
  6
CONTINUOUS
 62
    30
100
AcDbCircle
 10
1408.937783
 20
1689.209429
 30
0.0
 40
5.0
  0
LINE
  5
5CD
100
AcDbEntity
  8
SIZE
  6
CONTINUOUS
 62
    30
100
AcDbLine
 10
1408.937783
 20
1644.201202
 30
0.0
 11
1408.937783
 21
1719.209429
 31
0.0
  0
LINE
  5
5CE
100
AcDbEntity
  8
NOTE
  6
CONTINUOUS
 62
     4
100
AcDbLine
 10
1504.937783
 20
1638.201202
 30
0.0
 11
1544.937783
 21
1638.201202
 31
0.0
  0
POINT
  5
5CF
100
AcDbEntity
  8
DEFPOINTS
  6
CONTINUOUS
 62
     7
100
AcDbPoint
 10
1449.937783
 20
1648.201202
 30
0.0
  0
POINT
  5
5D0
100
AcDbEntity
  8
DEFPOINTS
  6
CONTINUOUS
 62
     7
100
AcDbPoint
 10
1474.937783
 20
1658.201202
 30
0.0
  0
POINT
  5
5D1
100
AcDbEntity
  8
DEFPOINTS
  6
CONTINUOUS
 62
     7
100
AcDbPoint
 10
1449.937783
 20
1648.201202
 30
0.0
  0
POINT
  5
5D2
100
AcDbEntity
  8
DEFPOINTS
  6
CONTINUOUS
 62
     7
100
AcDbPoint
 10
1449.937783
 20
1648.201202
 30
0.0
  0
POINT
  5
5D3
100
AcDbEntity
  8
DEFPOINTS
  6
CONTINUOUS
 62
     7
100
AcDbPoint
 10
1474.937783
 20
1658.201202
 30
0.0
  0
POINT
  5
5D4
100
AcDbEntity
  8
DEFPOINTS
  6
CONTINUOUS
 62
     7
100
AcDbPoint
 10
1449.937783
 20
1648.201202
 30
0.0
  0
CIRCLE
  5
5D5
100
AcDbEntity
  8
DETAIL
  6
CONTINUOUS
 62
     5
100
AcDbCircle
 10
1474.937783
 20
1638.201202
 30
0.0
 40
1.5
  0
LINE
  5
5D6
100
AcDbEntity
  8
NOTE
  6
CONTINUOUS
 62
     4
100
AcDbLine
 10
1524.937783
 20
1618.201202
 30
0.0
 11
1524.937783
 21
1658.201202
 31
0.0
  0
LINE
  5
5D7
100
AcDbEntity
  8
NOTE
  6
CONTINUOUS
 62
     4
100
AcDbLine
 10
1474.937783
 20
1618.201202
 30
0.0
 11
1474.937783
 21
1658.201202
 31
0.0
  0
LINE
  5
5D8
100
AcDbEntity
  8
DETAIL
  6
CONTINUOUS
 62
     5
100
AcDbLine
 10
1449.937783
 20
1624.201202
 30
0.0
 11
1449.937783
 21
1648.201202
 31
0.0
  0
LINE
  5
5D9
100
AcDbEntity
  8
NOTE
  6
CONTINUOUS
 62
     4
100
AcDbLine
 10
1454.937783
 20
1638.201202
 30
0.0
 11
1494.937783
 21
1638.201202
 31
0.0
  0
CIRCLE
  5
5DA
100
AcDbEntity
  8
DETAIL
  6
CONTINUOUS
 62
     5
100
AcDbCircle
 10
1524.937783
 20
1638.201202
 30
0.0
 40
1.5
  0
CIRCLE
  5
5DB
100
AcDbEntity
  8
DETAIL
  6
CONTINUOUS
 62
     5
100
AcDbCircle
 10
1624.937783
 20
1638.201202
 30
0.0
 40
1.5
  0
LINE
  5
5DC
100
AcDbEntity
  8
NOTE
  6
CONTINUOUS
 62
     4
100
AcDbLine
 10
1624.937783
 20
1618.201202
 30
0.0
 11
1624.937783
 21
1658.201202
 31
0.0
  0
CIRCLE
  5
5DD
100
AcDbEntity
  8
DETAIL
  6
CONTINUOUS
 62
     5
100
AcDbCircle
 10
1574.937783
 20
1638.201202
 30
0.0
 40
1.5
  0
LINE
  5
5DE
100
AcDbEntity
  8
NOTE
  6
CONTINUOUS
 62
     4
100
AcDbLine
 10
1574.937783
 20
1618.201202
 30
0.0
 11
1574.937783
 21
1658.201202
 31
0.0
  0
LINE
  5
5DF
100
AcDbEntity
  8
NOTE
  6
CONTINUOUS
 62
     4
100
AcDbLine
 10
1554.937783
 20
1638.201202
 30
0.0
 11
1594.937783
 21
1638.201202
 31
0.0
  0
LINE
  5
5E0
100
AcDbEntity
  8
NOTE
  6
CONTINUOUS
 62
     4
100
AcDbLine
 10
1604.937783
 20
1638.201202
 30
0.0
 11
1644.937783
 21
1638.201202
 31
0.0
  0
TEXT
  5
5E1
100
AcDbEntity
  8
SIZE
  6
CONTINUOUS
 62
    30
100
AcDbText
 10
995.294926
 20
2260.057752
 30
0.0
 40
55.0
  1
700
 41
0.9
 72
     1
 11
1058.937783
 21
2260.057752
 31
0.0
100
AcDbText
  0
TEXT
  5
5E2
100
AcDbEntity
  8
SIZE
  6
CONTINUOUS
 62
    30
100
AcDbText
 10
1233.794926
 20
2036.217898
 30
0.0
 40
55.0
  1
23
 41
0.9
 72
     1
 11
1273.866354
 21
2036.217898
 31
0.0
100
AcDbText
  0
LINE
  5
5E3
100
AcDbEntity
  8
SIZE
  6
CONTINUOUS
 62
    30
100
AcDbLine
 10
1449.937783
 20
1902.14849
 30
0.0
 11
1408.937783
 21
1902.14849
 31
0.0
  0
LINE
  5
5E4
100
AcDbEntity
  8
SIZE
  6
CONTINUOUS
 62
    30
100
AcDbLine
 10
1439.937783
 20
1812.675499
 30
0.0
 11
1239.594228
 21
1812.675499
 31
0.0
  0
LINE
  5
5E5
100
AcDbEntity
  8
SIZE
  6
CONTINUOUS
 62
    30
100
AcDbLine
 10
1398.937783
 20
1902.14849
 30
0.0
 11
1232.648056
 21
1902.14849
 31
0.0
  0
TEXT
  5
5E6
100
AcDbEntity
  8
SIZE
  6
CONTINUOUS
 62
    30
100
AcDbText
 10
1254.594229
 20
1827.675499
 30
0.0
 40
55.0
  1
25
 41
0.9
 72
     1
 11
1294.665657
 21
1827.675499
 31
0.0
100
AcDbText
  0
LINE
  5
5E7
100
AcDbEntity
  8
SIZE
  6
CONTINUOUS
 62
    30
100
AcDbLine
 10
1403.937783
 20
1902.14849
 30
0.0
 11
1398.937783
 21
1902.14849
 31
0.0
  0
CIRCLE
  5
5E8
100
AcDbEntity
  8
SIZE
  6
CONTINUOUS
 62
    30
100
AcDbCircle
 10
1408.937783
 20
1902.14849
 30
0.0
 40
5.0
  0
LINE
  5
5E9
100
AcDbEntity
  8
SIZE
  6
CONTINUOUS
 62
    30
100
AcDbLine
 10
1338.937783
 20
2021.217898
 30
0.0
 11
1218.794926
 21
2021.217898
 31
0.0
  0
TEXT
  5
5EA
100
AcDbEntity
  8
SIZE
  6
CONTINUOUS
 62
    30
100
AcDbText
 10
1247.648057
 20
1917.14849
 30
0.0
 40
55.0
  1
41
 41
0.9
 72
     1
 11
1277.112342
 21
1917.14849
 31
0.0
100
AcDbText
  0
LINE
  5
5EB
100
AcDbEntity
  8
SIZE
  6
CONTINUOUS
 62
    30
100
AcDbLine
 10
1376.937783
 20
2021.217898
 30
0.0
 11
1381.937783
 21
2021.217898
 31
0.0
  0
CIRCLE
  5
5EC
100
AcDbEntity
  8
SIZE
  6
CONTINUOUS
 62
    30
100
AcDbCircle
 10
1371.937783
 20
2021.217898
 30
0.0
 40
5.0
  0
POINT
  5
5ED
100
AcDbEntity
  8
DEFPOINTS
  6
CONTINUOUS
 62
     7
100
AcDbPoint
 10
1371.937783
 20
2021.217898
 30
0.0
  0
LINE
  5
5EE
100
AcDbEntity
  8
SIZE
  6
CONTINUOUS
 62
    30
100
AcDbLine
 10
1343.937783
 20
2021.217898
 30
0.0
 11
1338.937783
 21
2021.217898
 31
0.0
  0
CIRCLE
  5
5EF
100
AcDbEntity
  8
SIZE
  6
CONTINUOUS
 62
    30
100
AcDbCircle
 10
1348.937783
 20
2021.217898
 30
0.0
 40
5.0
  0
LINE
  5
5F0
100
AcDbEntity
  8
SIZE
  6
CONTINUOUS
 62
    30
100
AcDbLine
 10
1376.937783
 20
2021.217898
 30
0.0
 11
1381.937783
 21
2021.217898
 31
0.0
  0
CIRCLE
  5
5F1
100
AcDbEntity
  8
SIZE
  6
CONTINUOUS
 62
    30
100
AcDbCircle
 10
1371.937783
 20
2021.217898
 30
0.0
 40
5.0
  0
LINE
  5
5F2
100
AcDbEntity
  8
SIZE
  6
CONTINUOUS
 62
    30
100
AcDbLine
 10
1371.937783
 20
2021.217898
 30
0.0
 11
1348.937783
 21
2021.217898
 31
0.0
  0
LINE
  5
5F3
100
AcDbEntity
  8
SIZE
  6
CONTINUOUS
 62
    30
100
AcDbLine
 10
1381.937783
 20
2021.217898
 30
0.0
 11
1391.937783
 21
2021.217898
 31
0.0
  0
LINE
  5
5F4
100
AcDbEntity
  8
SIZE
  6
CONTINUOUS
 62
    30
100
AcDbLine
 10
1454.937783
 20
1902.14849
 30
0.0
 11
1459.937783
 21
1902.14849
 31
0.0
  0
CIRCLE
  5
5F5
100
AcDbEntity
  8
SIZE
  6
CONTINUOUS
 62
    30
100
AcDbCircle
 10
1449.937783
 20
1902.14849
 30
0.0
 40
5.0
  0
LINE
  5
5F6
100
AcDbEntity
  8
SIZE
  6
CONTINUOUS
 62
    30
100
AcDbLine
 10
1479.937783
 20
1812.675499
 30
0.0
 11
1484.937783
 21
1812.675499
 31
0.0
  0
CIRCLE
  5
5F7
100
AcDbEntity
  8
SIZE
  6
CONTINUOUS
 62
    30
100
AcDbCircle
 10
1474.937783
 20
1812.675499
 30
0.0
 40
5.0
  0
POINT
  5
5F8
100
AcDbEntity
  8
DEFPOINTS
  6
CONTINUOUS
 62
     7
100
AcDbPoint
 10
1449.937783
 20
1902.14849
 30
0.0
  0
LINE
  5
5F9
100
AcDbEntity
  8
SIZE
  6
CONTINUOUS
 62
    30
100
AcDbLine
 10
1454.937783
 20
1902.14849
 30
0.0
 11
1459.937783
 21
1902.14849
 31
0.0
  0
CIRCLE
  5
5FA
100
AcDbEntity
  8
SIZE
  6
CONTINUOUS
 62
    30
100
AcDbCircle
 10
1449.937783
 20
1902.14849
 30
0.0
 40
5.0
  0
LINE
  5
5FB
100
AcDbEntity
  8
SIZE
  6
CONTINUOUS
 62
    30
100
AcDbLine
 10
1459.937783
 20
1902.14849
 30
0.0
 11
1469.937783
 21
1902.14849
 31
0.0
  0
POINT
  5
5FC
100
AcDbEntity
  8
DEFPOINTS
  6
CONTINUOUS
 62
     7
100
AcDbPoint
 10
1474.937783
 20
1812.675499
 30
0.0
  0
LINE
  5
5FD
100
AcDbEntity
  8
SIZE
  6
CONTINUOUS
 62
    30
100
AcDbLine
 10
1444.937783
 20
1812.675499
 30
0.0
 11
1439.937783
 21
1812.675499
 31
0.0
  0
CIRCLE
  5
5FE
100
AcDbEntity
  8
SIZE
  6
CONTINUOUS
 62
    30
100
AcDbCircle
 10
1449.937783
 20
1812.675499
 30
0.0
 40
5.0
  0
LINE
  5
5FF
100
AcDbEntity
  8
SIZE
  6
CONTINUOUS
 62
    30
100
AcDbLine
 10
1479.937783
 20
1812.675499
 30
0.0
 11
1484.937783
 21
1812.675499
 31
0.0
  0
CIRCLE
  5
600
100
AcDbEntity
  8
SIZE
  6
CONTINUOUS
 62
    30
100
AcDbCircle
 10
1474.937783
 20
1812.675499
 30
0.0
 40
5.0
  0
LINE
  5
601
100
AcDbEntity
  8
SIZE
  6
CONTINUOUS
 62
    30
100
AcDbLine
 10
1474.937783
 20
1812.675499
 30
0.0
 11
1449.937783
 21
1812.675499
 31
0.0
  0
LINE
  5
602
100
AcDbEntity
  8
SIZE
  6
CONTINUOUS
 62
    30
100
AcDbLine
 10
1484.937783
 20
1812.675499
 30
0.0
 11
1494.937783
 21
1812.675499
 31
0.0
  0
LINE
  5
603
100
AcDbEntity
  8
SIZE
  6
CONTINUOUS
 62
    30
100
AcDbLine
 10
1353.937783
 20
2129.658609
 30
0.0
 11
1358.937783
 21
2129.658609
 31
0.0
  0
CIRCLE
  5
604
100
AcDbEntity
  8
SIZE
  6
CONTINUOUS
 62
    30
100
AcDbCircle
 10
1348.937783
 20
2129.658609
 30
0.0
 40
5.0
  0
LINE
  5
605
100
AcDbEntity
  8
SIZE
  6
CONTINUOUS
 62
    30
100
AcDbLine
 10
1413.937783
 20
2245.057752
 30
0.0
 11
1418.937783
 21
2245.057752
 31
0.0
  0
CIRCLE
  5
606
100
AcDbEntity
  8
SIZE
  6
CONTINUOUS
 62
    30
100
AcDbCircle
 10
1408.937783
 20
2245.057752
 30
0.0
 40
5.0
  0
POINT
  5
607
100
AcDbEntity
  8
DEFPOINTS
  6
CONTINUOUS
 62
     7
100
AcDbPoint
 10
1408.937783
 20
2245.057752
 30
0.0
  0
LINE
  5
608
100
AcDbEntity
  8
SIZE
  6
CONTINUOUS
 62
    30
100
AcDbLine
 10
1403.937783
 20
2245.057752
 30
0.0
 11
1398.937783
 21
2245.057752
 31
0.0
  0
CIRCLE
  5
609
100
AcDbEntity
  8
SIZE
  6
CONTINUOUS
 62
    30
100
AcDbCircle
 10
1408.937783
 20
2245.057752
 30
0.0
 40
5.0
  0
POINT
  5
60A
100
AcDbEntity
  8
ARRANGE
  6
CONTINUOUS
 62
     1
100
AcDbPoint
 10
1973.937783
 20
1151.701202
 30
0.0
  0
CIRCLE
  5
60B
100
AcDbEntity
  8
ARRANGE
  6
CONTINUOUS
 62
     1
100
AcDbCircle
 10
1973.937783
 20
1151.701202
 30
0.0
 40
40.0
  0
TEXT
  5
60C
100
AcDbEntity
  8
SIZE
  6
CONTINUOUS
 62
    30
100
AcDbText
 10
3038.359033
 20
782.412429
 30
0.0
 40
55.0
  1
814(吊りボルトピッチ)
 50
90.0
 41
0.9
 72
     1
 11
3038.359033
 21
1110.762429
 31
0.0
100
AcDbText
  0
LINE
  5
60D
100
AcDbEntity
  8
SIZE
  6
CONTINUOUS
 62
    30
100
AcDbLine
 10
3051.986495
 20
720.201202
 30
0.0
 11
3051.986495
 21
1514.201202
 31
0.0
  0
TEXT
  5
60E
100
AcDbEntity
  8
SIZE
  6
CONTINUOUS
 62
    30
100
AcDbText
 10
3178.489452
 20
1055.351
 30
0.0
 40
55.0
  1
998
 50
90.0
 41
0.9
 72
     1
 11
3178.489452
 21
1118.993857
 31
0.0
100
AcDbText
  0
LINE
  5
60F
100
AcDbEntity
  8
SIZE
  6
CONTINUOUS
 62
    30
100
AcDbLine
 10
3193.489452
 20
1638.201202
 30
0.0
 11
3193.489452
 21
660.201202
 31
0.0
  0
LINE
  5
610
100
AcDbEntity
  8
SIZE
  6
CONTINUOUS
 62
    30
100
AcDbLine
 10
2917.3379
 20
1244.201202
 30
0.0
 11
2917.3379
 21
639.201202
 31
0.0
  0
LINE
  5
611
100
AcDbEntity
  8
SERVICESPACE
  6
DASHDOT
 62
     2
100
AcDbLine
 10
2588.937783
 20
1624.201202
 30
0.0
 11
2588.937783
 21
629.201202
 31
0.0
  0
LINE
  5
612
100
AcDbEntity
  8
DETAIL
  6
CONTINUOUS
 62
     5
100
AcDbLine
 10
2538.937783
 20
679.201202
 30
0.0
 11
2538.937783
 21
1624.201202
 31
0.0
  0
LINE
  5
613
100
AcDbEntity
  8
OUTLINE
  6
CONTINUOUS
 62
     3
100
AcDbLine
 10
2538.937783
 20
680.201202
 30
0.0
 11
2538.937783
 21
1624.201202
 31
0.0
  0
LINE
  5
614
100
AcDbEntity
  8
BASIS
  6
DASHDOT
 62
     6
100
AcDbLine
 10
1973.937783
 20
582.700555
 30
0.0
 11
1973.937783
 21
1678.614789
 31
0.0
  0
LINE
  5
615
100
AcDbEntity
  8
SIZE
  6
CONTINUOUS
 62
    30
100
AcDbLine
 10
2508.937783
 20
650.201202
 30
0.0
 11
3081.986495
 21
650.201202
 31
0.0
  0
LINE
  5
616
100
AcDbEntity
  8
SIZE
  6
CONTINUOUS
 62
    30
100
AcDbLine
 10
2508.937783
 20
650.201202
 30
0.0
 11
3223.489452
 21
650.201202
 31
0.0
  0
LINE
  5
617
100
AcDbEntity
  8
SIZE
  6
CONTINUOUS
 62
    30
100
AcDbLine
 10
2508.937783
 20
650.201202
 30
0.0
 11
2769.086558
 21
650.201202
 31
0.0
  0
LINE
  5
618
100
AcDbEntity
  8
SIZE
  6
CONTINUOUS
 62
    30
100
AcDbLine
 10
2478.937783
 20
665.201202
 30
0.0
 11
2769.086558
 21
665.201202
 31
0.0
  0
LINE
  5
619
100
AcDbEntity
  8
DETAIL
  6
CONTINUOUS
 62
     5
100
AcDbLine
 10
2598.937783
 20
740.201202
 30
0.0
 11
2538.937783
 21
740.201202
 31
0.0
  0
LINE
  5
61A
100
AcDbEntity
  8
DETAIL
  6
CONTINUOUS
 62
     5
100
AcDbLine
 10
2598.937783
 20
680.201202
 30
0.0
 11
2538.937783
 21
680.201202
 31
0.0
  0
LINE
  5
61B
100
AcDbEntity
  8
NOTE
  6
CONTINUOUS
 62
     4
100
AcDbLine
 10
2438.937783
 20
665.201202
 30
0.0
 11
2679.915613
 21
218.959156
 31
0.0
  0
LINE
  5
61C
100
AcDbEntity
  8
SIZE
  6
CONTINUOUS
 62
    30
100
AcDbLine
 10
2488.937783
 20
630.201202
 30
0.0
 11
2488.937783
 21
119.241537
 31
0.0
  0
LINE
  5
61D
100
AcDbEntity
  8
SIZE
  6
CONTINUOUS
 62
    30
100
AcDbLine
 10
2438.937783
 20
625.201202
 30
0.0
 11
2438.937783
 21
231.434153
 31
0.0
  0
TEXT
  5
61E
100
AcDbEntity
  8
SIZE
  6
CONTINUOUS
 62
    30
100
AcDbText
 10
1776.323498
 20
276.434153
 30
0.0
 40
55.0
  1
50×18＝900
 41
0.9
 72
     1
 11
1988.937783
 21
276.434153
 31
0.0
100
AcDbText
  0
TEXT
  5
61F
100
AcDbEntity
  8
SIZE
  6
CONTINUOUS
 62
    30
100
AcDbText
 10
1891.437783
 20
45.000003
 30
0.0
 40
55.0
  1
1230
 41
0.9
 72
     1
 11
1973.937783
 21
45.000003
 31
0.0
100
AcDbText
  0
TEXT
  5
620
100
AcDbEntity
  8
SIZE
  6
CONTINUOUS
 62
    30
100
AcDbText
 10
1906.437783
 20
164.241537
 30
0.0
 40
55.0
  1
1000
 41
0.9
 72
     1
 11
1988.937783
 21
164.241537
 31
0.0
100
AcDbText
  0
POINT
  5
621
100
AcDbEntity
  8
DEFPOINTS
  6
CONTINUOUS
 62
     7
100
AcDbPoint
 10
2488.937783
 20
149.241537
 30
0.0
  0
LINE
  5
622
100
AcDbEntity
  8
SIZE
  6
CONTINUOUS
 62
    30
100
AcDbLine
 10
2483.937783
 20
149.241537
 30
0.0
 11
2478.937783
 21
149.241537
 31
0.0
  0
CIRCLE
  5
623
100
AcDbEntity
  8
SIZE
  6
CONTINUOUS
 62
    30
100
AcDbCircle
 10
2488.937783
 20
149.241537
 30
0.0
 40
5.0
  0
POINT
  5
624
100
AcDbEntity
  8
DEFPOINTS
  6
CONTINUOUS
 62
     7
100
AcDbPoint
 10
2438.937783
 20
261.434153
 30
0.0
  0
LINE
  5
625
100
AcDbEntity
  8
SIZE
  6
CONTINUOUS
 62
    30
100
AcDbLine
 10
2433.937783
 20
261.434153
 30
0.0
 11
2428.937783
 21
261.434153
 31
0.0
  0
CIRCLE
  5
626
100
AcDbEntity
  8
SIZE
  6
CONTINUOUS
 62
    30
100
AcDbCircle
 10
2438.937783
 20
261.434153
 30
0.0
 40
5.0
  0
LINE
  5
627
100
AcDbEntity
  8
NOTE
  6
CONTINUOUS
 62
     4
100
AcDbLine
 10
2068.937783
 20
665.201202
 30
0.0
 11
2108.937783
 21
665.201202
 31
0.0
  0
LINE
  5
628
100
AcDbEntity
  8
DETAIL
  6
CONTINUOUS
 62
     5
100
AcDbLine
 10
1688.937783
 20
650.201202
 30
0.0
 11
2488.937783
 21
650.201202
 31
0.0
  0
LINE
  5
629
100
AcDbEntity
  8
NOTE
  6
CONTINUOUS
 62
     4
100
AcDbLine
 10
1868.937783
 20
665.201202
 30
0.0
 11
1908.937783
 21
665.201202
 31
0.0
  0
LINE
  5
62A
100
AcDbEntity
  8
NOTE
  6
CONTINUOUS
 62
     4
100
AcDbLine
 10
1718.937783
 20
665.201202
 30
0.0
 11
1758.937783
 21
665.201202
 31
0.0
  0
CIRCLE
  5
62B
100
AcDbEntity
  8
DETAIL
  6
CONTINUOUS
 62
     5
100
AcDbCircle
 10
1738.937783
 20
665.201202
 30
0.0
 40
1.5
  0
LINE
  5
62C
100
AcDbEntity
  8
NOTE
  6
CONTINUOUS
 62
     4
100
AcDbLine
 10
1738.937783
 20
645.201202
 30
0.0
 11
1738.937783
 21
685.201202
 31
0.0
  0
CIRCLE
  5
62D
100
AcDbEntity
  8
DETAIL
  6
CONTINUOUS
 62
     5
100
AcDbCircle
 10
1688.937783
 20
665.201202
 30
0.0
 40
1.5
  0
LINE
  5
62E
100
AcDbEntity
  8
NOTE
  6
CONTINUOUS
 62
     4
100
AcDbLine
 10
1688.937783
 20
645.201202
 30
0.0
 11
1688.937783
 21
685.201202
 31
0.0
  0
LINE
  5
62F
100
AcDbEntity
  8
NOTE
  6
CONTINUOUS
 62
     4
100
AcDbLine
 10
1668.937783
 20
665.201202
 30
0.0
 11
1708.937783
 21
665.201202
 31
0.0
  0
CIRCLE
  5
630
100
AcDbEntity
  8
DETAIL
  6
CONTINUOUS
 62
     5
100
AcDbCircle
 10
1838.937783
 20
665.201202
 30
0.0
 40
1.5
  0
LINE
  5
631
100
AcDbEntity
  8
NOTE
  6
CONTINUOUS
 62
     4
100
AcDbLine
 10
1838.937783
 20
645.201202
 30
0.0
 11
1838.937783
 21
685.201202
 31
0.0
  0
LINE
  5
632
100
AcDbEntity
  8
NOTE
  6
CONTINUOUS
 62
     4
100
AcDbLine
 10
1818.937783
 20
665.201202
 30
0.0
 11
1858.937783
 21
665.201202
 31
0.0
  0
CIRCLE
  5
633
100
AcDbEntity
  8
DETAIL
  6
CONTINUOUS
 62
     5
100
AcDbCircle
 10
1788.937783
 20
665.201202
 30
0.0
 40
1.5
  0
LINE
  5
634
100
AcDbEntity
  8
NOTE
  6
CONTINUOUS
 62
     4
100
AcDbLine
 10
1788.937783
 20
645.201202
 30
0.0
 11
1788.937783
 21
685.201202
 31
0.0
  0
LINE
  5
635
100
AcDbEntity
  8
NOTE
  6
CONTINUOUS
 62
     4
100
AcDbLine
 10
1768.937783
 20
665.201202
 30
0.0
 11
1808.937783
 21
665.201202
 31
0.0
  0
LINE
  5
636
100
AcDbEntity
  8
NOTE
  6
CONTINUOUS
 62
     4
100
AcDbLine
 10
1968.937783
 20
665.201202
 30
0.0
 11
2008.937783
 21
665.201202
 31
0.0
  0
CIRCLE
  5
637
100
AcDbEntity
  8
DETAIL
  6
CONTINUOUS
 62
     5
100
AcDbCircle
 10
1938.937783
 20
665.201202
 30
0.0
 40
1.5
  0
LINE
  5
638
100
AcDbEntity
  8
NOTE
  6
CONTINUOUS
 62
     4
100
AcDbLine
 10
1938.937783
 20
645.201202
 30
0.0
 11
1938.937783
 21
685.201202
 31
0.0
  0
CIRCLE
  5
639
100
AcDbEntity
  8
DETAIL
  6
CONTINUOUS
 62
     5
100
AcDbCircle
 10
1888.937783
 20
665.201202
 30
0.0
 40
1.5
  0
LINE
  5
63A
100
AcDbEntity
  8
NOTE
  6
CONTINUOUS
 62
     4
100
AcDbLine
 10
1888.937783
 20
645.201202
 30
0.0
 11
1888.937783
 21
685.201202
 31
0.0
  0
LINE
  5
63B
100
AcDbEntity
  8
NOTE
  6
CONTINUOUS
 62
     4
100
AcDbLine
 10
1918.937783
 20
665.201202
 30
0.0
 11
1958.937783
 21
665.201202
 31
0.0
  0
CIRCLE
  5
63C
100
AcDbEntity
  8
DETAIL
  6
CONTINUOUS
 62
     5
100
AcDbCircle
 10
2088.937783
 20
665.201202
 30
0.0
 40
1.5
  0
LINE
  5
63D
100
AcDbEntity
  8
NOTE
  6
CONTINUOUS
 62
     4
100
AcDbLine
 10
2088.937783
 20
645.201202
 30
0.0
 11
2088.937783
 21
685.201202
 31
0.0
  0
CIRCLE
  5
63E
100
AcDbEntity
  8
DETAIL
  6
CONTINUOUS
 62
     5
100
AcDbCircle
 10
2038.937783
 20
665.201202
 30
0.0
 40
1.5
  0
LINE
  5
63F
100
AcDbEntity
  8
NOTE
  6
CONTINUOUS
 62
     4
100
AcDbLine
 10
2038.937783
 20
645.201202
 30
0.0
 11
2038.937783
 21
685.201202
 31
0.0
  0
LINE
  5
640
100
AcDbEntity
  8
NOTE
  6
CONTINUOUS
 62
     4
100
AcDbLine
 10
2018.937783
 20
665.201202
 30
0.0
 11
2058.937783
 21
665.201202
 31
0.0
  0
LINE
  5
641
100
AcDbEntity
  8
NOTE
  6
CONTINUOUS
 62
     4
100
AcDbLine
 10
1988.937783
 20
645.201202
 30
0.0
 11
1988.937783
 21
685.201202
 31
0.0
  0
CIRCLE
  5
642
100
AcDbEntity
  8
DETAIL
  6
CONTINUOUS
 62
     5
100
AcDbCircle
 10
1988.937783
 20
665.201202
 30
0.0
 40
1.5
  0
LINE
  5
643
100
AcDbEntity
  8
NOTE
  6
CONTINUOUS
 62
     4
100
AcDbLine
 10
2168.937783
 20
665.201202
 30
0.0
 11
2208.937783
 21
665.201202
 31
0.0
  0
CIRCLE
  5
644
100
AcDbEntity
  8
DETAIL
  6
CONTINUOUS
 62
     5
100
AcDbCircle
 10
2188.937783
 20
665.201202
 30
0.0
 40
1.5
  0
LINE
  5
645
100
AcDbEntity
  8
NOTE
  6
CONTINUOUS
 62
     4
100
AcDbLine
 10
2188.937783
 20
645.201202
 30
0.0
 11
2188.937783
 21
685.201202
 31
0.0
  0
CIRCLE
  5
646
100
AcDbEntity
  8
DETAIL
  6
CONTINUOUS
 62
     5
100
AcDbCircle
 10
2138.937783
 20
665.201202
 30
0.0
 40
1.5
  0
LINE
  5
647
100
AcDbEntity
  8
NOTE
  6
CONTINUOUS
 62
     4
100
AcDbLine
 10
2138.937783
 20
645.201202
 30
0.0
 11
2138.937783
 21
685.201202
 31
0.0
  0
LINE
  5
648
100
AcDbEntity
  8
NOTE
  6
CONTINUOUS
 62
     4
100
AcDbLine
 10
2118.937783
 20
665.201202
 30
0.0
 11
2158.937783
 21
665.201202
 31
0.0
  0
CIRCLE
  5
649
100
AcDbEntity
  8
DETAIL
  6
CONTINUOUS
 62
     5
100
AcDbCircle
 10
2288.937783
 20
665.201202
 30
0.0
 40
1.5
  0
LINE
  5
64A
100
AcDbEntity
  8
NOTE
  6
CONTINUOUS
 62
     4
100
AcDbLine
 10
2288.937783
 20
645.201202
 30
0.0
 11
2288.937783
 21
685.201202
 31
0.0
  0
LINE
  5
64B
100
AcDbEntity
  8
NOTE
  6
CONTINUOUS
 62
     4
100
AcDbLine
 10
2268.937783
 20
665.201202
 30
0.0
 11
2308.937783
 21
665.201202
 31
0.0
  0
CIRCLE
  5
64C
100
AcDbEntity
  8
DETAIL
  6
CONTINUOUS
 62
     5
100
AcDbCircle
 10
2238.937783
 20
665.201202
 30
0.0
 40
1.5
  0
LINE
  5
64D
100
AcDbEntity
  8
NOTE
  6
CONTINUOUS
 62
     4
100
AcDbLine
 10
2238.937783
 20
645.201202
 30
0.0
 11
2238.937783
 21
685.201202
 31
0.0
  0
LINE
  5
64E
100
AcDbEntity
  8
NOTE
  6
CONTINUOUS
 62
     4
100
AcDbLine
 10
2218.937783
 20
665.201202
 30
0.0
 11
2258.937783
 21
665.201202
 31
0.0
  0
LINE
  5
64F
100
AcDbEntity
  8
DETAIL
  6
CONTINUOUS
 62
     5
100
AcDbLine
 10
2538.937783
 20
740.201202
 30
0.0
 11
2538.937783
 21
680.201202
 31
0.0
  0
LINE
  5
650
100
AcDbEntity
  8
NOTE
  6
CONTINUOUS
 62
     4
100
AcDbLine
 10
2418.937783
 20
665.201202
 30
0.0
 11
2458.937783
 21
665.201202
 31
0.0
  0
CIRCLE
  5
651
100
AcDbEntity
  8
DETAIL
  6
CONTINUOUS
 62
     5
100
AcDbCircle
 10
2388.937783
 20
665.201202
 30
0.0
 40
1.5
  0
LINE
  5
652
100
AcDbEntity
  8
NOTE
  6
CONTINUOUS
 62
     4
100
AcDbLine
 10
2388.937783
 20
645.201202
 30
0.0
 11
2388.937783
 21
685.201202
 31
0.0
  0
LINE
  5
653
100
AcDbEntity
  8
NOTE
  6
CONTINUOUS
 62
     4
100
AcDbLine
 10
2368.937783
 20
665.201202
 30
0.0
 11
2408.937783
 21
665.201202
 31
0.0
  0
CIRCLE
  5
654
100
AcDbEntity
  8
DETAIL
  6
CONTINUOUS
 62
     5
100
AcDbCircle
 10
2338.937783
 20
665.201202
 30
0.0
 40
1.5
  0
LINE
  5
655
100
AcDbEntity
  8
NOTE
  6
CONTINUOUS
 62
     4
100
AcDbLine
 10
2338.937783
 20
645.201202
 30
0.0
 11
2338.937783
 21
685.201202
 31
0.0
  0
LINE
  5
656
100
AcDbEntity
  8
NOTE
  6
CONTINUOUS
 62
     4
100
AcDbLine
 10
2318.937783
 20
665.201202
 30
0.0
 11
2358.937783
 21
665.201202
 31
0.0
  0
POINT
  5
657
100
AcDbEntity
  8
DEFPOINTS
  6
CONTINUOUS
 62
     7
100
AcDbPoint
 10
2488.937783
 20
650.201202
 30
0.0
  0
POINT
  5
658
100
AcDbEntity
  8
DEFPOINTS
  6
CONTINUOUS
 62
     7
100
AcDbPoint
 10
2438.937783
 20
645.201202
 30
0.0
  0
POINT
  5
659
100
AcDbEntity
  8
DEFPOINTS
  6
CONTINUOUS
 62
     7
100
AcDbPoint
 10
2488.937783
 20
650.201202
 30
0.0
  0
POINT
  5
65A
100
AcDbEntity
  8
DEFPOINTS
  6
CONTINUOUS
 62
     7
100
AcDbPoint
 10
2488.937783
 20
650.201202
 30
0.0
  0
POINT
  5
65B
100
AcDbEntity
  8
DEFPOINTS
  6
CONTINUOUS
 62
     7
100
AcDbPoint
 10
2488.937783
 20
650.201202
 30
0.0
  0
POINT
  5
65C
100
AcDbEntity
  8
DEFPOINTS
  6
CONTINUOUS
 62
     7
100
AcDbPoint
 10
2458.937783
 20
665.201202
 30
0.0
  0
POINT
  5
65D
100
AcDbEntity
  8
DEFPOINTS
  6
CONTINUOUS
 62
     7
100
AcDbPoint
 10
2538.937783
 20
679.201202
 30
0.0
  0
LINE
  5
65E
100
AcDbEntity
  8
DETAIL
  6
CONTINUOUS
 62
     5
100
AcDbLine
 10
2488.937783
 20
650.201202
 30
0.0
 11
2488.937783
 21
679.201202
 31
0.0
  0
CIRCLE
  5
65F
100
AcDbEntity
  8
DETAIL
  6
CONTINUOUS
 62
     5
100
AcDbCircle
 10
2438.937783
 20
665.201202
 30
0.0
 40
1.5
  0
LINE
  5
660
100
AcDbEntity
  8
NOTE
  6
CONTINUOUS
 62
     4
100
AcDbLine
 10
2438.937783
 20
645.201202
 30
0.0
 11
2438.937783
 21
685.201202
 31
0.0
  0
POLYLINE
  5
661
100
AcDbEntity
  8
NOTE
  6
CONTINUOUS
 62
     4
100
AcDb2dPolyline
 66
     1
 10
0.0
 20
0.0
 30
0.0
  0
VERTEX
  5
662
100
AcDbEntity
  8
NOTE
  6
CONTINUOUS
 62
     4
100
AcDbVertex
100
AcDb2dVertex
 10
2467.243071
 20
636.937963
 30
0.0
  0
VERTEX
  5
663
100
AcDbEntity
  8
NOTE
  6
CONTINUOUS
 62
     4
100
AcDbVertex
100
AcDb2dVertex
 10
2438.937783
 20
665.201202
 30
0.0
  0
VERTEX
  5
664
100
AcDbEntity
  8
NOTE
  6
CONTINUOUS
 62
     4
100
AcDbVertex
100
AcDb2dVertex
 10
2449.319262
 20
626.571875
 30
0.0
  0
SEQEND
  5
665
100
AcDbEntity
  8
NOTE
  6
CONTINUOUS
 62
     4
  0
LINE
  5
666
100
AcDbEntity
  8
SIZE
  6
CONTINUOUS
 62
    30
100
AcDbLine
 10
2588.937783
 20
609.201202
 30
0.0
 11
2588.937783
 21
0.000003
 31
0.0
  0
TEXT
  5
667
100
AcDbEntity
  8
SIZE
  6
CONTINUOUS
 62
    30
100
AcDbText
 10
3036.986495
 20
514.112776
 30
0.0
 40
55.0
  1
60
 50
90.0
 41
0.9
 72
     1
 11
3036.986495
 21
554.184204
 31
0.0
100
AcDbText
  0
LINE
  5
668
100
AcDbEntity
  8
SIZE
  6
CONTINUOUS
 62
    30
100
AcDbLine
 10
3051.986495
 20
650.201202
 30
0.0
 11
3051.986495
 21
499.112775
 31
0.0
  0
LINE
  5
669
100
AcDbEntity
  8
SIZE
  6
CONTINUOUS
 62
    30
100
AcDbLine
 10
2739.086558
 20
640.201202
 30
0.0
 11
2739.086558
 21
522.57062
 31
0.0
  0
TEXT
  5
66A
100
AcDbEntity
  8
SIZE
  6
CONTINUOUS
 62
    30
100
AcDbText
 10
2825.661269
 20
523.280421
 30
0.0
 40
55.0
  1
50
 50
90.0
 41
0.9
 72
     1
 11
2825.661269
 21
563.351849
 31
0.0
100
AcDbText
  0
LINE
  5
66B
100
AcDbEntity
  8
SIZE
  6
CONTINUOUS
 62
    30
100
AcDbLine
 10
2840.661269
 20
629.201202
 30
0.0
 11
2840.661269
 21
508.28042
 31
0.0
  0
LINE
  5
66C
100
AcDbEntity
  8
NOTE
  6
CONTINUOUS
 62
     4
100
AcDbLine
 10
2679.915613
 20
218.959156
 30
0.0
 11
3096.016257
 21
218.959156
 31
0.0
  0
TEXT
  5
66D
100
AcDbEntity
  8
NOTE
  6
CONTINUOUS
 62
     4
100
AcDbText
 10
2681.428423
 20
231.186487
 30
0.0
 40
64.0
  1
48-%%C3打ﾇｷ
 41
0.9
100
AcDbText
  0
POINT
  5
66E
100
AcDbEntity
  8
DEFPOINTS
  6
CONTINUOUS
 62
     7
100
AcDbPoint
 10
2588.937783
 20
30.000003
 30
0.0
  0
LINE
  5
66F
100
AcDbEntity
  8
SIZE
  6
CONTINUOUS
 62
    30
100
AcDbLine
 10
2583.937783
 20
30.000003
 30
0.0
 11
2578.937783
 21
30.000003
 31
0.0
  0
CIRCLE
  5
670
100
AcDbEntity
  8
SIZE
  6
CONTINUOUS
 62
    30
100
AcDbCircle
 10
2588.937783
 20
30.000003
 30
0.0
 40
5.0
  0
LINE
  5
671
100
AcDbEntity
  8
SIZE
  6
CONTINUOUS
 62
    30
100
AcDbLine
 10
2615.937783
 20
710.201202
 30
0.0
 11
3081.986495
 21
710.201202
 31
0.0
  0
LINE
  5
672
100
AcDbEntity
  8
SIZE
  6
CONTINUOUS
 62
    30
100
AcDbLine
 10
2615.937783
 20
710.201202
 30
0.0
 11
3081.986495
 21
710.201202
 31
0.0
  0
LINE
  5
673
100
AcDbEntity
  8
SIZE
  6
CONTINUOUS
 62
    30
100
AcDbLine
 10
2558.937783
 20
679.201202
 30
0.0
 11
2870.661269
 21
679.201202
 31
0.0
  0
LINE
  5
674
100
AcDbEntity
  8
SIZE
  6
CONTINUOUS
 62
    30
100
AcDbLine
 10
2608.937783
 20
629.201202
 30
0.0
 11
2870.661269
 21
629.201202
 31
0.0
  0
LINE
  5
675
100
AcDbEntity
  8
SIZE
  6
CONTINUOUS
 62
    30
100
AcDbLine
 10
2608.937783
 20
629.201202
 30
0.0
 11
2947.3379
 21
629.201202
 31
0.0
  0
LINE
  5
676
100
AcDbEntity
  8
NOTE
  6
CONTINUOUS
 62
     4
100
AcDbLine
 10
2575.937783
 20
690.201202
 30
0.0
 11
2575.937783
 21
730.201202
 31
0.0
  0
LINE
  5
677
100
AcDbEntity
  8
DETAIL
  6
CONTINUOUS
 62
     5
100
AcDbLine
 10
2598.937783
 20
680.201202
 30
0.0
 11
2598.937783
 21
704.201202
 31
0.0
  0
POINT
  5
678
100
AcDbEntity
  8
DEFPOINTS
  6
CONTINUOUS
 62
     7
100
AcDbPoint
 10
2588.937783
 20
629.201202
 30
0.0
  0
POINT
  5
679
100
AcDbEntity
  8
DEFPOINTS
  6
CONTINUOUS
 62
     7
100
AcDbPoint
 10
2588.937783
 20
629.201202
 30
0.0
  0
POINT
  5
67A
100
AcDbEntity
  8
DEFPOINTS
  6
CONTINUOUS
 62
     7
100
AcDbPoint
 10
2588.937783
 20
629.201202
 30
0.0
  0
POINT
  5
67B
100
AcDbEntity
  8
DEFPOINTS
  6
CONTINUOUS
 62
     7
100
AcDbPoint
 10
2739.086558
 20
650.201202
 30
0.0
  0
TEXT
  5
67C
100
AcDbEntity
  8
SIZE
  6
CONTINUOUS
 62
    30
100
AcDbText
 10
2724.086558
 20
537.570621
 30
0.0
 40
55.0
  1
15
 50
90.0
 41
0.9
 72
     1
 11
2724.086558
 21
572.927763
 31
0.0
100
AcDbText
  0
LINE
  5
67D
100
AcDbEntity
  8
SIZE
  6
CONTINUOUS
 62
    30
100
AcDbLine
 10
2739.086558
 20
645.201202
 30
0.0
 11
2739.086558
 21
640.201202
 31
0.0
  0
CIRCLE
  5
67E
100
AcDbEntity
  8
SIZE
  6
CONTINUOUS
 62
    30
100
AcDbCircle
 10
2739.086558
 20
650.201202
 30
0.0
 40
5.0
  0
LINE
  5
67F
100
AcDbEntity
  8
SIZE
  6
CONTINUOUS
 62
    30
100
AcDbLine
 10
2739.086558
 20
670.201202
 30
0.0
 11
2739.086558
 21
675.201202
 31
0.0
  0
CIRCLE
  5
680
100
AcDbEntity
  8
SIZE
  6
CONTINUOUS
 62
    30
100
AcDbCircle
 10
2739.086558
 20
665.201202
 30
0.0
 40
5.0
  0
LINE
  5
681
100
AcDbEntity
  8
SIZE
  6
CONTINUOUS
 62
    30
100
AcDbLine
 10
2739.086558
 20
665.201202
 30
0.0
 11
2739.086558
 21
650.201202
 31
0.0
  0
LINE
  5
682
100
AcDbEntity
  8
SIZE
  6
CONTINUOUS
 62
    30
100
AcDbLine
 10
2739.086558
 20
675.201202
 30
0.0
 11
2739.086558
 21
685.201202
 31
0.0
  0
POINT
  5
683
100
AcDbEntity
  8
DEFPOINTS
  6
CONTINUOUS
 62
     7
100
AcDbPoint
 10
2595.937783
 20
710.201202
 30
0.0
  0
POINT
  5
684
100
AcDbEntity
  8
DEFPOINTS
  6
CONTINUOUS
 62
     7
100
AcDbPoint
 10
2595.937783
 20
710.201202
 30
0.0
  0
CIRCLE
  5
685
100
AcDbEntity
  8
FIX
  6
CONTINUOUS
 62
    11
100
AcDbCircle
 10
2575.937783
 20
710.201202
 30
0.0
 40
5.0
  0
LINE
  5
686
100
AcDbEntity
  8
NOTE
  6
CONTINUOUS
 62
     4
100
AcDbLine
 10
2595.937783
 20
710.201202
 30
0.0
 11
2555.937783
 21
710.201202
 31
0.0
  0
ARC
  5
687
100
AcDbEntity
  8
DETAIL
  6
CONTINUOUS
 62
     5
100
AcDbCircle
 10
2575.937783
 20
702.201202
 30
0.0
 40
7.0
100
AcDbArc
 50
180.0
 51
0.0
  0
ARC
  5
688
100
AcDbEntity
  8
DETAIL
  6
CONTINUOUS
 62
     5
100
AcDbCircle
 10
2575.937783
 20
718.201202
 30
0.0
 40
7.0
100
AcDbArc
 50
0.0
 51
180.0
  0
LINE
  5
689
100
AcDbEntity
  8
DETAIL
  6
CONTINUOUS
 62
     5
100
AcDbLine
 10
2568.937783
 20
702.201202
 30
0.0
 11
2568.937783
 21
718.201202
 31
0.0
  0
LINE
  5
68A
100
AcDbEntity
  8
DETAIL
  6
CONTINUOUS
 62
     5
100
AcDbLine
 10
2582.937783
 20
702.201202
 30
0.0
 11
2582.937783
 21
704.201202
 31
0.0
  0
LINE
  5
68B
100
AcDbEntity
  8
DETAIL
  6
CONTINUOUS
 62
     5
100
AcDbLine
 10
2582.937783
 20
716.201202
 30
0.0
 11
2582.937783
 21
718.201202
 31
0.0
  0
LINE
  5
68C
100
AcDbEntity
  8
DETAIL
  6
CONTINUOUS
 62
     5
100
AcDbLine
 10
2598.937783
 20
704.201202
 30
0.0
 11
2582.937783
 21
704.201202
 31
0.0
  0
LINE
  5
68D
100
AcDbEntity
  8
DETAIL
  6
CONTINUOUS
 62
     5
100
AcDbLine
 10
2598.937783
 20
716.201202
 30
0.0
 11
2582.937783
 21
716.201202
 31
0.0
  0
LINE
  5
68E
100
AcDbEntity
  8
DETAIL
  6
CONTINUOUS
 62
     5
100
AcDbLine
 10
2598.937783
 20
716.201202
 30
0.0
 11
2598.937783
 21
740.201202
 31
0.0
  0
POINT
  5
68F
100
AcDbEntity
  8
DEFPOINTS
  6
CONTINUOUS
 62
     7
100
AcDbPoint
 10
2840.661269
 20
679.201202
 30
0.0
  0
LINE
  5
690
100
AcDbEntity
  8
SIZE
  6
CONTINUOUS
 62
    30
100
AcDbLine
 10
2840.661269
 20
634.201202
 30
0.0
 11
2840.661269
 21
639.201202
 31
0.0
  0
CIRCLE
  5
691
100
AcDbEntity
  8
SIZE
  6
CONTINUOUS
 62
    30
100
AcDbCircle
 10
2840.661269
 20
629.201202
 30
0.0
 40
5.0
  0
LINE
  5
692
100
AcDbEntity
  8
SIZE
  6
CONTINUOUS
 62
    30
100
AcDbLine
 10
2840.661269
 20
674.201202
 30
0.0
 11
2840.661269
 21
669.201202
 31
0.0
  0
CIRCLE
  5
693
100
AcDbEntity
  8
SIZE
  6
CONTINUOUS
 62
    30
100
AcDbCircle
 10
2840.661269
 20
679.201202
 30
0.0
 40
5.0
  0
LINE
  5
694
100
AcDbEntity
  8
SIZE
  6
CONTINUOUS
 62
    30
100
AcDbLine
 10
2840.661269
 20
669.201202
 30
0.0
 11
2840.661269
 21
639.201202
 31
0.0
  0
POINT
  5
695
100
AcDbEntity
  8
DEFPOINTS
  6
CONTINUOUS
 62
     7
100
AcDbPoint
 10
2917.3379
 20
629.201202
 30
0.0
  0
LINE
  5
696
100
AcDbEntity
  8
SIZE
  6
CONTINUOUS
 62
    30
100
AcDbLine
 10
2917.3379
 20
634.201202
 30
0.0
 11
2917.3379
 21
639.201202
 31
0.0
  0
CIRCLE
  5
697
100
AcDbEntity
  8
SIZE
  6
CONTINUOUS
 62
    30
100
AcDbCircle
 10
2917.3379
 20
629.201202
 30
0.0
 40
5.0
  0
TEXT
  5
698
100
AcDbEntity
  8
SIZE
  6
CONTINUOUS
 62
    30
100
AcDbText
 10
2902.3379
 20
898.860521
 30
0.0
 40
55.0
  1
625
 50
90.0
 41
0.9
 72
     1
 11
2902.3379
 21
962.503378
 31
0.0
100
AcDbText
  0
LINE
  5
699
100
AcDbEntity
  8
SIZE
  6
CONTINUOUS
 62
    30
100
AcDbLine
 10
3051.986495
 20
700.201202
 30
0.0
 11
3051.986495
 21
660.201202
 31
0.0
  0
LINE
  5
69A
100
AcDbEntity
  8
SIZE
  6
CONTINUOUS
 62
    30
100
AcDbLine
 10
3051.986495
 20
655.201202
 30
0.0
 11
3051.986495
 21
660.201202
 31
0.0
  0
CIRCLE
  5
69B
100
AcDbEntity
  8
SIZE
  6
CONTINUOUS
 62
    30
100
AcDbCircle
 10
3051.986495
 20
650.201202
 30
0.0
 40
5.0
  0
POINT
  5
69C
100
AcDbEntity
  8
DEFPOINTS
  6
CONTINUOUS
 62
     7
100
AcDbPoint
 10
3193.489452
 20
650.201202
 30
0.0
  0
LINE
  5
69D
100
AcDbEntity
  8
SIZE
  6
CONTINUOUS
 62
    30
100
AcDbLine
 10
3193.489452
 20
655.201202
 30
0.0
 11
3193.489452
 21
660.201202
 31
0.0
  0
CIRCLE
  5
69E
100
AcDbEntity
  8
SIZE
  6
CONTINUOUS
 62
    30
100
AcDbCircle
 10
3193.489452
 20
650.201202
 30
0.0
 40
5.0
  0
LINE
  5
69F
100
AcDbEntity
  8
SIZE
  6
CONTINUOUS
 62
    30
100
AcDbLine
 10
3051.986495
 20
715.201202
 30
0.0
 11
3051.986495
 21
720.201202
 31
0.0
  0
CIRCLE
  5
6A0
100
AcDbEntity
  8
SIZE
  6
CONTINUOUS
 62
    30
100
AcDbCircle
 10
3051.986495
 20
710.201202
 30
0.0
 40
5.0
  0
POINT
  5
6A1
100
AcDbEntity
  8
DEFPOINTS
  6
CONTINUOUS
 62
     7
100
AcDbPoint
 10
3051.986495
 20
710.201202
 30
0.0
  0
LINE
  5
6A2
100
AcDbEntity
  8
SIZE
  6
CONTINUOUS
 62
    30
100
AcDbLine
 10
3051.986495
 20
705.201202
 30
0.0
 11
3051.986495
 21
700.201202
 31
0.0
  0
CIRCLE
  5
6A3
100
AcDbEntity
  8
SIZE
  6
CONTINUOUS
 62
    30
100
AcDbCircle
 10
3051.986495
 20
710.201202
 30
0.0
 40
5.0
  0
CIRCLE
  5
6A4
100
AcDbEntity
  8
SIZE
  6
CONTINUOUS
 62
    30
100
AcDbCircle
 10
2538.937783
 20
2245.057752
 30
0.0
 40
5.0
  0
LINE
  5
6A5
100
AcDbEntity
  8
SIZE
  6
CONTINUOUS
 62
    30
100
AcDbLine
 10
2519.937783
 20
1648.201202
 30
0.0
 11
3223.489452
 21
1648.201202
 31
0.0
  0
LINE
  5
6A6
100
AcDbEntity
  8
SIZE
  6
CONTINUOUS
 62
    30
100
AcDbLine
 10
2514.937783
 20
1638.201202
 30
0.0
 11
2776.836908
 21
1638.201202
 31
0.0
  0
LINE
  5
6A7
100
AcDbEntity
  8
SIZE
  6
CONTINUOUS
 62
    30
100
AcDbLine
 10
2519.937783
 20
1648.201202
 30
0.0
 11
2776.836908
 21
1648.201202
 31
0.0
  0
LINE
  5
6A8
100
AcDbEntity
  8
DETAIL
  6
CONTINUOUS
 62
     5
100
AcDbLine
 10
2598.937783
 20
1554.201202
 30
0.0
 11
2538.937783
 21
1554.201202
 31
0.0
  0
LINE
  5
6A9
100
AcDbEntity
  8
DETAIL
  6
CONTINUOUS
 62
     5
100
AcDbLine
 10
2598.937783
 20
1494.201202
 30
0.0
 11
2538.937783
 21
1494.201202
 31
0.0
  0
LINE
  5
6AA
100
AcDbEntity
  8
NOTE
  6
CONTINUOUS
 62
     4
100
AcDbLine
 10
2474.937783
 20
1638.201202
 30
0.0
 11
2672.634821
 21
1925.961758
 31
0.0
  0
LINE
  5
6AB
100
AcDbEntity
  8
SIZE
  6
CONTINUOUS
 62
    30
100
AcDbLine
 10
2538.937783
 20
1644.201202
 30
0.0
 11
2538.937783
 21
2275.057752
 31
0.0
  0
LINE
  5
6AC
100
AcDbEntity
  8
SIZE
  6
CONTINUOUS
 62
    30
100
AcDbLine
 10
2499.937783
 20
1668.201202
 30
0.0
 11
2499.937783
 21
1932.14849
 31
0.0
  0
LINE
  5
6AD
100
AcDbEntity
  8
SIZE
  6
CONTINUOUS
 62
    30
100
AcDbLine
 10
2474.937783
 20
1678.201202
 30
0.0
 11
2474.937783
 21
1842.675499
 31
0.0
  0
TEXT
  5
6AE
100
AcDbEntity
  8
NOTE
  6
CONTINUOUS
 62
     4
100
AcDbText
 10
1861.06815
 20
1438.106582
 30
0.0
 40
64.0
  1
（別売ﾄﾞﾚﾝｱｯﾌﾟﾒｶ使用時）
 41
0.8
100
AcDbText
  0
LINE
  5
6AF
100
AcDbEntity
  8
NOTE
  6
CONTINUOUS
 62
     4
100
AcDbLine
 10
2520.193443
 20
1420.840397
 30
0.0
 11
1656.971872
 21
1420.840397
 31
0.0
  0
LINE
  5
6B0
100
AcDbEntity
  8
NOTE
  6
CONTINUOUS
 62
     4
100
AcDbLine
 10
2054.937783
 20
1638.201202
 30
0.0
 11
2094.937783
 21
1638.201202
 31
0.0
  0
TEXT
  5
6B1
100
AcDbEntity
  8
NOTE
  6
CONTINUOUS
 62
     4
100
AcDbText
 10
1711.642673
 20
1438.567999
 30
0.0
 40
64.0
  1
D2
 41
0.9
100
AcDbText
  0
LINE
  5
6B2
100
AcDbEntity
  8
NOTE
  6
CONTINUOUS
 62
     4
100
AcDbLine
 10
1854.937783
 20
1638.201202
 30
0.0
 11
1894.937783
 21
1638.201202
 31
0.0
  0
LINE
  5
6B3
100
AcDbEntity
  8
NOTE
  6
CONTINUOUS
 62
     4
100
AcDbLine
 10
1754.937783
 20
1638.201202
 30
0.0
 11
1794.937783
 21
1638.201202
 31
0.0
  0
CIRCLE
  5
6B4
100
AcDbEntity
  8
DETAIL
  6
CONTINUOUS
 62
     5
100
AcDbCircle
 10
1724.937783
 20
1638.201202
 30
0.0
 40
1.5
  0
LINE
  5
6B5
100
AcDbEntity
  8
NOTE
  6
CONTINUOUS
 62
     4
100
AcDbLine
 10
1724.937783
 20
1618.201202
 30
0.0
 11
1724.937783
 21
1658.201202
 31
0.0
  0
LINE
  5
6B6
100
AcDbEntity
  8
NOTE
  6
CONTINUOUS
 62
     4
100
AcDbLine
 10
1704.937783
 20
1638.201202
 30
0.0
 11
1744.937783
 21
1638.201202
 31
0.0
  0
CIRCLE
  5
6B7
100
AcDbEntity
  8
DETAIL
  6
CONTINUOUS
 62
     5
100
AcDbCircle
 10
1674.937783
 20
1638.201202
 30
0.0
 40
1.5
  0
LINE
  5
6B8
100
AcDbEntity
  8
NOTE
  6
CONTINUOUS
 62
     4
100
AcDbLine
 10
1674.937783
 20
1618.201202
 30
0.0
 11
1674.937783
 21
1658.201202
 31
0.0
  0
LINE
  5
6B9
100
AcDbEntity
  8
NOTE
  6
CONTINUOUS
 62
     4
100
AcDbLine
 10
1654.937783
 20
1638.201202
 30
0.0
 11
1694.937783
 21
1638.201202
 31
0.0
  0
CIRCLE
  5
6BA
100
AcDbEntity
  8
DETAIL
  6
CONTINUOUS
 62
     5
100
AcDbCircle
 10
1824.937783
 20
1638.201202
 30
0.0
 40
1.5
  0
LINE
  5
6BB
100
AcDbEntity
  8
NOTE
  6
CONTINUOUS
 62
     4
100
AcDbLine
 10
1824.937783
 20
1618.201202
 30
0.0
 11
1824.937783
 21
1658.201202
 31
0.0
  0
CIRCLE
  5
6BC
100
AcDbEntity
  8
DETAIL
  6
CONTINUOUS
 62
     5
100
AcDbCircle
 10
1774.937783
 20
1638.201202
 30
0.0
 40
1.5
  0
LINE
  5
6BD
100
AcDbEntity
  8
NOTE
  6
CONTINUOUS
 62
     4
100
AcDbLine
 10
1774.937783
 20
1618.201202
 30
0.0
 11
1774.937783
 21
1658.201202
 31
0.0
  0
LINE
  5
6BE
100
AcDbEntity
  8
NOTE
  6
CONTINUOUS
 62
     4
100
AcDbLine
 10
1804.937783
 20
1638.201202
 30
0.0
 11
1844.937783
 21
1638.201202
 31
0.0
  0
LINE
  5
6BF
100
AcDbEntity
  8
NOTE
  6
CONTINUOUS
 62
     4
100
AcDbLine
 10
1954.937783
 20
1638.201202
 30
0.0
 11
1994.937783
 21
1638.201202
 31
0.0
  0
CIRCLE
  5
6C0
100
AcDbEntity
  8
DETAIL
  6
CONTINUOUS
 62
     5
100
AcDbCircle
 10
1974.937783
 20
1638.201202
 30
0.0
 40
1.5
  0
LINE
  5
6C1
100
AcDbEntity
  8
NOTE
  6
CONTINUOUS
 62
     4
100
AcDbLine
 10
1974.937783
 20
1618.201202
 30
0.0
 11
1974.937783
 21
1658.201202
 31
0.0
  0
CIRCLE
  5
6C2
100
AcDbEntity
  8
DETAIL
  6
CONTINUOUS
 62
     5
100
AcDbCircle
 10
1924.937783
 20
1638.201202
 30
0.0
 40
1.5
  0
LINE
  5
6C3
100
AcDbEntity
  8
NOTE
  6
CONTINUOUS
 62
     4
100
AcDbLine
 10
1874.937783
 20
1618.201202
 30
0.0
 11
1874.937783
 21
1658.201202
 31
0.0
  0
LINE
  5
6C4
100
AcDbEntity
  8
NOTE
  6
CONTINUOUS
 62
     4
100
AcDbLine
 10
1924.937783
 20
1618.201202
 30
0.0
 11
1924.937783
 21
1658.201202
 31
0.0
  0
LINE
  5
6C5
100
AcDbEntity
  8
NOTE
  6
CONTINUOUS
 62
     4
100
AcDbLine
 10
1904.937783
 20
1638.201202
 30
0.0
 11
1944.937783
 21
1638.201202
 31
0.0
  0
CIRCLE
  5
6C6
100
AcDbEntity
  8
DETAIL
  6
CONTINUOUS
 62
     5
100
AcDbCircle
 10
1874.937783
 20
1638.201202
 30
0.0
 40
1.5
  0
CIRCLE
  5
6C7
100
AcDbEntity
  8
DETAIL
  6
CONTINUOUS
 62
     5
100
AcDbCircle
 10
2074.937783
 20
1638.201202
 30
0.0
 40
1.5
  0
LINE
  5
6C8
100
AcDbEntity
  8
NOTE
  6
CONTINUOUS
 62
     4
100
AcDbLine
 10
2074.937783
 20
1618.201202
 30
0.0
 11
2074.937783
 21
1658.201202
 31
0.0
  0
CIRCLE
  5
6C9
100
AcDbEntity
  8
DETAIL
  6
CONTINUOUS
 62
     5
100
AcDbCircle
 10
2024.937783
 20
1638.201202
 30
0.0
 40
1.5
  0
LINE
  5
6CA
100
AcDbEntity
  8
NOTE
  6
CONTINUOUS
 62
     4
100
AcDbLine
 10
2024.937783
 20
1618.201202
 30
0.0
 11
2024.937783
 21
1658.201202
 31
0.0
  0
LINE
  5
6CB
100
AcDbEntity
  8
NOTE
  6
CONTINUOUS
 62
     4
100
AcDbLine
 10
2004.937783
 20
1638.201202
 30
0.0
 11
2044.937783
 21
1638.201202
 31
0.0
  0
LINE
  5
6CC
100
AcDbEntity
  8
NOTE
  6
CONTINUOUS
 62
     4
100
AcDbLine
 10
2304.937783
 20
1638.201202
 30
0.0
 11
2344.937783
 21
1638.201202
 31
0.0
  0
CIRCLE
  5
6CD
100
AcDbEntity
  8
DETAIL
  6
CONTINUOUS
 62
     5
100
AcDbCircle
 10
2174.937783
 20
1638.201202
 30
0.0
 40
1.5
  0
LINE
  5
6CE
100
AcDbEntity
  8
NOTE
  6
CONTINUOUS
 62
     4
100
AcDbLine
 10
2174.937783
 20
1618.201202
 30
0.0
 11
2174.937783
 21
1658.201202
 31
0.0
  0
CIRCLE
  5
6CF
100
AcDbEntity
  8
DETAIL
  6
CONTINUOUS
 62
     5
100
AcDbCircle
 10
2124.937783
 20
1638.201202
 30
0.0
 40
1.5
  0
LINE
  5
6D0
100
AcDbEntity
  8
NOTE
  6
CONTINUOUS
 62
     4
100
AcDbLine
 10
2124.937783
 20
1618.201202
 30
0.0
 11
2124.937783
 21
1658.201202
 31
0.0
  0
LINE
  5
6D1
100
AcDbEntity
  8
NOTE
  6
CONTINUOUS
 62
     4
100
AcDbLine
 10
2154.937783
 20
1638.201202
 30
0.0
 11
2194.937783
 21
1638.201202
 31
0.0
  0
LINE
  5
6D2
100
AcDbEntity
  8
NOTE
  6
CONTINUOUS
 62
     4
100
AcDbLine
 10
2104.937783
 20
1638.201202
 30
0.0
 11
2144.937783
 21
1638.201202
 31
0.0
  0
CIRCLE
  5
6D3
100
AcDbEntity
  8
DETAIL
  6
CONTINUOUS
 62
     5
100
AcDbCircle
 10
2274.937783
 20
1638.201202
 30
0.0
 40
1.5
  0
LINE
  5
6D4
100
AcDbEntity
  8
NOTE
  6
CONTINUOUS
 62
     4
100
AcDbLine
 10
2274.937783
 20
1618.201202
 30
0.0
 11
2274.937783
 21
1658.201202
 31
0.0
  0
LINE
  5
6D5
100
AcDbEntity
  8
NOTE
  6
CONTINUOUS
 62
     4
100
AcDbLine
 10
2254.937783
 20
1638.201202
 30
0.0
 11
2294.937783
 21
1638.201202
 31
0.0
  0
CIRCLE
  5
6D6
100
AcDbEntity
  8
DETAIL
  6
CONTINUOUS
 62
     5
100
AcDbCircle
 10
2224.937783
 20
1638.201202
 30
0.0
 40
1.5
  0
LINE
  5
6D7
100
AcDbEntity
  8
NOTE
  6
CONTINUOUS
 62
     4
100
AcDbLine
 10
2224.937783
 20
1618.201202
 30
0.0
 11
2224.937783
 21
1658.201202
 31
0.0
  0
LINE
  5
6D8
100
AcDbEntity
  8
NOTE
  6
CONTINUOUS
 62
     4
100
AcDbLine
 10
2204.937783
 20
1638.201202
 30
0.0
 11
2244.937783
 21
1638.201202
 31
0.0
  0
LINE
  5
6D9
100
AcDbEntity
  8
DETAIL
  6
CONTINUOUS
 62
     5
100
AcDbLine
 10
2538.937783
 20
1554.201202
 30
0.0
 11
2538.937783
 21
1494.201202
 31
0.0
  0
LINE
  5
6DA
100
AcDbEntity
  8
NOTE
  6
CONTINUOUS
 62
     4
100
AcDbLine
 10
2404.937783
 20
1638.201202
 30
0.0
 11
2444.937783
 21
1638.201202
 31
0.0
  0
CIRCLE
  5
6DB
100
AcDbEntity
  8
DETAIL
  6
CONTINUOUS
 62
     5
100
AcDbCircle
 10
2424.937783
 20
1638.201202
 30
0.0
 40
1.5
  0
LINE
  5
6DC
100
AcDbEntity
  8
NOTE
  6
CONTINUOUS
 62
     4
100
AcDbLine
 10
2424.937783
 20
1618.201202
 30
0.0
 11
2424.937783
 21
1658.201202
 31
0.0
  0
CIRCLE
  5
6DD
100
AcDbEntity
  8
DETAIL
  6
CONTINUOUS
 62
     5
100
AcDbCircle
 10
2374.937783
 20
1638.201202
 30
0.0
 40
1.5
  0
LINE
  5
6DE
100
AcDbEntity
  8
NOTE
  6
CONTINUOUS
 62
     4
100
AcDbLine
 10
2374.937783
 20
1618.201202
 30
0.0
 11
2374.937783
 21
1658.201202
 31
0.0
  0
LINE
  5
6DF
100
AcDbEntity
  8
NOTE
  6
CONTINUOUS
 62
     4
100
AcDbLine
 10
2354.937783
 20
1638.201202
 30
0.0
 11
2394.937783
 21
1638.201202
 31
0.0
  0
CIRCLE
  5
6E0
100
AcDbEntity
  8
DETAIL
  6
CONTINUOUS
 62
     5
100
AcDbCircle
 10
2324.937783
 20
1638.201202
 30
0.0
 40
1.5
  0
LINE
  5
6E1
100
AcDbEntity
  8
NOTE
  6
CONTINUOUS
 62
     4
100
AcDbLine
 10
2324.937783
 20
1618.201202
 30
0.0
 11
2324.937783
 21
1658.201202
 31
0.0
  0
POINT
  5
6E2
100
AcDbEntity
  8
DEFPOINTS
  6
CONTINUOUS
 62
     7
100
AcDbPoint
 10
2538.937783
 20
1624.201202
 30
0.0
  0
POINT
  5
6E3
100
AcDbEntity
  8
DEFPOINTS
  6
CONTINUOUS
 62
     7
100
AcDbPoint
 10
2499.937783
 20
1648.201202
 30
0.0
  0
POINT
  5
6E4
100
AcDbEntity
  8
DEFPOINTS
  6
CONTINUOUS
 62
     7
100
AcDbPoint
 10
2474.937783
 20
1658.201202
 30
0.0
  0
POINT
  5
6E5
100
AcDbEntity
  8
DEFPOINTS
  6
CONTINUOUS
 62
     7
100
AcDbPoint
 10
2499.937783
 20
1648.201202
 30
0.0
  0
POINT
  5
6E6
100
AcDbEntity
  8
DEFPOINTS
  6
CONTINUOUS
 62
     7
100
AcDbPoint
 10
2494.937783
 20
1638.201202
 30
0.0
  0
POINT
  5
6E7
100
AcDbEntity
  8
DEFPOINTS
  6
CONTINUOUS
 62
     7
100
AcDbPoint
 10
2499.937783
 20
1648.201202
 30
0.0
  0
LINE
  5
6E8
100
AcDbEntity
  8
DETAIL
  6
CONTINUOUS
 62
     5
100
AcDbLine
 10
2499.937783
 20
1624.201202
 30
0.0
 11
2499.937783
 21
1648.201202
 31
0.0
  0
CIRCLE
  5
6E9
100
AcDbEntity
  8
DETAIL
  6
CONTINUOUS
 62
     5
100
AcDbCircle
 10
2474.937783
 20
1638.201202
 30
0.0
 40
1.5
  0
LINE
  5
6EA
100
AcDbEntity
  8
NOTE
  6
CONTINUOUS
 62
     4
100
AcDbLine
 10
2474.937783
 20
1618.201202
 30
0.0
 11
2474.937783
 21
1658.201202
 31
0.0
  0
LINE
  5
6EB
100
AcDbEntity
  8
NOTE
  6
CONTINUOUS
 62
     4
100
AcDbLine
 10
2454.937783
 20
1638.201202
 30
0.0
 11
2494.937783
 21
1638.201202
 31
0.0
  0
POLYLINE
  5
6EC
100
AcDbEntity
  8
NOTE
  6
CONTINUOUS
 62
     4
100
AcDb2dPolyline
 66
     1
 10
0.0
 20
0.0
 30
0.0
  0
VERTEX
  5
6ED
100
AcDbEntity
  8
NOTE
  6
CONTINUOUS
 62
     4
100
AcDbVertex
100
AcDb2dVertex
 10
2486.692652
 20
1676.434997
 30
0.0
  0
VERTEX
  5
6EE
100
AcDbEntity
  8
NOTE
  6
CONTINUOUS
 62
     4
100
AcDbVertex
100
AcDb2dVertex
 10
2474.937783
 20
1638.201202
 30
0.0
  0
VERTEX
  5
6EF
100
AcDbEntity
  8
NOTE
  6
CONTINUOUS
 62
     4
100
AcDbVertex
100
AcDb2dVertex
 10
2504.234696
 20
1665.435205
 30
0.0
  0
SEQEND
  5
6F0
100
AcDbEntity
  8
NOTE
  6
CONTINUOUS
 62
     4
  0
TEXT
  5
6F1
100
AcDbEntity
  8
SIZE
  6
CONTINUOUS
 62
    30
100
AcDbText
 10
1738.752069
 20
1827.675499
 30
0.0
 40
55.0
  1
50×20＝1000
 41
0.9
 72
     1
 11
1974.937783
 21
1827.675499
 31
0.0
100
AcDbText
  0
TEXT
  5
6F2
100
AcDbEntity
  8
SIZE
  6
CONTINUOUS
 62
    30
100
AcDbText
 10
1892.437783
 20
1917.14849
 30
0.0
 40
55.0
  1
1050
 41
0.9
 72
     1
 11
1974.937783
 21
1917.14849
 31
0.0
100
AcDbText
  0
TEXT
  5
6F3
100
AcDbEntity
  8
SIZE
  6
CONTINUOUS
 62
    30
100
AcDbText
 10
1891.437783
 20
2144.658609
 30
0.0
 40
55.0
  1
1250
 41
0.9
 72
     1
 11
1973.937783
 21
2144.658609
 31
0.0
100
AcDbText
  0
TEXT
  5
6F4
100
AcDbEntity
  8
SIZE
  6
CONTINUOUS
 62
    30
100
AcDbText
 10
1896.152069
 20
2260.057752
 30
0.0
 40
55.0
  1
1130
 41
0.9
 72
     1
 11
1973.937783
 21
2260.057752
 31
0.0
100
AcDbText
  0
POINT
  5
6F5
100
AcDbEntity
  8
DEFPOINTS
  6
CONTINUOUS
 62
     7
100
AcDbPoint
 10
2499.937783
 20
1902.14849
 30
0.0
  0
LINE
  5
6F6
100
AcDbEntity
  8
SIZE
  6
CONTINUOUS
 62
    30
100
AcDbLine
 10
2494.937783
 20
1902.14849
 30
0.0
 11
2489.937783
 21
1902.14849
 31
0.0
  0
CIRCLE
  5
6F7
100
AcDbEntity
  8
SIZE
  6
CONTINUOUS
 62
    30
100
AcDbCircle
 10
2499.937783
 20
1902.14849
 30
0.0
 40
5.0
  0
POINT
  5
6F8
100
AcDbEntity
  8
DEFPOINTS
  6
CONTINUOUS
 62
     7
100
AcDbPoint
 10
2474.937783
 20
1812.675499
 30
0.0
  0
LINE
  5
6F9
100
AcDbEntity
  8
SIZE
  6
CONTINUOUS
 62
    30
100
AcDbLine
 10
2469.937783
 20
1812.675499
 30
0.0
 11
2464.937783
 21
1812.675499
 31
0.0
  0
CIRCLE
  5
6FA
100
AcDbEntity
  8
SIZE
  6
CONTINUOUS
 62
    30
100
AcDbCircle
 10
2474.937783
 20
1812.675499
 30
0.0
 40
5.0
  0
POINT
  5
6FB
100
AcDbEntity
  8
DEFPOINTS
  6
CONTINUOUS
 62
     7
100
AcDbPoint
 10
2538.937783
 20
2245.057752
 30
0.0
  0
LINE
  5
6FC
100
AcDbEntity
  8
SIZE
  6
CONTINUOUS
 62
    30
100
AcDbLine
 10
2533.937783
 20
2245.057752
 30
0.0
 11
2528.937783
 21
2245.057752
 31
0.0
  0
LINE
  5
6FD
100
AcDbEntity
  8
SIZE
  6
CONTINUOUS
 62
    30
100
AcDbLine
 10
2598.937783
 20
1574.201202
 30
0.0
 11
2598.937783
 21
2159.658609
 31
0.0
  0
LINE
  5
6FE
100
AcDbEntity
  8
SIZE
  6
CONTINUOUS
 62
    30
100
AcDbLine
 10
2575.937783
 20
1564.201202
 30
0.0
 11
2575.937783
 21
2051.217898
 31
0.0
  0
LINE
  5
6FF
100
AcDbEntity
  8
SIZE
  6
CONTINUOUS
 62
    30
100
AcDbLine
 10
2746.836908
 20
1658.201202
 30
0.0
 11
2746.836908
 21
1768.915488
 31
0.0
  0
LINE
  5
700
100
AcDbEntity
  8
SIZE
  6
CONTINUOUS
 62
    30
100
AcDbLine
 10
2615.937783
 20
1524.201202
 30
0.0
 11
3081.986495
 21
1524.201202
 31
0.0
  0
LINE
  5
701
100
AcDbEntity
  8
SIZE
  6
CONTINUOUS
 62
    30
100
AcDbLine
 10
2608.937783
 20
1254.201202
 30
0.0
 11
2947.3379
 21
1254.201202
 31
0.0
  0
POINT
  5
702
100
AcDbEntity
  8
DEFPOINTS
  6
CONTINUOUS
 62
     7
100
AcDbPoint
 10
2588.937783
 20
1254.201202
 30
0.0
  0
LINE
  5
703
100
AcDbEntity
  8
SIZE
  6
CONTINUOUS
 62
    30
100
AcDbLine
 10
2917.3379
 20
1249.201202
 30
0.0
 11
2917.3379
 21
1244.201202
 31
0.0
  0
CIRCLE
  5
704
100
AcDbEntity
  8
SIZE
  6
CONTINUOUS
 62
    30
100
AcDbCircle
 10
2917.3379
 20
1254.201202
 30
0.0
 40
5.0
  0
POINT
  5
705
100
AcDbEntity
  8
DEFPOINTS
  6
CONTINUOUS
 62
     7
100
AcDbPoint
 10
2598.937783
 20
1554.201202
 30
0.0
  0
POINT
  5
706
100
AcDbEntity
  8
DEFPOINTS
  6
CONTINUOUS
 62
     7
100
AcDbPoint
 10
2575.937783
 20
1544.201202
 30
0.0
  0
POINT
  5
707
100
AcDbEntity
  8
DEFPOINTS
  6
CONTINUOUS
 62
     7
100
AcDbPoint
 10
2595.937783
 20
1524.201202
 30
0.0
  0
CIRCLE
  5
708
100
AcDbEntity
  8
FIX
  6
CONTINUOUS
 62
    11
100
AcDbCircle
 10
2575.937783
 20
1524.201202
 30
0.0
 40
5.0
  0
LINE
  5
709
100
AcDbEntity
  8
NOTE
  6
CONTINUOUS
 62
     4
100
AcDbLine
 10
2595.937783
 20
1524.201202
 30
0.0
 11
2555.937783
 21
1524.201202
 31
0.0
  0
LINE
  5
70A
100
AcDbEntity
  8
NOTE
  6
CONTINUOUS
 62
     4
100
AcDbLine
 10
2575.937783
 20
1504.201202
 30
0.0
 11
2575.937783
 21
1544.201202
 31
0.0
  0
LINE
  5
70B
100
AcDbEntity
  8
DETAIL
  6
CONTINUOUS
 62
     5
100
AcDbLine
 10
2598.937783
 20
1494.201202
 30
0.0
 11
2598.937783
 21
1518.201202
 31
0.0
  0
ARC
  5
70C
100
AcDbEntity
  8
DETAIL
  6
CONTINUOUS
 62
     5
100
AcDbCircle
 10
2575.937783
 20
1516.201202
 30
0.0
 40
7.0
100
AcDbArc
 50
180.0
 51
0.0
  0
ARC
  5
70D
100
AcDbEntity
  8
DETAIL
  6
CONTINUOUS
 62
     5
100
AcDbCircle
 10
2575.937783
 20
1532.201202
 30
0.0
 40
7.0
100
AcDbArc
 50
0.0
 51
180.0
  0
LINE
  5
70E
100
AcDbEntity
  8
DETAIL
  6
CONTINUOUS
 62
     5
100
AcDbLine
 10
2568.937783
 20
1516.201202
 30
0.0
 11
2568.937783
 21
1532.201202
 31
0.0
  0
LINE
  5
70F
100
AcDbEntity
  8
DETAIL
  6
CONTINUOUS
 62
     5
100
AcDbLine
 10
2582.937783
 20
1516.201202
 30
0.0
 11
2582.937783
 21
1518.201202
 31
0.0
  0
LINE
  5
710
100
AcDbEntity
  8
DETAIL
  6
CONTINUOUS
 62
     5
100
AcDbLine
 10
2582.937783
 20
1530.201202
 30
0.0
 11
2582.937783
 21
1532.201202
 31
0.0
  0
LINE
  5
711
100
AcDbEntity
  8
DETAIL
  6
CONTINUOUS
 62
     5
100
AcDbLine
 10
2598.937783
 20
1518.201202
 30
0.0
 11
2582.937783
 21
1518.201202
 31
0.0
  0
LINE
  5
712
100
AcDbEntity
  8
DETAIL
  6
CONTINUOUS
 62
     5
100
AcDbLine
 10
2598.937783
 20
1530.201202
 30
0.0
 11
2582.937783
 21
1530.201202
 31
0.0
  0
LINE
  5
713
100
AcDbEntity
  8
DETAIL
  6
CONTINUOUS
 62
     5
100
AcDbLine
 10
2598.937783
 20
1530.201202
 30
0.0
 11
2598.937783
 21
1554.201202
 31
0.0
  0
POINT
  5
714
100
AcDbEntity
  8
DEFPOINTS
  6
CONTINUOUS
 62
     7
100
AcDbPoint
 10
2746.836908
 20
1638.201202
 30
0.0
  0
TEXT
  5
715
100
AcDbEntity
  8
SIZE
  6
CONTINUOUS
 62
    30
100
AcDbText
 10
2731.836908
 20
1683.201203
 30
0.0
 40
55.0
  1
10
 50
90.0
 41
0.9
 72
     1
 11
2731.836908
 21
1718.558345
 31
0.0
100
AcDbText
  0
LINE
  5
716
100
AcDbEntity
  8
SIZE
  6
CONTINUOUS
 62
    30
100
AcDbLine
 10
2746.836908
 20
1653.201202
 30
0.0
 11
2746.836908
 21
1658.201202
 31
0.0
  0
CIRCLE
  5
717
100
AcDbEntity
  8
SIZE
  6
CONTINUOUS
 62
    30
100
AcDbCircle
 10
2746.836908
 20
1648.201202
 30
0.0
 40
5.0
  0
LINE
  5
718
100
AcDbEntity
  8
SIZE
  6
CONTINUOUS
 62
    30
100
AcDbLine
 10
2746.836908
 20
1633.201202
 30
0.0
 11
2746.836908
 21
1628.201202
 31
0.0
  0
CIRCLE
  5
719
100
AcDbEntity
  8
SIZE
  6
CONTINUOUS
 62
    30
100
AcDbCircle
 10
2746.836908
 20
1638.201202
 30
0.0
 40
5.0
  0
LINE
  5
71A
100
AcDbEntity
  8
SIZE
  6
CONTINUOUS
 62
    30
100
AcDbLine
 10
2746.836908
 20
1638.201202
 30
0.0
 11
2746.836908
 21
1648.201202
 31
0.0
  0
LINE
  5
71B
100
AcDbEntity
  8
SIZE
  6
CONTINUOUS
 62
    30
100
AcDbLine
 10
2746.836908
 20
1628.201202
 30
0.0
 11
2746.836908
 21
1618.201202
 31
0.0
  0
POINT
  5
71C
100
AcDbEntity
  8
DEFPOINTS
  6
CONTINUOUS
 62
     7
100
AcDbPoint
 10
3051.986495
 20
1524.201202
 30
0.0
  0
LINE
  5
71D
100
AcDbEntity
  8
SIZE
  6
CONTINUOUS
 62
    30
100
AcDbLine
 10
3051.986495
 20
1519.201202
 30
0.0
 11
3051.986495
 21
1514.201202
 31
0.0
  0
CIRCLE
  5
71E
100
AcDbEntity
  8
SIZE
  6
CONTINUOUS
 62
    30
100
AcDbCircle
 10
3051.986495
 20
1524.201202
 30
0.0
 40
5.0
  0
LINE
  5
71F
100
AcDbEntity
  8
SIZE
  6
CONTINUOUS
 62
    30
100
AcDbLine
 10
3193.489452
 20
1643.201202
 30
0.0
 11
3193.489452
 21
1638.201202
 31
0.0
  0
CIRCLE
  5
720
100
AcDbEntity
  8
SIZE
  6
CONTINUOUS
 62
    30
100
AcDbCircle
 10
3193.489452
 20
1648.201202
 30
0.0
 40
5.0
  0
LINE
  5
721
100
AcDbEntity
  8
NOTE
  6
CONTINUOUS
 62
     4
100
AcDbLine
 10
2672.634821
 20
1925.961758
 30
0.0
 11
3088.735465
 21
1925.961758
 31
0.0
  0
TEXT
  5
722
100
AcDbEntity
  8
NOTE
  6
CONTINUOUS
 62
     4
100
AcDbText
 10
2674.147631
 20
1938.189089
 30
0.0
 40
64.0
  1
54-%%C3打ﾇｷ
 41
0.9
100
AcDbText
  0
POINT
  5
723
100
AcDbEntity
  8
DEFPOINTS
  6
CONTINUOUS
 62
     7
100
AcDbPoint
 10
2575.937783
 20
2021.217898
 30
0.0
  0
LINE
  5
724
100
AcDbEntity
  8
SIZE
  6
CONTINUOUS
 62
    30
100
AcDbLine
 10
2570.937783
 20
2021.217898
 30
0.0
 11
2565.937783
 21
2021.217898
 31
0.0
  0
CIRCLE
  5
725
100
AcDbEntity
  8
SIZE
  6
CONTINUOUS
 62
    30
100
AcDbCircle
 10
2575.937783
 20
2021.217898
 30
0.0
 40
5.0
  0
POINT
  5
726
100
AcDbEntity
  8
DEFPOINTS
  6
CONTINUOUS
 62
     7
100
AcDbPoint
 10
2598.937783
 20
2129.658609
 30
0.0
  0
LINE
  5
727
100
AcDbEntity
  8
SIZE
  6
CONTINUOUS
 62
    30
100
AcDbLine
 10
2593.937783
 20
2129.658609
 30
0.0
 11
2588.937783
 21
2129.658609
 31
0.0
  0
CIRCLE
  5
728
100
AcDbEntity
  8
SIZE
  6
CONTINUOUS
 62
    30
100
AcDbCircle
 10
2598.937783
 20
2129.658609
 30
0.0
 40
5.0
  0
TEXT
  5
729
100
AcDbEntity
  8
ETC
  6
CONTINUOUS
 62
    61
100
AcDbText
 10
217.063919
 20
2397.832226
 30
0.0
 40
64.0
  1
MPE-RP112_160CA2(F-BOX)_6
 41
0.9
100
AcDbText
  0
ENDBLK
  5
72B
100
AcDbEntity
  8
0
 62
     7
100
AcDbBlockEnd
  0
ENDSEC
  0
SECTION
  2
ENTITIES
  0
LINE
  5
72D
100
AcDbEntity
  8
SIZE
  6
CONTINUOUS
 62
    30
100
AcDbLine
 10
-605.0
 20
-1121.701199
 30
0.0
 11
605.0
 21
-1121.701199
 31
0.0
  0
LINE
  5
72E
100
AcDbEntity
  8
SIZE
  6
CONTINUOUS
 62
    30
100
AcDbLine
 10
-475.0
 20
-1002.459665
 30
0.0
 11
505.0
 21
-1002.459665
 31
0.0
  0
LINE
  5
72F
100
AcDbEntity
  8
SIZE
  6
CONTINUOUS
 62
    30
100
AcDbLine
 10
-555.0
 20
1093.35655
 30
0.0
 11
555.0
 21
1093.35655
 31
0.0
  0
LINE
  5
730
100
AcDbEntity
  8
SIZE
  6
CONTINUOUS
 62
    30
100
AcDbLine
 10
-615.0
 20
977.957407
 30
0.0
 11
615.0
 21
977.957407
 31
0.0
  0
TEXT
  5
731
100
AcDbEntity
  8
SIZE
  6
CONTINUOUS
 62
    30
100
AcDbText
 10
-351.921429
 20
888.921458
 30
0.0
 40
55.0
  1
1204(吊りボルトピッチ)
 41
0.9
 72
     1
 11
0.0
 21
888.921458
 31
0.0
100
AcDbText
  0
LINE
  5
732
100
AcDbEntity
  8
SIZE
  6
CONTINUOUS
 62
    30
100
AcDbLine
 10
-592.0
 20
869.516696
 30
0.0
 11
592.0
 21
869.516696
 31
0.0
  0
LINE
  5
733
100
AcDbEntity
  8
SIZE
  6
CONTINUOUS
 62
    30
100
AcDbLine
 10
-514.0
 20
750.447288
 30
0.0
 11
516.0
 21
750.447288
 31
0.0
  0
LINE
  5
734
100
AcDbEntity
  8
SIZE
  6
CONTINUOUS
 62
    30
100
AcDbLine
 10
-425.0
 20
-890.267049
 30
0.0
 11
455.0
 21
-890.267049
 31
0.0
  0
LINE
  5
735
100
AcDbEntity
  8
SIZE
  6
CONTINUOUS
 62
    30
100
AcDbLine
 10
-489.0
 20
660.974297
 30
0.0
 11
491.0
 21
660.974297
 31
0.0
  0
LINE
  5
736
100
AcDbEntity
  8
SERVICESPACE
  6
DASHDOT
 62
     2
100
AcDbLine
 10
-1265.0
 20
472.5
 30
0.0
 11
615.0
 21
472.5
 31
0.0
  0
LINE
  5
737
100
AcDbEntity
  8
SERVICESPACE
  6
DASHDOT
 62
     2
100
AcDbLine
 10
615.0
 20
102.5
 30
0.0
 11
-615.0
 21
-522.5
 31
0.0
  0
LINE
  5
738
100
AcDbEntity
  8
SERVICESPACE
  6
DASHDOT
 62
     2
100
AcDbLine
 10
-615.0
 20
102.5
 30
0.0
 11
615.0
 21
-522.5
 31
0.0
  0
LINE
  5
739
100
AcDbEntity
  8
NOTE
  6
CONTINUOUS
 62
     4
100
AcDbLine
 10
-565.0
 20
-85.5
 30
0.0
 11
-316.965911
 21
269.139195
 31
0.0
  0
TEXT
  5
73A
100
AcDbEntity
  8
SIZE
  6
CONTINUOUS
 62
    30
100
AcDbText
 10
-365.251066
 20
-749.387591
 30
0.0
 40
55.0
  1
50
 41
0.9
 72
     1
 11
-325.179637
 21
-749.387591
 31
0.0
100
AcDbText
  0
LINE
  5
73B
100
AcDbEntity
  8
SIZE
  6
CONTINUOUS
 62
    30
100
AcDbLine
 10
-380.251066
 20
-764.387591
 30
0.0
 11
-270.108208
 21
-764.387591
 31
0.0
  0
TEXT
  5
73C
100
AcDbEntity
  8
SIZE
  6
CONTINUOUS
 62
    30
100
AcDbText
 10
-360.0
 20
-609.906579
 30
0.0
 40
55.0
  1
50
 41
0.9
 72
     1
 11
-319.928571
 21
-609.906579
 31
0.0
100
AcDbText
  0
LINE
  5
73D
100
AcDbEntity
  8
SIZE
  6
CONTINUOUS
 62
    30
100
AcDbLine
 10
-385.0
 20
-624.906579
 30
0.0
 11
-264.857143
 21
-624.906579
 31
0.0
  0
TEXT
  5
73E
100
AcDbEntity
  8
NOTE
  6
CONTINUOUS
 62
     4
100
AcDbText
 10
-526.237291
 20
-409.754341
 30
0.0
 40
64.0
  1
下部サービススペース
 41
0.8
100
AcDbText
  0
TEXT
  5
73F
100
AcDbEntity
  8
NOTE
  6
CONTINUOUS
 62
     4
100
AcDbText
 10
-520.373114
 20
-330.628894
 30
0.0
 40
64.0
  1
補助電気ヒータ・熱交換器用
 41
0.8
100
AcDbText
  0
LINE
  5
740
100
AcDbEntity
  8
SERVICESPACE
  6
DASHDOT
 62
     2
100
AcDbLine
 10
615.0
 20
102.5
 30
0.0
 11
-615.0
 21
102.5
 31
0.0
  0
LINE
  5
741
100
AcDbEntity
  8
SERVICESPACE
  6
DASHDOT
 62
     2
100
AcDbLine
 10
615.0
 20
-522.5
 30
0.0
 11
-615.0
 21
-522.5
 31
0.0
  0
LINE
  5
742
100
AcDbEntity
  8
DETAIL
  6
CONTINUOUS
 62
     5
100
AcDbLine
 10
-565.0
 20
472.5
 30
0.0
 11
565.0
 21
472.5
 31
0.0
  0
LINE
  5
743
100
AcDbEntity
  8
OUTLINE
  6
CONTINUOUS
 62
     3
100
AcDbLine
 10
-565.0
 20
472.5
 30
0.0
 11
565.0
 21
472.5
 31
0.0
  0
LINE
  5
744
100
AcDbEntity
  8
DETAIL
  6
CONTINUOUS
 62
     5
100
AcDbLine
 10
565.0
 20
374.5
 30
0.0
 11
-565.0
 21
374.5
 31
0.0
  0
LINE
  5
745
100
AcDbEntity
  8
DETAIL
  6
CONTINUOUS
 62
     5
100
AcDbLine
 10
565.0
 20
-472.5
 30
0.0
 11
-565.0
 21
-472.5
 31
0.0
  0
LINE
  5
746
100
AcDbEntity
  8
OUTLINE
  6
CONTINUOUS
 62
     3
100
AcDbLine
 10
-565.0
 20
-472.5
 30
0.0
 11
565.0
 21
-472.5
 31
0.0
  0
LINE
  5
747
100
AcDbEntity
  8
NOTE
  6
CONTINUOUS
 62
     4
100
AcDbLine
 10
-355.0
 20
-486.5
 30
0.0
 11
-315.0
 21
-486.5
 31
0.0
  0
LINE
  5
748
100
AcDbEntity
  8
BASIS
  6
DASHDOT
 62
     6
100
AcDbLine
 10
-489.96462
 20
0.0
 30
0.0
 11
674.878938
 21
0.0
 31
0.0
  0
LINE
  5
749
100
AcDbEntity
  8
DETAIL
  6
CONTINUOUS
 62
     5
100
AcDbLine
 10
-524.0
 20
496.5
 30
0.0
 11
526.0
 21
496.5
 31
0.0
  0
LINE
  5
74A
100
AcDbEntity
  8
DETAIL
  6
CONTINUOUS
 62
     5
100
AcDbLine
 10
-485.0
 20
-501.5
 30
0.0
 11
190.0
 21
-501.5
 31
0.0
  0
TEXT
  5
74B
100
AcDbEntity
  8
SIZE
  6
CONTINUOUS
 62
    30
100
AcDbText
 10
-1918.937788
 20
-112.642857
 30
0.0
 40
55.0
  1
847
 50
90.0
 41
0.9
 72
     1
 11
-1918.937788
 21
-49.0
 31
0.0
100
AcDbText
  0
LINE
  5
74C
100
AcDbEntity
  8
SIZE
  6
CONTINUOUS
 62
    30
100
AcDbLine
 10
-1903.937788
 20
-462.5
 30
0.0
 11
-1903.937788
 21
364.5
 31
0.0
  0
TEXT
  5
74D
100
AcDbEntity
  8
SIZE
  6
CONTINUOUS
 62
    30
100
AcDbText
 10
-1797.394817
 20
-116.142857
 30
0.0
 40
55.0
  1
450
 50
90.0
 41
0.9
 72
     1
 11
-1797.394817
 21
-52.5
 31
0.0
100
AcDbText
  0
LINE
  5
74E
100
AcDbEntity
  8
SIZE
  6
CONTINUOUS
 62
    30
100
AcDbLine
 10
-1782.394817
 20
162.5
 30
0.0
 11
-1782.394817
 21
-267.5
 31
0.0
  0
LINE
  5
74F
100
AcDbEntity
  8
SIZE
  6
CONTINUOUS
 62
    30
100
AcDbLine
 10
-663.785823
 20
324.0
 30
0.0
 11
-663.785823
 21
-39.0
 31
0.0
  0
LINE
  5
750
100
AcDbEntity
  8
SERVICESPACE
  6
DASHDOT
 62
     2
100
AcDbLine
 10
-1265.0
 20
172.5
 30
0.0
 11
-765.0
 21
-277.5
 31
0.0
  0
LINE
  5
751
100
AcDbEntity
  8
SERVICESPACE
  6
DASHDOT
 62
     2
100
AcDbLine
 10
-765.0
 20
172.5
 30
0.0
 11
-1265.0
 21
-277.5
 31
0.0
  0
LINE
  5
752
100
AcDbEntity
  8
SERVICESPACE
  6
DASHDOT
 62
     2
100
AcDbLine
 10
-615.0
 20
102.5
 30
0.0
 11
-615.0
 21
-522.5
 31
0.0
  0
LINE
  5
753
100
AcDbEntity
  8
SERVICESPACE
  6
DASHDOT
 62
     2
100
AcDbLine
 10
-765.0
 20
172.5
 30
0.0
 11
-765.0
 21
-277.5
 31
0.0
  0
LINE
  5
754
100
AcDbEntity
  8
SERVICESPACE
  6
DASHDOT
 62
     2
100
AcDbLine
 10
-1265.0
 20
472.5
 30
0.0
 11
-1265.0
 21
-472.5
 31
0.0
  0
LINE
  5
755
100
AcDbEntity
  8
SERVICESPACE
  6
DASHDOT
 62
     2
100
AcDbLine
 10
-565.0
 20
472.5
 30
0.0
 11
-565.0
 21
-472.5
 31
0.0
  0
LINE
  5
756
100
AcDbEntity
  8
DETAIL
  6
CONTINUOUS
 62
     5
100
AcDbLine
 10
-565.0
 20
-472.5
 30
0.0
 11
-565.0
 21
472.5
 31
0.0
  0
LINE
  5
757
100
AcDbEntity
  8
DETAIL
  6
CONTINUOUS
 62
     5
100
AcDbLine
 10
-635.0
 20
-49.0
 30
0.0
 11
-635.0
 21
334.0
 31
0.0
  0
LINE
  5
758
100
AcDbEntity
  8
OUTLINE
  6
CONTINUOUS
 62
     3
100
AcDbLine
 10
-565.0
 20
472.5
 30
0.0
 11
-565.0
 21
-472.5
 31
0.0
  0
LINE
  5
759
100
AcDbEntity
  8
NOTE
  6
CONTINUOUS
 62
     4
100
AcDbLine
 10
-1755.958833
 20
-1035.942295
 30
0.0
 11
-1002.903779
 21
-1035.942295
 31
0.0
  0
TEXT
  5
75A
100
AcDbEntity
  8
NOTE
  6
CONTINUOUS
 62
     4
100
AcDbText
 10
-1750.485024
 20
-1012.392858
 30
0.0
 40
64.0
  1
RG φ19.05（R407C）
 41
0.8
100
AcDbText
  0
TEXT
  5
75B
100
AcDbEntity
  8
NOTE
  6
CONTINUOUS
 62
     4
100
AcDbText
 10
-1750.485024
 20
-916.543728
 30
0.0
 40
64.0
  1
RG φ15.88（R410A）
 41
0.8
100
AcDbText
  0
LINE
  5
75C
100
AcDbEntity
  8
SIZE
  6
CONTINUOUS
 62
    30
100
AcDbLine
 10
-585.0
 20
-472.5
 30
0.0
 11
-1933.937788
 21
-472.5
 31
0.0
  0
LINE
  5
75D
100
AcDbEntity
  8
SIZE
  6
CONTINUOUS
 62
    30
100
AcDbLine
 10
-585.0
 20
-472.5
 30
0.0
 11
-1933.937788
 21
-472.5
 31
0.0
  0
LINE
  5
75E
100
AcDbEntity
  8
SIZE
  6
CONTINUOUS
 62
    30
100
AcDbLine
 10
-505.0
 20
-501.5
 30
0.0
 11
-1933.937788
 21
-501.5
 31
0.0
  0
TEXT
  5
75F
100
AcDbEntity
  8
NOTE
  6
CONTINUOUS
 62
     4
100
AcDbText
 10
-1449.278834
 20
-722.15438
 30
0.0
 40
64.0
  1
RL φ9.52
 41
0.9
100
AcDbText
  0
LINE
  5
760
100
AcDbEntity
  8
NOTE
  6
CONTINUOUS
 62
     4
100
AcDbLine
 10
-1460.357897
 20
-743.672546
 30
0.0
 11
-1051.799268
 21
-743.672546
 31
0.0
  0
TEXT
  5
761
100
AcDbEntity
  8
NOTE
  6
CONTINUOUS
 62
     4
100
AcDbText
 10
-1499.825853
 20
-586.625142
 30
0.0
 40
64.0
  1
D1 VP-25
 41
0.9
100
AcDbText
  0
LINE
  5
762
100
AcDbEntity
  8
NOTE
  6
CONTINUOUS
 62
     4
100
AcDbLine
 10
-1511.786804
 20
-609.46367
 30
0.0
 11
-1063.990571
 21
-609.46367
 31
0.0
  0
LINE
  5
763
100
AcDbEntity
  8
SIZE
  6
CONTINUOUS
 62
    30
100
AcDbLine
 10
-585.0
 20
-85.5
 30
0.0
 11
-1693.547431
 21
-85.5
 31
0.0
  0
LINE
  5
766
100
AcDbEntity
  8
SIZE
  6
CONTINUOUS
 62
    30
100
AcDbLine
 10
-714.799997
 20
-129.5
 30
0.0
 11
-1557.516159
 21
-129.5
 31
0.0
  0
LINE
  5
767
100
AcDbEntity
  8
SIZE
  6
CONTINUOUS
 62
    30
100
AcDbLine
 10
-667.0
 20
-180.5
 30
0.0
 11
-1443.345509
 21
-180.5
 31
0.0
  0
LINE
  5
768
100
AcDbEntity
  8
SIZE
  6
CONTINUOUS
 62
    30
100
AcDbLine
 10
-683.0
 20
-272.5
 30
0.0
 11
-1443.345509
 21
-272.5
 31
0.0
  0
LINE
  5
769
100
AcDbEntity
  8
SIZE
  6
CONTINUOUS
 62
    30
100
AcDbLine
 10
-683.0
 20
-272.5
 30
0.0
 11
-1443.345509
 21
-272.5
 31
0.0
  0
LINE
  5
76A
100
AcDbEntity
  8
SIZE
  6
CONTINUOUS
 62
    30
100
AcDbLine
 10
-585.0
 20
-472.5
 30
0.0
 11
-1443.345509
 21
-472.5
 31
0.0
  0
LINE
  5
76B
100
AcDbEntity
  8
SERVICESPACE
  6
DASHDOT
 62
     2
100
AcDbLine
 10
-815.0
 20
-277.5
 30
0.0
 11
-1265.0
 21
-277.5
 31
0.0
  0
LINE
  5
76C
100
AcDbEntity
  8
SERVICESPACE
  6
DASHDOT
 62
     2
100
AcDbLine
 10
-1265.0
 20
-472.5
 30
0.0
 11
-565.0
 21
-472.5
 31
0.0
  0
LINE
  5
76D
100
AcDbEntity
  8
SIZE
  6
CONTINUOUS
 62
    30
100
AcDbLine
 10
-1903.937788
 20
-511.5
 30
0.0
 11
-1903.937788
 21
-629.285714
 31
0.0
  0
LINE
  5
76E
100
AcDbEntity
  8
SIZE
  6
CONTINUOUS
 62
    30
100
AcDbLine
 10
-1285.0
 20
-277.5
 30
0.0
 11
-1812.394817
 21
-277.5
 31
0.0
  0
TEXT
  5
76F
100
AcDbEntity
  8
SIZE
  6
CONTINUOUS
 62
    30
100
AcDbText
 10
-1678.547431
 20
-421.728101
 30
0.0
 40
55.0
  1
387
 50
90.0
 41
0.9
 72
     1
 11
-1678.547431
 21
-358.085244
 31
0.0
100
AcDbText
  0
LINE
  5
770
100
AcDbEntity
  8
SIZE
  6
CONTINUOUS
 62
    30
100
AcDbLine
 10
-1903.937788
 20
-462.5
 30
0.0
 11
-1903.937788
 21
-452.5
 31
0.0
  0
LINE
  5
771
100
AcDbEntity
  8
SIZE
  6
CONTINUOUS
 62
    30
100
AcDbLine
 10
-1903.937788
 20
-467.5
 30
0.0
 11
-1903.937788
 21
-462.5
 31
0.0
  0
CIRCLE
  5
772
100
AcDbEntity
  8
SIZE
  6
CONTINUOUS
 62
    30
100
AcDbCircle
 10
-1903.937788
 20
-472.5
 30
0.0
 40
5.0
  0
POINT
  5
773
100
AcDbEntity
  8
DEFPOINTS
  6
CONTINUOUS
 62
     7
100
AcDbPoint
 10
-1903.937788
 20
-472.5
 30
0.0
  0
TEXT
  5
774
100
AcDbEntity
  8
SIZE
  6
CONTINUOUS
 62
    30
100
AcDbText
 10
-1918.937788
 20
-614.285714
 30
0.0
 40
55.0
  1
29
 50
90.0
 41
0.9
 72
     1
 11
-1918.937788
 21
-575.392857
 31
0.0
100
AcDbText
  0
LINE
  5
775
100
AcDbEntity
  8
SIZE
  6
CONTINUOUS
 62
    30
100
AcDbLine
 10
-1903.937788
 20
-506.5
 30
0.0
 11
-1903.937788
 21
-511.5
 31
0.0
  0
CIRCLE
  5
776
100
AcDbEntity
  8
SIZE
  6
CONTINUOUS
 62
    30
100
AcDbCircle
 10
-1903.937788
 20
-501.5
 30
0.0
 40
5.0
  0
LINE
  5
777
100
AcDbEntity
  8
SIZE
  6
CONTINUOUS
 62
    30
100
AcDbLine
 10
-1903.937788
 20
-467.5
 30
0.0
 11
-1903.937788
 21
-462.5
 31
0.0
  0
CIRCLE
  5
778
100
AcDbEntity
  8
SIZE
  6
CONTINUOUS
 62
    30
100
AcDbCircle
 10
-1903.937788
 20
-472.5
 30
0.0
 40
5.0
  0
LINE
  5
779
100
AcDbEntity
  8
SIZE
  6
CONTINUOUS
 62
    30
100
AcDbLine
 10
-1903.937788
 20
-472.5
 30
0.0
 11
-1903.937788
 21
-501.5
 31
0.0
  0
CIRCLE
  5
77A
100
AcDbEntity
  8
SIZE
  6
CONTINUOUS
 62
    30
100
AcDbCircle
 10
-1782.394817
 20
-277.5
 30
0.0
 40
5.0
  0
POINT
  5
77B
100
AcDbEntity
  8
DEFPOINTS
  6
CONTINUOUS
 62
     7
100
AcDbPoint
 10
-1782.394817
 20
-277.5
 30
0.0
  0
LINE
  5
77C
100
AcDbEntity
  8
SIZE
  6
CONTINUOUS
 62
    30
100
AcDbLine
 10
-1782.394817
 20
-272.5
 30
0.0
 11
-1782.394817
 21
-267.5
 31
0.0
  0
LINE
  5
77D
100
AcDbEntity
  8
SIZE
  6
CONTINUOUS
 62
    30
100
AcDbLine
 10
-1663.547431
 20
-462.5
 30
0.0
 11
-1663.547431
 21
-95.5
 31
0.0
  0
TEXT
  5
77E
100
AcDbEntity
  8
SIZE
  6
CONTINUOUS
 62
    30
100
AcDbText
 10
-1542.516159
 20
-427.554981
 30
0.0
 40
55.0
  1
343
 50
90.0
 41
0.9
 72
     1
 11
-1542.516159
 21
-363.912124
 31
0.0
100
AcDbText
  0
LINE
  5
77F
100
AcDbEntity
  8
SIZE
  6
CONTINUOUS
 62
    30
100
AcDbLine
 10
-1527.516159
 20
-139.5
 30
0.0
 11
-1527.516159
 21
-462.5
 31
0.0
  0
LINE
  5
780
100
AcDbEntity
  8
SIZE
  6
CONTINUOUS
 62
    30
100
AcDbLine
 10
-1413.345509
 20
-462.5
 30
0.0
 11
-1413.345509
 21
-282.5
 31
0.0
  0
TEXT
  5
781
100
AcDbEntity
  8
SIZE
  6
CONTINUOUS
 62
    30
100
AcDbText
 10
-1428.345509
 20
-436.142857
 30
0.0
 40
55.0
  1
200
 50
90.0
 41
0.9
 72
     1
 11
-1428.345509
 21
-372.5
 31
0.0
100
AcDbText
  0
LINE
  5
782
100
AcDbEntity
  8
SIZE
  6
CONTINUOUS
 62
    30
100
AcDbLine
 10
-1663.547431
 20
-467.5
 30
0.0
 11
-1663.547431
 21
-462.5
 31
0.0
  0
CIRCLE
  5
783
100
AcDbEntity
  8
SIZE
  6
CONTINUOUS
 62
    30
100
AcDbCircle
 10
-1663.547431
 20
-472.5
 30
0.0
 40
5.0
  0
POINT
  5
784
100
AcDbEntity
  8
DEFPOINTS
  6
CONTINUOUS
 62
     7
100
AcDbPoint
 10
-1527.516159
 20
-472.5
 30
0.0
  0
LINE
  5
785
100
AcDbEntity
  8
SIZE
  6
CONTINUOUS
 62
    30
100
AcDbLine
 10
-1527.516159
 20
-467.5
 30
0.0
 11
-1527.516159
 21
-462.5
 31
0.0
  0
CIRCLE
  5
786
100
AcDbEntity
  8
SIZE
  6
CONTINUOUS
 62
    30
100
AcDbCircle
 10
-1527.516159
 20
-472.5
 30
0.0
 40
5.0
  0
LINE
  5
787
100
AcDbEntity
  8
SIZE
  6
CONTINUOUS
 62
    30
100
AcDbLine
 10
-1413.345509
 20
-467.5
 30
0.0
 11
-1413.345509
 21
-462.5
 31
0.0
  0
CIRCLE
  5
788
100
AcDbEntity
  8
SIZE
  6
CONTINUOUS
 62
    30
100
AcDbCircle
 10
-1413.345509
 20
-472.5
 30
0.0
 40
5.0
  0
TEXT
  5
789
100
AcDbEntity
  8
SIZE
  6
CONTINUOUS
 62
    30
100
AcDbText
 10
-1428.345509
 20
-266.571429
 30
0.0
 40
55.0
  1
92
 50
90.0
 41
0.9
 72
     1
 11
-1428.345509
 21
-226.5
 31
0.0
100
AcDbText
  0
POINT
  5
78A
100
AcDbEntity
  8
DEFPOINTS
  6
CONTINUOUS
 62
     7
100
AcDbPoint
 10
-1663.547431
 20
-85.5
 30
0.0
  0
LINE
  5
78B
100
AcDbEntity
  8
SIZE
  6
CONTINUOUS
 62
    30
100
AcDbLine
 10
-1663.547431
 20
-90.5
 30
0.0
 11
-1663.547431
 21
-95.5
 31
0.0
  0
CIRCLE
  5
78C
100
AcDbEntity
  8
SIZE
  6
CONTINUOUS
 62
    30
100
AcDbCircle
 10
-1663.547431
 20
-85.5
 30
0.0
 40
5.0
  0
LINE
  5
78D
100
AcDbEntity
  8
SIZE
  6
CONTINUOUS
 62
    30
100
AcDbLine
 10
-1527.516159
 20
-134.5
 30
0.0
 11
-1527.516159
 21
-139.5
 31
0.0
  0
CIRCLE
  5
78E
100
AcDbEntity
  8
SIZE
  6
CONTINUOUS
 62
    30
100
AcDbCircle
 10
-1527.516159
 20
-129.5
 30
0.0
 40
5.0
  0
POINT
  5
78F
100
AcDbEntity
  8
DEFPOINTS
  6
CONTINUOUS
 62
     7
100
AcDbPoint
 10
-1413.345509
 20
-180.5
 30
0.0
  0
LINE
  5
790
100
AcDbEntity
  8
SIZE
  6
CONTINUOUS
 62
    30
100
AcDbLine
 10
-1413.345509
 20
-175.5
 30
0.0
 11
-1413.345509
 21
-170.5
 31
0.0
  0
CIRCLE
  5
791
100
AcDbEntity
  8
SIZE
  6
CONTINUOUS
 62
    30
100
AcDbCircle
 10
-1413.345509
 20
-180.5
 30
0.0
 40
5.0
  0
LINE
  5
792
100
AcDbEntity
  8
SIZE
  6
CONTINUOUS
 62
    30
100
AcDbLine
 10
-1413.345509
 20
-277.5
 30
0.0
 11
-1413.345509
 21
-282.5
 31
0.0
  0
CIRCLE
  5
793
100
AcDbEntity
  8
SIZE
  6
CONTINUOUS
 62
    30
100
AcDbCircle
 10
-1413.345509
 20
-272.5
 30
0.0
 40
5.0
  0
LINE
  5
794
100
AcDbEntity
  8
SIZE
  6
CONTINUOUS
 62
    30
100
AcDbLine
 10
-1413.345509
 20
-272.5
 30
0.0
 11
-1413.345509
 21
-180.5
 31
0.0
  0
LINE
  5
795
100
AcDbEntity
  8
SIZE
  6
CONTINUOUS
 62
    30
100
AcDbLine
 10
-1413.345509
 20
-170.5
 30
0.0
 11
-1413.345509
 21
-160.5
 31
0.0
  0
LINE
  5
796
100
AcDbEntity
  8
SIZE
  6
CONTINUOUS
 62
    30
100
AcDbLine
 10
-1413.345509
 20
-282.5
 30
0.0
 11
-1413.345509
 21
-292.5
 31
0.0
  0
POINT
  5
797
100
AcDbEntity
  8
DEFPOINTS
  6
CONTINUOUS
 62
     7
100
AcDbPoint
 10
-1413.345509
 20
-272.5
 30
0.0
  0
LINE
  5
798
100
AcDbEntity
  8
SIZE
  6
CONTINUOUS
 62
    30
100
AcDbLine
 10
-1413.345509
 20
-277.5
 30
0.0
 11
-1413.345509
 21
-282.5
 31
0.0
  0
CIRCLE
  5
799
100
AcDbEntity
  8
SIZE
  6
CONTINUOUS
 62
    30
100
AcDbCircle
 10
-1413.345509
 20
-272.5
 30
0.0
 40
5.0
  0
POINT
  5
79A
100
AcDbEntity
  8
DEFPOINTS
  6
CONTINUOUS
 62
     7
100
AcDbPoint
 10
-1265.0
 20
-277.5
 30
0.0
  0
LINE
  5
79B
100
AcDbEntity
  8
SIZE
  6
CONTINUOUS
 62
    30
100
AcDbLine
 10
-615.0
 20
-542.5
 30
0.0
 11
-615.0
 21
-1151.701199
 31
0.0
  0
LINE
  5
79C
100
AcDbEntity
  8
SIZE
  6
CONTINUOUS
 62
    30
100
AcDbLine
 10
-485.0
 20
-521.5
 30
0.0
 11
-485.0
 21
-1032.459665
 31
0.0
  0
LINE
  5
79D
100
AcDbEntity
  8
SIZE
  6
CONTINUOUS
 62
    30
100
AcDbLine
 10
-435.0
 20
-526.5
 30
0.0
 11
-435.0
 21
-920.267049
 31
0.0
  0
LINE
  5
79E
100
AcDbEntity
  8
NOTE
  6
CONTINUOUS
 62
     4
100
AcDbLine
 10
-643.0
 20
-272.5
 30
0.0
 11
-1002.903779
 21
-1035.942295
 31
0.0
  0
LINE
  5
79F
100
AcDbEntity
  8
NOTE
  6
CONTINUOUS
 62
     4
100
AcDbLine
 10
-627.0
 20
-180.5
 30
0.0
 11
-1051.799268
 21
-743.672546
 31
0.0
  0
LINE
  5
7A0
100
AcDbEntity
  8
SIZE
  6
CONTINUOUS
 62
    30
100
AcDbLine
 10
-435.0
 20
-546.5
 30
0.0
 11
-435.0
 21
-920.267049
 31
0.0
  0
LINE
  5
7A1
100
AcDbEntity
  8
SIZE
  6
CONTINUOUS
 62
    30
100
AcDbLine
 10
-485.0
 20
-521.5
 30
0.0
 11
-485.0
 21
-920.267049
 31
0.0
  0
LINE
  5
7A2
100
AcDbEntity
  8
SIZE
  6
CONTINUOUS
 62
    30
100
AcDbLine
 10
-485.0
 20
-521.5
 30
0.0
 11
-485.0
 21
-920.267049
 31
0.0
  0
LINE
  5
7A3
100
AcDbEntity
  8
SIZE
  6
CONTINUOUS
 62
    30
100
AcDbLine
 10
-565.0
 20
-492.5
 30
0.0
 11
-565.0
 21
-920.267049
 31
0.0
  0
LINE
  5
7A4
100
AcDbEntity
  8
SIZE
  6
CONTINUOUS
 62
    30
100
AcDbLine
 10
-565.0
 20
-492.5
 30
0.0
 11
-565.0
 21
-920.267049
 31
0.0
  0
LINE
  5
7A5
100
AcDbEntity
  8
SIZE
  6
CONTINUOUS
 62
    30
100
AcDbLine
 10
-643.0
 20
-312.5
 30
0.0
 11
-643.0
 21
-920.267049
 31
0.0
  0
LINE
  5
7A6
100
AcDbEntity
  8
SIZE
  6
CONTINUOUS
 62
    30
100
AcDbLine
 10
-565.0
 20
-492.5
 30
0.0
 11
-565.0
 21
-654.864656
 31
0.0
  0
LINE
  5
7A7
100
AcDbEntity
  8
SIZE
  6
CONTINUOUS
 62
    30
100
AcDbLine
 10
-615.0
 20
-542.5
 30
0.0
 11
-615.0
 21
-654.864656
 31
0.0
  0
LINE
  5
7A8
100
AcDbEntity
  8
SIZE
  6
CONTINUOUS
 62
    30
100
AcDbLine
 10
-627.0
 20
-220.5
 30
0.0
 11
-627.0
 21
-789.982561
 31
0.0
  0
LINE
  5
7A9
100
AcDbEntity
  8
SIZE
  6
CONTINUOUS
 62
    30
100
AcDbLine
 10
-565.0
 20
-492.5
 30
0.0
 11
-565.0
 21
-789.982561
 31
0.0
  0
LINE
  5
7AA
100
AcDbEntity
  8
SIZE
  6
CONTINUOUS
 62
    30
100
AcDbLine
 10
-385.0
 20
-526.5
 30
0.0
 11
-385.0
 21
-654.906579
 31
0.0
  0
LINE
  5
7AC
100
AcDbEntity
  8
SIZE
  6
CONTINUOUS
 62
    30
100
AcDbLine
 10
-610.0
 20
-1121.701199
 30
0.0
 11
-605.0
 21
-1121.701199
 31
0.0
  0
CIRCLE
  5
7AD
100
AcDbEntity
  8
SIZE
  6
CONTINUOUS
 62
    30
100
AcDbCircle
 10
-615.0
 20
-1121.701199
 30
0.0
 40
5.0
  0
LINE
  5
7AE
100
AcDbEntity
  8
SIZE
  6
CONTINUOUS
 62
    30
100
AcDbLine
 10
-480.0
 20
-1002.459665
 30
0.0
 11
-475.0
 21
-1002.459665
 31
0.0
  0
CIRCLE
  5
7AF
100
AcDbEntity
  8
SIZE
  6
CONTINUOUS
 62
    30
100
AcDbCircle
 10
-485.0
 20
-1002.459665
 30
0.0
 40
5.0
  0
TEXT
  5
7B0
100
AcDbEntity
  8
SIZE
  6
CONTINUOUS
 62
    30
100
AcDbText
 10
-565.071429
 20
-875.267049
 30
0.0
 40
55.0
  1
80
 41
0.9
 72
     1
 11
-525.0
 21
-875.267049
 31
0.0
100
AcDbText
  0
LINE
  5
7B1
100
AcDbEntity
  8
SIZE
  6
CONTINUOUS
 62
    30
100
AcDbLine
 10
-565.0
 20
-890.267049
 30
0.0
 11
-485.0
 21
-890.267049
 31
0.0
  0
LINE
  5
7B2
100
AcDbEntity
  8
SIZE
  6
CONTINUOUS
 62
    30
100
AcDbLine
 10
-643.0
 20
-890.267049
 30
0.0
 11
-763.142857
 21
-890.267049
 31
0.0
  0
TEXT
  5
7B3
100
AcDbEntity
  8
SIZE
  6
CONTINUOUS
 62
    30
100
AcDbText
 10
-748.142858
 20
-875.267049
 30
0.0
 40
55.0
  1
78
 41
0.9
 72
     1
 11
-708.071429
 21
-875.267049
 31
0.0
100
AcDbText
  0
LINE
  5
7B4
100
AcDbEntity
  8
SIZE
  6
CONTINUOUS
 62
    30
100
AcDbLine
 10
-570.0
 20
-890.267049
 30
0.0
 11
-575.0
 21
-890.267049
 31
0.0
  0
CIRCLE
  5
7B5
100
AcDbEntity
  8
SIZE
  6
CONTINUOUS
 62
    30
100
AcDbCircle
 10
-565.0
 20
-890.267049
 30
0.0
 40
5.0
  0
LINE
  5
7B6
100
AcDbEntity
  8
SIZE
  6
CONTINUOUS
 62
    30
100
AcDbLine
 10
-575.0
 20
-890.267049
 30
0.0
 11
-585.0
 21
-890.267049
 31
0.0
  0
POINT
  5
7B7
100
AcDbEntity
  8
DEFPOINTS
  6
CONTINUOUS
 62
     7
100
AcDbPoint
 10
-565.0
 20
-890.267049
 30
0.0
  0
LINE
  5
7B8
100
AcDbEntity
  8
SIZE
  6
CONTINUOUS
 62
    30
100
AcDbLine
 10
-638.0
 20
-890.267049
 30
0.0
 11
-633.0
 21
-890.267049
 31
0.0
  0
CIRCLE
  5
7B9
100
AcDbEntity
  8
SIZE
  6
CONTINUOUS
 62
    30
100
AcDbCircle
 10
-643.0
 20
-890.267049
 30
0.0
 40
5.0
  0
LINE
  5
7BA
100
AcDbEntity
  8
SIZE
  6
CONTINUOUS
 62
    30
100
AcDbLine
 10
-570.0
 20
-890.267049
 30
0.0
 11
-575.0
 21
-890.267049
 31
0.0
  0
CIRCLE
  5
7BB
100
AcDbEntity
  8
SIZE
  6
CONTINUOUS
 62
    30
100
AcDbCircle
 10
-565.0
 20
-890.267049
 30
0.0
 40
5.0
  0
LINE
  5
7BC
100
AcDbEntity
  8
SIZE
  6
CONTINUOUS
 62
    30
100
AcDbLine
 10
-575.0
 20
-890.267049
 30
0.0
 11
-633.0
 21
-890.267049
 31
0.0
  0
LINE
  5
7BD
100
AcDbEntity
  8
SIZE
  6
CONTINUOUS
 62
    30
100
AcDbLine
 10
-615.0
 20
-624.864656
 30
0.0
 11
-751.511805
 21
-624.864656
 31
0.0
  0
TEXT
  5
7BE
100
AcDbEntity
  8
SIZE
  6
CONTINUOUS
 62
    30
100
AcDbText
 10
-732.142858
 20
-744.982561
 30
0.0
 40
55.0
  1
62
 41
0.9
 72
     1
 11
-692.071429
 21
-744.982561
 31
0.0
100
AcDbText
  0
LINE
  5
7BF
100
AcDbEntity
  8
SIZE
  6
CONTINUOUS
 62
    30
100
AcDbLine
 10
-627.0
 20
-759.982561
 30
0.0
 11
-747.142857
 21
-759.982561
 31
0.0
  0
POINT
  5
7C0
100
AcDbEntity
  8
DEFPOINTS
  6
CONTINUOUS
 62
     7
100
AcDbPoint
 10
-565.0
 20
-624.864656
 30
0.0
  0
LINE
  5
7C1
100
AcDbEntity
  8
SIZE
  6
CONTINUOUS
 62
    30
100
AcDbLine
 10
-610.0
 20
-624.864656
 30
0.0
 11
-605.0
 21
-624.864656
 31
0.0
  0
CIRCLE
  5
7C2
100
AcDbEntity
  8
SIZE
  6
CONTINUOUS
 62
    30
100
AcDbCircle
 10
-615.0
 20
-624.864656
 30
0.0
 40
5.0
  0
LINE
  5
7C3
100
AcDbEntity
  8
SIZE
  6
CONTINUOUS
 62
    30
100
AcDbLine
 10
-570.0
 20
-624.864656
 30
0.0
 11
-575.0
 21
-624.864656
 31
0.0
  0
CIRCLE
  5
7C4
100
AcDbEntity
  8
SIZE
  6
CONTINUOUS
 62
    30
100
AcDbCircle
 10
-565.0
 20
-624.864656
 30
0.0
 40
5.0
  0
LINE
  5
7C5
100
AcDbEntity
  8
SIZE
  6
CONTINUOUS
 62
    30
100
AcDbLine
 10
-575.0
 20
-624.864656
 30
0.0
 11
-605.0
 21
-624.864656
 31
0.0
  0
POINT
  5
7C6
100
AcDbEntity
  8
DEFPOINTS
  6
CONTINUOUS
 62
     7
100
AcDbPoint
 10
-627.0
 20
-759.982561
 30
0.0
  0
LINE
  5
7C7
100
AcDbEntity
  8
SIZE
  6
CONTINUOUS
 62
    30
100
AcDbLine
 10
-622.0
 20
-759.982561
 30
0.0
 11
-617.0
 21
-759.982561
 31
0.0
  0
CIRCLE
  5
7C8
100
AcDbEntity
  8
SIZE
  6
CONTINUOUS
 62
    30
100
AcDbCircle
 10
-627.0
 20
-759.982561
 30
0.0
 40
5.0
  0
LINE
  5
7C9
100
AcDbEntity
  8
SIZE
  6
CONTINUOUS
 62
    30
100
AcDbLine
 10
-570.0
 20
-759.982561
 30
0.0
 11
-575.0
 21
-759.982561
 31
0.0
  0
CIRCLE
  5
7CA
100
AcDbEntity
  8
SIZE
  6
CONTINUOUS
 62
    30
100
AcDbCircle
 10
-565.0
 20
-759.982561
 30
0.0
 40
5.0
  0
LINE
  5
7CB
100
AcDbEntity
  8
SIZE
  6
CONTINUOUS
 62
    30
100
AcDbLine
 10
-575.0
 20
-759.982561
 30
0.0
 11
-617.0
 21
-759.982561
 31
0.0
  0
LINE
  5
7CC
100
AcDbEntity
  8
SIZE
  6
CONTINUOUS
 62
    30
100
AcDbLine
 10
-460.0
 20
-890.267049
 30
0.0
 11
-380.251066
 21
-764.387591
 31
0.0
  0
LINE
  5
7CD
100
AcDbEntity
  8
SIZE
  6
CONTINUOUS
 62
    30
100
AcDbLine
 10
-440.0
 20
-890.267049
 30
0.0
 11
-445.0
 21
-890.267049
 31
0.0
  0
LINE
  5
7CE
100
AcDbEntity
  8
SIZE
  6
CONTINUOUS
 62
    30
100
AcDbLine
 10
-480.0
 20
-890.267049
 30
0.0
 11
-475.0
 21
-890.267049
 31
0.0
  0
CIRCLE
  5
7CF
100
AcDbEntity
  8
SIZE
  6
CONTINUOUS
 62
    30
100
AcDbCircle
 10
-485.0
 20
-890.267049
 30
0.0
 40
5.0
  0
LINE
  5
7D0
100
AcDbEntity
  8
SIZE
  6
CONTINUOUS
 62
    30
100
AcDbLine
 10
-475.0
 20
-890.267049
 30
0.0
 11
-445.0
 21
-890.267049
 31
0.0
  0
POINT
  5
7D1
100
AcDbEntity
  8
DEFPOINTS
  6
CONTINUOUS
 62
     7
100
AcDbPoint
 10
-485.0
 20
-890.267049
 30
0.0
  0
LINE
  5
7D2
100
AcDbEntity
  8
SIZE
  6
CONTINUOUS
 62
    30
100
AcDbLine
 10
-480.0
 20
-890.267049
 30
0.0
 11
-475.0
 21
-890.267049
 31
0.0
  0
CIRCLE
  5
7D3
100
AcDbEntity
  8
SIZE
  6
CONTINUOUS
 62
    30
100
AcDbCircle
 10
-485.0
 20
-890.267049
 30
0.0
 40
5.0
  0
LINE
  5
7D4
100
AcDbEntity
  8
SIZE
  6
CONTINUOUS
 62
    30
100
AcDbLine
 10
-475.0
 20
-890.267049
 30
0.0
 11
-465.0
 21
-890.267049
 31
0.0
  0
LINE
  5
7D5
100
AcDbEntity
  8
SIZE
  6
CONTINUOUS
 62
    30
100
AcDbLine
 10
-430.0
 20
-890.267049
 30
0.0
 11
-425.0
 21
-890.267049
 31
0.0
  0
CIRCLE
  5
7D6
100
AcDbEntity
  8
SIZE
  6
CONTINUOUS
 62
    30
100
AcDbCircle
 10
-435.0
 20
-890.267049
 30
0.0
 40
5.0
  0
POINT
  5
7D7
100
AcDbEntity
  8
DEFPOINTS
  6
CONTINUOUS
 62
     7
100
AcDbPoint
 10
-435.0
 20
-890.267049
 30
0.0
  0
CIRCLE
  5
7D8
100
AcDbEntity
  8
SIZE
  6
CONTINUOUS
 62
    30
100
AcDbCircle
 10
-435.0
 20
-890.267049
 30
0.0
 40
5.0
  0
POINT
  5
7D9
100
AcDbEntity
  8
DEFPOINTS
  6
CONTINUOUS
 62
     7
100
AcDbPoint
 10
-385.0
 20
-624.906579
 30
0.0
  0
LINE
  5
7DA
100
AcDbEntity
  8
SIZE
  6
CONTINUOUS
 62
    30
100
AcDbLine
 10
-390.0
 20
-624.906579
 30
0.0
 11
-395.0
 21
-624.906579
 31
0.0
  0
CIRCLE
  5
7DB
100
AcDbEntity
  8
SIZE
  6
CONTINUOUS
 62
    30
100
AcDbCircle
 10
-385.0
 20
-624.906579
 30
0.0
 40
5.0
  0
LINE
  5
7DC
100
AcDbEntity
  8
SIZE
  6
CONTINUOUS
 62
    30
100
AcDbLine
 10
-430.0
 20
-624.906579
 30
0.0
 11
-425.0
 21
-624.906579
 31
0.0
  0
CIRCLE
  5
7DD
100
AcDbEntity
  8
SIZE
  6
CONTINUOUS
 62
    30
100
AcDbCircle
 10
-435.0
 20
-624.906579
 30
0.0
 40
5.0
  0
LINE
  5
7DE
100
AcDbEntity
  8
SIZE
  6
CONTINUOUS
 62
    30
100
AcDbLine
 10
-425.0
 20
-624.906579
 30
0.0
 11
-395.0
 21
-624.906579
 31
0.0
  0
LINE
  5
7DF
100
AcDbEntity
  8
NOTE
  6
CONTINUOUS
 62
     4
100
AcDbLine
 10
-674.799997
 20
-129.5
 30
0.0
 11
-1063.990571
 21
-609.46367
 31
0.0
  0
POLYLINE
  5
7E0
100
AcDbEntity
  8
NOTE
  6
CONTINUOUS
 62
     4
100
AcDb2dPolyline
 66
     1
 10
0.0
 20
0.0
 30
0.0
  0
VERTEX
  5
7E1
100
AcDbEntity
  8
NOTE
  6
CONTINUOUS
 62
     4
100
AcDbVertex
100
AcDb2dVertex
 10
-650.05368
 20
-311.873158
 30
0.0
  0
VERTEX
  5
7E2
100
AcDbEntity
  8
NOTE
  6
CONTINUOUS
 62
     4
100
AcDbVertex
100
AcDb2dVertex
 10
-643.0
 20
-272.5
 30
0.0
  0
VERTEX
  5
7E3
100
AcDbEntity
  8
NOTE
  6
CONTINUOUS
 62
     4
100
AcDbVertex
100
AcDb2dVertex
 10
-668.795245
 20
-303.071316
 30
0.0
  0
SEQEND
  5
7E4
100
AcDbEntity
  8
NOTE
  6
CONTINUOUS
 62
     4
  0
LINE
  5
7E5
100
AcDbEntity
  8
NOTE
  6
CONTINUOUS
 62
     4
100
AcDbLine
 10
-602.0
 20
-461.5
 30
0.0
 11
-602.0
 21
-421.5
 31
0.0
  0
LINE
  5
7E6
100
AcDbEntity
  8
DETAIL
  6
CONTINUOUS
 62
     5
100
AcDbLine
 10
-625.0
 20
-471.5
 30
0.0
 11
-625.0
 21
-447.5
 31
0.0
  0
LINE
  5
7E7
100
AcDbEntity
  8
DETAIL
  6
CONTINUOUS
 62
     5
100
AcDbLine
 10
-565.0
 20
-411.5
 30
0.0
 11
-565.0
 21
-471.5
 31
0.0
  0
TEXT
  5
7E8
100
AcDbEntity
  8
SIZE
  6
CONTINUOUS
 62
    30
100
AcDbText
 10
-736.511806
 20
-609.864656
 30
0.0
 40
55.0
  1
50
 41
0.9
 72
     1
 11
-696.440377
 21
-609.864656
 31
0.0
100
AcDbText
  0
POINT
  5
7E9
100
AcDbEntity
  8
DEFPOINTS
  6
CONTINUOUS
 62
     7
100
AcDbPoint
 10
-615.0
 20
-522.5
 30
0.0
  0
POINT
  5
7EA
100
AcDbEntity
  8
DEFPOINTS
  6
CONTINUOUS
 62
     7
100
AcDbPoint
 10
-565.0
 20
-472.5
 30
0.0
  0
POINT
  5
7EB
100
AcDbEntity
  8
DEFPOINTS
  6
CONTINUOUS
 62
     7
100
AcDbPoint
 10
-565.0
 20
-472.5
 30
0.0
  0
POINT
  5
7EC
100
AcDbEntity
  8
DEFPOINTS
  6
CONTINUOUS
 62
     7
100
AcDbPoint
 10
-565.0
 20
-472.5
 30
0.0
  0
POINT
  5
7ED
100
AcDbEntity
  8
DEFPOINTS
  6
CONTINUOUS
 62
     7
100
AcDbPoint
 10
-565.0
 20
-472.5
 30
0.0
  0
POINT
  5
7EE
100
AcDbEntity
  8
DEFPOINTS
  6
CONTINUOUS
 62
     7
100
AcDbPoint
 10
-565.0
 20
-472.5
 30
0.0
  0
POINT
  5
7EF
100
AcDbEntity
  8
DEFPOINTS
  6
CONTINUOUS
 62
     7
100
AcDbPoint
 10
-565.0
 20
-472.5
 30
0.0
  0
POINT
  5
7F0
100
AcDbEntity
  8
DEFPOINTS
  6
CONTINUOUS
 62
     7
100
AcDbPoint
 10
-565.0
 20
-472.5
 30
0.0
  0
POINT
  5
7F1
100
AcDbEntity
  8
DEFPOINTS
  6
CONTINUOUS
 62
     7
100
AcDbPoint
 10
-565.0
 20
-472.5
 30
0.0
  0
POINT
  5
7F2
100
AcDbEntity
  8
DEFPOINTS
  6
CONTINUOUS
 62
     7
100
AcDbPoint
 10
-615.0
 20
-522.5
 30
0.0
  0
POINT
  5
7F3
100
AcDbEntity
  8
DEFPOINTS
  6
CONTINUOUS
 62
     7
100
AcDbPoint
 10
-565.0
 20
-472.5
 30
0.0
  0
LINE
  5
7F4
100
AcDbEntity
  8
DETAIL
  6
CONTINUOUS
 62
     5
100
AcDbLine
 10
-625.0
 20
-471.5
 30
0.0
 11
-565.0
 21
-471.5
 31
0.0
  0
CIRCLE
  5
7F5
100
AcDbEntity
  8
FIX
  6
CONTINUOUS
 62
    11
100
AcDbCircle
 10
-602.0
 20
-441.5
 30
0.0
 40
5.0
  0
LINE
  5
7F6
100
AcDbEntity
  8
NOTE
  6
CONTINUOUS
 62
     4
100
AcDbLine
 10
-622.0
 20
-441.5
 30
0.0
 11
-582.0
 21
-441.5
 31
0.0
  0
LINE
  5
7F7
100
AcDbEntity
  8
DETAIL
  6
CONTINUOUS
 62
     5
100
AcDbLine
 10
-625.0
 20
-411.5
 30
0.0
 11
-565.0
 21
-411.5
 31
0.0
  0
ARC
  5
7F8
100
AcDbEntity
  8
DETAIL
  6
CONTINUOUS
 62
     5
100
AcDbCircle
 10
-602.0
 20
-449.5
 30
0.0
 40
7.0
100
AcDbArc
 50
180.0
 51
0.0
  0
ARC
  5
7F9
100
AcDbEntity
  8
DETAIL
  6
CONTINUOUS
 62
     5
100
AcDbCircle
 10
-602.0
 20
-433.5
 30
0.0
 40
7.0
100
AcDbArc
 50
0.0
 51
180.0
  0
LINE
  5
7FA
100
AcDbEntity
  8
DETAIL
  6
CONTINUOUS
 62
     5
100
AcDbLine
 10
-595.0
 20
-449.5
 30
0.0
 11
-595.0
 21
-433.5
 31
0.0
  0
LINE
  5
7FB
100
AcDbEntity
  8
DETAIL
  6
CONTINUOUS
 62
     5
100
AcDbLine
 10
-609.0
 20
-449.5
 30
0.0
 11
-609.0
 21
-447.5
 31
0.0
  0
LINE
  5
7FC
100
AcDbEntity
  8
DETAIL
  6
CONTINUOUS
 62
     5
100
AcDbLine
 10
-609.0
 20
-435.5
 30
0.0
 11
-609.0
 21
-433.5
 31
0.0
  0
LINE
  5
7FD
100
AcDbEntity
  8
DETAIL
  6
CONTINUOUS
 62
     5
100
AcDbLine
 10
-625.0
 20
-447.5
 30
0.0
 11
-609.0
 21
-447.5
 31
0.0
  0
LINE
  5
7FE
100
AcDbEntity
  8
DETAIL
  6
CONTINUOUS
 62
     5
100
AcDbLine
 10
-625.0
 20
-435.5
 30
0.0
 11
-609.0
 21
-435.5
 31
0.0
  0
LINE
  5
7FF
100
AcDbEntity
  8
DETAIL
  6
CONTINUOUS
 62
     5
100
AcDbLine
 10
-625.0
 20
-435.5
 30
0.0
 11
-625.0
 21
-411.5
 31
0.0
  0
LINE
  5
800
100
AcDbEntity
  8
NOTE
  6
CONTINUOUS
 62
     4
100
AcDbLine
 10
-455.0
 20
-486.5
 30
0.0
 11
-415.0
 21
-486.5
 31
0.0
  0
POINT
  5
801
100
AcDbEntity
  8
DEFPOINTS
  6
CONTINUOUS
 62
     7
100
AcDbPoint
 10
-485.0
 20
-501.5
 30
0.0
  0
POINT
  5
802
100
AcDbEntity
  8
DEFPOINTS
  6
CONTINUOUS
 62
     7
100
AcDbPoint
 10
-485.0
 20
-501.5
 30
0.0
  0
POINT
  5
803
100
AcDbEntity
  8
DEFPOINTS
  6
CONTINUOUS
 62
     7
100
AcDbPoint
 10
-485.0
 20
-501.5
 30
0.0
  0
POINT
  5
804
100
AcDbEntity
  8
DEFPOINTS
  6
CONTINUOUS
 62
     7
100
AcDbPoint
 10
-485.0
 20
-501.5
 30
0.0
  0
LINE
  5
805
100
AcDbEntity
  8
DETAIL
  6
CONTINUOUS
 62
     5
100
AcDbLine
 10
-485.0
 20
-501.5
 30
0.0
 11
-485.0
 21
-472.5
 31
0.0
  0
POINT
  5
806
100
AcDbEntity
  8
DEFPOINTS
  6
CONTINUOUS
 62
     7
100
AcDbPoint
 10
-435.0
 20
-506.5
 30
0.0
  0
POINT
  5
807
100
AcDbEntity
  8
DEFPOINTS
  6
CONTINUOUS
 62
     7
100
AcDbPoint
 10
-435.0
 20
-526.5
 30
0.0
  0
POINT
  5
808
100
AcDbEntity
  8
DEFPOINTS
  6
CONTINUOUS
 62
     7
100
AcDbPoint
 10
-385.0
 20
-506.5
 30
0.0
  0
POINT
  5
809
100
AcDbEntity
  8
DEFPOINTS
  6
CONTINUOUS
 62
     7
100
AcDbPoint
 10
-435.0
 20
-506.5
 30
0.0
  0
CIRCLE
  5
80A
100
AcDbEntity
  8
DETAIL
  6
CONTINUOUS
 62
     5
100
AcDbCircle
 10
-385.0
 20
-486.5
 30
0.0
 40
1.5
  0
CIRCLE
  5
80B
100
AcDbEntity
  8
DETAIL
  6
CONTINUOUS
 62
     5
100
AcDbCircle
 10
-335.0
 20
-486.5
 30
0.0
 40
1.5
  0
LINE
  5
80C
100
AcDbEntity
  8
NOTE
  6
CONTINUOUS
 62
     4
100
AcDbLine
 10
-385.0
 20
-506.5
 30
0.0
 11
-385.0
 21
-466.5
 31
0.0
  0
LINE
  5
80D
100
AcDbEntity
  8
NOTE
  6
CONTINUOUS
 62
     4
100
AcDbLine
 10
-335.0
 20
-506.5
 30
0.0
 11
-335.0
 21
-466.5
 31
0.0
  0
CIRCLE
  5
80E
100
AcDbEntity
  8
DETAIL
  6
CONTINUOUS
 62
     5
100
AcDbCircle
 10
-435.0
 20
-486.5
 30
0.0
 40
1.5
  0
LINE
  5
80F
100
AcDbEntity
  8
NOTE
  6
CONTINUOUS
 62
     4
100
AcDbLine
 10
-435.0
 20
-506.5
 30
0.0
 11
-435.0
 21
-466.5
 31
0.0
  0
LINE
  5
810
100
AcDbEntity
  8
NOTE
  6
CONTINUOUS
 62
     4
100
AcDbLine
 10
-405.0
 20
-486.5
 30
0.0
 11
-365.0
 21
-486.5
 31
0.0
  0
POLYLINE
  5
811
100
AcDbEntity
  8
NOTE
  6
CONTINUOUS
 62
     4
100
AcDb2dPolyline
 66
     1
 10
0.0
 20
0.0
 30
0.0
  0
VERTEX
  5
812
100
AcDbEntity
  8
NOTE
  6
CONTINUOUS
 62
     4
100
AcDbVertex
100
AcDb2dVertex
 10
-551.394399
 20
-47.885008
 30
0.0
  0
VERTEX
  5
813
100
AcDbEntity
  8
NOTE
  6
CONTINUOUS
 62
     4
100
AcDbVertex
100
AcDb2dVertex
 10
-565.0
 20
-85.5
 30
0.0
  0
VERTEX
  5
814
100
AcDbEntity
  8
NOTE
  6
CONTINUOUS
 62
     4
100
AcDbVertex
100
AcDb2dVertex
 10
-534.409708
 20
-59.727262
 30
0.0
  0
SEQEND
  5
815
100
AcDbEntity
  8
NOTE
  6
CONTINUOUS
 62
     4
  0
LINE
  5
816
100
AcDbEntity
  8
NOTE
  6
CONTINUOUS
 62
     4
100
AcDbLine
 10
-585.0
 20
-85.5
 30
0.0
 11
-545.0
 21
-85.5
 31
0.0
  0
POLYLINE
  5
817
100
AcDbEntity
  8
NOTE
  6
CONTINUOUS
 62
     4
100
AcDb2dPolyline
 66
     1
 10
0.0
 20
0.0
 30
0.0
  0
VERTEX
  5
818
100
AcDbEntity
  8
NOTE
  6
CONTINUOUS
 62
     4
100
AcDbVertex
100
AcDb2dVertex
 10
-691.040285
 20
-166.054795
 30
0.0
  0
VERTEX
  5
819
100
AcDbEntity
  8
NOTE
  6
CONTINUOUS
 62
     4
100
AcDbVertex
100
AcDb2dVertex
 10
-674.799997
 20
-129.5
 30
0.0
  0
VERTEX
  5
81A
100
AcDbEntity
  8
NOTE
  6
CONTINUOUS
 62
     4
100
AcDbVertex
100
AcDb2dVertex
 10
-707.141896
 20
-153.037237
 30
0.0
  0
SEQEND
  5
81B
100
AcDbEntity
  8
NOTE
  6
CONTINUOUS
 62
     4
  0
POLYLINE
  5
81C
100
AcDbEntity
  8
NOTE
  6
CONTINUOUS
 62
     4
100
AcDb2dPolyline
 66
     1
 10
0.0
 20
0.0
 30
0.0
  0
VERTEX
  5
81D
100
AcDbEntity
  8
NOTE
  6
CONTINUOUS
 62
     4
100
AcDbVertex
100
AcDb2dVertex
 10
-641.947787
 20
-217.602071
 30
0.0
  0
VERTEX
  5
81E
100
AcDbEntity
  8
NOTE
  6
CONTINUOUS
 62
     4
100
AcDbVertex
100
AcDb2dVertex
 10
-627.0
 20
-180.5
 30
0.0
  0
VERTEX
  5
81F
100
AcDbEntity
  8
NOTE
  6
CONTINUOUS
 62
     4
100
AcDbVertex
100
AcDb2dVertex
 10
-658.496199
 20
-205.157442
 30
0.0
  0
SEQEND
  5
820
100
AcDbEntity
  8
NOTE
  6
CONTINUOUS
 62
     4
  0
POINT
  5
821
100
AcDbEntity
  8
DEFPOINTS
  6
CONTINUOUS
 62
     7
100
AcDbPoint
 10
-647.0
 20
-180.5
 30
0.0
  0
POINT
  5
822
100
AcDbEntity
  8
DEFPOINTS
  6
CONTINUOUS
 62
     7
100
AcDbPoint
 10
-663.0
 20
-272.5
 30
0.0
  0
POINT
  5
823
100
AcDbEntity
  8
DEFPOINTS
  6
CONTINUOUS
 62
     7
100
AcDbPoint
 10
-663.0
 20
-272.5
 30
0.0
  0
POINT
  5
824
100
AcDbEntity
  8
DEFPOINTS
  6
CONTINUOUS
 62
     7
100
AcDbPoint
 10
-643.0
 20
-292.5
 30
0.0
  0
POINT
  5
825
100
AcDbEntity
  8
DEFPOINTS
  6
CONTINUOUS
 62
     7
100
AcDbPoint
 10
-627.0
 20
-200.5
 30
0.0
  0
LINE
  5
826
100
AcDbEntity
  8
DETAIL
  6
CONTINUOUS
 62
     5
100
AcDbLine
 10
-612.552915
 20
-288.088457
 30
0.0
 11
-592.552916
 21
-288.088457
 31
0.0
  0
LINE
  5
827
100
AcDbEntity
  8
DETAIL
  6
CONTINUOUS
 62
     5
100
AcDbLine
 10
-592.552916
 20
-290.5
 30
0.0
 11
-565.0
 21
-290.5
 31
0.0
  0
LINE
  5
828
100
AcDbEntity
  8
DETAIL
  6
CONTINUOUS
 62
     5
100
AcDbLine
 10
-612.552915
 20
-281.5
 30
0.0
 11
-592.552916
 21
-281.5
 31
0.0
  0
LINE
  5
829
100
AcDbEntity
  8
DETAIL
  6
CONTINUOUS
 62
     5
100
AcDbLine
 10
-612.552915
 20
-256.911543
 30
0.0
 11
-592.552916
 21
-256.911543
 31
0.0
  0
LINE
  5
82A
100
AcDbEntity
  8
DETAIL
  6
CONTINUOUS
 62
     5
100
AcDbLine
 10
-592.552916
 20
-254.5
 30
0.0
 11
-565.0
 21
-254.5
 31
0.0
  0
LINE
  5
82B
100
AcDbEntity
  8
DETAIL
  6
CONTINUOUS
 62
     5
100
AcDbLine
 10
-612.552915
 20
-263.5
 30
0.0
 11
-592.552916
 21
-263.5
 31
0.0
  0
LINE
  5
82C
100
AcDbEntity
  8
DETAIL
  6
CONTINUOUS
 62
     5
100
AcDbLine
 10
-592.552916
 20
-290.5
 30
0.0
 11
-592.552916
 21
-254.5
 31
0.0
  0
LINE
  5
82D
100
AcDbEntity
  8
DETAIL
  6
CONTINUOUS
 62
     5
100
AcDbLine
 10
-612.552915
 20
-288.088457
 30
0.0
 11
-612.552915
 21
-256.911543
 31
0.0
  0
LINE
  5
82E
100
AcDbEntity
  8
DETAIL
  6
CONTINUOUS
 62
     5
100
AcDbLine
 10
-628.552915
 20
-288.088457
 30
0.0
 11
-634.952915
 21
-284.393415
 31
0.0
  0
LINE
  5
82F
100
AcDbEntity
  8
DETAIL
  6
CONTINUOUS
 62
     5
100
AcDbLine
 10
-614.952915
 20
-288.088457
 30
0.0
 11
-628.552915
 21
-288.088457
 31
0.0
  0
LINE
  5
830
100
AcDbEntity
  8
DETAIL
  6
CONTINUOUS
 62
     5
100
AcDbLine
 10
-628.552915
 20
-281.5
 30
0.0
 11
-614.952915
 21
-281.5
 31
0.0
  0
LINE
  5
831
100
AcDbEntity
  8
DETAIL
  6
CONTINUOUS
 62
     5
100
AcDbLine
 10
-628.552915
 20
-256.911543
 30
0.0
 11
-634.952915
 21
-260.606585
 31
0.0
  0
LINE
  5
832
100
AcDbEntity
  8
DETAIL
  6
CONTINUOUS
 62
     5
100
AcDbLine
 10
-614.952915
 20
-256.911543
 30
0.0
 11
-628.552915
 21
-256.911543
 31
0.0
  0
LINE
  5
833
100
AcDbEntity
  8
DETAIL
  6
CONTINUOUS
 62
     5
100
AcDbLine
 10
-628.552915
 20
-263.5
 30
0.0
 11
-614.952915
 21
-263.5
 31
0.0
  0
LINE
  5
834
100
AcDbEntity
  8
DETAIL
  6
CONTINUOUS
 62
     5
100
AcDbLine
 10
-634.952915
 20
-284.393415
 30
0.0
 11
-634.952915
 21
-260.606585
 31
0.0
  0
LINE
  5
835
100
AcDbEntity
  8
DETAIL
  6
CONTINUOUS
 62
     5
100
AcDbLine
 10
-628.552915
 20
-288.088457
 30
0.0
 11
-628.552915
 21
-256.911543
 31
0.0
  0
LINE
  5
836
100
AcDbEntity
  8
DETAIL
  6
CONTINUOUS
 62
     5
100
AcDbLine
 10
-614.952915
 20
-288.088457
 30
0.0
 11
-614.952915
 21
-256.911543
 31
0.0
  0
ARC
  5
837
100
AcDbEntity
  8
DETAIL
  6
CONTINUOUS
 62
     5
100
AcDbCircle
 10
-632.763028
 20
-272.5
 30
0.0
 40
10.236972
100
AcDbArc
 50
102.352137
 51
257.647863
  0
LINE
  5
838
100
AcDbEntity
  8
DETAIL
  6
CONTINUOUS
 62
     5
100
AcDbLine
 10
-612.552915
 20
-261.943594
 30
0.0
 11
-614.952915
 21
-261.943594
 31
0.0
  0
LINE
  5
839
100
AcDbEntity
  8
DETAIL
  6
CONTINUOUS
 62
     5
100
AcDbLine
 10
-612.552915
 20
-283.056406
 30
0.0
 11
-614.952915
 21
-283.056406
 31
0.0
  0
LINE
  5
83A
100
AcDbEntity
  8
DETAIL
  6
CONTINUOUS
 62
     5
100
AcDbLine
 10
-592.78357
 20
-195.5
 30
0.0
 11
-565.0
 21
-195.5
 31
0.0
  0
LINE
  5
83B
100
AcDbEntity
  8
DETAIL
  6
CONTINUOUS
 62
     5
100
AcDbLine
 10
-606.78357
 20
-187.356406
 30
0.0
 11
-608.783569
 21
-187.356406
 31
0.0
  0
LINE
  5
83C
100
AcDbEntity
  8
DETAIL
  6
CONTINUOUS
 62
     5
100
AcDbLine
 10
-606.78357
 20
-193.490381
 30
0.0
 11
-592.78357
 21
-193.490381
 31
0.0
  0
LINE
  5
83D
100
AcDbEntity
  8
DETAIL
  6
CONTINUOUS
 62
     5
100
AcDbLine
 10
-606.78357
 20
-188.0
 30
0.0
 11
-592.78357
 21
-188.0
 31
0.0
  0
LINE
  5
83E
100
AcDbEntity
  8
DETAIL
  6
CONTINUOUS
 62
     5
100
AcDbLine
 10
-592.78357
 20
-165.5
 30
0.0
 11
-565.0
 21
-165.5
 31
0.0
  0
LINE
  5
83F
100
AcDbEntity
  8
DETAIL
  6
CONTINUOUS
 62
     5
100
AcDbLine
 10
-606.78357
 20
-173.643594
 30
0.0
 11
-608.783569
 21
-173.643594
 31
0.0
  0
LINE
  5
840
100
AcDbEntity
  8
DETAIL
  6
CONTINUOUS
 62
     5
100
AcDbLine
 10
-606.78357
 20
-167.509619
 30
0.0
 11
-592.78357
 21
-167.509619
 31
0.0
  0
LINE
  5
841
100
AcDbEntity
  8
DETAIL
  6
CONTINUOUS
 62
     5
100
AcDbLine
 10
-606.78357
 20
-173.0
 30
0.0
 11
-592.78357
 21
-173.0
 31
0.0
  0
LINE
  5
842
100
AcDbEntity
  8
DETAIL
  6
CONTINUOUS
 62
     5
100
AcDbLine
 10
-606.78357
 20
-193.490381
 30
0.0
 11
-606.78357
 21
-167.509619
 31
0.0
  0
LINE
  5
843
100
AcDbEntity
  8
DETAIL
  6
CONTINUOUS
 62
     5
100
AcDbLine
 10
-608.783569
 20
-193.490381
 30
0.0
 11
-608.783569
 21
-167.509619
 31
0.0
  0
LINE
  5
844
100
AcDbEntity
  8
DETAIL
  6
CONTINUOUS
 62
     5
100
AcDbLine
 10
-592.78357
 20
-195.5
 30
0.0
 11
-592.78357
 21
-165.5
 31
0.0
  0
LINE
  5
845
100
AcDbEntity
  8
DETAIL
  6
CONTINUOUS
 62
     5
100
AcDbLine
 10
-622.175623
 20
-190.418584
 30
0.0
 11
-619.175623
 21
-193.490381
 31
0.0
  0
LINE
  5
846
100
AcDbEntity
  8
DETAIL
  6
CONTINUOUS
 62
     5
100
AcDbLine
 10
-622.175623
 20
-170.581416
 30
0.0
 11
-619.175623
 21
-167.509619
 31
0.0
  0
LINE
  5
847
100
AcDbEntity
  8
DETAIL
  6
CONTINUOUS
 62
     5
100
AcDbLine
 10
-622.175623
 20
-190.418584
 30
0.0
 11
-622.175623
 21
-170.581416
 31
0.0
  0
LINE
  5
848
100
AcDbEntity
  8
DETAIL
  6
CONTINUOUS
 62
     5
100
AcDbLine
 10
-619.175623
 20
-193.490381
 30
0.0
 11
-619.175623
 21
-167.509619
 31
0.0
  0
ARC
  5
849
100
AcDbEntity
  8
DETAIL
  6
CONTINUOUS
 62
     5
100
AcDbCircle
 10
-619.509436
 20
-180.5
 30
0.0
 40
7.490564
100
AcDbArc
 50
110.851032
 51
249.148968
  0
LINE
  5
84A
100
AcDbEntity
  8
DETAIL
  6
CONTINUOUS
 62
     5
100
AcDbLine
 10
-619.175623
 20
-167.509619
 30
0.0
 11
-608.783569
 21
-167.509619
 31
0.0
  0
LINE
  5
84B
100
AcDbEntity
  8
DETAIL
  6
CONTINUOUS
 62
     5
100
AcDbLine
 10
-619.175623
 20
-193.490381
 30
0.0
 11
-608.783569
 21
-193.490381
 31
0.0
  0
LINE
  5
84C
100
AcDbEntity
  8
DETAIL
  6
CONTINUOUS
 62
     5
100
AcDbLine
 10
-619.175623
 20
-188.0
 30
0.0
 11
-608.783569
 21
-188.0
 31
0.0
  0
LINE
  5
84D
100
AcDbEntity
  8
DETAIL
  6
CONTINUOUS
 62
     5
100
AcDbLine
 10
-619.175623
 20
-173.0
 30
0.0
 11
-608.783569
 21
-173.0
 31
0.0
  0
LINE
  5
84E
100
AcDbEntity
  8
NOTE
  6
CONTINUOUS
 62
     4
100
AcDbLine
 10
-627.0
 20
-200.5
 30
0.0
 11
-627.0
 21
-160.5
 31
0.0
  0
LINE
  5
84F
100
AcDbEntity
  8
NOTE
  6
CONTINUOUS
 62
     4
100
AcDbLine
 10
-647.0
 20
-180.5
 30
0.0
 11
-607.0
 21
-180.5
 31
0.0
  0
LINE
  5
850
100
AcDbEntity
  8
NOTE
  6
CONTINUOUS
 62
     4
100
AcDbLine
 10
-643.0
 20
-292.5
 30
0.0
 11
-643.0
 21
-252.5
 31
0.0
  0
LINE
  5
851
100
AcDbEntity
  8
NOTE
  6
CONTINUOUS
 62
     4
100
AcDbLine
 10
-663.0
 20
-272.5
 30
0.0
 11
-623.0
 21
-272.5
 31
0.0
  0
CIRCLE
  5
852
100
AcDbEntity
  8
SIZE
  6
CONTINUOUS
 62
    30
100
AcDbCircle
 10
-663.785823
 20
-49.0
 30
0.0
 40
5.0
  0
LINE
  5
853
100
AcDbEntity
  8
SIZE
  6
CONTINUOUS
 62
    30
100
AcDbLine
 10
-655.0
 20
-49.0
 30
0.0
 11
-693.785823
 21
-49.0
 31
0.0
  0
LINE
  5
854
100
AcDbEntity
  8
NOTE
  6
CONTINUOUS
 62
     4
100
AcDbLine
 10
-694.799997
 20
-129.5
 30
0.0
 11
-654.799997
 21
-129.5
 31
0.0
  0
LINE
  5
855
100
AcDbEntity
  8
NOTE
  6
CONTINUOUS
 62
     4
100
AcDbLine
 10
-694.799997
 20
-129.5
 30
0.0
 11
-654.799997
 21
-129.5
 31
0.0
  0
LINE
  5
856
100
AcDbEntity
  8
DETAIL
  6
CONTINUOUS
 62
     5
100
AcDbLine
 10
-650.28073
 20
-149.5
 30
0.0
 11
-674.799997
 21
-149.5
 31
0.0
  0
LINE
  5
857
100
AcDbEntity
  8
DETAIL
  6
CONTINUOUS
 62
     5
100
AcDbLine
 10
-650.28073
 20
-109.5
 30
0.0
 11
-674.799997
 21
-109.5
 31
0.0
  0
POINT
  5
858
100
AcDbEntity
  8
DEFPOINTS
  6
CONTINUOUS
 62
     7
100
AcDbPoint
 10
-694.799997
 20
-129.5
 30
0.0
  0
LINE
  5
859
100
AcDbEntity
  8
DETAIL
  6
CONTINUOUS
 62
     5
100
AcDbLine
 10
-674.799997
 20
-149.5
 30
0.0
 11
-674.799997
 21
-109.5
 31
0.0
  0
POINT
  5
85A
100
AcDbEntity
  8
DEFPOINTS
  6
CONTINUOUS
 62
     7
100
AcDbPoint
 10
-565.0
 20
-85.5
 30
0.0
  0
POINT
  5
85B
100
AcDbEntity
  8
DEFPOINTS
  6
CONTINUOUS
 62
     7
100
AcDbPoint
 10
-663.785823
 20
-49.0
 30
0.0
  0
POINT
  5
85C
100
AcDbEntity
  8
DEFPOINTS
  6
CONTINUOUS
 62
     7
100
AcDbPoint
 10
-635.0
 20
-49.0
 30
0.0
  0
LINE
  5
85D
100
AcDbEntity
  8
SIZE
  6
CONTINUOUS
 62
    30
100
AcDbLine
 10
-663.785823
 20
-44.0
 30
0.0
 11
-663.785823
 21
-39.0
 31
0.0
  0
LINE
  5
85E
100
AcDbEntity
  8
DETAIL
  6
CONTINUOUS
 62
     5
100
AcDbLine
 10
-565.0
 20
-109.5
 30
0.0
 11
-565.0
 21
-149.5
 31
0.0
  0
LINE
  5
85F
100
AcDbEntity
  8
NOTE
  6
CONTINUOUS
 62
     4
100
AcDbLine
 10
-565.0
 20
-105.5
 30
0.0
 11
-565.0
 21
-65.5
 31
0.0
  0
LINE
  5
860
100
AcDbEntity
  8
DETAIL
  6
CONTINUOUS
 62
     5
100
AcDbLine
 10
-565.0
 20
-149.5
 30
0.0
 11
-584.8
 21
-149.5
 31
0.0
  0
ARC
  5
861
100
AcDbEntity
  8
DETAIL
  6
CONTINUOUS
 62
     5
100
AcDbCircle
 10
-587.299999
 20
-144.5
 30
0.0
 40
2.5
100
AcDbArc
 50
180.0
 51
0.0
  0
ARC
  5
862
100
AcDbEntity
  8
DETAIL
  6
CONTINUOUS
 62
     5
100
AcDbCircle
 10
-592.299999
 20
-144.5
 30
0.0
 40
2.5
100
AcDbArc
 50
180.0
 51
0.0
  0
ARC
  5
863
100
AcDbEntity
  8
DETAIL
  6
CONTINUOUS
 62
     5
100
AcDbCircle
 10
-602.299999
 20
-144.5
 30
0.0
 40
2.5
100
AcDbArc
 50
180.0
 51
0.0
  0
ARC
  5
864
100
AcDbEntity
  8
DETAIL
  6
CONTINUOUS
 62
     5
100
AcDbCircle
 10
-597.299999
 20
-144.5
 30
0.0
 40
2.5
100
AcDbArc
 50
180.0
 51
0.0
  0
ARC
  5
865
100
AcDbEntity
  8
DETAIL
  6
CONTINUOUS
 62
     5
100
AcDbCircle
 10
-612.299999
 20
-144.5
 30
0.0
 40
2.5
100
AcDbArc
 50
180.0
 51
0.0
  0
ARC
  5
866
100
AcDbEntity
  8
DETAIL
  6
CONTINUOUS
 62
     5
100
AcDbCircle
 10
-607.299999
 20
-144.5
 30
0.0
 40
2.5
100
AcDbArc
 50
180.0
 51
0.0
  0
LINE
  5
867
100
AcDbEntity
  8
DETAIL
  6
CONTINUOUS
 62
     5
100
AcDbLine
 10
-649.799998
 20
-144.5
 30
0.0
 11
-650.28073
 21
-144.5
 31
0.0
  0
ARC
  5
868
100
AcDbEntity
  8
DETAIL
  6
CONTINUOUS
 62
     5
100
AcDbCircle
 10
-622.299999
 20
-144.5
 30
0.0
 40
2.5
100
AcDbArc
 50
180.0
 51
0.0
  0
ARC
  5
869
100
AcDbEntity
  8
DETAIL
  6
CONTINUOUS
 62
     5
100
AcDbCircle
 10
-632.299998
 20
-144.5
 30
0.0
 40
2.5
100
AcDbArc
 50
180.0
 51
0.0
  0
ARC
  5
86A
100
AcDbEntity
  8
DETAIL
  6
CONTINUOUS
 62
     5
100
AcDbCircle
 10
-627.299998
 20
-144.5
 30
0.0
 40
2.5
100
AcDbArc
 50
180.0
 51
0.0
  0
ARC
  5
86B
100
AcDbEntity
  8
DETAIL
  6
CONTINUOUS
 62
     5
100
AcDbCircle
 10
-642.299998
 20
-144.5
 30
0.0
 40
2.5
100
AcDbArc
 50
180.0
 51
0.0
  0
ARC
  5
86C
100
AcDbEntity
  8
DETAIL
  6
CONTINUOUS
 62
     5
100
AcDbCircle
 10
-637.299998
 20
-144.5
 30
0.0
 40
2.5
100
AcDbArc
 50
180.0
 51
0.0
  0
ARC
  5
86D
100
AcDbEntity
  8
DETAIL
  6
CONTINUOUS
 62
     5
100
AcDbCircle
 10
-647.299998
 20
-144.5
 30
0.0
 40
2.5
100
AcDbArc
 50
180.0
 51
0.0
  0
ARC
  5
86E
100
AcDbEntity
  8
DETAIL
  6
CONTINUOUS
 62
     5
100
AcDbCircle
 10
-617.299999
 20
-144.5
 30
0.0
 40
2.5
100
AcDbArc
 50
180.0
 51
0.0
  0
LINE
  5
86F
100
AcDbEntity
  8
DETAIL
  6
CONTINUOUS
 62
     5
100
AcDbLine
 10
-565.0
 20
-109.5
 30
0.0
 11
-584.8
 21
-109.5
 31
0.0
  0
LINE
  5
870
100
AcDbEntity
  8
DETAIL
  6
CONTINUOUS
 62
     5
100
AcDbLine
 10
-584.8
 20
-114.5
 30
0.0
 11
-587.299999
 21
-114.5
 31
0.0
  0
ARC
  5
871
100
AcDbEntity
  8
DETAIL
  6
CONTINUOUS
 62
     5
100
AcDbCircle
 10
-594.799999
 20
-114.5
 30
0.0
 40
2.5
100
AcDbArc
 50
0.0
 51
189.527283
  0
ARC
  5
872
100
AcDbEntity
  8
DETAIL
  6
CONTINUOUS
 62
     5
100
AcDbCircle
 10
-589.799999
 20
-114.5
 30
0.0
 40
2.5
100
AcDbArc
 50
0.0
 51
189.527283
  0
ARC
  5
873
100
AcDbEntity
  8
DETAIL
  6
CONTINUOUS
 62
     5
100
AcDbCircle
 10
-599.799999
 20
-114.5
 30
0.0
 40
2.5
100
AcDbArc
 50
0.0
 51
189.527283
  0
ARC
  5
874
100
AcDbEntity
  8
DETAIL
  6
CONTINUOUS
 62
     5
100
AcDbCircle
 10
-604.799999
 20
-114.5
 30
0.0
 40
2.5
100
AcDbArc
 50
0.0
 51
189.527283
  0
ARC
  5
875
100
AcDbEntity
  8
DETAIL
  6
CONTINUOUS
 62
     5
100
AcDbCircle
 10
-609.799999
 20
-114.5
 30
0.0
 40
2.5
100
AcDbArc
 50
0.0
 51
189.527283
  0
LINE
  5
876
100
AcDbEntity
  8
DETAIL
  6
CONTINUOUS
 62
     5
100
AcDbLine
 10
-565.0
 20
-133.1
 30
0.0
 11
-565.0
 21
-130.3
 31
0.0
  0
ARC
  5
877
100
AcDbEntity
  8
DETAIL
  6
CONTINUOUS
 62
     5
100
AcDbCircle
 10
-619.799999
 20
-114.5
 30
0.0
 40
2.5
100
AcDbArc
 50
0.0
 51
189.527283
  0
ARC
  5
878
100
AcDbEntity
  8
DETAIL
  6
CONTINUOUS
 62
     5
100
AcDbCircle
 10
-624.799999
 20
-114.5
 30
0.0
 40
2.5
100
AcDbArc
 50
0.0
 51
189.527283
  0
ARC
  5
879
100
AcDbEntity
  8
DETAIL
  6
CONTINUOUS
 62
     5
100
AcDbCircle
 10
-629.799998
 20
-114.5
 30
0.0
 40
2.5
100
AcDbArc
 50
0.0
 51
189.527283
  0
ARC
  5
87A
100
AcDbEntity
  8
DETAIL
  6
CONTINUOUS
 62
     5
100
AcDbCircle
 10
-634.799998
 20
-114.5
 30
0.0
 40
2.5
100
AcDbArc
 50
0.0
 51
189.527283
  0
ARC
  5
87B
100
AcDbEntity
  8
DETAIL
  6
CONTINUOUS
 62
     5
100
AcDbCircle
 10
-639.799998
 20
-114.5
 30
0.0
 40
2.5
100
AcDbArc
 50
0.0
 51
189.527283
  0
ARC
  5
87C
100
AcDbEntity
  8
DETAIL
  6
CONTINUOUS
 62
     5
100
AcDbCircle
 10
-644.799998
 20
-114.5
 30
0.0
 40
2.5
100
AcDbArc
 50
0.0
 51
189.527283
  0
LINE
  5
87D
100
AcDbEntity
  8
DETAIL
  6
CONTINUOUS
 62
     5
100
AcDbLine
 10
-647.299998
 20
-114.5
 30
0.0
 11
-650.28073
 21
-114.5
 31
0.0
  0
ARC
  5
87E
100
AcDbEntity
  8
DETAIL
  6
CONTINUOUS
 62
     5
100
AcDbCircle
 10
-614.799999
 20
-114.5
 30
0.0
 40
2.5
100
AcDbArc
 50
0.0
 51
189.527283
  0
LINE
  5
87F
100
AcDbEntity
  8
DETAIL
  6
CONTINUOUS
 62
     5
100
AcDbLine
 10
-584.8
 20
-149.5
 30
0.0
 11
-584.8
 21
-109.5
 31
0.0
  0
LINE
  5
880
100
AcDbEntity
  8
DETAIL
  6
CONTINUOUS
 62
     5
100
AcDbLine
 10
-650.28073
 20
-149.5
 30
0.0
 11
-650.28073
 21
-109.5
 31
0.0
  0
LINE
  5
881
100
AcDbEntity
  8
DETAIL
  6
CONTINUOUS
 62
     5
100
AcDbLine
 10
-592.299999
 20
-114.5
 30
0.0
 11
-589.799999
 21
-144.5
 31
0.0
  0
LINE
  5
882
100
AcDbEntity
  8
DETAIL
  6
CONTINUOUS
 62
     5
100
AcDbLine
 10
-597.299999
 20
-114.5
 30
0.0
 11
-594.799999
 21
-144.5
 31
0.0
  0
LINE
  5
883
100
AcDbEntity
  8
DETAIL
  6
CONTINUOUS
 62
     5
100
AcDbLine
 10
-587.299999
 20
-114.5
 30
0.0
 11
-584.8
 21
-144.5
 31
0.0
  0
LINE
  5
884
100
AcDbEntity
  8
DETAIL
  6
CONTINUOUS
 62
     5
100
AcDbLine
 10
-607.299999
 20
-114.5
 30
0.0
 11
-604.799999
 21
-144.5
 31
0.0
  0
LINE
  5
885
100
AcDbEntity
  8
DETAIL
  6
CONTINUOUS
 62
     5
100
AcDbLine
 10
-602.299999
 20
-114.5
 30
0.0
 11
-599.799999
 21
-144.5
 31
0.0
  0
LINE
  5
886
100
AcDbEntity
  8
DETAIL
  6
CONTINUOUS
 62
     5
100
AcDbLine
 10
-617.299999
 20
-114.5
 30
0.0
 11
-614.799999
 21
-144.5
 31
0.0
  0
LINE
  5
887
100
AcDbEntity
  8
DETAIL
  6
CONTINUOUS
 62
     5
100
AcDbLine
 10
-612.299999
 20
-114.5
 30
0.0
 11
-609.799999
 21
-144.5
 31
0.0
  0
LINE
  5
888
100
AcDbEntity
  8
DETAIL
  6
CONTINUOUS
 62
     5
100
AcDbLine
 10
-627.299998
 20
-114.5
 30
0.0
 11
-624.799999
 21
-144.5
 31
0.0
  0
LINE
  5
889
100
AcDbEntity
  8
DETAIL
  6
CONTINUOUS
 62
     5
100
AcDbLine
 10
-622.299999
 20
-114.5
 30
0.0
 11
-619.799999
 21
-144.5
 31
0.0
  0
LINE
  5
88A
100
AcDbEntity
  8
DETAIL
  6
CONTINUOUS
 62
     5
100
AcDbLine
 10
-632.299998
 20
-114.5
 30
0.0
 11
-629.799998
 21
-144.5
 31
0.0
  0
LINE
  5
88B
100
AcDbEntity
  8
DETAIL
  6
CONTINUOUS
 62
     5
100
AcDbLine
 10
-637.299998
 20
-114.5
 30
0.0
 11
-634.799998
 21
-144.5
 31
0.0
  0
LINE
  5
88C
100
AcDbEntity
  8
DETAIL
  6
CONTINUOUS
 62
     5
100
AcDbLine
 10
-642.299998
 20
-114.5
 30
0.0
 11
-639.799998
 21
-144.5
 31
0.0
  0
LINE
  5
88D
100
AcDbEntity
  8
DETAIL
  6
CONTINUOUS
 62
     5
100
AcDbLine
 10
-647.299998
 20
-114.5
 30
0.0
 11
-644.799998
 21
-144.5
 31
0.0
  0
LINE
  5
88E
100
AcDbEntity
  8
DETAIL
  6
CONTINUOUS
 62
     5
100
AcDbLine
 10
-650.28073
 20
-138.731216
 30
0.0
 11
-649.799998
 21
-144.5
 31
0.0
  0
LINE
  5
88F
100
AcDbEntity
  8
DETAIL
  6
CONTINUOUS
 62
     5
100
AcDbLine
 10
-584.8
 20
-144.797506
 30
0.0
 11
-584.8
 21
-114.202494
 31
0.0
  0
LINE
  5
890
100
AcDbEntity
  8
DETAIL
  6
CONTINUOUS
 62
     5
100
AcDbLine
 10
-635.0
 20
-49.0
 30
0.0
 11
-565.0
 21
-49.0
 31
0.0
  0
LINE
  5
891
100
AcDbEntity
  8
SIZE
  6
CONTINUOUS
 62
    30
100
AcDbLine
 10
-544.0
 20
496.5
 30
0.0
 11
-1933.937788
 21
496.5
 31
0.0
  0
LINE
  5
893
100
AcDbEntity
  8
SIZE
  6
CONTINUOUS
 62
    30
100
AcDbLine
 10
-585.0
 20
472.5
 30
0.0
 11
-1933.937788
 21
472.5
 31
0.0
  0
LINE
  5
894
100
AcDbEntity
  8
SIZE
  6
CONTINUOUS
 62
    30
100
AcDbLine
 10
-585.0
 20
374.5
 30
0.0
 11
-1933.937788
 21
374.5
 31
0.0
  0
LINE
  5
895
100
AcDbEntity
  8
SIZE
  6
CONTINUOUS
 62
    30
100
AcDbLine
 10
-585.0
 20
374.5
 30
0.0
 11
-1933.937788
 21
374.5
 31
0.0
  0
LINE
  5
896
100
AcDbEntity
  8
SIZE
  6
CONTINUOUS
 62
    30
100
AcDbLine
 10
-1255.0
 20
1093.35655
 30
0.0
 11
-575.0
 21
1093.35655
 31
0.0
  0
LINE
  5
897
100
AcDbEntity
  8
SERVICESPACE
  6
DASHDOT
 62
     2
100
AcDbLine
 10
-765.0
 20
172.5
 30
0.0
 11
-1265.0
 21
172.5
 31
0.0
  0
LINE
  5
898
100
AcDbEntity
  8
SERVICESPACE
  6
DASHDOT
 62
     2
100
AcDbLine
 10
-565.0
 20
472.5
 30
0.0
 11
-1265.0
 21
472.5
 31
0.0
  0
LINE
  5
899
100
AcDbEntity
  8
NOTE
  6
CONTINUOUS
 62
     4
100
AcDbLine
 10
-820.937733
 20
722.965426
 30
0.0
 11
-1493.130827
 21
722.965426
 31
0.0
  0
TEXT
  5
89A
100
AcDbEntity
  8
NOTE
  6
CONTINUOUS
 62
     4
100
AcDbText
 10
-1487.831654
 20
742.836014
 30
0.0
 40
64.0
  1
AH4-14×30長穴
 41
0.9
100
AcDbText
  0
TEXT
  5
89B
100
AcDbEntity
  8
NOTE
  6
CONTINUOUS
 62
     4
100
AcDbText
 10
-1250.484928
 20
286.721864
 30
0.0
 40
64.0
  1
サービススペース
 41
0.8
100
AcDbText
  0
TEXT
  5
89C
100
AcDbEntity
  8
SIZE
  6
CONTINUOUS
 62
    30
100
AcDbText
 10
-1918.937788
 20
553.506963
 30
0.0
 40
55.0
  1
24
 50
90.0
 41
0.9
 72
     1
 11
-1918.937788
 21
594.756963
 31
0.0
100
AcDbText
  0
LINE
  5
89D
100
AcDbEntity
  8
SIZE
  6
CONTINUOUS
 62
    30
100
AcDbLine
 10
-1903.937788
 20
651.006963
 30
0.0
 11
-1903.937788
 21
496.5
 31
0.0
  0
TEXT
  5
89E
100
AcDbEntity
  8
SIZE
  6
CONTINUOUS
 62
    30
100
AcDbText
 10
-1797.394817
 20
533.041987
 30
0.0
 40
55.0
  1
200～300
 50
90.0
 41
0.9
 72
     1
 11
-1797.394817
 21
697.09913
 31
0.0
100
AcDbText
  0
LINE
  5
89F
100
AcDbEntity
  8
SIZE
  6
CONTINUOUS
 62
    30
100
AcDbLine
 10
-1782.394817
 20
472.5
 30
0.0
 11
-1782.394817
 21
876.156273
 31
0.0
  0
LINE
  5
8A0
100
AcDbEntity
  8
SIZE
  6
CONTINUOUS
 62
    30
100
AcDbLine
 10
-1265.0
 20
492.5
 30
0.0
 11
-1265.0
 21
1123.35655
 31
0.0
  0
LINE
  5
8A1
100
AcDbEntity
  8
SIZE
  6
CONTINUOUS
 62
    30
100
AcDbLine
 10
-1285.0
 20
172.5
 30
0.0
 11
-1812.394817
 21
172.5
 31
0.0
  0
LINE
  5
8A2
100
AcDbEntity
  8
SIZE
  6
CONTINUOUS
 62
    30
100
AcDbLine
 10
-1281.064274
 20
172.5
 30
0.0
 11
-1812.394817
 21
172.5
 31
0.0
  0
LINE
  5
8A3
100
AcDbEntity
  8
SIZE
  6
CONTINUOUS
 62
    30
100
AcDbLine
 10
-1281.064274
 20
472.5
 30
0.0
 11
-1812.394817
 21
472.5
 31
0.0
  0
LINE
  5
8A4
100
AcDbEntity
  8
SIZE
  6
CONTINUOUS
 62
    30
100
AcDbLine
 10
-1782.394817
 20
182.5
 30
0.0
 11
-1782.394817
 21
462.5
 31
0.0
  0
CIRCLE
  5
8A5
100
AcDbEntity
  8
SIZE
  6
CONTINUOUS
 62
    30
100
AcDbCircle
 10
-1782.394817
 20
172.5
 30
0.0
 40
5.0
  0
CIRCLE
  5
8A6
100
AcDbEntity
  8
SIZE
  6
CONTINUOUS
 62
    30
100
AcDbCircle
 10
-1782.394817
 20
172.5
 30
0.0
 40
5.0
  0
LINE
  5
8A7
100
AcDbEntity
  8
SIZE
  6
CONTINUOUS
 62
    30
100
AcDbLine
 10
-1782.394817
 20
167.5
 30
0.0
 11
-1782.394817
 21
162.5
 31
0.0
  0
POINT
  5
8A8
100
AcDbEntity
  8
DEFPOINTS
  6
CONTINUOUS
 62
     7
100
AcDbPoint
 10
-1782.394817
 20
172.5
 30
0.0
  0
LINE
  5
8A9
100
AcDbEntity
  8
SIZE
  6
CONTINUOUS
 62
    30
100
AcDbLine
 10
-1782.394817
 20
177.5
 30
0.0
 11
-1782.394817
 21
182.5
 31
0.0
  0
LINE
  5
8AA
100
AcDbEntity
  8
SIZE
  6
CONTINUOUS
 62
    30
100
AcDbLine
 10
-1903.937788
 20
462.5
 30
0.0
 11
-1903.937788
 21
452.5
 31
0.0
  0
TEXT
  5
8AB
100
AcDbEntity
  8
SIZE
  6
CONTINUOUS
 62
    30
100
AcDbText
 10
-1918.937788
 20
383.428571
 30
0.0
 40
55.0
  1
98
 50
90.0
 41
0.9
 72
     1
 11
-1918.937788
 21
423.5
 31
0.0
100
AcDbText
  0
LINE
  5
8AC
100
AcDbEntity
  8
SIZE
  6
CONTINUOUS
 62
    30
100
AcDbLine
 10
-1903.937788
 20
374.5
 30
0.0
 11
-1903.937788
 21
472.5
 31
0.0
  0
LINE
  5
8AD
100
AcDbEntity
  8
SIZE
  6
CONTINUOUS
 62
    30
100
AcDbLine
 10
-1903.937788
 20
369.5
 30
0.0
 11
-1903.937788
 21
364.5
 31
0.0
  0
CIRCLE
  5
8AE
100
AcDbEntity
  8
SIZE
  6
CONTINUOUS
 62
    30
100
AcDbCircle
 10
-1903.937788
 20
374.5
 30
0.0
 40
5.0
  0
LINE
  5
8AF
100
AcDbEntity
  8
SIZE
  6
CONTINUOUS
 62
    30
100
AcDbLine
 10
-1903.937788
 20
364.5
 30
0.0
 11
-1903.937788
 21
354.5
 31
0.0
  0
POINT
  5
8B0
100
AcDbEntity
  8
DEFPOINTS
  6
CONTINUOUS
 62
     7
100
AcDbPoint
 10
-1903.937788
 20
374.5
 30
0.0
  0
LINE
  5
8B1
100
AcDbEntity
  8
SIZE
  6
CONTINUOUS
 62
    30
100
AcDbLine
 10
-1903.937788
 20
369.5
 30
0.0
 11
-1903.937788
 21
364.5
 31
0.0
  0
CIRCLE
  5
8B2
100
AcDbEntity
  8
SIZE
  6
CONTINUOUS
 62
    30
100
AcDbCircle
 10
-1903.937788
 20
374.5
 30
0.0
 40
5.0
  0
POINT
  5
8B3
100
AcDbEntity
  8
DEFPOINTS
  6
CONTINUOUS
 62
     7
100
AcDbPoint
 10
-1903.937788
 20
496.5
 30
0.0
  0
LINE
  5
8B4
100
AcDbEntity
  8
SIZE
  6
CONTINUOUS
 62
    30
100
AcDbLine
 10
-1903.937788
 20
501.5
 30
0.0
 11
-1903.937788
 21
506.5
 31
0.0
  0
CIRCLE
  5
8B5
100
AcDbEntity
  8
SIZE
  6
CONTINUOUS
 62
    30
100
AcDbCircle
 10
-1903.937788
 20
496.5
 30
0.0
 40
5.0
  0
LINE
  5
8B6
100
AcDbEntity
  8
SIZE
  6
CONTINUOUS
 62
    30
100
AcDbLine
 10
-1903.937788
 20
467.5
 30
0.0
 11
-1903.937788
 21
462.5
 31
0.0
  0
CIRCLE
  5
8B7
100
AcDbEntity
  8
SIZE
  6
CONTINUOUS
 62
    30
100
AcDbCircle
 10
-1903.937788
 20
472.5
 30
0.0
 40
5.0
  0
LINE
  5
8B8
100
AcDbEntity
  8
SIZE
  6
CONTINUOUS
 62
    30
100
AcDbLine
 10
-1903.937788
 20
472.5
 30
0.0
 11
-1903.937788
 21
496.5
 31
0.0
  0
LINE
  5
8B9
100
AcDbEntity
  8
SIZE
  6
CONTINUOUS
 62
    30
100
AcDbLine
 10
-1903.937788
 20
472.5
 30
0.0
 11
-1903.937788
 21
496.5
 31
0.0
  0
LINE
  5
8BA
100
AcDbEntity
  8
SIZE
  6
CONTINUOUS
 62
    30
100
AcDbLine
 10
-1903.937788
 20
506.5
 30
0.0
 11
-1903.937788
 21
516.5
 31
0.0
  0
POINT
  5
8BB
100
AcDbEntity
  8
DEFPOINTS
  6
CONTINUOUS
 62
     7
100
AcDbPoint
 10
-1903.937788
 20
472.5
 30
0.0
  0
LINE
  5
8BC
100
AcDbEntity
  8
SIZE
  6
CONTINUOUS
 62
    30
100
AcDbLine
 10
-1903.937788
 20
477.5
 30
0.0
 11
-1903.937788
 21
482.5
 31
0.0
  0
CIRCLE
  5
8BD
100
AcDbEntity
  8
SIZE
  6
CONTINUOUS
 62
    30
100
AcDbCircle
 10
-1903.937788
 20
472.5
 30
0.0
 40
5.0
  0
LINE
  5
8BE
100
AcDbEntity
  8
SIZE
  6
CONTINUOUS
 62
    30
100
AcDbLine
 10
-1903.937788
 20
482.5
 30
0.0
 11
-1903.937788
 21
492.5
 31
0.0
  0
CIRCLE
  5
8BF
100
AcDbEntity
  8
SIZE
  6
CONTINUOUS
 62
    30
100
AcDbCircle
 10
-1782.394817
 20
472.5
 30
0.0
 40
5.0
  0
LINE
  5
8C0
100
AcDbEntity
  8
SIZE
  6
CONTINUOUS
 62
    30
100
AcDbLine
 10
-1782.394817
 20
467.5
 30
0.0
 11
-1782.394817
 21
462.5
 31
0.0
  0
POINT
  5
8C1
100
AcDbEntity
  8
DEFPOINTS
  6
CONTINUOUS
 62
     7
100
AcDbPoint
 10
-1265.0
 20
172.5
 30
0.0
  0
POINT
  5
8C2
100
AcDbEntity
  8
DEFPOINTS
  6
CONTINUOUS
 62
     7
100
AcDbPoint
 10
-1261.064274
 20
172.5
 30
0.0
  0
POINT
  5
8C3
100
AcDbEntity
  8
DEFPOINTS
  6
CONTINUOUS
 62
     7
100
AcDbPoint
 10
-1261.064274
 20
472.5
 30
0.0
  0
POINT
  5
8C4
100
AcDbEntity
  8
DEFPOINTS
  6
CONTINUOUS
 62
     7
100
AcDbPoint
 10
-1265.0
 20
472.5
 30
0.0
  0
LINE
  5
8C5
100
AcDbEntity
  8
SIZE
  6
CONTINUOUS
 62
    30
100
AcDbLine
 10
-1260.0
 20
1093.35655
 30
0.0
 11
-1255.0
 21
1093.35655
 31
0.0
  0
CIRCLE
  5
8C6
100
AcDbEntity
  8
SIZE
  6
CONTINUOUS
 62
    30
100
AcDbCircle
 10
-1265.0
 20
1093.35655
 30
0.0
 40
5.0
  0
LINE
  5
8C7
100
AcDbEntity
  8
SIZE
  6
CONTINUOUS
 62
    30
100
AcDbLine
 10
-565.0
 20
492.5
 30
0.0
 11
-565.0
 21
1123.35655
 31
0.0
  0
LINE
  5
8C8
100
AcDbEntity
  8
SIZE
  6
CONTINUOUS
 62
    30
100
AcDbLine
 10
-625.0
 20
422.5
 30
0.0
 11
-625.0
 21
1007.957407
 31
0.0
  0
LINE
  5
8CA
100
AcDbEntity
  8
SIZE
  6
CONTINUOUS
 62
    30
100
AcDbLine
 10
-524.0
 20
516.5
 30
0.0
 11
-524.0
 21
780.447288
 31
0.0
  0
LINE
  5
8CB
100
AcDbEntity
  8
SIZE
  6
CONTINUOUS
 62
    30
100
AcDbLine
 10
-499.0
 20
526.5
 30
0.0
 11
-499.0
 21
690.974297
 31
0.0
  0
LINE
  5
8CC
100
AcDbEntity
  8
SIZE
  6
CONTINUOUS
 62
    30
100
AcDbLine
 10
-602.0
 20
412.5
 30
0.0
 11
-602.0
 21
899.516696
 31
0.0
  0
LINE
  5
8CD
100
AcDbEntity
  8
SIZE
  6
CONTINUOUS
 62
    30
100
AcDbLine
 10
-625.0
 20
422.5
 30
0.0
 11
-625.0
 21
899.516696
 31
0.0
  0
LINE
  5
8CE
100
AcDbEntity
  8
SIZE
  6
CONTINUOUS
 62
    30
100
AcDbLine
 10
-524.0
 20
516.5
 30
0.0
 11
-524.0
 21
780.447288
 31
0.0
  0
LINE
  5
8CF
100
AcDbEntity
  8
SIZE
  6
CONTINUOUS
 62
    30
100
AcDbLine
 10
-565.0
 20
492.5
 30
0.0
 11
-565.0
 21
780.447288
 31
0.0
  0
LINE
  5
8D0
100
AcDbEntity
  8
SIZE
  6
CONTINUOUS
 62
    30
100
AcDbLine
 10
-499.0
 20
526.5
 30
0.0
 11
-499.0
 21
690.974297
 31
0.0
  0
LINE
  5
8D2
100
AcDbEntity
  8
SIZE
  6
CONTINUOUS
 62
    30
100
AcDbLine
 10
-565.0
 20
492.5
 30
0.0
 11
-565.0
 21
1123.35655
 31
0.0
  0
LINE
  5
8D3
100
AcDbEntity
  8
NOTE
  6
CONTINUOUS
 62
     4
100
AcDbLine
 10
-602.0
 20
372.5
 30
0.0
 11
-820.937733
 21
722.965426
 31
0.0
  0
LINE
  5
8D4
100
AcDbEntity
  8
SIZE
  6
CONTINUOUS
 62
    30
100
AcDbLine
 10
-765.0
 20
537.508227
 30
0.0
 11
-1123.685714
 21
537.508227
 31
0.0
  0
TEXT
  5
8D5
100
AcDbEntity
  8
NOTE
  6
CONTINUOUS
 62
     4
100
AcDbText
 10
-1118.516478
 20
29.038627
 30
0.0
 40
64.0
  1
点検口
 41
0.8
100
AcDbText
  0
TEXT
  5
8D6
100
AcDbEntity
  8
SIZE
  6
CONTINUOUS
 62
    30
100
AcDbText
 10
-1108.685714
 20
552.508227
 30
0.0
 40
55.0
  1
150～200
 41
0.9
 72
     1
 11
-949.342857
 21
552.508227
 31
0.0
100
AcDbText
  0
LINE
  5
8D7
100
AcDbEntity
  8
SIZE
  6
CONTINUOUS
 62
    30
100
AcDbLine
 10
-765.0
 20
192.5
 30
0.0
 11
-765.0
 21
567.508227
 31
0.0
  0
LINE
  5
8D8
100
AcDbEntity
  8
SIZE
  6
CONTINUOUS
 62
    30
100
AcDbLine
 10
-565.0
 20
314.0
 30
0.0
 11
-565.0
 21
187.650702
 31
0.0
  0
LINE
  5
8D9
100
AcDbEntity
  8
SIZE
  6
CONTINUOUS
 62
    30
100
AcDbLine
 10
-635.0
 20
314.0
 30
0.0
 11
-635.0
 21
187.650702
 31
0.0
  0
LINE
  5
8DA
100
AcDbEntity
  8
SIZE
  6
CONTINUOUS
 62
    30
100
AcDbLine
 10
-565.0
 20
217.650702
 30
0.0
 11
-410.409911
 21
217.650702
 31
0.0
  0
TEXT
  5
8DB
100
AcDbEntity
  8
SIZE
  6
CONTINUOUS
 62
    30
100
AcDbText
 10
-678.785823
 20
78.857143
 30
0.0
 40
55.0
  1
383
 50
90.0
 41
0.9
 72
     1
 11
-678.785823
 21
142.5
 31
0.0
100
AcDbText
  0
POINT
  5
8DC
100
AcDbEntity
  8
DEFPOINTS
  6
CONTINUOUS
 62
     7
100
AcDbPoint
 10
-765.0
 20
172.5
 30
0.0
  0
POINT
  5
8DD
100
AcDbEntity
  8
DEFPOINTS
  6
CONTINUOUS
 62
     7
100
AcDbPoint
 10
-565.0
 20
217.650702
 30
0.0
  0
LINE
  5
8DE
100
AcDbEntity
  8
SIZE
  6
CONTINUOUS
 62
    30
100
AcDbLine
 10
-570.0
 20
217.650702
 30
0.0
 11
-575.0
 21
217.650702
 31
0.0
  0
CIRCLE
  5
8DF
100
AcDbEntity
  8
SIZE
  6
CONTINUOUS
 62
    30
100
AcDbCircle
 10
-565.0
 20
217.650702
 30
0.0
 40
5.0
  0
LINE
  5
8E0
100
AcDbEntity
  8
SIZE
  6
CONTINUOUS
 62
    30
100
AcDbLine
 10
-630.0
 20
217.650702
 30
0.0
 11
-625.0
 21
217.650702
 31
0.0
  0
CIRCLE
  5
8E1
100
AcDbEntity
  8
SIZE
  6
CONTINUOUS
 62
    30
100
AcDbCircle
 10
-635.0
 20
217.650702
 30
0.0
 40
5.0
  0
LINE
  5
8E2
100
AcDbEntity
  8
SIZE
  6
CONTINUOUS
 62
    30
100
AcDbLine
 10
-625.0
 20
217.650702
 30
0.0
 11
-575.0
 21
217.650702
 31
0.0
  0
TEXT
  5
8E3
100
AcDbEntity
  8
SIZE
  6
CONTINUOUS
 62
    30
100
AcDbText
 10
-505.552768
 20
232.650702
 30
0.0
 40
55.0
  1
70
 41
0.9
 72
     1
 11
-465.481339
 21
232.650702
 31
0.0
100
AcDbText
  0
CIRCLE
  5
8E4
100
AcDbEntity
  8
SIZE
  6
CONTINUOUS
 62
    30
100
AcDbCircle
 10
-663.785823
 20
334.0
 30
0.0
 40
5.0
  0
LINE
  5
8E5
100
AcDbEntity
  8
SIZE
  6
CONTINUOUS
 62
    30
100
AcDbLine
 10
-655.0
 20
334.0
 30
0.0
 11
-693.785823
 21
334.0
 31
0.0
  0
POINT
  5
8E6
100
AcDbEntity
  8
DEFPOINTS
  6
CONTINUOUS
 62
     7
100
AcDbPoint
 10
-625.0
 20
402.5
 30
0.0
  0
POINT
  5
8E7
100
AcDbEntity
  8
DEFPOINTS
  6
CONTINUOUS
 62
     7
100
AcDbPoint
 10
-602.0
 20
392.5
 30
0.0
  0
POINT
  5
8E8
100
AcDbEntity
  8
DEFPOINTS
  6
CONTINUOUS
 62
     7
100
AcDbPoint
 10
-565.0
 20
374.5
 30
0.0
  0
POINT
  5
8E9
100
AcDbEntity
  8
DEFPOINTS
  6
CONTINUOUS
 62
     7
100
AcDbPoint
 10
-565.0
 20
374.5
 30
0.0
  0
POINT
  5
8EA
100
AcDbEntity
  8
DEFPOINTS
  6
CONTINUOUS
 62
     7
100
AcDbPoint
 10
-602.0
 20
392.5
 30
0.0
  0
POINT
  5
8EB
100
AcDbEntity
  8
DEFPOINTS
  6
CONTINUOUS
 62
     7
100
AcDbPoint
 10
-625.0
 20
402.5
 30
0.0
  0
POINT
  5
8EC
100
AcDbEntity
  8
DEFPOINTS
  6
CONTINUOUS
 62
     7
100
AcDbPoint
 10
-635.0
 20
334.0
 30
0.0
  0
LINE
  5
8ED
100
AcDbEntity
  8
SIZE
  6
CONTINUOUS
 62
    30
100
AcDbLine
 10
-663.785823
 20
329.0
 30
0.0
 11
-663.785823
 21
324.0
 31
0.0
  0
POINT
  5
8EE
100
AcDbEntity
  8
DEFPOINTS
  6
CONTINUOUS
 62
     7
100
AcDbPoint
 10
-565.0
 20
334.0
 30
0.0
  0
POINT
  5
8EF
100
AcDbEntity
  8
DEFPOINTS
  6
CONTINUOUS
 62
     7
100
AcDbPoint
 10
-635.0
 20
334.0
 30
0.0
  0
CIRCLE
  5
8F0
100
AcDbEntity
  8
FIX
  6
CONTINUOUS
 62
    11
100
AcDbCircle
 10
-602.0
 20
372.5
 30
0.0
 40
5.0
  0
LINE
  5
8F1
100
AcDbEntity
  8
NOTE
  6
CONTINUOUS
 62
     4
100
AcDbLine
 10
-622.0
 20
372.5
 30
0.0
 11
-582.0
 21
372.5
 31
0.0
  0
LINE
  5
8F2
100
AcDbEntity
  8
NOTE
  6
CONTINUOUS
 62
     4
100
AcDbLine
 10
-602.0
 20
352.5
 30
0.0
 11
-602.0
 21
392.5
 31
0.0
  0
LINE
  5
8F3
100
AcDbEntity
  8
DETAIL
  6
CONTINUOUS
 62
     5
100
AcDbLine
 10
-625.0
 20
402.5
 30
0.0
 11
-565.0
 21
402.5
 31
0.0
  0
LINE
  5
8F4
100
AcDbEntity
  8
DETAIL
  6
CONTINUOUS
 62
     5
100
AcDbLine
 10
-625.0
 20
342.5
 30
0.0
 11
-625.0
 21
366.5
 31
0.0
  0
ARC
  5
8F5
100
AcDbEntity
  8
DETAIL
  6
CONTINUOUS
 62
     5
100
AcDbCircle
 10
-602.0
 20
364.5
 30
0.0
 40
7.0
100
AcDbArc
 50
180.0
 51
0.0
  0
ARC
  5
8F6
100
AcDbEntity
  8
DETAIL
  6
CONTINUOUS
 62
     5
100
AcDbCircle
 10
-602.0
 20
380.5
 30
0.0
 40
7.0
100
AcDbArc
 50
0.0
 51
180.0
  0
LINE
  5
8F7
100
AcDbEntity
  8
DETAIL
  6
CONTINUOUS
 62
     5
100
AcDbLine
 10
-595.0
 20
364.5
 30
0.0
 11
-595.0
 21
380.5
 31
0.0
  0
LINE
  5
8F8
100
AcDbEntity
  8
DETAIL
  6
CONTINUOUS
 62
     5
100
AcDbLine
 10
-609.0
 20
364.5
 30
0.0
 11
-609.0
 21
366.5
 31
0.0
  0
LINE
  5
8F9
100
AcDbEntity
  8
DETAIL
  6
CONTINUOUS
 62
     5
100
AcDbLine
 10
-609.0
 20
378.5
 30
0.0
 11
-609.0
 21
380.5
 31
0.0
  0
LINE
  5
8FA
100
AcDbEntity
  8
DETAIL
  6
CONTINUOUS
 62
     5
100
AcDbLine
 10
-625.0
 20
342.5
 30
0.0
 11
-565.0
 21
342.5
 31
0.0
  0
LINE
  5
8FB
100
AcDbEntity
  8
DETAIL
  6
CONTINUOUS
 62
     5
100
AcDbLine
 10
-625.0
 20
366.5
 30
0.0
 11
-609.0
 21
366.5
 31
0.0
  0
LINE
  5
8FC
100
AcDbEntity
  8
DETAIL
  6
CONTINUOUS
 62
     5
100
AcDbLine
 10
-625.0
 20
378.5
 30
0.0
 11
-609.0
 21
378.5
 31
0.0
  0
LINE
  5
8FD
100
AcDbEntity
  8
DETAIL
  6
CONTINUOUS
 62
     5
100
AcDbLine
 10
-625.0
 20
378.5
 30
0.0
 11
-625.0
 21
402.5
 31
0.0
  0
LINE
  5
8FE
100
AcDbEntity
  8
DETAIL
  6
CONTINUOUS
 62
     5
100
AcDbLine
 10
-565.0
 20
402.5
 30
0.0
 11
-565.0
 21
342.5
 31
0.0
  0
POLYLINE
  5
8FF
100
AcDbEntity
  8
NOTE
  6
CONTINUOUS
 62
     4
100
AcDb2dPolyline
 66
     1
 10
0.0
 20
0.0
 30
0.0
  0
VERTEX
  5
900
100
AcDbEntity
  8
NOTE
  6
CONTINUOUS
 62
     4
100
AcDbVertex
100
AcDb2dVertex
 10
-630.871191
 20
400.184911
 30
0.0
  0
VERTEX
  5
901
100
AcDbEntity
  8
NOTE
  6
CONTINUOUS
 62
     4
100
AcDbVertex
100
AcDb2dVertex
 10
-602.0
 20
372.5
 30
0.0
  0
VERTEX
  5
902
100
AcDbEntity
  8
NOTE
  6
CONTINUOUS
 62
     4
100
AcDbVertex
100
AcDb2dVertex
 10
-613.16073
 20
410.911431
 30
0.0
  0
SEQEND
  5
903
100
AcDbEntity
  8
NOTE
  6
CONTINUOUS
 62
     4
  0
LINE
  5
904
100
AcDbEntity
  8
DETAIL
  6
CONTINUOUS
 62
     5
100
AcDbLine
 10
-635.0
 20
334.0
 30
0.0
 11
-565.0
 21
334.0
 31
0.0
  0
LINE
  5
905
100
AcDbEntity
  8
SIZE
  6
CONTINUOUS
 62
    30
100
AcDbLine
 10
-575.0
 20
537.508227
 30
0.0
 11
-755.0
 21
537.508227
 31
0.0
  0
POINT
  5
906
100
AcDbEntity
  8
DEFPOINTS
  6
CONTINUOUS
 62
     7
100
AcDbPoint
 10
-765.0
 20
537.508227
 30
0.0
  0
LINE
  5
907
100
AcDbEntity
  8
SIZE
  6
CONTINUOUS
 62
    30
100
AcDbLine
 10
-760.0
 20
537.508227
 30
0.0
 11
-755.0
 21
537.508227
 31
0.0
  0
CIRCLE
  5
908
100
AcDbEntity
  8
SIZE
  6
CONTINUOUS
 62
    30
100
AcDbCircle
 10
-765.0
 20
537.508227
 30
0.0
 40
5.0
  0
POINT
  5
909
100
AcDbEntity
  8
DEFPOINTS
  6
CONTINUOUS
 62
     7
100
AcDbPoint
 10
-565.0
 20
472.5
 30
0.0
  0
POINT
  5
90A
100
AcDbEntity
  8
DEFPOINTS
  6
CONTINUOUS
 62
     7
100
AcDbPoint
 10
-565.0
 20
472.5
 30
0.0
  0
POINT
  5
90B
100
AcDbEntity
  8
DEFPOINTS
  6
CONTINUOUS
 62
     7
100
AcDbPoint
 10
-565.0
 20
472.5
 30
0.0
  0
POINT
  5
90C
100
AcDbEntity
  8
DEFPOINTS
  6
CONTINUOUS
 62
     7
100
AcDbPoint
 10
-565.0
 20
472.5
 30
0.0
  0
POINT
  5
90D
100
AcDbEntity
  8
DEFPOINTS
  6
CONTINUOUS
 62
     7
100
AcDbPoint
 10
-565.0
 20
472.5
 30
0.0
  0
POINT
  5
90E
100
AcDbEntity
  8
DEFPOINTS
  6
CONTINUOUS
 62
     7
100
AcDbPoint
 10
-565.0
 20
472.5
 30
0.0
  0
LINE
  5
90F
100
AcDbEntity
  8
SIZE
  6
CONTINUOUS
 62
    30
100
AcDbLine
 10
-570.0
 20
537.508227
 30
0.0
 11
-575.0
 21
537.508227
 31
0.0
  0
CIRCLE
  5
910
100
AcDbEntity
  8
SIZE
  6
CONTINUOUS
 62
    30
100
AcDbCircle
 10
-565.0
 20
537.508227
 30
0.0
 40
5.0
  0
LINE
  5
911
100
AcDbEntity
  8
SIZE
  6
CONTINUOUS
 62
    30
100
AcDbLine
 10
-565.0
 20
492.5
 30
0.0
 11
-565.0
 21
567.508227
 31
0.0
  0
LINE
  5
912
100
AcDbEntity
  8
NOTE
  6
CONTINUOUS
 62
     4
100
AcDbLine
 10
-469.0
 20
486.5
 30
0.0
 11
-429.0
 21
486.5
 31
0.0
  0
POINT
  5
913
100
AcDbEntity
  8
DEFPOINTS
  6
CONTINUOUS
 62
     7
100
AcDbPoint
 10
-524.0
 20
496.5
 30
0.0
  0
POINT
  5
914
100
AcDbEntity
  8
DEFPOINTS
  6
CONTINUOUS
 62
     7
100
AcDbPoint
 10
-499.0
 20
506.5
 30
0.0
  0
POINT
  5
915
100
AcDbEntity
  8
DEFPOINTS
  6
CONTINUOUS
 62
     7
100
AcDbPoint
 10
-524.0
 20
496.5
 30
0.0
  0
POINT
  5
916
100
AcDbEntity
  8
DEFPOINTS
  6
CONTINUOUS
 62
     7
100
AcDbPoint
 10
-524.0
 20
496.5
 30
0.0
  0
POINT
  5
917
100
AcDbEntity
  8
DEFPOINTS
  6
CONTINUOUS
 62
     7
100
AcDbPoint
 10
-499.0
 20
506.5
 30
0.0
  0
POINT
  5
918
100
AcDbEntity
  8
DEFPOINTS
  6
CONTINUOUS
 62
     7
100
AcDbPoint
 10
-524.0
 20
496.5
 30
0.0
  0
CIRCLE
  5
919
100
AcDbEntity
  8
DETAIL
  6
CONTINUOUS
 62
     5
100
AcDbCircle
 10
-499.0
 20
486.5
 30
0.0
 40
1.5
  0
LINE
  5
91A
100
AcDbEntity
  8
NOTE
  6
CONTINUOUS
 62
     4
100
AcDbLine
 10
-449.0
 20
466.5
 30
0.0
 11
-449.0
 21
506.5
 31
0.0
  0
LINE
  5
91B
100
AcDbEntity
  8
NOTE
  6
CONTINUOUS
 62
     4
100
AcDbLine
 10
-499.0
 20
466.5
 30
0.0
 11
-499.0
 21
506.5
 31
0.0
  0
LINE
  5
91C
100
AcDbEntity
  8
DETAIL
  6
CONTINUOUS
 62
     5
100
AcDbLine
 10
-524.0
 20
472.5
 30
0.0
 11
-524.0
 21
496.5
 31
0.0
  0
LINE
  5
91D
100
AcDbEntity
  8
NOTE
  6
CONTINUOUS
 62
     4
100
AcDbLine
 10
-519.0
 20
486.5
 30
0.0
 11
-479.0
 21
486.5
 31
0.0
  0
CIRCLE
  5
91E
100
AcDbEntity
  8
DETAIL
  6
CONTINUOUS
 62
     5
100
AcDbCircle
 10
-449.0
 20
486.5
 30
0.0
 40
1.5
  0
CIRCLE
  5
91F
100
AcDbEntity
  8
DETAIL
  6
CONTINUOUS
 62
     5
100
AcDbCircle
 10
-349.0
 20
486.5
 30
0.0
 40
1.5
  0
LINE
  5
920
100
AcDbEntity
  8
NOTE
  6
CONTINUOUS
 62
     4
100
AcDbLine
 10
-349.0
 20
466.5
 30
0.0
 11
-349.0
 21
506.5
 31
0.0
  0
CIRCLE
  5
921
100
AcDbEntity
  8
DETAIL
  6
CONTINUOUS
 62
     5
100
AcDbCircle
 10
-399.0
 20
486.5
 30
0.0
 40
1.5
  0
LINE
  5
922
100
AcDbEntity
  8
NOTE
  6
CONTINUOUS
 62
     4
100
AcDbLine
 10
-399.0
 20
466.5
 30
0.0
 11
-399.0
 21
506.5
 31
0.0
  0
LINE
  5
923
100
AcDbEntity
  8
NOTE
  6
CONTINUOUS
 62
     4
100
AcDbLine
 10
-419.0
 20
486.5
 30
0.0
 11
-379.0
 21
486.5
 31
0.0
  0
LINE
  5
924
100
AcDbEntity
  8
NOTE
  6
CONTINUOUS
 62
     4
100
AcDbLine
 10
-369.0
 20
486.5
 30
0.0
 11
-329.0
 21
486.5
 31
0.0
  0
TEXT
  5
925
100
AcDbEntity
  8
SIZE
  6
CONTINUOUS
 62
    30
100
AcDbText
 10
-978.642857
 20
1108.35655
 30
0.0
 40
55.0
  1
700
 41
0.9
 72
     1
 11
-915.0
 21
1108.35655
 31
0.0
100
AcDbText
  0
TEXT
  5
926
100
AcDbEntity
  8
SIZE
  6
CONTINUOUS
 62
    30
100
AcDbText
 10
-740.142858
 20
884.516696
 30
0.0
 40
55.0
  1
23
 41
0.9
 72
     1
 11
-700.071429
 21
884.516696
 31
0.0
100
AcDbText
  0
LINE
  5
927
100
AcDbEntity
  8
SIZE
  6
CONTINUOUS
 62
    30
100
AcDbLine
 10
-524.0
 20
750.447288
 30
0.0
 11
-565.0
 21
750.447288
 31
0.0
  0
LINE
  5
928
100
AcDbEntity
  8
SIZE
  6
CONTINUOUS
 62
    30
100
AcDbLine
 10
-534.0
 20
660.974297
 30
0.0
 11
-734.343555
 21
660.974297
 31
0.0
  0
LINE
  5
929
100
AcDbEntity
  8
SIZE
  6
CONTINUOUS
 62
    30
100
AcDbLine
 10
-575.0
 20
750.447288
 30
0.0
 11
-741.289727
 21
750.447288
 31
0.0
  0
TEXT
  5
92A
100
AcDbEntity
  8
SIZE
  6
CONTINUOUS
 62
    30
100
AcDbText
 10
-719.343555
 20
675.974297
 30
0.0
 40
55.0
  1
25
 41
0.9
 72
     1
 11
-679.272126
 21
675.974297
 31
0.0
100
AcDbText
  0
LINE
  5
92B
100
AcDbEntity
  8
SIZE
  6
CONTINUOUS
 62
    30
100
AcDbLine
 10
-570.0
 20
750.447288
 30
0.0
 11
-575.0
 21
750.447288
 31
0.0
  0
CIRCLE
  5
92C
100
AcDbEntity
  8
SIZE
  6
CONTINUOUS
 62
    30
100
AcDbCircle
 10
-565.0
 20
750.447288
 30
0.0
 40
5.0
  0
LINE
  5
92D
100
AcDbEntity
  8
SIZE
  6
CONTINUOUS
 62
    30
100
AcDbLine
 10
-635.0
 20
869.516696
 30
0.0
 11
-755.142857
 21
869.516696
 31
0.0
  0
TEXT
  5
92E
100
AcDbEntity
  8
SIZE
  6
CONTINUOUS
 62
    30
100
AcDbText
 10
-726.289727
 20
765.447288
 30
0.0
 40
55.0
  1
41
 41
0.9
 72
     1
 11
-696.825441
 21
765.447288
 31
0.0
100
AcDbText
  0
LINE
  5
92F
100
AcDbEntity
  8
SIZE
  6
CONTINUOUS
 62
    30
100
AcDbLine
 10
-597.0
 20
869.516696
 30
0.0
 11
-592.0
 21
869.516696
 31
0.0
  0
CIRCLE
  5
930
100
AcDbEntity
  8
SIZE
  6
CONTINUOUS
 62
    30
100
AcDbCircle
 10
-602.0
 20
869.516696
 30
0.0
 40
5.0
  0
POINT
  5
931
100
AcDbEntity
  8
DEFPOINTS
  6
CONTINUOUS
 62
     7
100
AcDbPoint
 10
-602.0
 20
869.516696
 30
0.0
  0
LINE
  5
932
100
AcDbEntity
  8
SIZE
  6
CONTINUOUS
 62
    30
100
AcDbLine
 10
-630.0
 20
869.516696
 30
0.0
 11
-635.0
 21
869.516696
 31
0.0
  0
CIRCLE
  5
933
100
AcDbEntity
  8
SIZE
  6
CONTINUOUS
 62
    30
100
AcDbCircle
 10
-625.0
 20
869.516696
 30
0.0
 40
5.0
  0
LINE
  5
934
100
AcDbEntity
  8
SIZE
  6
CONTINUOUS
 62
    30
100
AcDbLine
 10
-597.0
 20
869.516696
 30
0.0
 11
-592.0
 21
869.516696
 31
0.0
  0
CIRCLE
  5
935
100
AcDbEntity
  8
SIZE
  6
CONTINUOUS
 62
    30
100
AcDbCircle
 10
-602.0
 20
869.516696
 30
0.0
 40
5.0
  0
LINE
  5
936
100
AcDbEntity
  8
SIZE
  6
CONTINUOUS
 62
    30
100
AcDbLine
 10
-602.0
 20
869.516696
 30
0.0
 11
-625.0
 21
869.516696
 31
0.0
  0
LINE
  5
937
100
AcDbEntity
  8
SIZE
  6
CONTINUOUS
 62
    30
100
AcDbLine
 10
-592.0
 20
869.516696
 30
0.0
 11
-582.0
 21
869.516696
 31
0.0
  0
LINE
  5
938
100
AcDbEntity
  8
SIZE
  6
CONTINUOUS
 62
    30
100
AcDbLine
 10
-519.0
 20
750.447288
 30
0.0
 11
-514.0
 21
750.447288
 31
0.0
  0
CIRCLE
  5
939
100
AcDbEntity
  8
SIZE
  6
CONTINUOUS
 62
    30
100
AcDbCircle
 10
-524.0
 20
750.447288
 30
0.0
 40
5.0
  0
LINE
  5
93A
100
AcDbEntity
  8
SIZE
  6
CONTINUOUS
 62
    30
100
AcDbLine
 10
-494.0
 20
660.974297
 30
0.0
 11
-489.0
 21
660.974297
 31
0.0
  0
CIRCLE
  5
93B
100
AcDbEntity
  8
SIZE
  6
CONTINUOUS
 62
    30
100
AcDbCircle
 10
-499.0
 20
660.974297
 30
0.0
 40
5.0
  0
POINT
  5
93C
100
AcDbEntity
  8
DEFPOINTS
  6
CONTINUOUS
 62
     7
100
AcDbPoint
 10
-524.0
 20
750.447288
 30
0.0
  0
LINE
  5
93D
100
AcDbEntity
  8
SIZE
  6
CONTINUOUS
 62
    30
100
AcDbLine
 10
-519.0
 20
750.447288
 30
0.0
 11
-514.0
 21
750.447288
 31
0.0
  0
CIRCLE
  5
93E
100
AcDbEntity
  8
SIZE
  6
CONTINUOUS
 62
    30
100
AcDbCircle
 10
-524.0
 20
750.447288
 30
0.0
 40
5.0
  0
LINE
  5
93F
100
AcDbEntity
  8
SIZE
  6
CONTINUOUS
 62
    30
100
AcDbLine
 10
-514.0
 20
750.447288
 30
0.0
 11
-504.0
 21
750.447288
 31
0.0
  0
POINT
  5
940
100
AcDbEntity
  8
DEFPOINTS
  6
CONTINUOUS
 62
     7
100
AcDbPoint
 10
-499.0
 20
660.974297
 30
0.0
  0
LINE
  5
941
100
AcDbEntity
  8
SIZE
  6
CONTINUOUS
 62
    30
100
AcDbLine
 10
-529.0
 20
660.974297
 30
0.0
 11
-534.0
 21
660.974297
 31
0.0
  0
CIRCLE
  5
942
100
AcDbEntity
  8
SIZE
  6
CONTINUOUS
 62
    30
100
AcDbCircle
 10
-524.0
 20
660.974297
 30
0.0
 40
5.0
  0
LINE
  5
943
100
AcDbEntity
  8
SIZE
  6
CONTINUOUS
 62
    30
100
AcDbLine
 10
-494.0
 20
660.974297
 30
0.0
 11
-489.0
 21
660.974297
 31
0.0
  0
CIRCLE
  5
944
100
AcDbEntity
  8
SIZE
  6
CONTINUOUS
 62
    30
100
AcDbCircle
 10
-499.0
 20
660.974297
 30
0.0
 40
5.0
  0
LINE
  5
945
100
AcDbEntity
  8
SIZE
  6
CONTINUOUS
 62
    30
100
AcDbLine
 10
-499.0
 20
660.974297
 30
0.0
 11
-524.0
 21
660.974297
 31
0.0
  0
LINE
  5
946
100
AcDbEntity
  8
SIZE
  6
CONTINUOUS
 62
    30
100
AcDbLine
 10
-489.0
 20
660.974297
 30
0.0
 11
-479.0
 21
660.974297
 31
0.0
  0
LINE
  5
947
100
AcDbEntity
  8
SIZE
  6
CONTINUOUS
 62
    30
100
AcDbLine
 10
-620.0
 20
977.957407
 30
0.0
 11
-615.0
 21
977.957407
 31
0.0
  0
CIRCLE
  5
948
100
AcDbEntity
  8
SIZE
  6
CONTINUOUS
 62
    30
100
AcDbCircle
 10
-625.0
 20
977.957407
 30
0.0
 40
5.0
  0
LINE
  5
949
100
AcDbEntity
  8
SIZE
  6
CONTINUOUS
 62
    30
100
AcDbLine
 10
-560.0
 20
1093.35655
 30
0.0
 11
-555.0
 21
1093.35655
 31
0.0
  0
CIRCLE
  5
94A
100
AcDbEntity
  8
SIZE
  6
CONTINUOUS
 62
    30
100
AcDbCircle
 10
-565.0
 20
1093.35655
 30
0.0
 40
5.0
  0
POINT
  5
94B
100
AcDbEntity
  8
DEFPOINTS
  6
CONTINUOUS
 62
     7
100
AcDbPoint
 10
-565.0
 20
1093.35655
 30
0.0
  0
LINE
  5
94C
100
AcDbEntity
  8
SIZE
  6
CONTINUOUS
 62
    30
100
AcDbLine
 10
-570.0
 20
1093.35655
 30
0.0
 11
-575.0
 21
1093.35655
 31
0.0
  0
CIRCLE
  5
94D
100
AcDbEntity
  8
SIZE
  6
CONTINUOUS
 62
    30
100
AcDbCircle
 10
-565.0
 20
1093.35655
 30
0.0
 40
5.0
  0
POINT
  5
94E
100
AcDbEntity
  8
ARRANGE
  6
CONTINUOUS
 62
     1
100
AcDbPoint
 10
0.0
 20
0.0
 30
0.0
  0
CIRCLE
  5
94F
100
AcDbEntity
  8
ARRANGE
  6
CONTINUOUS
 62
     1
100
AcDbCircle
 10
0.0
 20
0.0
 30
0.0
 40
40.0
  0
TEXT
  5
950
100
AcDbEntity
  8
SIZE
  6
CONTINUOUS
 62
    30
100
AcDbText
 10
1064.42125
 20
-369.288773
 30
0.0
 40
55.0
  1
814(吊りボルトピッチ)
 50
90.0
 41
0.9
 72
     1
 11
1064.42125
 21
-40.938773
 31
0.0
100
AcDbText
  0
LINE
  5
951
100
AcDbEntity
  8
SIZE
  6
CONTINUOUS
 62
    30
100
AcDbLine
 10
1078.048712
 20
-431.5
 30
0.0
 11
1078.048712
 21
362.5
 31
0.0
  0
TEXT
  5
952
100
AcDbEntity
  8
SIZE
  6
CONTINUOUS
 62
    30
100
AcDbText
 10
1204.551669
 20
-96.350202
 30
0.0
 40
55.0
  1
998
 50
90.0
 41
0.9
 72
     1
 11
1204.551669
 21
-32.707345
 31
0.0
100
AcDbText
  0
LINE
  5
953
100
AcDbEntity
  8
SIZE
  6
CONTINUOUS
 62
    30
100
AcDbLine
 10
1219.551669
 20
486.5
 30
0.0
 11
1219.551669
 21
-491.5
 31
0.0
  0
LINE
  5
954
100
AcDbEntity
  8
SIZE
  6
CONTINUOUS
 62
    30
100
AcDbLine
 10
943.400117
 20
92.5
 30
0.0
 11
943.400117
 21
-512.5
 31
0.0
  0
LINE
  5
955
100
AcDbEntity
  8
SERVICESPACE
  6
DASHDOT
 62
     2
100
AcDbLine
 10
615.0
 20
472.5
 30
0.0
 11
615.0
 21
-522.5
 31
0.0
  0
LINE
  5
956
100
AcDbEntity
  8
DETAIL
  6
CONTINUOUS
 62
     5
100
AcDbLine
 10
565.0
 20
-472.5
 30
0.0
 11
565.0
 21
472.5
 31
0.0
  0
LINE
  5
957
100
AcDbEntity
  8
OUTLINE
  6
CONTINUOUS
 62
     3
100
AcDbLine
 10
565.0
 20
-471.5
 30
0.0
 11
565.0
 21
472.5
 31
0.0
  0
LINE
  5
958
100
AcDbEntity
  8
BASIS
  6
DASHDOT
 62
     6
100
AcDbLine
 10
0.0
 20
-569.000647
 30
0.0
 11
0.0
 21
526.913587
 31
0.0
  0
LINE
  5
959
100
AcDbEntity
  8
SIZE
  6
CONTINUOUS
 62
    30
100
AcDbLine
 10
535.0
 20
-501.5
 30
0.0
 11
1108.048712
 21
-501.5
 31
0.0
  0
LINE
  5
95A
100
AcDbEntity
  8
SIZE
  6
CONTINUOUS
 62
    30
100
AcDbLine
 10
535.0
 20
-501.5
 30
0.0
 11
1249.551669
 21
-501.5
 31
0.0
  0
LINE
  5
95B
100
AcDbEntity
  8
SIZE
  6
CONTINUOUS
 62
    30
100
AcDbLine
 10
535.0
 20
-501.5
 30
0.0
 11
795.148775
 21
-501.5
 31
0.0
  0
LINE
  5
95C
100
AcDbEntity
  8
SIZE
  6
CONTINUOUS
 62
    30
100
AcDbLine
 10
505.0
 20
-486.5
 30
0.0
 11
795.148775
 21
-486.5
 31
0.0
  0
LINE
  5
95D
100
AcDbEntity
  8
DETAIL
  6
CONTINUOUS
 62
     5
100
AcDbLine
 10
625.0
 20
-411.5
 30
0.0
 11
565.0
 21
-411.5
 31
0.0
  0
LINE
  5
95E
100
AcDbEntity
  8
DETAIL
  6
CONTINUOUS
 62
     5
100
AcDbLine
 10
625.0
 20
-471.5
 30
0.0
 11
565.0
 21
-471.5
 31
0.0
  0
LINE
  5
95F
100
AcDbEntity
  8
NOTE
  6
CONTINUOUS
 62
     4
100
AcDbLine
 10
465.0
 20
-486.5
 30
0.0
 11
705.97783
 21
-932.742046
 31
0.0
  0
LINE
  5
960
100
AcDbEntity
  8
SIZE
  6
CONTINUOUS
 62
    30
100
AcDbLine
 10
515.0
 20
-521.5
 30
0.0
 11
515.0
 21
-1032.459665
 31
0.0
  0
LINE
  5
961
100
AcDbEntity
  8
SIZE
  6
CONTINUOUS
 62
    30
100
AcDbLine
 10
465.0
 20
-526.5
 30
0.0
 11
465.0
 21
-920.267049
 31
0.0
  0
TEXT
  5
962
100
AcDbEntity
  8
SIZE
  6
CONTINUOUS
 62
    30
100
AcDbText
 10
-197.614286
 20
-875.267049
 30
0.0
 40
55.0
  1
50×18＝900
 41
0.9
 72
     1
 11
15.0
 21
-875.267049
 31
0.0
100
AcDbText
  0
TEXT
  5
963
100
AcDbEntity
  8
SIZE
  6
CONTINUOUS
 62
    30
100
AcDbText
 10
-82.5
 20
-1106.701199
 30
0.0
 40
55.0
  1
1230
 41
0.9
 72
     1
 11
0.0
 21
-1106.701199
 31
0.0
100
AcDbText
  0
TEXT
  5
964
100
AcDbEntity
  8
SIZE
  6
CONTINUOUS
 62
    30
100
AcDbText
 10
-67.5
 20
-987.459665
 30
0.0
 40
55.0
  1
1000
 41
0.9
 72
     1
 11
15.0
 21
-987.459665
 31
0.0
100
AcDbText
  0
POINT
  5
965
100
AcDbEntity
  8
DEFPOINTS
  6
CONTINUOUS
 62
     7
100
AcDbPoint
 10
515.0
 20
-1002.459665
 30
0.0
  0
LINE
  5
966
100
AcDbEntity
  8
SIZE
  6
CONTINUOUS
 62
    30
100
AcDbLine
 10
510.0
 20
-1002.459665
 30
0.0
 11
505.0
 21
-1002.459665
 31
0.0
  0
CIRCLE
  5
967
100
AcDbEntity
  8
SIZE
  6
CONTINUOUS
 62
    30
100
AcDbCircle
 10
515.0
 20
-1002.459665
 30
0.0
 40
5.0
  0
POINT
  5
968
100
AcDbEntity
  8
DEFPOINTS
  6
CONTINUOUS
 62
     7
100
AcDbPoint
 10
465.0
 20
-890.267049
 30
0.0
  0
LINE
  5
969
100
AcDbEntity
  8
SIZE
  6
CONTINUOUS
 62
    30
100
AcDbLine
 10
460.0
 20
-890.267049
 30
0.0
 11
455.0
 21
-890.267049
 31
0.0
  0
CIRCLE
  5
96A
100
AcDbEntity
  8
SIZE
  6
CONTINUOUS
 62
    30
100
AcDbCircle
 10
465.0
 20
-890.267049
 30
0.0
 40
5.0
  0
LINE
  5
96B
100
AcDbEntity
  8
NOTE
  6
CONTINUOUS
 62
     4
100
AcDbLine
 10
95.0
 20
-486.5
 30
0.0
 11
135.0
 21
-486.5
 31
0.0
  0
LINE
  5
96C
100
AcDbEntity
  8
DETAIL
  6
CONTINUOUS
 62
     5
100
AcDbLine
 10
-285.0
 20
-501.5
 30
0.0
 11
515.0
 21
-501.5
 31
0.0
  0
LINE
  5
96D
100
AcDbEntity
  8
NOTE
  6
CONTINUOUS
 62
     4
100
AcDbLine
 10
-105.0
 20
-486.5
 30
0.0
 11
-65.0
 21
-486.5
 31
0.0
  0
LINE
  5
96E
100
AcDbEntity
  8
NOTE
  6
CONTINUOUS
 62
     4
100
AcDbLine
 10
-255.0
 20
-486.5
 30
0.0
 11
-215.0
 21
-486.5
 31
0.0
  0
CIRCLE
  5
96F
100
AcDbEntity
  8
DETAIL
  6
CONTINUOUS
 62
     5
100
AcDbCircle
 10
-235.0
 20
-486.5
 30
0.0
 40
1.5
  0
LINE
  5
970
100
AcDbEntity
  8
NOTE
  6
CONTINUOUS
 62
     4
100
AcDbLine
 10
-235.0
 20
-506.5
 30
0.0
 11
-235.0
 21
-466.5
 31
0.0
  0
CIRCLE
  5
971
100
AcDbEntity
  8
DETAIL
  6
CONTINUOUS
 62
     5
100
AcDbCircle
 10
-285.0
 20
-486.5
 30
0.0
 40
1.5
  0
LINE
  5
972
100
AcDbEntity
  8
NOTE
  6
CONTINUOUS
 62
     4
100
AcDbLine
 10
-285.0
 20
-506.5
 30
0.0
 11
-285.0
 21
-466.5
 31
0.0
  0
LINE
  5
973
100
AcDbEntity
  8
NOTE
  6
CONTINUOUS
 62
     4
100
AcDbLine
 10
-305.0
 20
-486.5
 30
0.0
 11
-265.0
 21
-486.5
 31
0.0
  0
CIRCLE
  5
974
100
AcDbEntity
  8
DETAIL
  6
CONTINUOUS
 62
     5
100
AcDbCircle
 10
-135.0
 20
-486.5
 30
0.0
 40
1.5
  0
LINE
  5
975
100
AcDbEntity
  8
NOTE
  6
CONTINUOUS
 62
     4
100
AcDbLine
 10
-135.0
 20
-506.5
 30
0.0
 11
-135.0
 21
-466.5
 31
0.0
  0
LINE
  5
976
100
AcDbEntity
  8
NOTE
  6
CONTINUOUS
 62
     4
100
AcDbLine
 10
-155.0
 20
-486.5
 30
0.0
 11
-115.0
 21
-486.5
 31
0.0
  0
CIRCLE
  5
977
100
AcDbEntity
  8
DETAIL
  6
CONTINUOUS
 62
     5
100
AcDbCircle
 10
-185.0
 20
-486.5
 30
0.0
 40
1.5
  0
LINE
  5
978
100
AcDbEntity
  8
NOTE
  6
CONTINUOUS
 62
     4
100
AcDbLine
 10
-185.0
 20
-506.5
 30
0.0
 11
-185.0
 21
-466.5
 31
0.0
  0
LINE
  5
979
100
AcDbEntity
  8
NOTE
  6
CONTINUOUS
 62
     4
100
AcDbLine
 10
-205.0
 20
-486.5
 30
0.0
 11
-165.0
 21
-486.5
 31
0.0
  0
LINE
  5
97A
100
AcDbEntity
  8
NOTE
  6
CONTINUOUS
 62
     4
100
AcDbLine
 10
-5.0
 20
-486.5
 30
0.0
 11
35.0
 21
-486.5
 31
0.0
  0
CIRCLE
  5
97B
100
AcDbEntity
  8
DETAIL
  6
CONTINUOUS
 62
     5
100
AcDbCircle
 10
-35.0
 20
-486.5
 30
0.0
 40
1.5
  0
LINE
  5
97C
100
AcDbEntity
  8
NOTE
  6
CONTINUOUS
 62
     4
100
AcDbLine
 10
-35.0
 20
-506.5
 30
0.0
 11
-35.0
 21
-466.5
 31
0.0
  0
CIRCLE
  5
97D
100
AcDbEntity
  8
DETAIL
  6
CONTINUOUS
 62
     5
100
AcDbCircle
 10
-85.0
 20
-486.5
 30
0.0
 40
1.5
  0
LINE
  5
97E
100
AcDbEntity
  8
NOTE
  6
CONTINUOUS
 62
     4
100
AcDbLine
 10
-85.0
 20
-506.5
 30
0.0
 11
-85.0
 21
-466.5
 31
0.0
  0
LINE
  5
97F
100
AcDbEntity
  8
NOTE
  6
CONTINUOUS
 62
     4
100
AcDbLine
 10
-55.0
 20
-486.5
 30
0.0
 11
-15.0
 21
-486.5
 31
0.0
  0
CIRCLE
  5
980
100
AcDbEntity
  8
DETAIL
  6
CONTINUOUS
 62
     5
100
AcDbCircle
 10
115.0
 20
-486.5
 30
0.0
 40
1.5
  0
LINE
  5
981
100
AcDbEntity
  8
NOTE
  6
CONTINUOUS
 62
     4
100
AcDbLine
 10
115.0
 20
-506.5
 30
0.0
 11
115.0
 21
-466.5
 31
0.0
  0
CIRCLE
  5
982
100
AcDbEntity
  8
DETAIL
  6
CONTINUOUS
 62
     5
100
AcDbCircle
 10
65.0
 20
-486.5
 30
0.0
 40
1.5
  0
LINE
  5
983
100
AcDbEntity
  8
NOTE
  6
CONTINUOUS
 62
     4
100
AcDbLine
 10
65.0
 20
-506.5
 30
0.0
 11
65.0
 21
-466.5
 31
0.0
  0
LINE
  5
984
100
AcDbEntity
  8
NOTE
  6
CONTINUOUS
 62
     4
100
AcDbLine
 10
45.0
 20
-486.5
 30
0.0
 11
85.0
 21
-486.5
 31
0.0
  0
LINE
  5
985
100
AcDbEntity
  8
NOTE
  6
CONTINUOUS
 62
     4
100
AcDbLine
 10
15.0
 20
-506.5
 30
0.0
 11
15.0
 21
-466.5
 31
0.0
  0
CIRCLE
  5
986
100
AcDbEntity
  8
DETAIL
  6
CONTINUOUS
 62
     5
100
AcDbCircle
 10
15.0
 20
-486.5
 30
0.0
 40
1.5
  0
LINE
  5
987
100
AcDbEntity
  8
NOTE
  6
CONTINUOUS
 62
     4
100
AcDbLine
 10
195.0
 20
-486.5
 30
0.0
 11
235.0
 21
-486.5
 31
0.0
  0
CIRCLE
  5
988
100
AcDbEntity
  8
DETAIL
  6
CONTINUOUS
 62
     5
100
AcDbCircle
 10
215.0
 20
-486.5
 30
0.0
 40
1.5
  0
LINE
  5
989
100
AcDbEntity
  8
NOTE
  6
CONTINUOUS
 62
     4
100
AcDbLine
 10
215.0
 20
-506.5
 30
0.0
 11
215.0
 21
-466.5
 31
0.0
  0
CIRCLE
  5
98A
100
AcDbEntity
  8
DETAIL
  6
CONTINUOUS
 62
     5
100
AcDbCircle
 10
165.0
 20
-486.5
 30
0.0
 40
1.5
  0
LINE
  5
98B
100
AcDbEntity
  8
NOTE
  6
CONTINUOUS
 62
     4
100
AcDbLine
 10
165.0
 20
-506.5
 30
0.0
 11
165.0
 21
-466.5
 31
0.0
  0
LINE
  5
98C
100
AcDbEntity
  8
NOTE
  6
CONTINUOUS
 62
     4
100
AcDbLine
 10
145.0
 20
-486.5
 30
0.0
 11
185.0
 21
-486.5
 31
0.0
  0
CIRCLE
  5
98D
100
AcDbEntity
  8
DETAIL
  6
CONTINUOUS
 62
     5
100
AcDbCircle
 10
315.0
 20
-486.5
 30
0.0
 40
1.5
  0
LINE
  5
98E
100
AcDbEntity
  8
NOTE
  6
CONTINUOUS
 62
     4
100
AcDbLine
 10
315.0
 20
-506.5
 30
0.0
 11
315.0
 21
-466.5
 31
0.0
  0
LINE
  5
98F
100
AcDbEntity
  8
NOTE
  6
CONTINUOUS
 62
     4
100
AcDbLine
 10
295.0
 20
-486.5
 30
0.0
 11
335.0
 21
-486.5
 31
0.0
  0
CIRCLE
  5
990
100
AcDbEntity
  8
DETAIL
  6
CONTINUOUS
 62
     5
100
AcDbCircle
 10
265.0
 20
-486.5
 30
0.0
 40
1.5
  0
LINE
  5
991
100
AcDbEntity
  8
NOTE
  6
CONTINUOUS
 62
     4
100
AcDbLine
 10
265.0
 20
-506.5
 30
0.0
 11
265.0
 21
-466.5
 31
0.0
  0
LINE
  5
992
100
AcDbEntity
  8
NOTE
  6
CONTINUOUS
 62
     4
100
AcDbLine
 10
245.0
 20
-486.5
 30
0.0
 11
285.0
 21
-486.5
 31
0.0
  0
LINE
  5
993
100
AcDbEntity
  8
DETAIL
  6
CONTINUOUS
 62
     5
100
AcDbLine
 10
565.0
 20
-411.5
 30
0.0
 11
565.0
 21
-471.5
 31
0.0
  0
LINE
  5
994
100
AcDbEntity
  8
NOTE
  6
CONTINUOUS
 62
     4
100
AcDbLine
 10
445.0
 20
-486.5
 30
0.0
 11
485.0
 21
-486.5
 31
0.0
  0
CIRCLE
  5
995
100
AcDbEntity
  8
DETAIL
  6
CONTINUOUS
 62
     5
100
AcDbCircle
 10
415.0
 20
-486.5
 30
0.0
 40
1.5
  0
LINE
  5
996
100
AcDbEntity
  8
NOTE
  6
CONTINUOUS
 62
     4
100
AcDbLine
 10
415.0
 20
-506.5
 30
0.0
 11
415.0
 21
-466.5
 31
0.0
  0
LINE
  5
997
100
AcDbEntity
  8
NOTE
  6
CONTINUOUS
 62
     4
100
AcDbLine
 10
395.0
 20
-486.5
 30
0.0
 11
435.0
 21
-486.5
 31
0.0
  0
CIRCLE
  5
998
100
AcDbEntity
  8
DETAIL
  6
CONTINUOUS
 62
     5
100
AcDbCircle
 10
365.0
 20
-486.5
 30
0.0
 40
1.5
  0
LINE
  5
999
100
AcDbEntity
  8
NOTE
  6
CONTINUOUS
 62
     4
100
AcDbLine
 10
365.0
 20
-506.5
 30
0.0
 11
365.0
 21
-466.5
 31
0.0
  0
LINE
  5
99A
100
AcDbEntity
  8
NOTE
  6
CONTINUOUS
 62
     4
100
AcDbLine
 10
345.0
 20
-486.5
 30
0.0
 11
385.0
 21
-486.5
 31
0.0
  0
POINT
  5
99B
100
AcDbEntity
  8
DEFPOINTS
  6
CONTINUOUS
 62
     7
100
AcDbPoint
 10
515.0
 20
-501.5
 30
0.0
  0
POINT
  5
99C
100
AcDbEntity
  8
DEFPOINTS
  6
CONTINUOUS
 62
     7
100
AcDbPoint
 10
465.0
 20
-506.5
 30
0.0
  0
POINT
  5
99D
100
AcDbEntity
  8
DEFPOINTS
  6
CONTINUOUS
 62
     7
100
AcDbPoint
 10
515.0
 20
-501.5
 30
0.0
  0
POINT
  5
99E
100
AcDbEntity
  8
DEFPOINTS
  6
CONTINUOUS
 62
     7
100
AcDbPoint
 10
515.0
 20
-501.5
 30
0.0
  0
POINT
  5
99F
100
AcDbEntity
  8
DEFPOINTS
  6
CONTINUOUS
 62
     7
100
AcDbPoint
 10
515.0
 20
-501.5
 30
0.0
  0
POINT
  5
9A0
100
AcDbEntity
  8
DEFPOINTS
  6
CONTINUOUS
 62
     7
100
AcDbPoint
 10
485.0
 20
-486.5
 30
0.0
  0
POINT
  5
9A1
100
AcDbEntity
  8
DEFPOINTS
  6
CONTINUOUS
 62
     7
100
AcDbPoint
 10
565.0
 20
-472.5
 30
0.0
  0
LINE
  5
9A2
100
AcDbEntity
  8
DETAIL
  6
CONTINUOUS
 62
     5
100
AcDbLine
 10
515.0
 20
-501.5
 30
0.0
 11
515.0
 21
-472.5
 31
0.0
  0
CIRCLE
  5
9A3
100
AcDbEntity
  8
DETAIL
  6
CONTINUOUS
 62
     5
100
AcDbCircle
 10
465.0
 20
-486.5
 30
0.0
 40
1.5
  0
LINE
  5
9A4
100
AcDbEntity
  8
NOTE
  6
CONTINUOUS
 62
     4
100
AcDbLine
 10
465.0
 20
-506.5
 30
0.0
 11
465.0
 21
-466.5
 31
0.0
  0
POLYLINE
  5
9A5
100
AcDbEntity
  8
NOTE
  6
CONTINUOUS
 62
     4
100
AcDb2dPolyline
 66
     1
 10
0.0
 20
0.0
 30
0.0
  0
VERTEX
  5
9A6
100
AcDbEntity
  8
NOTE
  6
CONTINUOUS
 62
     4
100
AcDbVertex
100
AcDb2dVertex
 10
493.305288
 20
-514.763239
 30
0.0
  0
VERTEX
  5
9A7
100
AcDbEntity
  8
NOTE
  6
CONTINUOUS
 62
     4
100
AcDbVertex
100
AcDb2dVertex
 10
465.0
 20
-486.5
 30
0.0
  0
VERTEX
  5
9A8
100
AcDbEntity
  8
NOTE
  6
CONTINUOUS
 62
     4
100
AcDbVertex
100
AcDb2dVertex
 10
475.381479
 20
-525.129327
 30
0.0
  0
SEQEND
  5
9A9
100
AcDbEntity
  8
NOTE
  6
CONTINUOUS
 62
     4
  0
LINE
  5
9AA
100
AcDbEntity
  8
SIZE
  6
CONTINUOUS
 62
    30
100
AcDbLine
 10
615.0
 20
-542.5
 30
0.0
 11
615.0
 21
-1151.701199
 31
0.0
  0
TEXT
  5
9AB
100
AcDbEntity
  8
SIZE
  6
CONTINUOUS
 62
    30
100
AcDbText
 10
1063.048712
 20
-637.588427
 30
0.0
 40
55.0
  1
60
 50
90.0
 41
0.9
 72
     1
 11
1063.048712
 21
-597.516998
 31
0.0
100
AcDbText
  0
LINE
  5
9AC
100
AcDbEntity
  8
SIZE
  6
CONTINUOUS
 62
    30
100
AcDbLine
 10
1078.048712
 20
-501.5
 30
0.0
 11
1078.048712
 21
-652.588427
 31
0.0
  0
LINE
  5
9AD
100
AcDbEntity
  8
SIZE
  6
CONTINUOUS
 62
    30
100
AcDbLine
 10
765.148775
 20
-511.5
 30
0.0
 11
765.148775
 21
-629.130582
 31
0.0
  0
TEXT
  5
9AE
100
AcDbEntity
  8
SIZE
  6
CONTINUOUS
 62
    30
100
AcDbText
 10
851.723486
 20
-628.420782
 30
0.0
 40
55.0
  1
50
 50
90.0
 41
0.9
 72
     1
 11
851.723486
 21
-588.349353
 31
0.0
100
AcDbText
  0
LINE
  5
9AF
100
AcDbEntity
  8
SIZE
  6
CONTINUOUS
 62
    30
100
AcDbLine
 10
866.723486
 20
-522.5
 30
0.0
 11
866.723486
 21
-643.420782
 31
0.0
  0
LINE
  5
9B0
100
AcDbEntity
  8
NOTE
  6
CONTINUOUS
 62
     4
100
AcDbLine
 10
705.97783
 20
-932.742046
 30
0.0
 11
1122.078474
 21
-932.742046
 31
0.0
  0
TEXT
  5
9B1
100
AcDbEntity
  8
NOTE
  6
CONTINUOUS
 62
     4
100
AcDbText
 10
707.49064
 20
-920.514715
 30
0.0
 40
64.0
  1
48-%%C3打ﾇｷ
 41
0.9
100
AcDbText
  0
POINT
  5
9B2
100
AcDbEntity
  8
DEFPOINTS
  6
CONTINUOUS
 62
     7
100
AcDbPoint
 10
615.0
 20
-1121.701199
 30
0.0
  0
LINE
  5
9B3
100
AcDbEntity
  8
SIZE
  6
CONTINUOUS
 62
    30
100
AcDbLine
 10
610.0
 20
-1121.701199
 30
0.0
 11
605.0
 21
-1121.701199
 31
0.0
  0
CIRCLE
  5
9B4
100
AcDbEntity
  8
SIZE
  6
CONTINUOUS
 62
    30
100
AcDbCircle
 10
615.0
 20
-1121.701199
 30
0.0
 40
5.0
  0
LINE
  5
9B5
100
AcDbEntity
  8
SIZE
  6
CONTINUOUS
 62
    30
100
AcDbLine
 10
642.0
 20
-441.5
 30
0.0
 11
1108.048712
 21
-441.5
 31
0.0
  0
LINE
  5
9B6
100
AcDbEntity
  8
SIZE
  6
CONTINUOUS
 62
    30
100
AcDbLine
 10
642.0
 20
-441.5
 30
0.0
 11
1108.048712
 21
-441.5
 31
0.0
  0
LINE
  5
9B7
100
AcDbEntity
  8
SIZE
  6
CONTINUOUS
 62
    30
100
AcDbLine
 10
585.0
 20
-472.5
 30
0.0
 11
896.723486
 21
-472.5
 31
0.0
  0
LINE
  5
9B9
100
AcDbEntity
  8
SIZE
  6
CONTINUOUS
 62
    30
100
AcDbLine
 10
635.0
 20
-522.5
 30
0.0
 11
973.400117
 21
-522.5
 31
0.0
  0
LINE
  5
9BA
100
AcDbEntity
  8
NOTE
  6
CONTINUOUS
 62
     4
100
AcDbLine
 10
602.0
 20
-461.5
 30
0.0
 11
602.0
 21
-421.5
 31
0.0
  0
LINE
  5
9BB
100
AcDbEntity
  8
DETAIL
  6
CONTINUOUS
 62
     5
100
AcDbLine
 10
625.0
 20
-471.5
 30
0.0
 11
625.0
 21
-447.5
 31
0.0
  0
POINT
  5
9BC
100
AcDbEntity
  8
DEFPOINTS
  6
CONTINUOUS
 62
     7
100
AcDbPoint
 10
615.0
 20
-522.5
 30
0.0
  0
POINT
  5
9BD
100
AcDbEntity
  8
DEFPOINTS
  6
CONTINUOUS
 62
     7
100
AcDbPoint
 10
615.0
 20
-522.5
 30
0.0
  0
POINT
  5
9BE
100
AcDbEntity
  8
DEFPOINTS
  6
CONTINUOUS
 62
     7
100
AcDbPoint
 10
615.0
 20
-522.5
 30
0.0
  0
POINT
  5
9BF
100
AcDbEntity
  8
DEFPOINTS
  6
CONTINUOUS
 62
     7
100
AcDbPoint
 10
765.148775
 20
-501.5
 30
0.0
  0
TEXT
  5
9C0
100
AcDbEntity
  8
SIZE
  6
CONTINUOUS
 62
    30
100
AcDbText
 10
750.148775
 20
-614.130582
 30
0.0
 40
55.0
  1
15
 50
90.0
 41
0.9
 72
     1
 11
750.148775
 21
-578.773439
 31
0.0
100
AcDbText
  0
LINE
  5
9C1
100
AcDbEntity
  8
SIZE
  6
CONTINUOUS
 62
    30
100
AcDbLine
 10
765.148775
 20
-506.5
 30
0.0
 11
765.148775
 21
-511.5
 31
0.0
  0
CIRCLE
  5
9C2
100
AcDbEntity
  8
SIZE
  6
CONTINUOUS
 62
    30
100
AcDbCircle
 10
765.148775
 20
-501.5
 30
0.0
 40
5.0
  0
LINE
  5
9C3
100
AcDbEntity
  8
SIZE
  6
CONTINUOUS
 62
    30
100
AcDbLine
 10
765.148775
 20
-481.5
 30
0.0
 11
765.148775
 21
-476.5
 31
0.0
  0
CIRCLE
  5
9C4
100
AcDbEntity
  8
SIZE
  6
CONTINUOUS
 62
    30
100
AcDbCircle
 10
765.148775
 20
-486.5
 30
0.0
 40
5.0
  0
LINE
  5
9C5
100
AcDbEntity
  8
SIZE
  6
CONTINUOUS
 62
    30
100
AcDbLine
 10
765.148775
 20
-486.5
 30
0.0
 11
765.148775
 21
-501.5
 31
0.0
  0
LINE
  5
9C6
100
AcDbEntity
  8
SIZE
  6
CONTINUOUS
 62
    30
100
AcDbLine
 10
765.148775
 20
-476.5
 30
0.0
 11
765.148775
 21
-466.5
 31
0.0
  0
POINT
  5
9C7
100
AcDbEntity
  8
DEFPOINTS
  6
CONTINUOUS
 62
     7
100
AcDbPoint
 10
622.0
 20
-441.5
 30
0.0
  0
POINT
  5
9C8
100
AcDbEntity
  8
DEFPOINTS
  6
CONTINUOUS
 62
     7
100
AcDbPoint
 10
622.0
 20
-441.5
 30
0.0
  0
CIRCLE
  5
9C9
100
AcDbEntity
  8
FIX
  6
CONTINUOUS
 62
    11
100
AcDbCircle
 10
602.0
 20
-441.5
 30
0.0
 40
5.0
  0
LINE
  5
9CA
100
AcDbEntity
  8
NOTE
  6
CONTINUOUS
 62
     4
100
AcDbLine
 10
622.0
 20
-441.5
 30
0.0
 11
582.0
 21
-441.5
 31
0.0
  0
ARC
  5
9CB
100
AcDbEntity
  8
DETAIL
  6
CONTINUOUS
 62
     5
100
AcDbCircle
 10
602.0
 20
-449.5
 30
0.0
 40
7.0
100
AcDbArc
 50
180.0
 51
0.0
  0
ARC
  5
9CC
100
AcDbEntity
  8
DETAIL
  6
CONTINUOUS
 62
     5
100
AcDbCircle
 10
602.0
 20
-433.5
 30
0.0
 40
7.0
100
AcDbArc
 50
0.0
 51
180.0
  0
LINE
  5
9CD
100
AcDbEntity
  8
DETAIL
  6
CONTINUOUS
 62
     5
100
AcDbLine
 10
595.0
 20
-449.5
 30
0.0
 11
595.0
 21
-433.5
 31
0.0
  0
LINE
  5
9CE
100
AcDbEntity
  8
DETAIL
  6
CONTINUOUS
 62
     5
100
AcDbLine
 10
609.0
 20
-449.5
 30
0.0
 11
609.0
 21
-447.5
 31
0.0
  0
LINE
  5
9CF
100
AcDbEntity
  8
DETAIL
  6
CONTINUOUS
 62
     5
100
AcDbLine
 10
609.0
 20
-435.5
 30
0.0
 11
609.0
 21
-433.5
 31
0.0
  0
LINE
  5
9D0
100
AcDbEntity
  8
DETAIL
  6
CONTINUOUS
 62
     5
100
AcDbLine
 10
625.0
 20
-447.5
 30
0.0
 11
609.0
 21
-447.5
 31
0.0
  0
LINE
  5
9D1
100
AcDbEntity
  8
DETAIL
  6
CONTINUOUS
 62
     5
100
AcDbLine
 10
625.0
 20
-435.5
 30
0.0
 11
609.0
 21
-435.5
 31
0.0
  0
LINE
  5
9D2
100
AcDbEntity
  8
DETAIL
  6
CONTINUOUS
 62
     5
100
AcDbLine
 10
625.0
 20
-435.5
 30
0.0
 11
625.0
 21
-411.5
 31
0.0
  0
POINT
  5
9D3
100
AcDbEntity
  8
DEFPOINTS
  6
CONTINUOUS
 62
     7
100
AcDbPoint
 10
866.723486
 20
-472.5
 30
0.0
  0
LINE
  5
9D4
100
AcDbEntity
  8
SIZE
  6
CONTINUOUS
 62
    30
100
AcDbLine
 10
866.723486
 20
-517.5
 30
0.0
 11
866.723486
 21
-512.5
 31
0.0
  0
CIRCLE
  5
9D5
100
AcDbEntity
  8
SIZE
  6
CONTINUOUS
 62
    30
100
AcDbCircle
 10
866.723486
 20
-522.5
 30
0.0
 40
5.0
  0
LINE
  5
9D6
100
AcDbEntity
  8
SIZE
  6
CONTINUOUS
 62
    30
100
AcDbLine
 10
866.723486
 20
-477.5
 30
0.0
 11
866.723486
 21
-482.5
 31
0.0
  0
CIRCLE
  5
9D7
100
AcDbEntity
  8
SIZE
  6
CONTINUOUS
 62
    30
100
AcDbCircle
 10
866.723486
 20
-472.5
 30
0.0
 40
5.0
  0
LINE
  5
9D8
100
AcDbEntity
  8
SIZE
  6
CONTINUOUS
 62
    30
100
AcDbLine
 10
866.723486
 20
-482.5
 30
0.0
 11
866.723486
 21
-512.5
 31
0.0
  0
POINT
  5
9D9
100
AcDbEntity
  8
DEFPOINTS
  6
CONTINUOUS
 62
     7
100
AcDbPoint
 10
943.400117
 20
-522.5
 30
0.0
  0
LINE
  5
9DA
100
AcDbEntity
  8
SIZE
  6
CONTINUOUS
 62
    30
100
AcDbLine
 10
943.400117
 20
-517.5
 30
0.0
 11
943.400117
 21
-512.5
 31
0.0
  0
CIRCLE
  5
9DB
100
AcDbEntity
  8
SIZE
  6
CONTINUOUS
 62
    30
100
AcDbCircle
 10
943.400117
 20
-522.5
 30
0.0
 40
5.0
  0
TEXT
  5
9DC
100
AcDbEntity
  8
SIZE
  6
CONTINUOUS
 62
    30
100
AcDbText
 10
928.400117
 20
-252.840681
 30
0.0
 40
55.0
  1
625
 50
90.0
 41
0.9
 72
     1
 11
928.400117
 21
-189.197824
 31
0.0
100
AcDbText
  0
LINE
  5
9DD
100
AcDbEntity
  8
SIZE
  6
CONTINUOUS
 62
    30
100
AcDbLine
 10
1078.048712
 20
-451.5
 30
0.0
 11
1078.048712
 21
-491.5
 31
0.0
  0
LINE
  5
9DE
100
AcDbEntity
  8
SIZE
  6
CONTINUOUS
 62
    30
100
AcDbLine
 10
1078.048712
 20
-496.5
 30
0.0
 11
1078.048712
 21
-491.5
 31
0.0
  0
CIRCLE
  5
9DF
100
AcDbEntity
  8
SIZE
  6
CONTINUOUS
 62
    30
100
AcDbCircle
 10
1078.048712
 20
-501.5
 30
0.0
 40
5.0
  0
POINT
  5
9E0
100
AcDbEntity
  8
DEFPOINTS
  6
CONTINUOUS
 62
     7
100
AcDbPoint
 10
1219.551669
 20
-501.5
 30
0.0
  0
LINE
  5
9E1
100
AcDbEntity
  8
SIZE
  6
CONTINUOUS
 62
    30
100
AcDbLine
 10
1219.551669
 20
-496.5
 30
0.0
 11
1219.551669
 21
-491.5
 31
0.0
  0
CIRCLE
  5
9E2
100
AcDbEntity
  8
SIZE
  6
CONTINUOUS
 62
    30
100
AcDbCircle
 10
1219.551669
 20
-501.5
 30
0.0
 40
5.0
  0
LINE
  5
9E3
100
AcDbEntity
  8
SIZE
  6
CONTINUOUS
 62
    30
100
AcDbLine
 10
1078.048712
 20
-436.5
 30
0.0
 11
1078.048712
 21
-431.5
 31
0.0
  0
CIRCLE
  5
9E4
100
AcDbEntity
  8
SIZE
  6
CONTINUOUS
 62
    30
100
AcDbCircle
 10
1078.048712
 20
-441.5
 30
0.0
 40
5.0
  0
POINT
  5
9E5
100
AcDbEntity
  8
DEFPOINTS
  6
CONTINUOUS
 62
     7
100
AcDbPoint
 10
1078.048712
 20
-441.5
 30
0.0
  0
LINE
  5
9E6
100
AcDbEntity
  8
SIZE
  6
CONTINUOUS
 62
    30
100
AcDbLine
 10
1078.048712
 20
-446.5
 30
0.0
 11
1078.048712
 21
-451.5
 31
0.0
  0
CIRCLE
  5
9E7
100
AcDbEntity
  8
SIZE
  6
CONTINUOUS
 62
    30
100
AcDbCircle
 10
1078.048712
 20
-441.5
 30
0.0
 40
5.0
  0
CIRCLE
  5
9E8
100
AcDbEntity
  8
SIZE
  6
CONTINUOUS
 62
    30
100
AcDbCircle
 10
565.0
 20
1093.35655
 30
0.0
 40
5.0
  0
LINE
  5
9E9
100
AcDbEntity
  8
SIZE
  6
CONTINUOUS
 62
    30
100
AcDbLine
 10
546.0
 20
496.5
 30
0.0
 11
1249.551669
 21
496.5
 31
0.0
  0
LINE
  5
9EA
100
AcDbEntity
  8
SIZE
  6
CONTINUOUS
 62
    30
100
AcDbLine
 10
541.0
 20
486.5
 30
0.0
 11
802.899125
 21
486.5
 31
0.0
  0
LINE
  5
9EB
100
AcDbEntity
  8
SIZE
  6
CONTINUOUS
 62
    30
100
AcDbLine
 10
546.0
 20
496.5
 30
0.0
 11
802.899125
 21
496.5
 31
0.0
  0
LINE
  5
9EC
100
AcDbEntity
  8
DETAIL
  6
CONTINUOUS
 62
     5
100
AcDbLine
 10
625.0
 20
402.5
 30
0.0
 11
565.0
 21
402.5
 31
0.0
  0
LINE
  5
9ED
100
AcDbEntity
  8
DETAIL
  6
CONTINUOUS
 62
     5
100
AcDbLine
 10
625.0
 20
342.5
 30
0.0
 11
565.0
 21
342.5
 31
0.0
  0
LINE
  5
9EE
100
AcDbEntity
  8
NOTE
  6
CONTINUOUS
 62
     4
100
AcDbLine
 10
501.0
 20
486.5
 30
0.0
 11
698.697038
 21
774.260556
 31
0.0
  0
LINE
  5
9EF
100
AcDbEntity
  8
SIZE
  6
CONTINUOUS
 62
    30
100
AcDbLine
 10
565.0
 20
492.5
 30
0.0
 11
565.0
 21
1123.35655
 31
0.0
  0
LINE
  5
9F0
100
AcDbEntity
  8
SIZE
  6
CONTINUOUS
 62
    30
100
AcDbLine
 10
526.0
 20
516.5
 30
0.0
 11
526.0
 21
780.447288
 31
0.0
  0
LINE
  5
9F1
100
AcDbEntity
  8
SIZE
  6
CONTINUOUS
 62
    30
100
AcDbLine
 10
501.0
 20
526.5
 30
0.0
 11
501.0
 21
690.974297
 31
0.0
  0
TEXT
  5
9F2
100
AcDbEntity
  8
NOTE
  6
CONTINUOUS
 62
     4
100
AcDbText
 10
-112.869633
 20
286.40538
 30
0.0
 40
64.0
  1
（別売ﾄﾞﾚﾝｱｯﾌﾟﾒｶ使用時）
 41
0.8
100
AcDbText
  0
LINE
  5
9F3
100
AcDbEntity
  8
NOTE
  6
CONTINUOUS
 62
     4
100
AcDbLine
 10
546.25566
 20
269.139195
 30
0.0
 11
-316.965911
 21
269.139195
 31
0.0
  0
LINE
  5
9F4
100
AcDbEntity
  8
NOTE
  6
CONTINUOUS
 62
     4
100
AcDbLine
 10
81.0
 20
486.5
 30
0.0
 11
121.0
 21
486.5
 31
0.0
  0
TEXT
  5
9F5
100
AcDbEntity
  8
NOTE
  6
CONTINUOUS
 62
     4
100
AcDbText
 10
-262.29511
 20
286.866797
 30
0.0
 40
64.0
  1
D2
 41
0.9
100
AcDbText
  0
LINE
  5
9F6
100
AcDbEntity
  8
NOTE
  6
CONTINUOUS
 62
     4
100
AcDbLine
 10
-119.0
 20
486.5
 30
0.0
 11
-79.0
 21
486.5
 31
0.0
  0
LINE
  5
9F7
100
AcDbEntity
  8
NOTE
  6
CONTINUOUS
 62
     4
100
AcDbLine
 10
-219.0
 20
486.5
 30
0.0
 11
-179.0
 21
486.5
 31
0.0
  0
CIRCLE
  5
9F8
100
AcDbEntity
  8
DETAIL
  6
CONTINUOUS
 62
     5
100
AcDbCircle
 10
-249.0
 20
486.5
 30
0.0
 40
1.5
  0
LINE
  5
9F9
100
AcDbEntity
  8
NOTE
  6
CONTINUOUS
 62
     4
100
AcDbLine
 10
-249.0
 20
466.5
 30
0.0
 11
-249.0
 21
506.5
 31
0.0
  0
LINE
  5
9FA
100
AcDbEntity
  8
NOTE
  6
CONTINUOUS
 62
     4
100
AcDbLine
 10
-269.0
 20
486.5
 30
0.0
 11
-229.0
 21
486.5
 31
0.0
  0
CIRCLE
  5
9FB
100
AcDbEntity
  8
DETAIL
  6
CONTINUOUS
 62
     5
100
AcDbCircle
 10
-299.0
 20
486.5
 30
0.0
 40
1.5
  0
LINE
  5
9FC
100
AcDbEntity
  8
NOTE
  6
CONTINUOUS
 62
     4
100
AcDbLine
 10
-299.0
 20
466.5
 30
0.0
 11
-299.0
 21
506.5
 31
0.0
  0
LINE
  5
9FD
100
AcDbEntity
  8
NOTE
  6
CONTINUOUS
 62
     4
100
AcDbLine
 10
-319.0
 20
486.5
 30
0.0
 11
-279.0
 21
486.5
 31
0.0
  0
CIRCLE
  5
9FE
100
AcDbEntity
  8
DETAIL
  6
CONTINUOUS
 62
     5
100
AcDbCircle
 10
-149.0
 20
486.5
 30
0.0
 40
1.5
  0
LINE
  5
9FF
100
AcDbEntity
  8
NOTE
  6
CONTINUOUS
 62
     4
100
AcDbLine
 10
-149.0
 20
466.5
 30
0.0
 11
-149.0
 21
506.5
 31
0.0
  0
CIRCLE
  5
A00
100
AcDbEntity
  8
DETAIL
  6
CONTINUOUS
 62
     5
100
AcDbCircle
 10
-199.0
 20
486.5
 30
0.0
 40
1.5
  0
LINE
  5
A01
100
AcDbEntity
  8
NOTE
  6
CONTINUOUS
 62
     4
100
AcDbLine
 10
-199.0
 20
466.5
 30
0.0
 11
-199.0
 21
506.5
 31
0.0
  0
LINE
  5
A02
100
AcDbEntity
  8
NOTE
  6
CONTINUOUS
 62
     4
100
AcDbLine
 10
-169.0
 20
486.5
 30
0.0
 11
-129.0
 21
486.5
 31
0.0
  0
LINE
  5
A03
100
AcDbEntity
  8
NOTE
  6
CONTINUOUS
 62
     4
100
AcDbLine
 10
-19.0
 20
486.5
 30
0.0
 11
21.0
 21
486.5
 31
0.0
  0
CIRCLE
  5
A04
100
AcDbEntity
  8
DETAIL
  6
CONTINUOUS
 62
     5
100
AcDbCircle
 10
1.0
 20
486.5
 30
0.0
 40
1.5
  0
LINE
  5
A05
100
AcDbEntity
  8
NOTE
  6
CONTINUOUS
 62
     4
100
AcDbLine
 10
1.0
 20
466.5
 30
0.0
 11
1.0
 21
506.5
 31
0.0
  0
CIRCLE
  5
A06
100
AcDbEntity
  8
DETAIL
  6
CONTINUOUS
 62
     5
100
AcDbCircle
 10
-49.0
 20
486.5
 30
0.0
 40
1.5
  0
LINE
  5
A07
100
AcDbEntity
  8
NOTE
  6
CONTINUOUS
 62
     4
100
AcDbLine
 10
-99.0
 20
466.5
 30
0.0
 11
-99.0
 21
506.5
 31
0.0
  0
LINE
  5
A08
100
AcDbEntity
  8
NOTE
  6
CONTINUOUS
 62
     4
100
AcDbLine
 10
-49.0
 20
466.5
 30
0.0
 11
-49.0
 21
506.5
 31
0.0
  0
LINE
  5
A09
100
AcDbEntity
  8
NOTE
  6
CONTINUOUS
 62
     4
100
AcDbLine
 10
-69.0
 20
486.5
 30
0.0
 11
-29.0
 21
486.5
 31
0.0
  0
CIRCLE
  5
A0A
100
AcDbEntity
  8
DETAIL
  6
CONTINUOUS
 62
     5
100
AcDbCircle
 10
-99.0
 20
486.5
 30
0.0
 40
1.5
  0
CIRCLE
  5
A0B
100
AcDbEntity
  8
DETAIL
  6
CONTINUOUS
 62
     5
100
AcDbCircle
 10
101.0
 20
486.5
 30
0.0
 40
1.5
  0
LINE
  5
A0C
100
AcDbEntity
  8
NOTE
  6
CONTINUOUS
 62
     4
100
AcDbLine
 10
101.0
 20
466.5
 30
0.0
 11
101.0
 21
506.5
 31
0.0
  0
CIRCLE
  5
A0D
100
AcDbEntity
  8
DETAIL
  6
CONTINUOUS
 62
     5
100
AcDbCircle
 10
51.0
 20
486.5
 30
0.0
 40
1.5
  0
LINE
  5
A0E
100
AcDbEntity
  8
NOTE
  6
CONTINUOUS
 62
     4
100
AcDbLine
 10
51.0
 20
466.5
 30
0.0
 11
51.0
 21
506.5
 31
0.0
  0
LINE
  5
A0F
100
AcDbEntity
  8
NOTE
  6
CONTINUOUS
 62
     4
100
AcDbLine
 10
31.0
 20
486.5
 30
0.0
 11
71.0
 21
486.5
 31
0.0
  0
LINE
  5
A10
100
AcDbEntity
  8
NOTE
  6
CONTINUOUS
 62
     4
100
AcDbLine
 10
331.0
 20
486.5
 30
0.0
 11
371.0
 21
486.5
 31
0.0
  0
CIRCLE
  5
A11
100
AcDbEntity
  8
DETAIL
  6
CONTINUOUS
 62
     5
100
AcDbCircle
 10
201.0
 20
486.5
 30
0.0
 40
1.5
  0
LINE
  5
A12
100
AcDbEntity
  8
NOTE
  6
CONTINUOUS
 62
     4
100
AcDbLine
 10
201.0
 20
466.5
 30
0.0
 11
201.0
 21
506.5
 31
0.0
  0
CIRCLE
  5
A13
100
AcDbEntity
  8
DETAIL
  6
CONTINUOUS
 62
     5
100
AcDbCircle
 10
151.0
 20
486.5
 30
0.0
 40
1.5
  0
LINE
  5
A14
100
AcDbEntity
  8
NOTE
  6
CONTINUOUS
 62
     4
100
AcDbLine
 10
151.0
 20
466.5
 30
0.0
 11
151.0
 21
506.5
 31
0.0
  0
LINE
  5
A15
100
AcDbEntity
  8
NOTE
  6
CONTINUOUS
 62
     4
100
AcDbLine
 10
181.0
 20
486.5
 30
0.0
 11
221.0
 21
486.5
 31
0.0
  0
LINE
  5
A16
100
AcDbEntity
  8
NOTE
  6
CONTINUOUS
 62
     4
100
AcDbLine
 10
131.0
 20
486.5
 30
0.0
 11
171.0
 21
486.5
 31
0.0
  0
CIRCLE
  5
A17
100
AcDbEntity
  8
DETAIL
  6
CONTINUOUS
 62
     5
100
AcDbCircle
 10
301.0
 20
486.5
 30
0.0
 40
1.5
  0
LINE
  5
A18
100
AcDbEntity
  8
NOTE
  6
CONTINUOUS
 62
     4
100
AcDbLine
 10
301.0
 20
466.5
 30
0.0
 11
301.0
 21
506.5
 31
0.0
  0
LINE
  5
A19
100
AcDbEntity
  8
NOTE
  6
CONTINUOUS
 62
     4
100
AcDbLine
 10
281.0
 20
486.5
 30
0.0
 11
321.0
 21
486.5
 31
0.0
  0
CIRCLE
  5
A1A
100
AcDbEntity
  8
DETAIL
  6
CONTINUOUS
 62
     5
100
AcDbCircle
 10
251.0
 20
486.5
 30
0.0
 40
1.5
  0
LINE
  5
A1B
100
AcDbEntity
  8
NOTE
  6
CONTINUOUS
 62
     4
100
AcDbLine
 10
251.0
 20
466.5
 30
0.0
 11
251.0
 21
506.5
 31
0.0
  0
LINE
  5
A1C
100
AcDbEntity
  8
NOTE
  6
CONTINUOUS
 62
     4
100
AcDbLine
 10
231.0
 20
486.5
 30
0.0
 11
271.0
 21
486.5
 31
0.0
  0
LINE
  5
A1D
100
AcDbEntity
  8
DETAIL
  6
CONTINUOUS
 62
     5
100
AcDbLine
 10
565.0
 20
402.5
 30
0.0
 11
565.0
 21
342.5
 31
0.0
  0
LINE
  5
A1E
100
AcDbEntity
  8
NOTE
  6
CONTINUOUS
 62
     4
100
AcDbLine
 10
431.0
 20
486.5
 30
0.0
 11
471.0
 21
486.5
 31
0.0
  0
CIRCLE
  5
A1F
100
AcDbEntity
  8
DETAIL
  6
CONTINUOUS
 62
     5
100
AcDbCircle
 10
451.0
 20
486.5
 30
0.0
 40
1.5
  0
LINE
  5
A20
100
AcDbEntity
  8
NOTE
  6
CONTINUOUS
 62
     4
100
AcDbLine
 10
451.0
 20
466.5
 30
0.0
 11
451.0
 21
506.5
 31
0.0
  0
CIRCLE
  5
A21
100
AcDbEntity
  8
DETAIL
  6
CONTINUOUS
 62
     5
100
AcDbCircle
 10
401.0
 20
486.5
 30
0.0
 40
1.5
  0
LINE
  5
A22
100
AcDbEntity
  8
NOTE
  6
CONTINUOUS
 62
     4
100
AcDbLine
 10
401.0
 20
466.5
 30
0.0
 11
401.0
 21
506.5
 31
0.0
  0
LINE
  5
A23
100
AcDbEntity
  8
NOTE
  6
CONTINUOUS
 62
     4
100
AcDbLine
 10
381.0
 20
486.5
 30
0.0
 11
421.0
 21
486.5
 31
0.0
  0
CIRCLE
  5
A24
100
AcDbEntity
  8
DETAIL
  6
CONTINUOUS
 62
     5
100
AcDbCircle
 10
351.0
 20
486.5
 30
0.0
 40
1.5
  0
LINE
  5
A25
100
AcDbEntity
  8
NOTE
  6
CONTINUOUS
 62
     4
100
AcDbLine
 10
351.0
 20
466.5
 30
0.0
 11
351.0
 21
506.5
 31
0.0
  0
POINT
  5
A26
100
AcDbEntity
  8
DEFPOINTS
  6
CONTINUOUS
 62
     7
100
AcDbPoint
 10
565.0
 20
472.5
 30
0.0
  0
POINT
  5
A27
100
AcDbEntity
  8
DEFPOINTS
  6
CONTINUOUS
 62
     7
100
AcDbPoint
 10
526.0
 20
496.5
 30
0.0
  0
POINT
  5
A28
100
AcDbEntity
  8
DEFPOINTS
  6
CONTINUOUS
 62
     7
100
AcDbPoint
 10
501.0
 20
506.5
 30
0.0
  0
POINT
  5
A29
100
AcDbEntity
  8
DEFPOINTS
  6
CONTINUOUS
 62
     7
100
AcDbPoint
 10
526.0
 20
496.5
 30
0.0
  0
POINT
  5
A2A
100
AcDbEntity
  8
DEFPOINTS
  6
CONTINUOUS
 62
     7
100
AcDbPoint
 10
521.0
 20
486.5
 30
0.0
  0
POINT
  5
A2B
100
AcDbEntity
  8
DEFPOINTS
  6
CONTINUOUS
 62
     7
100
AcDbPoint
 10
526.0
 20
496.5
 30
0.0
  0
LINE
  5
A2C
100
AcDbEntity
  8
DETAIL
  6
CONTINUOUS
 62
     5
100
AcDbLine
 10
526.0
 20
472.5
 30
0.0
 11
526.0
 21
496.5
 31
0.0
  0
CIRCLE
  5
A2D
100
AcDbEntity
  8
DETAIL
  6
CONTINUOUS
 62
     5
100
AcDbCircle
 10
501.0
 20
486.5
 30
0.0
 40
1.5
  0
LINE
  5
A2E
100
AcDbEntity
  8
NOTE
  6
CONTINUOUS
 62
     4
100
AcDbLine
 10
501.0
 20
466.5
 30
0.0
 11
501.0
 21
506.5
 31
0.0
  0
LINE
  5
A2F
100
AcDbEntity
  8
NOTE
  6
CONTINUOUS
 62
     4
100
AcDbLine
 10
481.0
 20
486.5
 30
0.0
 11
521.0
 21
486.5
 31
0.0
  0
POLYLINE
  5
A30
100
AcDbEntity
  8
NOTE
  6
CONTINUOUS
 62
     4
100
AcDb2dPolyline
 66
     1
 10
0.0
 20
0.0
 30
0.0
  0
VERTEX
  5
A31
100
AcDbEntity
  8
NOTE
  6
CONTINUOUS
 62
     4
100
AcDbVertex
100
AcDb2dVertex
 10
512.754869
 20
524.733795
 30
0.0
  0
VERTEX
  5
A32
100
AcDbEntity
  8
NOTE
  6
CONTINUOUS
 62
     4
100
AcDbVertex
100
AcDb2dVertex
 10
501.0
 20
486.5
 30
0.0
  0
VERTEX
  5
A33
100
AcDbEntity
  8
NOTE
  6
CONTINUOUS
 62
     4
100
AcDbVertex
100
AcDb2dVertex
 10
530.296913
 20
513.734003
 30
0.0
  0
SEQEND
  5
A34
100
AcDbEntity
  8
NOTE
  6
CONTINUOUS
 62
     4
  0
TEXT
  5
A35
100
AcDbEntity
  8
SIZE
  6
CONTINUOUS
 62
    30
100
AcDbText
 10
-235.185714
 20
675.974297
 30
0.0
 40
55.0
  1
50×20＝1000
 41
0.9
 72
     1
 11
1.0
 21
675.974297
 31
0.0
100
AcDbText
  0
TEXT
  5
A36
100
AcDbEntity
  8
SIZE
  6
CONTINUOUS
 62
    30
100
AcDbText
 10
-81.5
 20
765.447288
 30
0.0
 40
55.0
  1
1050
 41
0.9
 72
     1
 11
1.0
 21
765.447288
 31
0.0
100
AcDbText
  0
TEXT
  5
A37
100
AcDbEntity
  8
SIZE
  6
CONTINUOUS
 62
    30
100
AcDbText
 10
-82.5
 20
992.957407
 30
0.0
 40
55.0
  1
1250
 41
0.9
 72
     1
 11
0.0
 21
992.957407
 31
0.0
100
AcDbText
  0
TEXT
  5
A38
100
AcDbEntity
  8
SIZE
  6
CONTINUOUS
 62
    30
100
AcDbText
 10
-77.785714
 20
1108.35655
 30
0.0
 40
55.0
  1
1130
 41
0.9
 72
     1
 11
0.0
 21
1108.35655
 31
0.0
100
AcDbText
  0
POINT
  5
A39
100
AcDbEntity
  8
DEFPOINTS
  6
CONTINUOUS
 62
     7
100
AcDbPoint
 10
526.0
 20
750.447288
 30
0.0
  0
LINE
  5
A3A
100
AcDbEntity
  8
SIZE
  6
CONTINUOUS
 62
    30
100
AcDbLine
 10
521.0
 20
750.447288
 30
0.0
 11
516.0
 21
750.447288
 31
0.0
  0
CIRCLE
  5
A3B
100
AcDbEntity
  8
SIZE
  6
CONTINUOUS
 62
    30
100
AcDbCircle
 10
526.0
 20
750.447288
 30
0.0
 40
5.0
  0
POINT
  5
A3C
100
AcDbEntity
  8
DEFPOINTS
  6
CONTINUOUS
 62
     7
100
AcDbPoint
 10
501.0
 20
660.974297
 30
0.0
  0
LINE
  5
A3D
100
AcDbEntity
  8
SIZE
  6
CONTINUOUS
 62
    30
100
AcDbLine
 10
496.0
 20
660.974297
 30
0.0
 11
491.0
 21
660.974297
 31
0.0
  0
CIRCLE
  5
A3E
100
AcDbEntity
  8
SIZE
  6
CONTINUOUS
 62
    30
100
AcDbCircle
 10
501.0
 20
660.974297
 30
0.0
 40
5.0
  0
POINT
  5
A3F
100
AcDbEntity
  8
DEFPOINTS
  6
CONTINUOUS
 62
     7
100
AcDbPoint
 10
565.0
 20
1093.35655
 30
0.0
  0
LINE
  5
A40
100
AcDbEntity
  8
SIZE
  6
CONTINUOUS
 62
    30
100
AcDbLine
 10
560.0
 20
1093.35655
 30
0.0
 11
555.0
 21
1093.35655
 31
0.0
  0
LINE
  5
A41
100
AcDbEntity
  8
SIZE
  6
CONTINUOUS
 62
    30
100
AcDbLine
 10
625.0
 20
422.5
 30
0.0
 11
625.0
 21
1007.957407
 31
0.0
  0
LINE
  5
A42
100
AcDbEntity
  8
SIZE
  6
CONTINUOUS
 62
    30
100
AcDbLine
 10
602.0
 20
412.5
 30
0.0
 11
602.0
 21
899.516696
 31
0.0
  0
LINE
  5
A43
100
AcDbEntity
  8
SIZE
  6
CONTINUOUS
 62
    30
100
AcDbLine
 10
772.899125
 20
506.5
 30
0.0
 11
772.899125
 21
617.214286
 31
0.0
  0
LINE
  5
A44
100
AcDbEntity
  8
SIZE
  6
CONTINUOUS
 62
    30
100
AcDbLine
 10
642.0
 20
372.5
 30
0.0
 11
1108.048712
 21
372.5
 31
0.0
  0
LINE
  5
A45
100
AcDbEntity
  8
SIZE
  6
CONTINUOUS
 62
    30
100
AcDbLine
 10
635.0
 20
102.5
 30
0.0
 11
973.400117
 21
102.5
 31
0.0
  0
POINT
  5
A46
100
AcDbEntity
  8
DEFPOINTS
  6
CONTINUOUS
 62
     7
100
AcDbPoint
 10
615.0
 20
102.5
 30
0.0
  0
LINE
  5
A47
100
AcDbEntity
  8
SIZE
  6
CONTINUOUS
 62
    30
100
AcDbLine
 10
943.400117
 20
97.5
 30
0.0
 11
943.400117
 21
92.5
 31
0.0
  0
CIRCLE
  5
A48
100
AcDbEntity
  8
SIZE
  6
CONTINUOUS
 62
    30
100
AcDbCircle
 10
943.400117
 20
102.5
 30
0.0
 40
5.0
  0
POINT
  5
A49
100
AcDbEntity
  8
DEFPOINTS
  6
CONTINUOUS
 62
     7
100
AcDbPoint
 10
625.0
 20
402.5
 30
0.0
  0
POINT
  5
A4A
100
AcDbEntity
  8
DEFPOINTS
  6
CONTINUOUS
 62
     7
100
AcDbPoint
 10
602.0
 20
392.5
 30
0.0
  0
POINT
  5
A4B
100
AcDbEntity
  8
DEFPOINTS
  6
CONTINUOUS
 62
     7
100
AcDbPoint
 10
622.0
 20
372.5
 30
0.0
  0
CIRCLE
  5
A4C
100
AcDbEntity
  8
FIX
  6
CONTINUOUS
 62
    11
100
AcDbCircle
 10
602.0
 20
372.5
 30
0.0
 40
5.0
  0
LINE
  5
A4D
100
AcDbEntity
  8
NOTE
  6
CONTINUOUS
 62
     4
100
AcDbLine
 10
622.0
 20
372.5
 30
0.0
 11
582.0
 21
372.5
 31
0.0
  0
LINE
  5
A4E
100
AcDbEntity
  8
NOTE
  6
CONTINUOUS
 62
     4
100
AcDbLine
 10
602.0
 20
352.5
 30
0.0
 11
602.0
 21
392.5
 31
0.0
  0
LINE
  5
A4F
100
AcDbEntity
  8
DETAIL
  6
CONTINUOUS
 62
     5
100
AcDbLine
 10
625.0
 20
342.5
 30
0.0
 11
625.0
 21
366.5
 31
0.0
  0
ARC
  5
A50
100
AcDbEntity
  8
DETAIL
  6
CONTINUOUS
 62
     5
100
AcDbCircle
 10
602.0
 20
364.5
 30
0.0
 40
7.0
100
AcDbArc
 50
180.0
 51
0.0
  0
ARC
  5
A51
100
AcDbEntity
  8
DETAIL
  6
CONTINUOUS
 62
     5
100
AcDbCircle
 10
602.0
 20
380.5
 30
0.0
 40
7.0
100
AcDbArc
 50
0.0
 51
180.0
  0
LINE
  5
A52
100
AcDbEntity
  8
DETAIL
  6
CONTINUOUS
 62
     5
100
AcDbLine
 10
595.0
 20
364.5
 30
0.0
 11
595.0
 21
380.5
 31
0.0
  0
LINE
  5
A53
100
AcDbEntity
  8
DETAIL
  6
CONTINUOUS
 62
     5
100
AcDbLine
 10
609.0
 20
364.5
 30
0.0
 11
609.0
 21
366.5
 31
0.0
  0
LINE
  5
A54
100
AcDbEntity
  8
DETAIL
  6
CONTINUOUS
 62
     5
100
AcDbLine
 10
609.0
 20
378.5
 30
0.0
 11
609.0
 21
380.5
 31
0.0
  0
LINE
  5
A55
100
AcDbEntity
  8
DETAIL
  6
CONTINUOUS
 62
     5
100
AcDbLine
 10
625.0
 20
366.5
 30
0.0
 11
609.0
 21
366.5
 31
0.0
  0
LINE
  5
A56
100
AcDbEntity
  8
DETAIL
  6
CONTINUOUS
 62
     5
100
AcDbLine
 10
625.0
 20
378.5
 30
0.0
 11
609.0
 21
378.5
 31
0.0
  0
LINE
  5
A57
100
AcDbEntity
  8
DETAIL
  6
CONTINUOUS
 62
     5
100
AcDbLine
 10
625.0
 20
378.5
 30
0.0
 11
625.0
 21
402.5
 31
0.0
  0
POINT
  5
A58
100
AcDbEntity
  8
DEFPOINTS
  6
CONTINUOUS
 62
     7
100
AcDbPoint
 10
772.899125
 20
486.5
 30
0.0
  0
TEXT
  5
A59
100
AcDbEntity
  8
SIZE
  6
CONTINUOUS
 62
    30
100
AcDbText
 10
757.899125
 20
531.5
 30
0.0
 40
55.0
  1
10
 50
90.0
 41
0.9
 72
     1
 11
757.899125
 21
566.857143
 31
0.0
100
AcDbText
  0
LINE
  5
A5A
100
AcDbEntity
  8
SIZE
  6
CONTINUOUS
 62
    30
100
AcDbLine
 10
772.899125
 20
501.5
 30
0.0
 11
772.899125
 21
506.5
 31
0.0
  0
CIRCLE
  5
A5B
100
AcDbEntity
  8
SIZE
  6
CONTINUOUS
 62
    30
100
AcDbCircle
 10
772.899125
 20
496.5
 30
0.0
 40
5.0
  0
LINE
  5
A5C
100
AcDbEntity
  8
SIZE
  6
CONTINUOUS
 62
    30
100
AcDbLine
 10
772.899125
 20
481.5
 30
0.0
 11
772.899125
 21
476.5
 31
0.0
  0
CIRCLE
  5
A5D
100
AcDbEntity
  8
SIZE
  6
CONTINUOUS
 62
    30
100
AcDbCircle
 10
772.899125
 20
486.5
 30
0.0
 40
5.0
  0
LINE
  5
A5E
100
AcDbEntity
  8
SIZE
  6
CONTINUOUS
 62
    30
100
AcDbLine
 10
772.899125
 20
486.5
 30
0.0
 11
772.899125
 21
496.5
 31
0.0
  0
LINE
  5
A5F
100
AcDbEntity
  8
SIZE
  6
CONTINUOUS
 62
    30
100
AcDbLine
 10
772.899125
 20
476.5
 30
0.0
 11
772.899125
 21
466.5
 31
0.0
  0
POINT
  5
A60
100
AcDbEntity
  8
DEFPOINTS
  6
CONTINUOUS
 62
     7
100
AcDbPoint
 10
1078.048712
 20
372.5
 30
0.0
  0
LINE
  5
A61
100
AcDbEntity
  8
SIZE
  6
CONTINUOUS
 62
    30
100
AcDbLine
 10
1078.048712
 20
367.5
 30
0.0
 11
1078.048712
 21
362.5
 31
0.0
  0
CIRCLE
  5
A62
100
AcDbEntity
  8
SIZE
  6
CONTINUOUS
 62
    30
100
AcDbCircle
 10
1078.048712
 20
372.5
 30
0.0
 40
5.0
  0
LINE
  5
A63
100
AcDbEntity
  8
SIZE
  6
CONTINUOUS
 62
    30
100
AcDbLine
 10
1219.551669
 20
491.5
 30
0.0
 11
1219.551669
 21
486.5
 31
0.0
  0
CIRCLE
  5
A64
100
AcDbEntity
  8
SIZE
  6
CONTINUOUS
 62
    30
100
AcDbCircle
 10
1219.551669
 20
496.5
 30
0.0
 40
5.0
  0
LINE
  5
A65
100
AcDbEntity
  8
NOTE
  6
CONTINUOUS
 62
     4
100
AcDbLine
 10
698.697038
 20
774.260556
 30
0.0
 11
1114.797682
 21
774.260556
 31
0.0
  0
TEXT
  5
A66
100
AcDbEntity
  8
NOTE
  6
CONTINUOUS
 62
     4
100
AcDbText
 10
700.209848
 20
786.487887
 30
0.0
 40
64.0
  1
54-%%C3打ﾇｷ
 41
0.9
100
AcDbText
  0
POINT
  5
A67
100
AcDbEntity
  8
DEFPOINTS
  6
CONTINUOUS
 62
     7
100
AcDbPoint
 10
602.0
 20
869.516696
 30
0.0
  0
LINE
  5
A68
100
AcDbEntity
  8
SIZE
  6
CONTINUOUS
 62
    30
100
AcDbLine
 10
597.0
 20
869.516696
 30
0.0
 11
592.0
 21
869.516696
 31
0.0
  0
CIRCLE
  5
A69
100
AcDbEntity
  8
SIZE
  6
CONTINUOUS
 62
    30
100
AcDbCircle
 10
602.0
 20
869.516696
 30
0.0
 40
5.0
  0
POINT
  5
A6A
100
AcDbEntity
  8
DEFPOINTS
  6
CONTINUOUS
 62
     7
100
AcDbPoint
 10
625.0
 20
977.957407
 30
0.0
  0
LINE
  5
A6B
100
AcDbEntity
  8
SIZE
  6
CONTINUOUS
 62
    30
100
AcDbLine
 10
620.0
 20
977.957407
 30
0.0
 11
615.0
 21
977.957407
 31
0.0
  0
CIRCLE
  5
A6C
100
AcDbEntity
  8
SIZE
  6
CONTINUOUS
 62
    30
100
AcDbCircle
 10
625.0
 20
977.957407
 30
0.0
 40
5.0
  0
TEXT
  5
A6D
100
AcDbEntity
  8
ETC
  6
CONTINUOUS
 62
    61
100
AcDbText
 10
-1756.873864
 20
1246.131024
 30
0.0
 40
64.0
  1
MPE-RP112_160CA2(F-BOX)_6
 41
0.9
100
AcDbText
  0
ENDSEC
  0
SECTION
  2
OBJECTS
  0
DICTIONARY
  5
3BC
100
AcDbDictionary
  3
ACAD_GROUP
350
3BD
  3
ACAD_MLINESTYLE
350
3CB
  0
DICTIONARY
  5
3BD
102
{ACAD_REACTORS
330
3BC
102
}
100
AcDbDictionary
  0
DICTIONARY
  5
3CB
102
{ACAD_REACTORS
330
3BC
102
}
100
AcDbDictionary
  3
STANDARD
350
3CC
  0
MLINESTYLE
  5
3CC
102
{ACAD_REACTORS
330
3CB
102
}
100
AcDbMlineStyle
  2
STANDARD
 70
     0
  3

 62
   256
 51
90.0
 52
90.0
 71
     2
 49
0.5
 62
   256
  6
BYLAYER
 49
-0.5
 62
   256
  6
BYLAYER
  0
ENDSEC
  0
EOF
