  0
SECTION
  2
HEADER
  9
$ACADVER
  1
AC1009
  9
$INSBASE
 10
0.0
 20
0.0
 30
0.0
  9
$EXTMIN
 10
-1412.478
 20
-1142.772
 30
0.0
  9
$EXTMAX
 10
2013.730857
 20
969.272326
 30
0.0
  9
$LIMMIN
 10
-2970.0
 20
-2100.0
  9
$LIMMAX
 10
2970.0
 20
2100.0
  9
$ORTHOMODE
 70
     0
  9
$REGENMODE
 70
     0
  9
$FILLMODE
 70
     1
  9
$QTEXTMODE
 70
     0
  9
$MIRRTEXT
 70
     0
  9
$DRAGMODE
 70
     2
  9
$LTSCALE
 40
20.0
  9
$OSMODE
 70
     1
  9
$ATTMODE
 70
     1
  9
$TEXTSIZE
 40
64.0
  9
$TRACEWID
 40
0.05
  9
$TEXTSTYLE
  7
STANDARD
  9
$CLAYER
  8
OUTLINE
  9
$CELTYPE
  6
CONTINUOUS
  9
$CECOLOR
 62
     7
  9
$DIMSCALE
 40
1.0
  9
$DIMASZ
 40
2.0
  9
$DIMEXO
 40
20.0
  9
$DIMDLI
 40
200.0
  9
$DIMRND
 40
0.0
  9
$DIMDLE
 40
0.0
  9
$DIMEXE
 40
30.0
  9
$DIMTP
 40
0.0
  9
$DIMTM
 40
0.0
  9
$DIMTXT
 40
64.0
  9
$DIMCEN
 40
0.09
  9
$DIMTSZ
 40
0.0
  9
$DIMTOL
 70
     0
  9
$DIMLIM
 70
     0
  9
$DIMTIH
 70
     0
  9
$DIMTOH
 70
     0
  9
$DIMSE1
 70
     0
  9
$DIMSE2
 70
     0
  9
$DIMTAD
 70
     1
  9
$DIMZIN
 70
     8
  9
$DIMBLK
  1

  9
$DIMASO
 70
     1
  9
$DIMSHO
 70
     0
  9
$DIMPOST
  1

  9
$DIMAPOST
  1

  9
$DIMALT
 70
     0
  9
$DIMALTD
 70
     2
  9
$DIMALTF
 40
25.4
  9
$DIMLFAC
 40
1.0
  9
$DIMTOFL
 70
     1
  9
$DIMTVP
 40
0.0
  9
$DIMTIX
 70
     1
  9
$DIMSOXD
 70
     0
  9
$DIMSAH
 70
     0
  9
$DIMBLK1
  1

  9
$DIMBLK2
  1

  9
$DIMSTYLE
  2
STANDARD
  9
$DIMCLRD
 70
     0
  9
$DIMCLRE
 70
     0
  9
$DIMCLRT
 70
     0
  9
$DIMTFAC
 40
1.0
  9
$DIMGAP
 40
0.09
  9
$LUNITS
 70
     2
  9
$LUPREC
 70
     4
  9
$SKETCHINC
 40
0.1
  9
$FILLETRAD
 40
10.0
  9
$AUNITS
 70
     1
  9
$AUPREC
 70
     3
  9
$MENU
  1
ACAD
  9
$ELEVATION
 40
0.0
  9
$PELEVATION
 40
0.0
  9
$THICKNESS
 40
0.0
  9
$LIMCHECK
 70
     1
  9
$BLIPMODE
 70
     0
  9
$CHAMFERA
 40
0.0
  9
$CHAMFERB
 40
0.0
  9
$SKPOLY
 70
     0
  9
$TDCREATE
 40
2450959.36985
  9
$TDUPDATE
 40
2451047.686007
  9
$TDINDWG
 40
0.004306
  9
$TDUSRTIMER
 40
0.004306
  9
$USRTIMER
 70
     1
  9
$ANGBASE
 50
0.0
  9
$ANGDIR
 70
     0
  9
$PDMODE
 70
     3
  9
$PDSIZE
 40
-2.0
  9
$PLINEWID
 40
0.0
  9
$COORDS
 70
     0
  9
$SPLFRAME
 70
     0
  9
$SPLINETYPE
 70
     6
  9
$SPLINESEGS
 70
     8
  9
$ATTDIA
 70
     0
  9
$ATTREQ
 70
     1
  9
$HANDLING
 70
     1
  9
$HANDSEED
  5
26F
  9
$SURFTAB1
 70
     6
  9
$SURFTAB2
 70
     6
  9
$SURFTYPE
 70
     6
  9
$SURFU
 70
     6
  9
$SURFV
 70
     6
  9
$UCSNAME
  2

  9
$UCSORG
 10
0.0
 20
0.0
 30
0.0
  9
$UCSXDIR
 10
1.0
 20
0.0
 30
0.0
  9
$UCSYDIR
 10
0.0
 20
1.0
 30
0.0
  9
$PUCSNAME
  2

  9
$PUCSORG
 10
0.0
 20
0.0
 30
0.0
  9
$PUCSXDIR
 10
1.0
 20
0.0
 30
0.0
  9
$PUCSYDIR
 10
0.0
 20
1.0
 30
0.0
  9
$USERI1
 70
     0
  9
$USERI2
 70
     0
  9
$USERI3
 70
     0
  9
$USERI4
 70
     0
  9
$USERI5
 70
     0
  9
$USERR1
 40
20.0
  9
$USERR2
 40
0.0
  9
$USERR3
 40
0.0
  9
$USERR4
 40
0.0
  9
$USERR5
 40
0.0
  9
$WORLDVIEW
 70
     1
  9
$SHADEDGE
 70
     3
  9
$SHADEDIF
 70
    70
  9
$TILEMODE
 70
     1
  9
$MAXACTVP
 70
    48
  9
$PLIMCHECK
 70
     0
  9
$PEXTMIN
 10
1.000000E+020
 20
1.000000E+020
 30
1.000000E+020
  9
$PEXTMAX
 10
-1.000000E+020
 20
-1.000000E+020
 30
-1.000000E+020
  9
$PLIMMIN
 10
0.0
 20
0.0
  9
$PLIMMAX
 10
12.0
 20
9.0
  9
$UNITMODE
 70
     0
  9
$VISRETAIN
 70
     1
  9
$PLINEGEN
 70
     0
  9
$PSLTSCALE
 70
     1
  0
ENDSEC
  0
SECTION
  2
TABLES
  0
TABLE
  2
VPORT
 70
     2
  0
VPORT
  2
*ACTIVE
 70
     0
 10
0.0
 20
0.0
 11
1.0
 21
1.0
 12
886.0
 22
0.0
 13
0.0
 23
0.0
 14
400.0
 24
400.0
 15
400.0
 25
400.0
 16
0.0
 26
0.0
 36
1.0
 17
0.0
 27
0.0
 37
0.0
 40
4200.0
 41
1.83619
 42
50.0
 43
0.0
 44
0.0
 50
0.0
 51
0.0
 71
     0
 72
   500
 73
     1
 74
     0
 75
     0
 76
     0
 77
     0
 78
     0
  0
ENDTAB
  0
TABLE
  2
LTYPE
 70
     2
  0
LTYPE
  2
CONTINUOUS
 70
     0
  3
実線
 72
    65
 73
     0
 40
0.0
  0
LTYPE
  2
DASHDOT
 70
     0
  3
____ _ ____ _ ____ _ ____ _ ____ _ ____ _ ____
 72
    65
 73
     4
 40
5.5
 49
4.0
 49
-0.6
 49
0.3
 49
-0.6
  0
ENDTAB
  0
TABLE
  2
LAYER
 70
    12
  0
LAYER
  2
0
 70
     0
 62
     7
  6
CONTINUOUS
  0
LAYER
  2
OUTLINE
 70
     0
 62
     3
  6
CONTINUOUS
  0
LAYER
  2
DETAIL
 70
     0
 62
     5
  6
CONTINUOUS
  0
LAYER
  2
BASIS
 70
     0
 62
     6
  6
DASHDOT
  0
LAYER
  2
SIZE
 70
     0
 62
    30
  6
CONTINUOUS
  0
LAYER
  2
NOTE
 70
     0
 62
     4
  6
CONTINUOUS
  0
LAYER
  2
ARRANGE
 70
     0
 62
     1
  6
CONTINUOUS
  0
LAYER
  2
FIX
 70
     0
 62
    11
  6
CONTINUOUS
  0
LAYER
  2
SERVICESPACE
 70
     0
 62
     2
  6
DASHDOT
  0
LAYER
  2
ETC
 70
     0
 62
    61
  6
CONTINUOUS
  0
LAYER
  2
SYMBOLLINE
 70
     0
 62
    15
  6
CONTINUOUS
  0
LAYER
  2
DEFPOINTS
 70
     0
 62
     7
  6
CONTINUOUS
  0
ENDTAB
  0
TABLE
  2
STYLE
 70
     1
  0
STYLE
  2
STANDARD
 70
     0
 40
0.0
 41
0.9
 50
0.0
 71
     0
 42
64.0
  3
SIMPLEX
  4
BIGFONT
  0
ENDTAB
  0
TABLE
  2
VIEW
 70
     1
  0
VIEW
  2
ALL
 70
     0
 40
4508.021
 10
0.0
 20
41.309904
 41
6252.632
 11
0.0
 21
0.0
 31
1.0
 12
0.0
 22
0.0
 32
0.0
 42
50.0
 43
0.0
 44
0.0
 50
0.0
 71
     0
  0
ENDTAB
  0
TABLE
  2
UCS
 70
     0
  0
ENDTAB
  0
TABLE
  2
APPID
 70
     1
  0
APPID
  2
ACAD
 70
     0
  0
ENDTAB
  0
TABLE
  2
DIMSTYLE
 70
     1
  0
DIMSTYLE
  2
STANDARD
 70
     0
  3

  4

  5

  6

  7

 40
1.0
 41
0.18
 42
0.0625
 43
0.38
 44
0.18
 45
0.0
 46
0.0
 47
0.0
 48
0.0
140
0.18
141
0.09
142
0.0
143
25.4
144
1.0
145
0.0
146
1.0
147
0.09
 71
     0
 72
     0
 73
     1
 74
     1
 75
     0
 76
     0
 77
     0
 78
     0
170
     0
171
     2
172
     0
173
     0
174
     0
175
     0
176
     0
177
     0
178
     0
  0
ENDTAB
  0
ENDSEC
  0
SECTION
  2
BLOCKS
  0
BLOCK
  8
0
  2
$MODEL_SPACE
 70
     0
 10
0.0
 20
0.0
 30
0.0
  3
$MODEL_SPACE
  1

  0
ENDBLK
  5
255
  8
0
  0
BLOCK
 67
     1
  8
0
  2
$PAPER_SPACE
 70
     0
 10
0.0
 20
0.0
 30
0.0
  3
$PAPER_SPACE
  1

  0
ENDBLK
  5
252
 67
     1
  8
0
  0
ENDSEC
  0
SECTION
  2
ENTITIES
  0
LINE
  5
2E
  8
BASIS
  6
DASHDOT
 62
     6
 10
0.0
 20
-572.616841
 30
0.0
 11
0.0
 21
525.062953
 31
0.0
  0
TEXT
  5
2F
  8
ETC
  6
CONTINUOUS
 62
    61
 10
1070.188
 20
846.141051
 30
0.0
 40
64.0
  1
MPE-RP112_160CA_6
 41
0.9
  0
LINE
  5
30
  8
BASIS
  6
DASHDOT
 62
     6
 10
-689.96462
 20
0.0
 30
0.0
 11
674.878938
 21
0.0
 31
0.0
  0
LINE
  5
31
  8
DETAIL
  6
CONTINUOUS
 62
     5
 10
-565.0
 20
-423.5
 30
0.0
 11
565.0
 21
-423.5
 31
0.0
  0
LINE
  5
32
  8
DETAIL
  6
CONTINUOUS
 62
     5
 10
-565.0
 20
-423.5
 30
0.0
 11
-565.0
 21
423.5
 31
0.0
  0
LINE
  5
33
  8
DETAIL
  6
CONTINUOUS
 62
     5
 10
-524.0
 20
447.5
 30
0.0
 11
526.0
 21
447.5
 31
0.0
  0
LINE
  5
34
  8
DETAIL
  6
CONTINUOUS
 62
     5
 10
-524.0
 20
423.5
 30
0.0
 11
-524.0
 21
447.5
 31
0.0
  0
LINE
  5
35
  8
DETAIL
  6
CONTINUOUS
 62
     5
 10
526.0
 20
423.5
 30
0.0
 11
526.0
 21
447.5
 31
0.0
  0
LINE
  5
36
  8
DETAIL
  6
CONTINUOUS
 62
     5
 10
-485.0
 20
-452.5
 30
0.0
 11
-485.0
 21
-423.5
 31
0.0
  0
LINE
  5
37
  8
DETAIL
  6
CONTINUOUS
 62
     5
 10
-260.0
 20
-452.5
 30
0.0
 11
290.0
 21
-452.5
 31
0.0
  0
LINE
  5
38
  8
DETAIL
  6
CONTINUOUS
 62
     5
 10
515.0
 20
-452.5
 30
0.0
 11
515.0
 21
-423.5
 31
0.0
  0
LINE
  5
39
  8
DETAIL
  6
CONTINUOUS
 62
     5
 10
-635.0
 20
-1.5
 30
0.0
 11
-635.0
 21
381.5
 31
0.0
  0
LINE
  5
3A
  8
DETAIL
  6
CONTINUOUS
 62
     5
 10
-625.0
 20
451.5
 30
0.0
 11
-565.0
 21
451.5
 31
0.0
  0
LINE
  5
3B
  8
DETAIL
  6
CONTINUOUS
 62
     5
 10
-485.0
 20
-452.5
 30
0.0
 11
515.0
 21
-452.5
 31
0.0
  0
LINE
  5
3C
  8
DETAIL
  6
CONTINUOUS
 62
     5
 10
-625.0
 20
391.5
 30
0.0
 11
-625.0
 21
416.5
 31
0.0
  0
LINE
  5
3D
  8
DETAIL
  6
CONTINUOUS
 62
     5
 10
-625.0
 20
391.5
 30
0.0
 11
-565.0
 21
391.5
 31
0.0
  0
LINE
  5
3E
  8
DETAIL
  6
CONTINUOUS
 62
     5
 10
-625.0
 20
-362.5
 30
0.0
 11
-565.0
 21
-362.5
 31
0.0
  0
LINE
  5
3F
  8
DETAIL
  6
CONTINUOUS
 62
     5
 10
-625.0
 20
-422.5
 30
0.0
 11
-565.0
 21
-422.5
 31
0.0
  0
LINE
  5
40
  8
DETAIL
  6
CONTINUOUS
 62
     5
 10
-625.0
 20
-422.5
 30
0.0
 11
-625.0
 21
-397.5
 31
0.0
  0
LINE
  5
41
  8
DETAIL
  6
CONTINUOUS
 62
     5
 10
565.0
 20
-423.5
 30
0.0
 11
565.0
 21
423.5
 31
0.0
  0
LINE
  5
42
  8
DETAIL
  6
CONTINUOUS
 62
     5
 10
-607.0
 20
411.500004
 30
0.0
 11
-607.0
 21
416.5
 31
0.0
  0
LINE
  5
43
  8
DETAIL
  6
CONTINUOUS
 62
     5
 10
-597.0
 20
411.500004
 30
0.0
 11
-597.0
 21
431.507829
 31
0.0
  0
ARC
  5
44
  8
DETAIL
  6
CONTINUOUS
 62
     5
 10
-602.0
 20
431.5
 30
0.0
 40
5.0
 50
0.0
 51
180.0
  0
ARC
  5
45
  8
DETAIL
  6
CONTINUOUS
 62
     5
 10
-602.0
 20
411.5
 30
0.0
 40
5.0
 50
179.99995
 51
0.00005
  0
LINE
  5
46
  8
DETAIL
  6
CONTINUOUS
 62
     5
 10
-625.0
 20
426.5
 30
0.0
 11
-607.0
 21
426.5
 31
0.0
  0
LINE
  5
47
  8
DETAIL
  6
CONTINUOUS
 62
     5
 10
-625.0
 20
416.5
 30
0.0
 11
-607.0
 21
416.5
 31
0.0
  0
LINE
  5
48
  8
DETAIL
  6
CONTINUOUS
 62
     5
 10
-625.0
 20
426.5
 30
0.0
 11
-625.0
 21
451.5
 31
0.0
  0
LINE
  5
49
  8
DETAIL
  6
CONTINUOUS
 62
     5
 10
-607.0
 20
426.5
 30
0.0
 11
-607.0
 21
431.507829
 31
0.0
  0
LINE
  5
4A
  8
DETAIL
  6
CONTINUOUS
 62
     5
 10
-607.0
 20
-387.5
 30
0.0
 11
-607.0
 21
-382.492171
 31
0.0
  0
LINE
  5
4B
  8
DETAIL
  6
CONTINUOUS
 62
     5
 10
-625.0
 20
-397.5
 30
0.0
 11
-607.0
 21
-397.5
 31
0.0
  0
LINE
  5
4C
  8
DETAIL
  6
CONTINUOUS
 62
     5
 10
-625.0
 20
-387.5
 30
0.0
 11
-607.0
 21
-387.5
 31
0.0
  0
ARC
  5
4D
  8
DETAIL
  6
CONTINUOUS
 62
     5
 10
-602.0
 20
-402.5
 30
0.0
 40
5.0
 50
179.99995
 51
0.00005
  0
ARC
  5
4E
  8
DETAIL
  6
CONTINUOUS
 62
     5
 10
-602.0
 20
-382.5
 30
0.0
 40
5.0
 50
0.0
 51
180.0
  0
LINE
  5
4F
  8
DETAIL
  6
CONTINUOUS
 62
     5
 10
-597.0
 20
-402.499996
 30
0.0
 11
-597.0
 21
-382.492171
 31
0.0
  0
LINE
  5
50
  8
DETAIL
  6
CONTINUOUS
 62
     5
 10
-607.0
 20
-402.499996
 30
0.0
 11
-607.0
 21
-397.5
 31
0.0
  0
LINE
  5
51
  8
DETAIL
  6
CONTINUOUS
 62
     5
 10
-625.0
 20
-387.5
 30
0.0
 11
-625.0
 21
-362.5
 31
0.0
  0
LINE
  5
52
  8
DETAIL
  6
CONTINUOUS
 62
     5
 10
-635.0
 20
381.5
 30
0.0
 11
-565.0
 21
381.5
 31
0.0
  0
LINE
  5
53
  8
DETAIL
  6
CONTINUOUS
 62
     5
 10
-635.0
 20
-1.5
 30
0.0
 11
-565.0
 21
-1.5
 31
0.0
  0
LINE
  5
54
  8
DETAIL
  6
CONTINUOUS
 62
     5
 10
625.0
 20
-397.5
 30
0.0
 11
625.0
 21
-422.5
 31
0.0
  0
LINE
  5
55
  8
DETAIL
  6
CONTINUOUS
 62
     5
 10
607.0
 20
-382.500004
 30
0.0
 11
607.0
 21
-387.5
 31
0.0
  0
LINE
  5
56
  8
DETAIL
  6
CONTINUOUS
 62
     5
 10
597.0
 20
-382.500004
 30
0.0
 11
597.0
 21
-402.507829
 31
0.0
  0
ARC
  5
57
  8
DETAIL
  6
CONTINUOUS
 62
     5
 10
602.0
 20
-402.5
 30
0.0
 40
5.0
 50
180.0
 51
0.0
  0
ARC
  5
58
  8
DETAIL
  6
CONTINUOUS
 62
     5
 10
602.0
 20
-382.5
 30
0.0
 40
5.0
 50
359.99995
 51
180.00005
  0
LINE
  5
59
  8
DETAIL
  6
CONTINUOUS
 62
     5
 10
625.0
 20
-397.5
 30
0.0
 11
607.0
 21
-397.5
 31
0.0
  0
LINE
  5
5A
  8
DETAIL
  6
CONTINUOUS
 62
     5
 10
625.0
 20
-387.5
 30
0.0
 11
607.0
 21
-387.5
 31
0.0
  0
LINE
  5
5B
  8
DETAIL
  6
CONTINUOUS
 62
     5
 10
607.0
 20
-397.5
 30
0.0
 11
607.0
 21
-402.507829
 31
0.0
  0
LINE
  5
5C
  8
DETAIL
  6
CONTINUOUS
 62
     5
 10
625.0
 20
-362.5
 30
0.0
 11
625.0
 21
-387.5
 31
0.0
  0
LINE
  5
5D
  8
DETAIL
  6
CONTINUOUS
 62
     5
 10
625.0
 20
-362.5
 30
0.0
 11
565.0
 21
-362.5
 31
0.0
  0
LINE
  5
5E
  8
DETAIL
  6
CONTINUOUS
 62
     5
 10
625.0
 20
-422.5
 30
0.0
 11
565.0
 21
-422.5
 31
0.0
  0
LINE
  5
5F
  8
DETAIL
  6
CONTINUOUS
 62
     5
 10
625.0
 20
391.5
 30
0.0
 11
565.0
 21
391.5
 31
0.0
  0
LINE
  5
60
  8
DETAIL
  6
CONTINUOUS
 62
     5
 10
625.0
 20
451.5
 30
0.0
 11
565.0
 21
451.5
 31
0.0
  0
LINE
  5
61
  8
DETAIL
  6
CONTINUOUS
 62
     5
 10
625.0
 20
451.5
 30
0.0
 11
625.0
 21
426.5
 31
0.0
  0
LINE
  5
62
  8
DETAIL
  6
CONTINUOUS
 62
     5
 10
607.0
 20
416.5
 30
0.0
 11
607.0
 21
411.492171
 31
0.0
  0
LINE
  5
63
  8
DETAIL
  6
CONTINUOUS
 62
     5
 10
625.0
 20
426.5
 30
0.0
 11
607.0
 21
426.5
 31
0.0
  0
LINE
  5
64
  8
DETAIL
  6
CONTINUOUS
 62
     5
 10
625.0
 20
416.5
 30
0.0
 11
607.0
 21
416.5
 31
0.0
  0
ARC
  5
65
  8
DETAIL
  6
CONTINUOUS
 62
     5
 10
602.0
 20
431.5
 30
0.0
 40
5.0
 50
359.99995
 51
180.00005
  0
ARC
  5
66
  8
DETAIL
  6
CONTINUOUS
 62
     5
 10
602.0
 20
411.5
 30
0.0
 40
5.0
 50
180.0
 51
0.0
  0
LINE
  5
67
  8
DETAIL
  6
CONTINUOUS
 62
     5
 10
597.0
 20
431.499996
 30
0.0
 11
597.0
 21
411.492171
 31
0.0
  0
LINE
  5
68
  8
DETAIL
  6
CONTINUOUS
 62
     5
 10
607.0
 20
431.499996
 30
0.0
 11
607.0
 21
426.5
 31
0.0
  0
LINE
  5
69
  8
DETAIL
  6
CONTINUOUS
 62
     5
 10
625.0
 20
416.5
 30
0.0
 11
625.0
 21
391.5
 31
0.0
  0
LINE
  5
6A
  8
DETAIL
  6
CONTINUOUS
 62
     5
 10
565.0
 20
391.5
 30
0.0
 11
565.0
 21
451.5
 31
0.0
  0
LINE
  5
6B
  8
DETAIL
  6
CONTINUOUS
 62
     5
 10
565.0
 20
-362.5
 30
0.0
 11
565.0
 21
-422.5
 31
0.0
  0
LINE
  5
6C
  8
DETAIL
  6
CONTINUOUS
 62
     5
 10
-565.0
 20
-362.5
 30
0.0
 11
-565.0
 21
-422.5
 31
0.0
  0
LINE
  5
6D
  8
DETAIL
  6
CONTINUOUS
 62
     5
 10
-565.0
 20
391.5
 30
0.0
 11
-565.0
 21
451.5
 31
0.0
  0
LINE
  5
6E
  8
DETAIL
  6
CONTINUOUS
 62
     5
 10
-650.0
 20
-215.56
 30
0.0
 11
-565.0
 21
-215.56
 31
0.0
  0
LINE
  5
6F
  8
DETAIL
  6
CONTINUOUS
 62
     5
 10
-650.0
 20
-231.44
 30
0.0
 11
-565.0
 21
-231.44
 31
0.0
  0
LINE
  5
70
  8
DETAIL
  6
CONTINUOUS
 62
     5
 10
-650.0
 20
-215.56
 30
0.0
 11
-650.0
 21
-231.44
 31
0.0
  0
LINE
  5
71
  8
DETAIL
  6
CONTINUOUS
 62
     5
 10
-630.0
 20
-136.26
 30
0.0
 11
-630.0
 21
-126.74
 31
0.0
  0
LINE
  5
72
  8
DETAIL
  6
CONTINUOUS
 62
     5
 10
-630.0
 20
-126.74
 30
0.0
 11
-565.0
 21
-126.74
 31
0.0
  0
LINE
  5
73
  8
DETAIL
  6
CONTINUOUS
 62
     5
 10
-630.0
 20
-136.26
 30
0.0
 11
-565.0
 21
-136.26
 31
0.0
  0
LINE
  5
74
  8
DETAIL
  6
CONTINUOUS
 62
     5
 10
-685.0
 20
-96.5
 30
0.0
 11
-685.0
 21
-64.5
 31
0.0
  0
LINE
  5
75
  8
DETAIL
  6
CONTINUOUS
 62
     5
 10
-685.0
 20
-64.5
 30
0.0
 11
-565.0
 21
-64.5
 31
0.0
  0
LINE
  5
76
  8
DETAIL
  6
CONTINUOUS
 62
     5
 10
-685.0
 20
-96.5
 30
0.0
 11
-565.0
 21
-96.5
 31
0.0
  0
CIRCLE
  5
77
  8
ARRANGE
  6
CONTINUOUS
 62
     1
 10
0.0
 20
0.0
 30
0.0
 40
40.0
  0
POINT
  5
78
  8
ARRANGE
  6
CONTINUOUS
 62
     1
 10
0.0
 20
0.0
 30
0.0
  0
LINE
  5
79
  8
OUTLINE
  6
CONTINUOUS
 62
     3
 10
565.0
 20
-423.5
 30
0.0
 11
565.0
 21
423.5
 31
0.0
  0
LINE
  5
7A
  8
OUTLINE
  6
CONTINUOUS
 62
     3
 10
-565.0
 20
-423.5
 30
0.0
 11
-565.0
 21
423.5
 31
0.0
  0
LINE
  5
7B
  8
OUTLINE
  6
CONTINUOUS
 62
     3
 10
-565.0
 20
-423.5
 30
0.0
 11
565.0
 21
-423.5
 31
0.0
  0
LINE
  5
7C
  8
SIZE
  6
CONTINUOUS
 62
    30
 10
-567.0
 20
643.881669
 30
0.0
 11
-678.906717
 21
643.881669
 31
0.0
  0
LINE
  5
7D
  8
SIZE
  6
CONTINUOUS
 62
    30
 10
-449.0
 20
529.511561
 30
0.0
 11
-338.118444
 21
529.511561
 31
0.0
  0
LINE
  5
7E
  8
SIZE
  6
CONTINUOUS
 62
    30
 10
-629.0
 20
-1000.669
 30
0.0
 11
-762.452941
 21
-1000.669
 31
0.0
  0
LINE
  5
7F
  8
SIZE
  6
CONTINUOUS
 62
    30
 10
-561.758938
 20
-744.199881
 30
0.0
 11
-756.598327
 21
-744.199881
 31
0.0
  0
LINE
  5
80
  8
SIZE
  6
CONTINUOUS
 62
    30
 10
-377.758938
 20
-610.086062
 30
0.0
 11
-259.983651
 21
-610.086062
 31
0.0
  0
LINE
  5
81
  8
SIZE
  6
CONTINUOUS
 62
    30
 10
800.799369
 20
447.5
 30
0.0
 11
800.799369
 21
575.094448
 31
0.0
  0
LINE
  5
82
  8
SIZE
  6
CONTINUOUS
 62
    30
 10
784.82945
 20
-456.5
 30
0.0
 11
784.82945
 21
-552.417861
 31
0.0
  0
CIRCLE
  5
83
  8
FIX
  6
CONTINUOUS
 62
    11
 10
-602.0
 20
421.5
 30
0.0
 40
5.0
  0
CIRCLE
  5
84
  8
FIX
  6
CONTINUOUS
 62
    11
 10
-602.0
 20
-392.5
 30
0.0
 40
5.0
  0
CIRCLE
  5
85
  8
FIX
  6
CONTINUOUS
 62
    11
 10
602.0
 20
-392.5
 30
0.0
 40
5.0
  0
CIRCLE
  5
86
  8
FIX
  6
CONTINUOUS
 62
    11
 10
602.0
 20
421.5
 30
0.0
 40
5.0
  0
LINE
  5
87
  8
NOTE
  6
CONTINUOUS
 62
     4
 10
-602.0
 20
421.5
 30
0.0
 11
-769.389406
 21
727.03924
 31
0.0
  0
LINE
  5
88
  8
NOTE
  6
CONTINUOUS
 62
     4
 10
-769.389406
 20
727.03924
 30
0.0
 11
-1048.921
 21
727.03924
 31
0.0
  0
TEXT
  5
89
  8
NOTE
  6
CONTINUOUS
 62
     4
 10
-1043.62163
 20
746.909827
 30
0.0
 40
64.0
  1
AHφ10
 41
0.9
  0
LINE
  5
8A
  8
NOTE
  6
CONTINUOUS
 62
     4
 10
602.0
 20
421.5
 30
0.0
 11
712.236682
 21
602.598757
 31
0.0
  0
TEXT
  5
8B
  8
NOTE
  6
CONTINUOUS
 62
     4
 10
717.535855
 20
622.469345
 30
0.0
 40
64.0
  1
AHφ10
 41
0.9
  0
LINE
  5
8C
  8
NOTE
  6
CONTINUOUS
 62
     4
 10
991.768079
 20
602.598757
 30
0.0
 11
712.236682
 21
602.598757
 31
0.0
  0
LINE
  5
8D
  8
NOTE
  6
CONTINUOUS
 62
     4
 10
602.0
 20
-392.5
 30
0.0
 11
746.856803
 21
-772.293067
 31
0.0
  0
LINE
  5
8E
  8
NOTE
  6
CONTINUOUS
 62
     4
 10
-602.0
 20
-392.5
 30
0.0
 11
-812.436572
 21
-748.134918
 31
0.0
  0
TEXT
  5
8F
  8
NOTE
  6
CONTINUOUS
 62
     4
 10
752.155976
 20
-752.422479
 30
0.0
 40
64.0
  1
AHφ10
 41
0.9
  0
LINE
  5
90
  8
NOTE
  6
CONTINUOUS
 62
     4
 10
1026.3882
 20
-772.293067
 30
0.0
 11
746.856803
 21
-772.293067
 31
0.0
  0
TEXT
  5
91
  8
NOTE
  6
CONTINUOUS
 62
     4
 10
-1086.669
 20
-728.264331
 30
0.0
 40
64.0
  1
AHφ10
 41
0.9
  0
LINE
  5
92
  8
NOTE
  6
CONTINUOUS
 62
     4
 10
-812.436572
 20
-748.134918
 30
0.0
 11
-1091.968
 21
-748.134918
 31
0.0
  0
LINE
  5
93
  8
NOTE
  6
CONTINUOUS
 62
     4
 10
-635.0
 20
294.648838
 30
0.0
 11
-481.159169
 21
220.885933
 31
0.0
  0
LINE
  5
94
  8
NOTE
  6
CONTINUOUS
 62
     4
 10
-329.541094
 20
220.885933
 30
0.0
 11
-481.159169
 21
220.885933
 31
0.0
  0
TEXT
  5
95
  8
NOTE
  6
CONTINUOUS
 62
     4
 10
-447.088992
 20
239.356064
 30
0.0
 40
64.0
  1
CL
 41
0.9
  0
LINE
  5
96
  8
NOTE
  6
CONTINUOUS
 62
     4
 10
-650.0
 20
-223.5
 30
0.0
 11
-476.552806
 21
-367.791769
 31
0.0
  0
LINE
  5
97
  8
NOTE
  6
CONTINUOUS
 62
     4
 10
-476.552806
 20
-367.791769
 30
0.0
 11
-19.298037
 21
-367.791769
 31
0.0
  0
TEXT
  5
98
  8
NOTE
  6
CONTINUOUS
 62
     4
 10
-457.74352
 20
-344.953241
 30
0.0
 40
64.0
  1
RG φ15.88
 41
0.9
  0
LINE
  5
99
  8
NOTE
  6
CONTINUOUS
 62
     4
 10
-630.0
 20
-131.5
 30
0.0
 11
-475.337762
 21
-249.568799
 31
0.0
  0
TEXT
  5
9A
  8
NOTE
  6
CONTINUOUS
 62
     4
 10
-452.369439
 20
-226.730271
 30
0.0
 40
64.0
  1
RL φ9.52
 41
0.9
  0
LINE
  5
9B
  8
NOTE
  6
CONTINUOUS
 62
     4
 10
-475.337762
 20
-249.568799
 30
0.0
 11
-18.019
 21
-249.568799
 31
0.0
  0
LINE
  5
9C
  8
NOTE
  6
CONTINUOUS
 62
     4
 10
-685.0
 20
-80.5
 30
0.0
 11
-496.034801
 21
-129.704468
 31
0.0
  0
LINE
  5
9D
  8
NOTE
  6
CONTINUOUS
 62
     4
 10
-496.034801
 20
-129.704468
 30
0.0
 11
-262.682855
 21
-129.704468
 31
0.0
  0
TEXT
  5
9E
  8
NOTE
  6
CONTINUOUS
 62
     4
 10
-487.05076
 20
-106.865939
 30
0.0
 40
64.0
  1
Dφ32
 41
0.9
  0
LINE
  5
9F
  8
SIZE
  6
CONTINUOUS
 62
    30
 10
956.154074
 20
-454.5
 30
0.0
 11
956.154074
 21
-580.676468
 31
0.0
  0
LINE
  5
A0
  8
SERVICESPACE
  6
DASHDOT
 62
     2
 10
-715.0
 20
323.5
 30
0.0
 11
-1165.0
 21
323.5
 31
0.0
  0
LINE
  5
A1
  8
SERVICESPACE
  6
DASHDOT
 62
     2
 10
-715.0
 20
-126.5
 30
0.0
 11
-1165.0
 21
-126.5
 31
0.0
  0
LINE
  5
A2
  8
SERVICESPACE
  6
DASHDOT
 62
     2
 10
-715.0
 20
-126.5
 30
0.0
 11
-715.0
 21
323.5
 31
0.0
  0
LINE
  5
A3
  8
SERVICESPACE
  6
DASHDOT
 62
     2
 10
-1165.0
 20
-126.5
 30
0.0
 11
-1165.0
 21
323.5
 31
0.0
  0
LINE
  5
A4
  8
SERVICESPACE
  6
DASHDOT
 62
     2
 10
-715.0
 20
323.5
 30
0.0
 11
-1165.0
 21
-126.5
 31
0.0
  0
LINE
  5
A5
  8
SERVICESPACE
  6
DASHDOT
 62
     2
 10
-1165.0
 20
323.5
 30
0.0
 11
-715.0
 21
-126.5
 31
0.0
  0
LINE
  5
A6
  8
SIZE
  6
CONTINUOUS
 62
    30
 10
-713.0
 20
542.71959
 30
0.0
 11
-1219.604
 21
542.71959
 31
0.0
  0
LINE
  5
A7
  8
SIZE
  6
CONTINUOUS
 62
    30
 10
-1316.478
 20
427.5
 30
0.0
 11
-1316.478
 21
811.314473
 31
0.0
  0
TEXT
  5
A8
  8
NOTE
  6
CONTINUOUS
 62
     4
 10
-1263.637
 20
456.857292
 30
0.0
 40
64.0
  1
サービススペース
 41
0.9
  0
TEXT
  5
A9
  8
NOTE
  6
CONTINUOUS
 62
     4
 10
-1226.207
 20
-181.615709
 30
0.0
 40
64.0
  1
サービススペース
 50
90.0
 41
0.9
  0
LINE
  5
AA
  8
NOTE
  6
CONTINUOUS
 62
     4
 10
-399.0
 20
437.5
 30
0.0
 11
-214.71382
 21
543.970346
 31
0.0
  0
LINE
  5
AB
  8
NOTE
  6
CONTINUOUS
 62
     4
 10
-214.71382
 20
543.970346
 30
0.0
 11
83.105974
 21
543.970346
 31
0.0
  0
TEXT
  5
AC
  8
NOTE
  6
CONTINUOUS
 62
     4
 10
-213.373845
 20
560.79751
 30
0.0
 40
64.0
  1
54-φ3
 41
0.9
  0
TEXT
  5
AD
  8
NOTE
  6
CONTINUOUS
 62
     4
 10
717.255756
 20
-855.122618
 30
0.0
 40
64.0
  1
48-φ3
 41
0.9
  0
LINE
  5
AE
  8
NOTE
  6
CONTINUOUS
 62
     4
 10
705.97783
 20
-883.742046
 30
0.0
 11
1022.441
 21
-883.742046
 31
0.0
  0
LINE
  5
AF
  8
NOTE
  6
CONTINUOUS
 62
     4
 10
465.0
 20
-437.5
 30
0.0
 11
705.97783
 21
-883.742046
 31
0.0
  0
LINE
  5
B0
  8
SIZE
  6
CONTINUOUS
 62
    30
 10
-565.0
 20
74.13619
 30
0.0
 11
-415.046181
 21
74.13619
 31
0.0
  0
CIRCLE
  5
B1
  8
DETAIL
  6
CONTINUOUS
 62
     5
 10
-435.0
 20
-437.5
 30
0.0
 40
1.5
  0
CIRCLE
  5
B2
  8
DETAIL
  6
CONTINUOUS
 62
     5
 10
-385.0
 20
-437.5
 30
0.0
 40
1.5
  0
CIRCLE
  5
B3
  8
DETAIL
  6
CONTINUOUS
 62
     5
 10
-335.0
 20
-437.5
 30
0.0
 40
1.5
  0
CIRCLE
  5
B4
  8
DETAIL
  6
CONTINUOUS
 62
     5
 10
-285.0
 20
-437.5
 30
0.0
 40
1.5
  0
CIRCLE
  5
B5
  8
DETAIL
  6
CONTINUOUS
 62
     5
 10
265.0
 20
-437.5
 30
0.0
 40
1.5
  0
CIRCLE
  5
B6
  8
DETAIL
  6
CONTINUOUS
 62
     5
 10
315.0
 20
-437.5
 30
0.0
 40
1.5
  0
CIRCLE
  5
B7
  8
DETAIL
  6
CONTINUOUS
 62
     5
 10
365.0
 20
-437.5
 30
0.0
 40
1.5
  0
CIRCLE
  5
B8
  8
DETAIL
  6
CONTINUOUS
 62
     5
 10
415.0
 20
-437.5
 30
0.0
 40
1.5
  0
CIRCLE
  5
B9
  8
DETAIL
  6
CONTINUOUS
 62
     5
 10
465.0
 20
-437.5
 30
0.0
 40
1.5
  0
LINE
  5
BA
  8
DETAIL
  6
CONTINUOUS
 62
     5
 10
-565.0
 20
423.5
 30
0.0
 11
565.0
 21
423.5
 31
0.0
  0
CIRCLE
  5
BB
  8
DETAIL
  6
CONTINUOUS
 62
     5
 10
-499.0
 20
437.5
 30
0.0
 40
1.5
  0
CIRCLE
  5
BC
  8
DETAIL
  6
CONTINUOUS
 62
     5
 10
-449.0
 20
437.5
 30
0.0
 40
1.5
  0
CIRCLE
  5
BD
  8
DETAIL
  6
CONTINUOUS
 62
     5
 10
-399.0
 20
437.5
 30
0.0
 40
1.5
  0
CIRCLE
  5
BE
  8
DETAIL
  6
CONTINUOUS
 62
     5
 10
-349.0
 20
437.5
 30
0.0
 40
1.5
  0
CIRCLE
  5
BF
  8
DETAIL
  6
CONTINUOUS
 62
     5
 10
-299.0
 20
437.5
 30
0.0
 40
1.5
  0
CIRCLE
  5
C0
  8
DETAIL
  6
CONTINUOUS
 62
     5
 10
-249.0
 20
437.5
 30
0.0
 40
1.5
  0
CIRCLE
  5
C1
  8
DETAIL
  6
CONTINUOUS
 62
     5
 10
-199.0
 20
437.5
 30
0.0
 40
1.5
  0
CIRCLE
  5
C2
  8
DETAIL
  6
CONTINUOUS
 62
     5
 10
-149.0
 20
437.5
 30
0.0
 40
1.5
  0
CIRCLE
  5
C3
  8
DETAIL
  6
CONTINUOUS
 62
     5
 10
1.0
 20
437.5
 30
0.0
 40
1.5
  0
CIRCLE
  5
C4
  8
DETAIL
  6
CONTINUOUS
 62
     5
 10
151.0
 20
437.5
 30
0.0
 40
1.5
  0
CIRCLE
  5
C5
  8
DETAIL
  6
CONTINUOUS
 62
     5
 10
201.0
 20
437.5
 30
0.0
 40
1.5
  0
CIRCLE
  5
C6
  8
DETAIL
  6
CONTINUOUS
 62
     5
 10
251.0
 20
437.5
 30
0.0
 40
1.5
  0
CIRCLE
  5
C7
  8
DETAIL
  6
CONTINUOUS
 62
     5
 10
301.0
 20
437.5
 30
0.0
 40
1.5
  0
CIRCLE
  5
C8
  8
DETAIL
  6
CONTINUOUS
 62
     5
 10
351.0
 20
437.5
 30
0.0
 40
1.5
  0
CIRCLE
  5
C9
  8
DETAIL
  6
CONTINUOUS
 62
     5
 10
401.0
 20
437.5
 30
0.0
 40
1.5
  0
CIRCLE
  5
CA
  8
DETAIL
  6
CONTINUOUS
 62
     5
 10
451.0
 20
437.5
 30
0.0
 40
1.5
  0
CIRCLE
  5
CB
  8
DETAIL
  6
CONTINUOUS
 62
     5
 10
501.0
 20
437.5
 30
0.0
 40
1.5
  0
CIRCLE
  5
CC
  8
DETAIL
  6
CONTINUOUS
 62
     5
 10
-235.0
 20
-437.5
 30
0.0
 40
1.5
  0
CIRCLE
  5
CD
  8
DETAIL
  6
CONTINUOUS
 62
     5
 10
-185.0
 20
-437.5
 30
0.0
 40
1.5
  0
CIRCLE
  5
CE
  8
DETAIL
  6
CONTINUOUS
 62
     5
 10
-135.0
 20
-437.5
 30
0.0
 40
1.5
  0
CIRCLE
  5
CF
  8
DETAIL
  6
CONTINUOUS
 62
     5
 10
165.0
 20
-437.5
 30
0.0
 40
1.5
  0
CIRCLE
  5
D0
  8
DETAIL
  6
CONTINUOUS
 62
     5
 10
215.0
 20
-437.5
 30
0.0
 40
1.5
  0
CIRCLE
  5
D1
  8
DETAIL
  6
CONTINUOUS
 62
     5
 10
-99.0
 20
437.5
 30
0.0
 40
1.5
  0
CIRCLE
  5
D2
  8
DETAIL
  6
CONTINUOUS
 62
     5
 10
-49.0
 20
437.5
 30
0.0
 40
1.5
  0
CIRCLE
  5
D3
  8
DETAIL
  6
CONTINUOUS
 62
     5
 10
51.0
 20
437.5
 30
0.0
 40
1.5
  0
CIRCLE
  5
D4
  8
DETAIL
  6
CONTINUOUS
 62
     5
 10
101.0
 20
437.5
 30
0.0
 40
1.5
  0
CIRCLE
  5
D5
  8
DETAIL
  6
CONTINUOUS
 62
     5
 10
115.0
 20
-437.5
 30
0.0
 40
1.5
  0
CIRCLE
  5
D6
  8
DETAIL
  6
CONTINUOUS
 62
     5
 10
65.0
 20
-437.5
 30
0.0
 40
1.5
  0
CIRCLE
  5
D7
  8
DETAIL
  6
CONTINUOUS
 62
     5
 10
15.0
 20
-437.5
 30
0.0
 40
1.5
  0
CIRCLE
  5
D8
  8
DETAIL
  6
CONTINUOUS
 62
     5
 10
-35.0
 20
-437.5
 30
0.0
 40
1.5
  0
CIRCLE
  5
D9
  8
DETAIL
  6
CONTINUOUS
 62
     5
 10
-85.0
 20
-437.5
 30
0.0
 40
1.5
  0
LINE
  5
DA
  8
SIZE
  6
CONTINUOUS
 62
    30
 10
585.0
 20
-423.5
 30
0.0
 11
865.024855
 21
-423.5
 31
0.0
  0
LINE
  5
DB
  8
SIZE
  6
CONTINUOUS
 62
    30
 10
585.0
 20
423.5
 30
0.0
 11
865.024855
 21
423.5
 31
0.0
  0
LINE
  5
DC
  8
SIZE
  6
CONTINUOUS
 62
    30
 10
835.024855
 20
-421.5
 30
0.0
 11
835.024855
 21
421.5
 31
0.0
  0
TEXT
  5
DD
  8
SIZE
  6
CONTINUOUS
 62
    30
 10
803.024855
 20
-74.057143
 30
0.0
 40
64.0
  1
847
 50
90.0
 41
0.9
  0
LINE
  5
DE
  8
SIZE
  6
CONTINUOUS
 62
    30
 10
546.0
 20
447.5
 30
0.0
 11
830.799369
 21
447.5
 31
0.0
  0
LINE
  5
DF
  8
SIZE
  6
CONTINUOUS
 62
    30
 10
541.0
 20
437.5
 30
0.0
 11
830.799369
 21
437.5
 31
0.0
  0
LINE
  5
E0
  8
SIZE
  6
CONTINUOUS
 62
    30
 10
800.799369
 20
435.5
 30
0.0
 11
800.799369
 21
433.5
 31
0.0
  0
LINE
  5
E1
  8
SIZE
  6
CONTINUOUS
 62
    30
 10
800.799369
 20
449.5
 30
0.0
 11
800.799369
 21
451.5
 31
0.0
  0
LINE
  5
E2
  8
SIZE
  6
CONTINUOUS
 62
    30
 10
800.799369
 20
437.5
 30
0.0
 11
800.799369
 21
447.5
 31
0.0
  0
TEXT
  5
E3
  8
SIZE
  6
CONTINUOUS
 62
    30
 10
768.799369
 20
472.069507
 30
0.0
 40
64.0
  1
10
 50
90.0
 41
0.9
  0
LINE
  5
E4
  8
SIZE
  6
CONTINUOUS
 62
    30
 10
-499.0
 20
477.5
 30
0.0
 11
-499.0
 21
559.511561
 31
0.0
  0
LINE
  5
E5
  8
SIZE
  6
CONTINUOUS
 62
    30
 10
-449.0
 20
477.5
 30
0.0
 11
-449.0
 21
559.511561
 31
0.0
  0
LINE
  5
E6
  8
SIZE
  6
CONTINUOUS
 62
    30
 10
-447.0
 20
529.511561
 30
0.0
 11
-445.0
 21
529.511561
 31
0.0
  0
LINE
  5
E7
  8
SIZE
  6
CONTINUOUS
 62
    30
 10
-501.0
 20
529.511561
 30
0.0
 11
-503.0
 21
529.511561
 31
0.0
  0
LINE
  5
E8
  8
SIZE
  6
CONTINUOUS
 62
    30
 10
-449.0
 20
529.511561
 30
0.0
 11
-499.0
 21
529.511561
 31
0.0
  0
TEXT
  5
E9
  8
SIZE
  6
CONTINUOUS
 62
    30
 10
-431.90093
 20
561.511561
 30
0.0
 40
64.0
  1
50
 41
0.9
  0
LINE
  5
EA
  8
SIZE
  6
CONTINUOUS
 62
    30
 10
-499.0
 20
477.5
 30
0.0
 11
-499.0
 21
673.881669
 31
0.0
  0
LINE
  5
EB
  8
SIZE
  6
CONTINUOUS
 62
    30
 10
501.0
 20
477.5
 30
0.0
 11
501.0
 21
673.881669
 31
0.0
  0
LINE
  5
EC
  8
SIZE
  6
CONTINUOUS
 62
    30
 10
-497.0
 20
643.881669
 30
0.0
 11
1.0
 21
643.881669
 31
0.0
  0
LINE
  5
ED
  8
SIZE
  6
CONTINUOUS
 62
    30
 10
499.0
 20
643.881669
 30
0.0
 11
1.0
 21
643.881669
 31
0.0
  0
TEXT
  5
EE
  8
SIZE
  6
CONTINUOUS
 62
    30
 10
-91.340973
 20
675.881669
 30
0.0
 40
64.0
  1
1000
 41
0.9
  0
LINE
  5
EF
  8
SIZE
  6
CONTINUOUS
 62
    30
 10
-524.0
 20
467.5
 30
0.0
 11
-524.0
 21
673.881669
 31
0.0
  0
LINE
  5
F0
  8
SIZE
  6
CONTINUOUS
 62
    30
 10
-499.0
 20
467.5
 30
0.0
 11
-499.0
 21
673.881669
 31
0.0
  0
LINE
  5
F1
  8
SIZE
  6
CONTINUOUS
 62
    30
 10
-497.0
 20
643.881669
 30
0.0
 11
-495.0
 21
643.881669
 31
0.0
  0
LINE
  5
F2
  8
SIZE
  6
CONTINUOUS
 62
    30
 10
-526.0
 20
643.881669
 30
0.0
 11
-528.0
 21
643.881669
 31
0.0
  0
LINE
  5
F3
  8
SIZE
  6
CONTINUOUS
 62
    30
 10
-499.0
 20
643.881669
 30
0.0
 11
-524.0
 21
643.881669
 31
0.0
  0
TEXT
  5
F4
  8
SIZE
  6
CONTINUOUS
 62
    30
 10
-558.128571
 20
675.881669
 30
0.0
 40
64.0
  1
25
 41
0.9
  0
LINE
  5
F5
  8
SIZE
  6
CONTINUOUS
 62
    30
 10
-485.0
 20
-472.5
 30
0.0
 11
-485.0
 21
-912.189809
 31
0.0
  0
LINE
  5
F6
  8
SIZE
  6
CONTINUOUS
 62
    30
 10
515.0
 20
-472.5
 30
0.0
 11
515.0
 21
-912.189809
 31
0.0
  0
LINE
  5
F7
  8
SIZE
  6
CONTINUOUS
 62
    30
 10
-483.0
 20
-882.189809
 30
0.0
 11
15.0
 21
-882.189809
 31
0.0
  0
LINE
  5
F8
  8
SIZE
  6
CONTINUOUS
 62
    30
 10
513.0
 20
-882.189809
 30
0.0
 11
15.0
 21
-882.189809
 31
0.0
  0
TEXT
  5
F9
  8
SIZE
  6
CONTINUOUS
 62
    30
 10
-96.024677
 20
-850.189809
 30
0.0
 40
64.0
  1
1000
 41
0.9
  0
LINE
  5
FA
  8
SIZE
  6
CONTINUOUS
 62
    30
 10
-524.0
 20
467.5
 30
0.0
 11
-524.0
 21
789.542312
 31
0.0
  0
LINE
  5
FB
  8
SIZE
  6
CONTINUOUS
 62
    30
 10
526.0
 20
467.5
 30
0.0
 11
526.0
 21
789.542312
 31
0.0
  0
LINE
  5
FC
  8
SIZE
  6
CONTINUOUS
 62
    30
 10
-522.0
 20
759.542312
 30
0.0
 11
1.0
 21
759.542312
 31
0.0
  0
LINE
  5
FD
  8
SIZE
  6
CONTINUOUS
 62
    30
 10
524.0
 20
759.542312
 30
0.0
 11
1.0
 21
759.542312
 31
0.0
  0
TEXT
  5
FE
  8
SIZE
  6
CONTINUOUS
 62
    30
 10
-90.097883
 20
791.542312
 30
0.0
 40
64.0
  1
1050
 41
0.9
  0
LINE
  5
FF
  8
SIZE
  6
CONTINUOUS
 62
    30
 10
-635.0
 20
75.842722
 30
0.0
 11
-635.0
 21
104.13619
 31
0.0
  0
LINE
  5
100
  8
SIZE
  6
CONTINUOUS
 62
    30
 10
-565.0
 20
75.842722
 30
0.0
 11
-565.0
 21
104.13619
 31
0.0
  0
LINE
  5
101
  8
SIZE
  6
CONTINUOUS
 62
    30
 10
-563.0
 20
74.13619
 30
0.0
 11
-561.0
 21
74.13619
 31
0.0
  0
LINE
  5
102
  8
SIZE
  6
CONTINUOUS
 62
    30
 10
-637.0
 20
74.13619
 30
0.0
 11
-639.0
 21
74.13619
 31
0.0
  0
LINE
  5
103
  8
SIZE
  6
CONTINUOUS
 62
    30
 10
-565.0
 20
74.13619
 30
0.0
 11
-635.0
 21
74.13619
 31
0.0
  0
TEXT
  5
104
  8
SIZE
  6
CONTINUOUS
 62
    30
 10
-533.528828
 20
106.13619
 30
0.0
 40
64.0
  1
70
 41
0.9
  0
LINE
  5
105
  8
SIZE
  6
CONTINUOUS
 62
    30
 10
-1185.0
 20
323.5
 30
0.0
 11
-1346.478
 21
323.5
 31
0.0
  0
LINE
  5
106
  8
SIZE
  6
CONTINUOUS
 62
    30
 10
-1185.0
 20
-126.5
 30
0.0
 11
-1346.478
 21
-126.5
 31
0.0
  0
LINE
  5
107
  8
SIZE
  6
CONTINUOUS
 62
    30
 10
-1316.478
 20
321.5
 30
0.0
 11
-1316.478
 21
-124.5
 31
0.0
  0
TEXT
  5
108
  8
SIZE
  6
CONTINUOUS
 62
    30
 10
-1348.478
 20
24.442857
 30
0.0
 40
64.0
  1
450
 50
90.0
 41
0.9
  0
LINE
  5
109
  8
SIZE
  6
CONTINUOUS
 62
    30
 10
-585.0
 20
423.5
 30
0.0
 11
-1346.478
 21
423.5
 31
0.0
  0
LINE
  5
10A
  8
SIZE
  6
CONTINUOUS
 62
    30
 10
-1185.0
 20
323.5
 30
0.0
 11
-1346.478
 21
323.5
 31
0.0
  0
LINE
  5
10B
  8
SIZE
  6
CONTINUOUS
 62
    30
 10
-1316.478
 20
321.5
 30
0.0
 11
-1316.478
 21
319.5
 31
0.0
  0
LINE
  5
10C
  8
SIZE
  6
CONTINUOUS
 62
    30
 10
-1316.478
 20
425.5
 30
0.0
 11
-1316.478
 21
427.5
 31
0.0
  0
LINE
  5
10D
  8
SIZE
  6
CONTINUOUS
 62
    30
 10
-1316.478
 20
323.5
 30
0.0
 11
-1316.478
 21
423.5
 31
0.0
  0
TEXT
  5
10E
  8
SIZE
  6
CONTINUOUS
 62
    30
 10
-1348.478
 20
450.072948
 30
0.0
 40
64.0
  1
100～200
 50
90.0
 41
0.9
  0
LINE
  5
10F
  8
SIZE
  6
CONTINUOUS
 62
    30
 10
-565.0
 20
443.5
 30
0.0
 11
-565.0
 21
572.71959
 31
0.0
  0
LINE
  5
110
  8
SIZE
  6
CONTINUOUS
 62
    30
 10
-715.0
 20
343.5
 30
0.0
 11
-715.0
 21
572.71959
 31
0.0
  0
LINE
  5
111
  8
SIZE
  6
CONTINUOUS
 62
    30
 10
-717.0
 20
542.71959
 30
0.0
 11
-719.0
 21
542.71959
 31
0.0
  0
LINE
  5
112
  8
SIZE
  6
CONTINUOUS
 62
    30
 10
-563.0
 20
542.71959
 30
0.0
 11
-561.0
 21
542.71959
 31
0.0
  0
LINE
  5
113
  8
SIZE
  6
CONTINUOUS
 62
    30
 10
-715.0
 20
542.71959
 30
0.0
 11
-565.0
 21
542.71959
 31
0.0
  0
TEXT
  5
114
  8
SIZE
  6
CONTINUOUS
 62
    30
 10
-1197.501
 20
574.71959
 30
0.0
 40
64.0
  1
150～200
 41
0.9
  0
LINE
  5
115
  8
SIZE
  6
CONTINUOUS
 62
    30
 10
535.0
 20
-452.5
 30
0.0
 11
1088.391
 21
-452.5
 31
0.0
  0
LINE
  5
116
  8
SIZE
  6
CONTINUOUS
 62
    30
 10
645.0
 20
451.5
 30
0.0
 11
1088.391
 21
451.5
 31
0.0
  0
LINE
  5
117
  8
SIZE
  6
CONTINUOUS
 62
    30
 10
1058.391
 20
-450.5
 30
0.0
 11
1058.391
 21
-0.5
 31
0.0
  0
LINE
  5
118
  8
SIZE
  6
CONTINUOUS
 62
    30
 10
1058.391
 20
449.5
 30
0.0
 11
1058.391
 21
-0.5
 31
0.0
  0
TEXT
  5
119
  8
SIZE
  6
CONTINUOUS
 62
    30
 10
1026.391
 20
-75.928571
 30
0.0
 40
64.0
  1
904
 50
90.0
 41
0.9
  0
LINE
  5
11A
  8
SIZE
  6
CONTINUOUS
 62
    30
 10
642.0
 20
-392.5
 30
0.0
 11
986.154074
 21
-392.5
 31
0.0
  0
LINE
  5
11B
  8
SIZE
  6
CONTINUOUS
 62
    30
 10
642.0
 20
421.5
 30
0.0
 11
986.154074
 21
421.5
 31
0.0
  0
LINE
  5
11C
  8
SIZE
  6
CONTINUOUS
 62
    30
 10
956.154074
 20
-390.5
 30
0.0
 11
956.154074
 21
14.5
 31
0.0
  0
LINE
  5
11D
  8
SIZE
  6
CONTINUOUS
 62
    30
 10
956.154074
 20
419.5
 30
0.0
 11
956.154074
 21
14.5
 31
0.0
  0
TEXT
  5
11E
  8
SIZE
  6
CONTINUOUS
 62
    30
 10
924.154074
 20
-55.442857
 30
0.0
 40
64.0
  1
814
 50
90.0
 41
0.9
  0
LINE
  5
11F
  8
SIZE
  6
CONTINUOUS
 62
    30
 10
535.0
 20
-452.5
 30
0.0
 11
986.154074
 21
-452.5
 31
0.0
  0
LINE
  5
120
  8
SIZE
  6
CONTINUOUS
 62
    30
 10
642.0
 20
-392.5
 30
0.0
 11
986.154074
 21
-392.5
 31
0.0
  0
LINE
  5
121
  8
SIZE
  6
CONTINUOUS
 62
    30
 10
956.154074
 20
-390.5
 30
0.0
 11
956.154074
 21
-388.5
 31
0.0
  0
LINE
  5
122
  8
SIZE
  6
CONTINUOUS
 62
    30
 10
956.154074
 20
-454.5
 30
0.0
 11
956.154074
 21
-456.5
 31
0.0
  0
LINE
  5
123
  8
SIZE
  6
CONTINUOUS
 62
    30
 10
956.154074
 20
-392.5
 30
0.0
 11
956.154074
 21
-452.5
 31
0.0
  0
TEXT
  5
124
  8
SIZE
  6
CONTINUOUS
 62
    30
 10
924.154074
 20
-562.707837
 30
0.0
 40
64.0
  1
60
 50
90.0
 41
0.9
  0
LINE
  5
125
  8
SIZE
  6
CONTINUOUS
 62
    30
 10
535.0
 20
-452.5
 30
0.0
 11
814.82945
 21
-452.5
 31
0.0
  0
LINE
  5
126
  8
SIZE
  6
CONTINUOUS
 62
    30
 10
502.395496
 20
-437.5
 30
0.0
 11
814.82945
 21
-437.5
 31
0.0
  0
LINE
  5
127
  8
SIZE
  6
CONTINUOUS
 62
    30
 10
784.82945
 20
-435.5
 30
0.0
 11
784.82945
 21
-433.5
 31
0.0
  0
LINE
  5
128
  8
SIZE
  6
CONTINUOUS
 62
    30
 10
784.82945
 20
-454.5
 30
0.0
 11
784.82945
 21
-456.5
 31
0.0
  0
LINE
  5
129
  8
SIZE
  6
CONTINUOUS
 62
    30
 10
784.82945
 20
-437.5
 30
0.0
 11
784.82945
 21
-452.5
 31
0.0
  0
TEXT
  5
12A
  8
SIZE
  6
CONTINUOUS
 62
    30
 10
752.82945
 20
-548.934289
 30
0.0
 40
64.0
  1
15
 50
90.0
 41
0.9
  0
LINE
  5
12B
  8
SIZE
  6
CONTINUOUS
 62
    30
 10
-435.0
 20
-477.5
 30
0.0
 11
-435.0
 21
-640.086062
 31
0.0
  0
LINE
  5
12C
  8
SIZE
  6
CONTINUOUS
 62
    30
 10
-385.0
 20
-477.5
 30
0.0
 11
-385.0
 21
-640.086062
 31
0.0
  0
LINE
  5
12D
  8
SIZE
  6
CONTINUOUS
 62
    30
 10
-383.0
 20
-610.086062
 30
0.0
 11
-381.0
 21
-610.086062
 31
0.0
  0
LINE
  5
12E
  8
SIZE
  6
CONTINUOUS
 62
    30
 10
-437.0
 20
-610.086062
 30
0.0
 11
-439.0
 21
-610.086062
 31
0.0
  0
LINE
  5
12F
  8
SIZE
  6
CONTINUOUS
 62
    30
 10
-385.0
 20
-610.086062
 30
0.0
 11
-435.0
 21
-610.086062
 31
0.0
  0
TEXT
  5
130
  8
SIZE
  6
CONTINUOUS
 62
    30
 10
-363.798243
 20
-578.086062
 30
0.0
 40
64.0
  1
50
 41
0.9
  0
LINE
  5
131
  8
SIZE
  6
CONTINUOUS
 62
    30
 10
-435.0
 20
-477.5
 30
0.0
 11
-435.0
 21
-774.199881
 31
0.0
  0
LINE
  5
132
  8
SIZE
  6
CONTINUOUS
 62
    30
 10
465.0
 20
-473.595806
 30
0.0
 11
465.0
 21
-774.199881
 31
0.0
  0
LINE
  5
133
  8
SIZE
  6
CONTINUOUS
 62
    30
 10
-433.0
 20
-744.199881
 30
0.0
 11
15.0
 21
-744.199881
 31
0.0
  0
LINE
  5
134
  8
SIZE
  6
CONTINUOUS
 62
    30
 10
463.0
 20
-744.199881
 30
0.0
 11
15.0
 21
-744.199881
 31
0.0
  0
TEXT
  5
135
  8
SIZE
  6
CONTINUOUS
 62
    30
 10
-77.58786
 20
-712.199881
 30
0.0
 40
64.0
  1
900
 41
0.9
  0
LINE
  5
136
  8
SIZE
  6
CONTINUOUS
 62
    30
 10
-485.0
 20
-472.5
 30
0.0
 11
-485.0
 21
-774.199881
 31
0.0
  0
LINE
  5
137
  8
SIZE
  6
CONTINUOUS
 62
    30
 10
-435.0
 20
-477.5
 30
0.0
 11
-435.0
 21
-774.199881
 31
0.0
  0
LINE
  5
138
  8
SIZE
  6
CONTINUOUS
 62
    30
 10
-433.0
 20
-744.199881
 30
0.0
 11
-431.0
 21
-744.199881
 31
0.0
  0
LINE
  5
139
  8
SIZE
  6
CONTINUOUS
 62
    30
 10
-487.0
 20
-744.199881
 30
0.0
 11
-489.0
 21
-744.199881
 31
0.0
  0
LINE
  5
13A
  8
SIZE
  6
CONTINUOUS
 62
    30
 10
-435.0
 20
-744.199881
 30
0.0
 11
-485.0
 21
-744.199881
 31
0.0
  0
TEXT
  5
13B
  8
SIZE
  6
CONTINUOUS
 62
    30
 10
-501.38751
 20
-712.199881
 30
0.0
 40
64.0
  1
50
 41
0.9
  0
LINE
  5
13C
  8
SIZE
  6
CONTINUOUS
 62
    30
 10
-565.0
 20
-442.5
 30
0.0
 11
-565.0
 21
-774.199881
 31
0.0
  0
LINE
  5
13D
  8
SIZE
  6
CONTINUOUS
 62
    30
 10
-485.0
 20
-472.5
 30
0.0
 11
-485.0
 21
-774.199881
 31
0.0
  0
LINE
  5
13E
  8
SIZE
  6
CONTINUOUS
 62
    30
 10
-483.0
 20
-744.199881
 30
0.0
 11
-481.0
 21
-744.199881
 31
0.0
  0
LINE
  5
13F
  8
SIZE
  6
CONTINUOUS
 62
    30
 10
-567.0
 20
-744.199881
 30
0.0
 11
-569.0
 21
-744.199881
 31
0.0
  0
LINE
  5
140
  8
SIZE
  6
CONTINUOUS
 62
    30
 10
-485.0
 20
-744.199881
 30
0.0
 11
-565.0
 21
-744.199881
 31
0.0
  0
TEXT
  5
141
  8
SIZE
  6
CONTINUOUS
 62
    30
 10
-734.114225
 20
-712.199881
 30
0.0
 40
64.0
  1
80
 41
0.9
  0
LINE
  5
142
  8
SIZE
  6
CONTINUOUS
 62
    30
 10
-602.0
 20
-432.5
 30
0.0
 11
-602.0
 21
-1030.669
 31
0.0
  0
LINE
  5
143
  8
SIZE
  6
CONTINUOUS
 62
    30
 10
602.0
 20
-432.5
 30
0.0
 11
602.0
 21
-1030.669
 31
0.0
  0
LINE
  5
144
  8
SIZE
  6
CONTINUOUS
 62
    30
 10
-600.0
 20
-1000.669
 30
0.0
 11
600.0
 21
-1000.669
 31
0.0
  0
TEXT
  5
145
  8
SIZE
  6
CONTINUOUS
 62
    30
 10
-97.371429
 20
-968.668981
 30
0.0
 40
64.0
  1
1204
 41
0.9
  0
LINE
  5
146
  8
SIZE
  6
CONTINUOUS
 62
    30
 10
-625.0
 20
-442.5
 30
0.0
 11
-625.0
 21
-1030.669
 31
0.0
  0
LINE
  5
147
  8
SIZE
  6
CONTINUOUS
 62
    30
 10
-602.0
 20
-432.5
 30
0.0
 11
-602.0
 21
-1030.669
 31
0.0
  0
LINE
  5
148
  8
SIZE
  6
CONTINUOUS
 62
    30
 10
-600.0
 20
-1000.669
 30
0.0
 11
-598.0
 21
-1000.669
 31
0.0
  0
LINE
  5
149
  8
SIZE
  6
CONTINUOUS
 62
    30
 10
-627.0
 20
-1000.669
 30
0.0
 11
-629.0
 21
-1000.669
 31
0.0
  0
LINE
  5
14A
  8
SIZE
  6
CONTINUOUS
 62
    30
 10
-602.0
 20
-1000.669
 30
0.0
 11
-625.0
 21
-1000.669
 31
0.0
  0
TEXT
  5
14B
  8
SIZE
  6
CONTINUOUS
 62
    30
 10
-741.026685
 20
-968.668981
 30
0.0
 40
64.0
  1
23
 41
0.9
  0
LINE
  5
14C
  8
SIZE
  6
CONTINUOUS
 62
    30
 10
-625.0
 20
-442.5
 30
0.0
 11
-625.0
 21
-1142.772
 31
0.0
  0
LINE
  5
14D
  8
SIZE
  6
CONTINUOUS
 62
    30
 10
625.0
 20
-442.5
 30
0.0
 11
625.0
 21
-1142.772
 31
0.0
  0
LINE
  5
14E
  8
SIZE
  6
CONTINUOUS
 62
    30
 10
-623.0
 20
-1112.772
 30
0.0
 11
0.0
 21
-1112.772
 31
0.0
  0
LINE
  5
14F
  8
SIZE
  6
CONTINUOUS
 62
    30
 10
623.0
 20
-1112.772
 30
0.0
 11
0.0
 21
-1112.772
 31
0.0
  0
TEXT
  5
150
  8
SIZE
  6
CONTINUOUS
 62
    30
 10
-91.383088
 20
-1080.772
 30
0.0
 40
64.0
  1
1250
 41
0.9
  0
LINE
  5
151
  8
SIZE
  6
CONTINUOUS
 62
    30
 10
-585.0
 20
-423.5
 30
0.0
 11
-907.096024
 21
-423.5
 31
0.0
  0
LINE
  5
152
  8
SIZE
  6
CONTINUOUS
 62
    30
 10
-725.0
 20
-80.5
 30
0.0
 11
-907.096024
 21
-80.5
 31
0.0
  0
LINE
  5
153
  8
SIZE
  6
CONTINUOUS
 62
    30
 10
-877.096024
 20
-421.5
 30
0.0
 11
-877.096024
 21
-82.5
 31
0.0
  0
TEXT
  5
154
  8
SIZE
  6
CONTINUOUS
 62
    30
 10
-909.096024
 20
-326.057143
 30
0.0
 40
64.0
  1
343
 50
90.0
 41
0.9
  0
LINE
  5
155
  8
SIZE
  6
CONTINUOUS
 62
    30
 10
-690.0
 20
-223.5
 30
0.0
 11
-784.370196
 21
-223.5
 31
0.0
  0
LINE
  5
156
  8
SIZE
  6
CONTINUOUS
 62
    30
 10
-670.0
 20
-131.5
 30
0.0
 11
-784.370196
 21
-131.5
 31
0.0
  0
LINE
  5
157
  8
SIZE
  6
CONTINUOUS
 62
    30
 10
-754.370196
 20
-129.5
 30
0.0
 11
-754.370196
 21
-127.5
 31
0.0
  0
LINE
  5
158
  8
SIZE
  6
CONTINUOUS
 62
    30
 10
-754.370196
 20
-225.5
 30
0.0
 11
-754.370196
 21
-227.5
 31
0.0
  0
LINE
  5
159
  8
SIZE
  6
CONTINUOUS
 62
    30
 10
-754.370196
 20
-131.5
 30
0.0
 11
-754.370196
 21
-223.5
 31
0.0
  0
TEXT
  5
15A
  8
SIZE
  6
CONTINUOUS
 62
    30
 10
-786.370196
 20
-224.128571
 30
0.0
 40
64.0
  1
92
 50
90.0
 41
0.9
  0
LINE
  5
15B
  8
SIZE
  6
CONTINUOUS
 62
    30
 10
-585.0
 20
-423.5
 30
0.0
 11
-784.370196
 21
-423.5
 31
0.0
  0
LINE
  5
15C
  8
SIZE
  6
CONTINUOUS
 62
    30
 10
-690.0
 20
-223.5
 30
0.0
 11
-784.370196
 21
-223.5
 31
0.0
  0
LINE
  5
15D
  8
SIZE
  6
CONTINUOUS
 62
    30
 10
-754.370196
 20
-421.5
 30
0.0
 11
-754.370196
 21
-323.5
 31
0.0
  0
LINE
  5
15E
  8
SIZE
  6
CONTINUOUS
 62
    30
 10
-754.370196
 20
-225.5
 30
0.0
 11
-754.370196
 21
-323.5
 31
0.0
  0
TEXT
  5
15F
  8
SIZE
  6
CONTINUOUS
 62
    30
 10
-786.370196
 20
-397.557143
 30
0.0
 40
64.0
  1
200
 50
90.0
 41
0.9
  0
LINE
  5
160
  8
SIZE
  6
CONTINUOUS
 62
    30
 10
-655.0
 20
381.5
 30
0.0
 11
-797.042804
 21
381.5
 31
0.0
  0
LINE
  5
161
  8
SIZE
  6
CONTINUOUS
 62
    30
 10
-655.0
 20
-1.5
 30
0.0
 11
-797.042804
 21
-1.5
 31
0.0
  0
LINE
  5
162
  8
SIZE
  6
CONTINUOUS
 62
    30
 10
-767.042804
 20
379.5
 30
0.0
 11
-767.042804
 21
190.0
 31
0.0
  0
LINE
  5
163
  8
SIZE
  6
CONTINUOUS
 62
    30
 10
-767.042804
 20
0.5
 30
0.0
 11
-767.042804
 21
190.0
 31
0.0
  0
TEXT
  5
164
  8
SIZE
  6
CONTINUOUS
 62
    30
 10
-799.042804
 20
115.942857
 30
0.0
 40
64.0
  1
383
 50
90.0
 41
0.9
  0
LINE
  5
165
  8
SIZE
  6
CONTINUOUS
 62
    30
 10
-565.0
 20
443.5
 30
0.0
 11
-565.0
 21
673.881669
 31
0.0
  0
LINE
  5
166
  8
SIZE
  6
CONTINUOUS
 62
    30
 10
-524.0
 20
467.5
 30
0.0
 11
-524.0
 21
673.881669
 31
0.0
  0
LINE
  5
167
  8
SIZE
  6
CONTINUOUS
 62
    30
 10
-522.0
 20
643.881669
 30
0.0
 11
-520.0
 21
643.881669
 31
0.0
  0
LINE
  5
168
  8
SIZE
  6
CONTINUOUS
 62
    30
 10
-567.0
 20
643.881669
 30
0.0
 11
-569.0
 21
643.881669
 31
0.0
  0
LINE
  5
169
  8
SIZE
  6
CONTINUOUS
 62
    30
 10
-524.0
 20
643.881669
 30
0.0
 11
-565.0
 21
643.881669
 31
0.0
  0
TEXT
  5
16A
  8
SIZE
  6
CONTINUOUS
 62
    30
 10
-663.126254
 20
675.881669
 30
0.0
 40
64.0
  1
41
 41
0.9
  0
LINE
  5
16B
  8
SIZE
  6
CONTINUOUS
 62
    30
 10
565.0
 20
443.5
 30
0.0
 11
565.0
 21
903.272326
 31
0.0
  0
LINE
  5
16C
  8
SIZE
  6
CONTINUOUS
 62
    30
 10
-565.0
 20
443.5
 30
0.0
 11
-565.0
 21
903.272326
 31
0.0
  0
LINE
  5
16D
  8
SIZE
  6
CONTINUOUS
 62
    30
 10
563.0
 20
873.272326
 30
0.0
 11
0.0
 21
873.272326
 31
0.0
  0
LINE
  5
16E
  8
SIZE
  6
CONTINUOUS
 62
    30
 10
-563.0
 20
873.272326
 30
0.0
 11
0.0
 21
873.272326
 31
0.0
  0
TEXT
  5
16F
  8
SIZE
  6
CONTINUOUS
 62
    30
 10
-88.31784
 20
905.272326
 30
0.0
 40
64.0
  1
1130
 41
0.9
  0
CIRCLE
  5
170
  8
SIZE
  6
CONTINUOUS
 62
    30
 10
-565.0
 20
873.272326
 30
0.0
 40
6.0
  0
CIRCLE
  5
171
  8
SIZE
  6
CONTINUOUS
 62
    30
 10
565.0
 20
873.272326
 30
0.0
 40
6.0
  0
CIRCLE
  5
172
  8
SIZE
  6
CONTINUOUS
 62
    30
 10
-565.0
 20
643.881669
 30
0.0
 40
6.0
  0
CIRCLE
  5
173
  8
SIZE
  6
CONTINUOUS
 62
    30
 10
-524.0
 20
643.881669
 30
0.0
 40
6.0
  0
CIRCLE
  5
174
  8
SIZE
  6
CONTINUOUS
 62
    30
 10
-767.042804
 20
-1.5
 30
0.0
 40
6.0
  0
CIRCLE
  5
175
  8
SIZE
  6
CONTINUOUS
 62
    30
 10
-767.042804
 20
381.5
 30
0.0
 40
6.0
  0
CIRCLE
  5
176
  8
SIZE
  6
CONTINUOUS
 62
    30
 10
-754.370196
 20
-223.5
 30
0.0
 40
6.0
  0
CIRCLE
  5
177
  8
SIZE
  6
CONTINUOUS
 62
    30
 10
-754.370196
 20
-423.5
 30
0.0
 40
6.0
  0
CIRCLE
  5
178
  8
SIZE
  6
CONTINUOUS
 62
    30
 10
-754.370196
 20
-223.5
 30
0.0
 40
6.0
  0
CIRCLE
  5
179
  8
SIZE
  6
CONTINUOUS
 62
    30
 10
-754.370196
 20
-131.5
 30
0.0
 40
6.0
  0
CIRCLE
  5
17A
  8
SIZE
  6
CONTINUOUS
 62
    30
 10
-877.096024
 20
-80.5
 30
0.0
 40
6.0
  0
CIRCLE
  5
17B
  8
SIZE
  6
CONTINUOUS
 62
    30
 10
-877.096024
 20
-423.5
 30
0.0
 40
6.0
  0
CIRCLE
  5
17C
  8
SIZE
  6
CONTINUOUS
 62
    30
 10
625.0
 20
-1112.772
 30
0.0
 40
6.0
  0
CIRCLE
  5
17D
  8
SIZE
  6
CONTINUOUS
 62
    30
 10
-625.0
 20
-1112.772
 30
0.0
 40
6.0
  0
CIRCLE
  5
17E
  8
SIZE
  6
CONTINUOUS
 62
    30
 10
-625.0
 20
-1000.669
 30
0.0
 40
6.0
  0
CIRCLE
  5
17F
  8
SIZE
  6
CONTINUOUS
 62
    30
 10
-602.0
 20
-1000.669
 30
0.0
 40
6.0
  0
CIRCLE
  5
180
  8
SIZE
  6
CONTINUOUS
 62
    30
 10
602.0
 20
-1000.669
 30
0.0
 40
6.0
  0
CIRCLE
  5
181
  8
SIZE
  6
CONTINUOUS
 62
    30
 10
-602.0
 20
-1000.669
 30
0.0
 40
6.0
  0
CIRCLE
  5
182
  8
SIZE
  6
CONTINUOUS
 62
    30
 10
-565.0
 20
-744.199881
 30
0.0
 40
6.0
  0
CIRCLE
  5
183
  8
SIZE
  6
CONTINUOUS
 62
    30
 10
-485.0
 20
-744.199881
 30
0.0
 40
6.0
  0
CIRCLE
  5
184
  8
SIZE
  6
CONTINUOUS
 62
    30
 10
-485.0
 20
-744.199881
 30
0.0
 40
6.0
  0
CIRCLE
  5
185
  8
SIZE
  6
CONTINUOUS
 62
    30
 10
-435.0
 20
-744.199881
 30
0.0
 40
6.0
  0
CIRCLE
  5
186
  8
SIZE
  6
CONTINUOUS
 62
    30
 10
465.0
 20
-744.199881
 30
0.0
 40
6.0
  0
CIRCLE
  5
187
  8
SIZE
  6
CONTINUOUS
 62
    30
 10
-435.0
 20
-744.199881
 30
0.0
 40
6.0
  0
CIRCLE
  5
188
  8
SIZE
  6
CONTINUOUS
 62
    30
 10
-435.0
 20
-610.086062
 30
0.0
 40
6.0
  0
CIRCLE
  5
189
  8
SIZE
  6
CONTINUOUS
 62
    30
 10
-385.0
 20
-610.086062
 30
0.0
 40
6.0
  0
CIRCLE
  5
18A
  8
SIZE
  6
CONTINUOUS
 62
    30
 10
784.82945
 20
-452.5
 30
0.0
 40
6.0
  0
CIRCLE
  5
18B
  8
SIZE
  6
CONTINUOUS
 62
    30
 10
784.82945
 20
-437.5
 30
0.0
 40
6.0
  0
CIRCLE
  5
18C
  8
SIZE
  6
CONTINUOUS
 62
    30
 10
956.154074
 20
-452.5
 30
0.0
 40
6.0
  0
CIRCLE
  5
18D
  8
SIZE
  6
CONTINUOUS
 62
    30
 10
956.154074
 20
-392.5
 30
0.0
 40
6.0
  0
CIRCLE
  5
18E
  8
SIZE
  6
CONTINUOUS
 62
    30
 10
956.154074
 20
421.5
 30
0.0
 40
6.0
  0
CIRCLE
  5
18F
  8
SIZE
  6
CONTINUOUS
 62
    30
 10
956.154074
 20
-392.5
 30
0.0
 40
6.0
  0
CIRCLE
  5
190
  8
SIZE
  6
CONTINUOUS
 62
    30
 10
1058.391
 20
451.5
 30
0.0
 40
6.0
  0
CIRCLE
  5
191
  8
SIZE
  6
CONTINUOUS
 62
    30
 10
1058.391
 20
-452.5
 30
0.0
 40
6.0
  0
CIRCLE
  5
192
  8
SIZE
  6
CONTINUOUS
 62
    30
 10
-565.0
 20
542.71959
 30
0.0
 40
6.0
  0
CIRCLE
  5
193
  8
SIZE
  6
CONTINUOUS
 62
    30
 10
-715.0
 20
542.71959
 30
0.0
 40
6.0
  0
CIRCLE
  5
194
  8
SIZE
  6
CONTINUOUS
 62
    30
 10
-1316.478
 20
423.5
 30
0.0
 40
6.0
  0
CIRCLE
  5
195
  8
SIZE
  6
CONTINUOUS
 62
    30
 10
-1316.478
 20
323.5
 30
0.0
 40
6.0
  0
CIRCLE
  5
196
  8
SIZE
  6
CONTINUOUS
 62
    30
 10
-1316.478
 20
-126.5
 30
0.0
 40
6.0
  0
CIRCLE
  5
197
  8
SIZE
  6
CONTINUOUS
 62
    30
 10
-1316.478
 20
323.5
 30
0.0
 40
6.0
  0
CIRCLE
  5
198
  8
SIZE
  6
CONTINUOUS
 62
    30
 10
-635.0
 20
74.13619
 30
0.0
 40
6.0
  0
CIRCLE
  5
199
  8
SIZE
  6
CONTINUOUS
 62
    30
 10
-565.0
 20
74.13619
 30
0.0
 40
6.0
  0
CIRCLE
  5
19A
  8
SIZE
  6
CONTINUOUS
 62
    30
 10
526.0
 20
759.542312
 30
0.0
 40
6.0
  0
CIRCLE
  5
19B
  8
SIZE
  6
CONTINUOUS
 62
    30
 10
-524.0
 20
759.542312
 30
0.0
 40
6.0
  0
CIRCLE
  5
19C
  8
SIZE
  6
CONTINUOUS
 62
    30
 10
515.0
 20
-882.189809
 30
0.0
 40
6.0
  0
CIRCLE
  5
19D
  8
SIZE
  6
CONTINUOUS
 62
    30
 10
-485.0
 20
-882.189809
 30
0.0
 40
6.0
  0
CIRCLE
  5
19E
  8
SIZE
  6
CONTINUOUS
 62
    30
 10
-524.0
 20
643.881669
 30
0.0
 40
6.0
  0
CIRCLE
  5
19F
  8
SIZE
  6
CONTINUOUS
 62
    30
 10
-499.0
 20
643.881669
 30
0.0
 40
6.0
  0
CIRCLE
  5
1A0
  8
SIZE
  6
CONTINUOUS
 62
    30
 10
501.0
 20
643.881669
 30
0.0
 40
6.0
  0
CIRCLE
  5
1A1
  8
SIZE
  6
CONTINUOUS
 62
    30
 10
-499.0
 20
643.881669
 30
0.0
 40
6.0
  0
CIRCLE
  5
1A2
  8
SIZE
  6
CONTINUOUS
 62
    30
 10
-499.0
 20
529.511561
 30
0.0
 40
6.0
  0
CIRCLE
  5
1A3
  8
SIZE
  6
CONTINUOUS
 62
    30
 10
-449.0
 20
529.511561
 30
0.0
 40
6.0
  0
CIRCLE
  5
1A4
  8
SIZE
  6
CONTINUOUS
 62
    30
 10
800.799369
 20
447.5
 30
0.0
 40
6.0
  0
CIRCLE
  5
1A5
  8
SIZE
  6
CONTINUOUS
 62
    30
 10
800.799369
 20
437.5
 30
0.0
 40
6.0
  0
CIRCLE
  5
1A6
  8
SIZE
  6
CONTINUOUS
 62
    30
 10
835.024855
 20
423.5
 30
0.0
 40
6.0
  0
CIRCLE
  5
1A7
  8
SIZE
  6
CONTINUOUS
 62
    30
 10
835.024855
 20
-423.5
 30
0.0
 40
6.0
  0
LINE
  5
1A8
  8
NOTE
  6
CONTINUOUS
 62
     4
 10
-602.0
 20
401.5
 30
0.0
 11
-602.0
 21
441.5
 31
0.0
  0
LINE
  5
1A9
  8
NOTE
  6
CONTINUOUS
 62
     4
 10
-622.0
 20
421.5
 30
0.0
 11
-582.0
 21
421.5
 31
0.0
  0
LINE
  5
1AA
  8
NOTE
  6
CONTINUOUS
 62
     4
 10
-685.0
 20
-100.5
 30
0.0
 11
-685.0
 21
-60.5
 31
0.0
  0
LINE
  5
1AB
  8
NOTE
  6
CONTINUOUS
 62
     4
 10
-705.0
 20
-80.5
 30
0.0
 11
-665.0
 21
-80.5
 31
0.0
  0
LINE
  5
1AC
  8
NOTE
  6
CONTINUOUS
 62
     4
 10
-630.0
 20
-151.5
 30
0.0
 11
-630.0
 21
-111.5
 31
0.0
  0
LINE
  5
1AD
  8
NOTE
  6
CONTINUOUS
 62
     4
 10
-650.0
 20
-131.5
 30
0.0
 11
-610.0
 21
-131.5
 31
0.0
  0
LINE
  5
1AE
  8
NOTE
  6
CONTINUOUS
 62
     4
 10
-650.0
 20
-243.5
 30
0.0
 11
-650.0
 21
-203.5
 31
0.0
  0
LINE
  5
1AF
  8
NOTE
  6
CONTINUOUS
 62
     4
 10
-670.0
 20
-223.5
 30
0.0
 11
-630.0
 21
-223.5
 31
0.0
  0
LINE
  5
1B0
  8
NOTE
  6
CONTINUOUS
 62
     4
 10
-602.0
 20
-412.5
 30
0.0
 11
-602.0
 21
-372.5
 31
0.0
  0
LINE
  5
1B1
  8
NOTE
  6
CONTINUOUS
 62
     4
 10
-622.0
 20
-392.5
 30
0.0
 11
-582.0
 21
-392.5
 31
0.0
  0
LINE
  5
1B2
  8
NOTE
  6
CONTINUOUS
 62
     4
 10
602.0
 20
-372.5
 30
0.0
 11
602.0
 21
-412.5
 31
0.0
  0
LINE
  5
1B3
  8
NOTE
  6
CONTINUOUS
 62
     4
 10
622.0
 20
-392.5
 30
0.0
 11
582.0
 21
-392.5
 31
0.0
  0
LINE
  5
1B4
  8
NOTE
  6
CONTINUOUS
 62
     4
 10
602.0
 20
401.5
 30
0.0
 11
602.0
 21
441.5
 31
0.0
  0
LINE
  5
1B5
  8
NOTE
  6
CONTINUOUS
 62
     4
 10
582.0
 20
421.5
 30
0.0
 11
622.0
 21
421.5
 31
0.0
  0
LINE
  5
1B6
  8
NOTE
  6
CONTINUOUS
 62
     4
 10
-435.0
 20
-457.5
 30
0.0
 11
-435.0
 21
-417.5
 31
0.0
  0
LINE
  5
1B7
  8
NOTE
  6
CONTINUOUS
 62
     4
 10
-455.0
 20
-437.5
 30
0.0
 11
-415.0
 21
-437.5
 31
0.0
  0
LINE
  5
1B8
  8
NOTE
  6
CONTINUOUS
 62
     4
 10
365.0
 20
-457.5
 30
0.0
 11
365.0
 21
-417.5
 31
0.0
  0
LINE
  5
1B9
  8
NOTE
  6
CONTINUOUS
 62
     4
 10
345.0
 20
-437.5
 30
0.0
 11
385.0
 21
-437.5
 31
0.0
  0
LINE
  5
1BA
  8
NOTE
  6
CONTINUOUS
 62
     4
 10
-35.0
 20
-457.5
 30
0.0
 11
-35.0
 21
-417.5
 31
0.0
  0
LINE
  5
1BB
  8
NOTE
  6
CONTINUOUS
 62
     4
 10
-55.0
 20
-437.5
 30
0.0
 11
-15.0
 21
-437.5
 31
0.0
  0
LINE
  5
1BC
  8
NOTE
  6
CONTINUOUS
 62
     4
 10
15.0
 20
-457.5
 30
0.0
 11
15.0
 21
-417.5
 31
0.0
  0
LINE
  5
1BD
  8
NOTE
  6
CONTINUOUS
 62
     4
 10
-5.0
 20
-437.5
 30
0.0
 11
35.0
 21
-437.5
 31
0.0
  0
LINE
  5
1BE
  8
NOTE
  6
CONTINUOUS
 62
     4
 10
65.0
 20
-457.5
 30
0.0
 11
65.0
 21
-417.5
 31
0.0
  0
LINE
  5
1BF
  8
NOTE
  6
CONTINUOUS
 62
     4
 10
45.0
 20
-437.5
 30
0.0
 11
85.0
 21
-437.5
 31
0.0
  0
LINE
  5
1C0
  8
NOTE
  6
CONTINUOUS
 62
     4
 10
115.0
 20
-457.5
 30
0.0
 11
115.0
 21
-417.5
 31
0.0
  0
LINE
  5
1C1
  8
NOTE
  6
CONTINUOUS
 62
     4
 10
95.0
 20
-437.5
 30
0.0
 11
135.0
 21
-437.5
 31
0.0
  0
LINE
  5
1C2
  8
NOTE
  6
CONTINUOUS
 62
     4
 10
315.0
 20
-457.5
 30
0.0
 11
315.0
 21
-417.5
 31
0.0
  0
LINE
  5
1C3
  8
NOTE
  6
CONTINUOUS
 62
     4
 10
295.0
 20
-437.5
 30
0.0
 11
335.0
 21
-437.5
 31
0.0
  0
LINE
  5
1C4
  8
NOTE
  6
CONTINUOUS
 62
     4
 10
265.0
 20
-457.5
 30
0.0
 11
265.0
 21
-417.5
 31
0.0
  0
LINE
  5
1C5
  8
NOTE
  6
CONTINUOUS
 62
     4
 10
245.0
 20
-437.5
 30
0.0
 11
285.0
 21
-437.5
 31
0.0
  0
LINE
  5
1C6
  8
NOTE
  6
CONTINUOUS
 62
     4
 10
215.0
 20
-457.5
 30
0.0
 11
215.0
 21
-417.5
 31
0.0
  0
LINE
  5
1C7
  8
NOTE
  6
CONTINUOUS
 62
     4
 10
195.0
 20
-437.5
 30
0.0
 11
235.0
 21
-437.5
 31
0.0
  0
LINE
  5
1C8
  8
NOTE
  6
CONTINUOUS
 62
     4
 10
165.0
 20
-457.5
 30
0.0
 11
165.0
 21
-417.5
 31
0.0
  0
LINE
  5
1C9
  8
NOTE
  6
CONTINUOUS
 62
     4
 10
145.0
 20
-437.5
 30
0.0
 11
185.0
 21
-437.5
 31
0.0
  0
LINE
  5
1CA
  8
NOTE
  6
CONTINUOUS
 62
     4
 10
-235.0
 20
-457.5
 30
0.0
 11
-235.0
 21
-417.5
 31
0.0
  0
LINE
  5
1CB
  8
NOTE
  6
CONTINUOUS
 62
     4
 10
-255.0
 20
-437.5
 30
0.0
 11
-215.0
 21
-437.5
 31
0.0
  0
LINE
  5
1CC
  8
NOTE
  6
CONTINUOUS
 62
     4
 10
-185.0
 20
-457.5
 30
0.0
 11
-185.0
 21
-417.5
 31
0.0
  0
LINE
  5
1CD
  8
NOTE
  6
CONTINUOUS
 62
     4
 10
-205.0
 20
-437.5
 30
0.0
 11
-165.0
 21
-437.5
 31
0.0
  0
LINE
  5
1CE
  8
NOTE
  6
CONTINUOUS
 62
     4
 10
-135.0
 20
-457.5
 30
0.0
 11
-135.0
 21
-417.5
 31
0.0
  0
LINE
  5
1CF
  8
NOTE
  6
CONTINUOUS
 62
     4
 10
-155.0
 20
-437.5
 30
0.0
 11
-115.0
 21
-437.5
 31
0.0
  0
LINE
  5
1D0
  8
NOTE
  6
CONTINUOUS
 62
     4
 10
-85.0
 20
-457.5
 30
0.0
 11
-85.0
 21
-417.5
 31
0.0
  0
LINE
  5
1D1
  8
NOTE
  6
CONTINUOUS
 62
     4
 10
-105.0
 20
-437.5
 30
0.0
 11
-65.0
 21
-437.5
 31
0.0
  0
LINE
  5
1D2
  8
NOTE
  6
CONTINUOUS
 62
     4
 10
-285.0
 20
-457.5
 30
0.0
 11
-285.0
 21
-417.5
 31
0.0
  0
LINE
  5
1D3
  8
NOTE
  6
CONTINUOUS
 62
     4
 10
-305.0
 20
-437.5
 30
0.0
 11
-265.0
 21
-437.5
 31
0.0
  0
LINE
  5
1D4
  8
NOTE
  6
CONTINUOUS
 62
     4
 10
-335.0
 20
-457.5
 30
0.0
 11
-335.0
 21
-417.5
 31
0.0
  0
LINE
  5
1D5
  8
NOTE
  6
CONTINUOUS
 62
     4
 10
-355.0
 20
-437.5
 30
0.0
 11
-315.0
 21
-437.5
 31
0.0
  0
LINE
  5
1D6
  8
NOTE
  6
CONTINUOUS
 62
     4
 10
-385.0
 20
-457.5
 30
0.0
 11
-385.0
 21
-417.5
 31
0.0
  0
LINE
  5
1D7
  8
NOTE
  6
CONTINUOUS
 62
     4
 10
-405.0
 20
-437.5
 30
0.0
 11
-365.0
 21
-437.5
 31
0.0
  0
LINE
  5
1D8
  8
NOTE
  6
CONTINUOUS
 62
     4
 10
415.0
 20
-457.5
 30
0.0
 11
415.0
 21
-417.5
 31
0.0
  0
LINE
  5
1D9
  8
NOTE
  6
CONTINUOUS
 62
     4
 10
395.0
 20
-437.5
 30
0.0
 11
435.0
 21
-437.5
 31
0.0
  0
LINE
  5
1DA
  8
NOTE
  6
CONTINUOUS
 62
     4
 10
465.0
 20
-457.5
 30
0.0
 11
465.0
 21
-417.5
 31
0.0
  0
LINE
  5
1DB
  8
NOTE
  6
CONTINUOUS
 62
     4
 10
445.0
 20
-437.5
 30
0.0
 11
485.0
 21
-437.5
 31
0.0
  0
LINE
  5
1DC
  8
NOTE
  6
CONTINUOUS
 62
     4
 10
-99.0
 20
417.5
 30
0.0
 11
-99.0
 21
457.5
 31
0.0
  0
LINE
  5
1DD
  8
NOTE
  6
CONTINUOUS
 62
     4
 10
-119.0
 20
437.5
 30
0.0
 11
-79.0
 21
437.5
 31
0.0
  0
LINE
  5
1DE
  8
NOTE
  6
CONTINUOUS
 62
     4
 10
-49.0
 20
417.5
 30
0.0
 11
-49.0
 21
457.5
 31
0.0
  0
LINE
  5
1DF
  8
NOTE
  6
CONTINUOUS
 62
     4
 10
-69.0
 20
437.5
 30
0.0
 11
-29.0
 21
437.5
 31
0.0
  0
LINE
  5
1E0
  8
NOTE
  6
CONTINUOUS
 62
     4
 10
1.0
 20
417.5
 30
0.0
 11
1.0
 21
457.5
 31
0.0
  0
LINE
  5
1E1
  8
NOTE
  6
CONTINUOUS
 62
     4
 10
-19.0
 20
437.5
 30
0.0
 11
21.0
 21
437.5
 31
0.0
  0
LINE
  5
1E2
  8
NOTE
  6
CONTINUOUS
 62
     4
 10
51.0
 20
417.5
 30
0.0
 11
51.0
 21
457.5
 31
0.0
  0
LINE
  5
1E3
  8
NOTE
  6
CONTINUOUS
 62
     4
 10
31.0
 20
437.5
 30
0.0
 11
71.0
 21
437.5
 31
0.0
  0
LINE
  5
1E4
  8
NOTE
  6
CONTINUOUS
 62
     4
 10
151.0
 20
417.5
 30
0.0
 11
151.0
 21
457.5
 31
0.0
  0
LINE
  5
1E5
  8
NOTE
  6
CONTINUOUS
 62
     4
 10
131.0
 20
437.5
 30
0.0
 11
171.0
 21
437.5
 31
0.0
  0
LINE
  5
1E6
  8
NOTE
  6
CONTINUOUS
 62
     4
 10
101.0
 20
417.5
 30
0.0
 11
101.0
 21
457.5
 31
0.0
  0
LINE
  5
1E7
  8
NOTE
  6
CONTINUOUS
 62
     4
 10
81.0
 20
437.5
 30
0.0
 11
121.0
 21
437.5
 31
0.0
  0
LINE
  5
1E8
  8
NOTE
  6
CONTINUOUS
 62
     4
 10
-299.0
 20
417.5
 30
0.0
 11
-299.0
 21
457.5
 31
0.0
  0
LINE
  5
1E9
  8
NOTE
  6
CONTINUOUS
 62
     4
 10
-319.0
 20
437.5
 30
0.0
 11
-279.0
 21
437.5
 31
0.0
  0
LINE
  5
1EA
  8
NOTE
  6
CONTINUOUS
 62
     4
 10
-249.0
 20
417.5
 30
0.0
 11
-249.0
 21
457.5
 31
0.0
  0
LINE
  5
1EB
  8
NOTE
  6
CONTINUOUS
 62
     4
 10
-269.0
 20
437.5
 30
0.0
 11
-229.0
 21
437.5
 31
0.0
  0
LINE
  5
1EC
  8
NOTE
  6
CONTINUOUS
 62
     4
 10
-199.0
 20
417.5
 30
0.0
 11
-199.0
 21
457.5
 31
0.0
  0
LINE
  5
1ED
  8
NOTE
  6
CONTINUOUS
 62
     4
 10
-219.0
 20
437.5
 30
0.0
 11
-179.0
 21
437.5
 31
0.0
  0
LINE
  5
1EE
  8
NOTE
  6
CONTINUOUS
 62
     4
 10
-149.0
 20
417.5
 30
0.0
 11
-149.0
 21
457.5
 31
0.0
  0
LINE
  5
1EF
  8
NOTE
  6
CONTINUOUS
 62
     4
 10
-169.0
 20
437.5
 30
0.0
 11
-129.0
 21
437.5
 31
0.0
  0
LINE
  5
1F0
  8
NOTE
  6
CONTINUOUS
 62
     4
 10
-349.0
 20
417.5
 30
0.0
 11
-349.0
 21
457.5
 31
0.0
  0
LINE
  5
1F1
  8
NOTE
  6
CONTINUOUS
 62
     4
 10
-369.0
 20
437.5
 30
0.0
 11
-329.0
 21
437.5
 31
0.0
  0
LINE
  5
1F2
  8
NOTE
  6
CONTINUOUS
 62
     4
 10
-399.0
 20
417.5
 30
0.0
 11
-399.0
 21
457.5
 31
0.0
  0
LINE
  5
1F3
  8
NOTE
  6
CONTINUOUS
 62
     4
 10
-419.0
 20
437.5
 30
0.0
 11
-379.0
 21
437.5
 31
0.0
  0
LINE
  5
1F4
  8
NOTE
  6
CONTINUOUS
 62
     4
 10
-449.0
 20
417.5
 30
0.0
 11
-449.0
 21
457.5
 31
0.0
  0
LINE
  5
1F5
  8
NOTE
  6
CONTINUOUS
 62
     4
 10
-469.0
 20
437.5
 30
0.0
 11
-429.0
 21
437.5
 31
0.0
  0
LINE
  5
1F6
  8
NOTE
  6
CONTINUOUS
 62
     4
 10
-499.0
 20
417.5
 30
0.0
 11
-499.0
 21
457.5
 31
0.0
  0
LINE
  5
1F7
  8
NOTE
  6
CONTINUOUS
 62
     4
 10
-519.0
 20
437.5
 30
0.0
 11
-479.0
 21
437.5
 31
0.0
  0
LINE
  5
1F8
  8
NOTE
  6
CONTINUOUS
 62
     4
 10
301.0
 20
417.5
 30
0.0
 11
301.0
 21
457.5
 31
0.0
  0
LINE
  5
1F9
  8
NOTE
  6
CONTINUOUS
 62
     4
 10
281.0
 20
437.5
 30
0.0
 11
321.0
 21
437.5
 31
0.0
  0
LINE
  5
1FA
  8
NOTE
  6
CONTINUOUS
 62
     4
 10
251.0
 20
417.5
 30
0.0
 11
251.0
 21
457.5
 31
0.0
  0
LINE
  5
1FB
  8
NOTE
  6
CONTINUOUS
 62
     4
 10
231.0
 20
437.5
 30
0.0
 11
271.0
 21
437.5
 31
0.0
  0
LINE
  5
1FC
  8
NOTE
  6
CONTINUOUS
 62
     4
 10
201.0
 20
417.5
 30
0.0
 11
201.0
 21
457.5
 31
0.0
  0
LINE
  5
1FD
  8
NOTE
  6
CONTINUOUS
 62
     4
 10
181.0
 20
437.5
 30
0.0
 11
221.0
 21
437.5
 31
0.0
  0
LINE
  5
1FE
  8
NOTE
  6
CONTINUOUS
 62
     4
 10
501.0
 20
417.5
 30
0.0
 11
501.0
 21
457.5
 31
0.0
  0
LINE
  5
1FF
  8
NOTE
  6
CONTINUOUS
 62
     4
 10
481.0
 20
437.5
 30
0.0
 11
521.0
 21
437.5
 31
0.0
  0
LINE
  5
200
  8
NOTE
  6
CONTINUOUS
 62
     4
 10
451.0
 20
417.5
 30
0.0
 11
451.0
 21
457.5
 31
0.0
  0
LINE
  5
201
  8
NOTE
  6
CONTINUOUS
 62
     4
 10
431.0
 20
437.5
 30
0.0
 11
471.0
 21
437.5
 31
0.0
  0
LINE
  5
202
  8
NOTE
  6
CONTINUOUS
 62
     4
 10
401.0
 20
417.5
 30
0.0
 11
401.0
 21
457.5
 31
0.0
  0
LINE
  5
203
  8
NOTE
  6
CONTINUOUS
 62
     4
 10
381.0
 20
437.5
 30
0.0
 11
421.0
 21
437.5
 31
0.0
  0
LINE
  5
204
  8
NOTE
  6
CONTINUOUS
 62
     4
 10
351.0
 20
417.5
 30
0.0
 11
351.0
 21
457.5
 31
0.0
  0
LINE
  5
205
  8
NOTE
  6
CONTINUOUS
 62
     4
 10
331.0
 20
437.5
 30
0.0
 11
371.0
 21
437.5
 31
0.0
  0
POLYLINE
  5
206
  8
NOTE
  6
CONTINUOUS
 62
     4
 66
     1
 10
0.0
 20
0.0
 30
0.0
  0
VERTEX
  5
207
  8
NOTE
  6
CONTINUOUS
 62
     4
 10
-371.933628
 20
466.951851
 30
0.0
 50
212.416863
  0
VERTEX
  5
208
  8
NOTE
  6
CONTINUOUS
 62
     4
 10
-399.0
 20
437.5
 30
0.0
 50
212.416863
  0
VERTEX
  5
209
  8
NOTE
  6
CONTINUOUS
 62
     4
 10
-360.833909
 20
449.472865
 30
0.0
 50
212.416863
  0
SEQEND
  5
20A
  8
NOTE
  6
CONTINUOUS
 62
     4
  0
POLYLINE
  5
20B
  8
NOTE
  6
CONTINUOUS
 62
     4
 66
     1
 10
0.0
 20
0.0
 30
0.0
  0
VERTEX
  5
20C
  8
NOTE
  6
CONTINUOUS
 62
     4
 10
493.305288
 20
-465.763239
 30
0.0
 50
120.04259
  0
VERTEX
  5
20D
  8
NOTE
  6
CONTINUOUS
 62
     4
 10
465.0
 20
-437.5
 30
0.0
 50
120.04259
  0
VERTEX
  5
20E
  8
NOTE
  6
CONTINUOUS
 62
     4
 10
475.381479
 20
-476.129327
 30
0.0
 50
120.04259
  0
SEQEND
  5
20F
  8
NOTE
  6
CONTINUOUS
 62
     4
  0
POLYLINE
  5
210
  8
NOTE
  6
CONTINUOUS
 62
     4
 66
     1
 10
0.0
 20
0.0
 30
0.0
  0
VERTEX
  5
211
  8
NOTE
  6
CONTINUOUS
 62
     4
 10
-645.007122
 20
-81.254798
 30
0.0
 50
163.918768
  0
VERTEX
  5
212
  8
NOTE
  6
CONTINUOUS
 62
     4
 10
-685.0
 20
-80.5
 30
0.0
 50
163.918768
  0
VERTEX
  5
213
  8
NOTE
  6
CONTINUOUS
 62
     4
 10
-650.742551
 20
-101.150113
 30
0.0
 50
163.918768
  0
SEQEND
  5
214
  8
NOTE
  6
CONTINUOUS
 62
     4
  0
POLYLINE
  5
215
  8
NOTE
  6
CONTINUOUS
 62
     4
 66
     1
 10
0.0
 20
0.0
 30
0.0
  0
VERTEX
  5
216
  8
NOTE
  6
CONTINUOUS
 62
     4
 10
-592.575776
 20
-145.62188
 30
0.0
 50
144.326203
  0
VERTEX
  5
217
  8
NOTE
  6
CONTINUOUS
 62
     4
 10
-630.0
 20
-131.5
 30
0.0
 50
144.326203
  0
VERTEX
  5
218
  8
NOTE
  6
CONTINUOUS
 62
     4
 10
-604.650612
 20
-162.442018
 30
0.0
 50
144.326203
  0
SEQEND
  5
219
  8
NOTE
  6
CONTINUOUS
 62
     4
  0
POLYLINE
  5
21A
  8
NOTE
  6
CONTINUOUS
 62
     4
 66
     1
 10
0.0
 20
0.0
 30
0.0
  0
VERTEX
  5
21B
  8
NOTE
  6
CONTINUOUS
 62
     4
 10
-613.714194
 20
-240.332715
 30
0.0
 50
140.113766
  0
VERTEX
  5
21C
  8
NOTE
  6
CONTINUOUS
 62
     4
 10
-650.0
 20
-223.5
 30
0.0
 50
140.113766
  0
VERTEX
  5
21D
  8
NOTE
  6
CONTINUOUS
 62
     4
 10
-626.991928
 20
-256.220462
 30
0.0
 50
140.113766
  0
SEQEND
  5
21E
  8
NOTE
  6
CONTINUOUS
 62
     4
  0
POLYLINE
  5
21F
  8
NOTE
  6
CONTINUOUS
 62
     4
 66
     1
 10
0.0
 20
0.0
 30
0.0
  0
VERTEX
  5
220
  8
NOTE
  6
CONTINUOUS
 62
     4
 10
-595.499519
 20
288.34709
 30
0.0
 50
155.935647
  0
VERTEX
  5
221
  8
NOTE
  6
CONTINUOUS
 62
     4
 10
-635.0
 20
294.648838
 30
0.0
 50
155.935647
  0
VERTEX
  5
222
  8
NOTE
  6
CONTINUOUS
 62
     4
 10
-603.942454
 20
269.441124
 30
0.0
 50
155.935647
  0
SEQEND
  5
223
  8
NOTE
  6
CONTINUOUS
 62
     4
  0
POLYLINE
  5
224
  8
NOTE
  6
CONTINUOUS
 62
     4
 66
     1
 10
0.0
 20
0.0
 30
0.0
  0
VERTEX
  5
225
  8
NOTE
  6
CONTINUOUS
 62
     4
 10
626.5367
 20
-424.090352
 30
0.0
 50
112.837023
  0
VERTEX
  5
226
  8
NOTE
  6
CONTINUOUS
 62
     4
 10
602.0
 20
-392.5
 30
0.0
 50
112.837023
  0
VERTEX
  5
227
  8
NOTE
  6
CONTINUOUS
 62
     4
 10
607.454229
 20
-432.126398
 30
0.0
 50
112.837023
  0
SEQEND
  5
228
  8
NOTE
  6
CONTINUOUS
 62
     4
  0
POLYLINE
  5
229
  8
NOTE
  6
CONTINUOUS
 62
     4
 66
     1
 10
0.0
 20
0.0
 30
0.0
  0
VERTEX
  5
22A
  8
NOTE
  6
CONTINUOUS
 62
     4
 10
-613.297221
 20
-430.87151
 30
0.0
 50
58.594681
  0
VERTEX
  5
22B
  8
NOTE
  6
CONTINUOUS
 62
     4
 10
-602.0
 20
-392.5
 30
0.0
 50
58.594681
  0
VERTEX
  5
22C
  8
NOTE
  6
CONTINUOUS
 62
     4
 10
-630.969435
 20
-420.082092
 30
0.0
 50
58.594681
  0
SEQEND
  5
22D
  8
NOTE
  6
CONTINUOUS
 62
     4
  0
POLYLINE
  5
22E
  8
NOTE
  6
CONTINUOUS
 62
     4
 66
     1
 10
0.0
 20
0.0
 30
0.0
  0
VERTEX
  5
22F
  8
NOTE
  6
CONTINUOUS
 62
     4
 10
613.449589
 20
459.826321
 30
0.0
 50
238.367033
  0
VERTEX
  5
230
  8
NOTE
  6
CONTINUOUS
 62
     4
 10
602.0
 20
421.5
 30
0.0
 50
238.367033
  0
VERTEX
  5
231
  8
NOTE
  6
CONTINUOUS
 62
     4
 10
631.078795
 20
448.966774
 30
0.0
 50
238.367033
  0
SEQEND
  5
232
  8
NOTE
  6
CONTINUOUS
 62
     4
  0
POLYLINE
  5
233
  8
NOTE
  6
CONTINUOUS
 62
     4
 66
     1
 10
0.0
 20
0.0
 30
0.0
  0
VERTEX
  5
234
  8
NOTE
  6
CONTINUOUS
 62
     4
 10
-628.447435
 20
451.508885
 30
0.0
 50
296.390378
  0
VERTEX
  5
235
  8
NOTE
  6
CONTINUOUS
 62
     4
 10
-602.0
 20
421.5
 30
0.0
 50
296.390378
  0
VERTEX
  5
236
  8
NOTE
  6
CONTINUOUS
 62
     4
 10
-609.899709
 20
460.712174
 30
0.0
 50
296.390378
  0
SEQEND
  5
237
  8
NOTE
  6
CONTINUOUS
 62
     4
  0
TEXT
  5
238
  8
ETC
  6
CONTINUOUS
 62
    61
 10
1065.27
 20
737.952547
 30
0.0
 40
64.0
  1
PAC
 41
0.9
  0
LINE
  5
239
  8
OUTLINE
  6
CONTINUOUS
 62
     3
 10
-565.0
 20
423.5
 30
0.0
 11
565.0
 21
423.5
 31
0.0
  0
ENDSEC
  0
EOF
