  0
SECTION
  2
HEADER
  9
$ACADVER
  1
AC1009
  9
$INSBASE
 10
0.0
 20
0.0
 30
0.0
  9
$EXTMIN
 10
-1396.0
 20
-330.0
 30
0.0
  9
$EXTMAX
 10
1854.314635
 20
2146.0
 30
0.0
  9
$LIMMIN
 10
-5000.0
 20
-4000.0
  9
$LIMMAX
 10
5000.0
 20
4000.0
  9
$ORTHOMODE
 70
     0
  9
$REGENMODE
 70
     0
  9
$FILLMODE
 70
     1
  9
$QTEXTMODE
 70
     0
  9
$MIRRTEXT
 70
     0
  9
$DRAGMODE
 70
     2
  9
$LTSCALE
 40
20.0
  9
$OSMODE
 70
     0
  9
$ATTMODE
 70
     1
  9
$TEXTSIZE
 40
64.0
  9
$TRACEWID
 40
0.05
  9
$TEXTSTYLE
  7
STANDARD
  9
$CLAYER
  8
0
  9
$CELTYPE
  6
CONTINUOUS
  9
$CECOLOR
 62
     4
  9
$DIMSCALE
 40
1.0
  9
$DIMASZ
 40
2.0
  9
$DIMEXO
 40
20.0
  9
$DIMDLI
 40
200.0
  9
$DIMRND
 40
0.0
  9
$DIMDLE
 40
0.0
  9
$DIMEXE
 40
30.0
  9
$DIMTP
 40
0.0
  9
$DIMTM
 40
0.0
  9
$DIMTXT
 40
64.0
  9
$DIMCEN
 40
0.09
  9
$DIMTSZ
 40
0.0
  9
$DIMTOL
 70
     0
  9
$DIMLIM
 70
     0
  9
$DIMTIH
 70
     0
  9
$DIMTOH
 70
     0
  9
$DIMSE1
 70
     0
  9
$DIMSE2
 70
     0
  9
$DIMTAD
 70
     1
  9
$DIMZIN
 70
     8
  9
$DIMBLK
  1

  9
$DIMASO
 70
     1
  9
$DIMSHO
 70
     0
  9
$DIMPOST
  1

  9
$DIMAPOST
  1

  9
$DIMALT
 70
     0
  9
$DIMALTD
 70
     2
  9
$DIMALTF
 40
25.4
  9
$DIMLFAC
 40
1.0
  9
$DIMTOFL
 70
     1
  9
$DIMTVP
 40
0.0
  9
$DIMTIX
 70
     1
  9
$DIMSOXD
 70
     0
  9
$DIMSAH
 70
     0
  9
$DIMBLK1
  1

  9
$DIMBLK2
  1

  9
$DIMSTYLE
  2
STANDARD
  9
$DIMCLRD
 70
     0
  9
$DIMCLRE
 70
     0
  9
$DIMCLRT
 70
     0
  9
$DIMTFAC
 40
1.0
  9
$DIMGAP
 40
0.09
  9
$LUNITS
 70
     2
  9
$LUPREC
 70
     4
  9
$SKETCHINC
 40
0.1
  9
$FILLETRAD
 40
0.0
  9
$AUNITS
 70
     1
  9
$AUPREC
 70
     3
  9
$MENU
  1
ACAD
  9
$ELEVATION
 40
0.0
  9
$PELEVATION
 40
0.0
  9
$THICKNESS
 40
0.0
  9
$LIMCHECK
 70
     0
  9
$BLIPMODE
 70
     0
  9
$CHAMFERA
 40
0.0
  9
$CHAMFERB
 40
0.0
  9
$SKPOLY
 70
     0
  9
$TDCREATE
 40
2450329.821597
  9
$TDUPDATE
 40
2450782.37309
  9
$TDINDWG
 40
0.004988
  9
$TDUSRTIMER
 40
0.004988
  9
$USRTIMER
 70
     1
  9
$ANGBASE
 50
0.0
  9
$ANGDIR
 70
     0
  9
$PDMODE
 70
     3
  9
$PDSIZE
 40
-2.0
  9
$PLINEWID
 40
0.0
  9
$COORDS
 70
     2
  9
$SPLFRAME
 70
     0
  9
$SPLINETYPE
 70
     6
  9
$SPLINESEGS
 70
     8
  9
$ATTDIA
 70
     0
  9
$ATTREQ
 70
     1
  9
$HANDLING
 70
     1
  9
$HANDSEED
  5
14F
  9
$SURFTAB1
 70
     6
  9
$SURFTAB2
 70
     6
  9
$SURFTYPE
 70
     6
  9
$SURFU
 70
     6
  9
$SURFV
 70
     6
  9
$UCSNAME
  2

  9
$UCSORG
 10
0.0
 20
0.0
 30
0.0
  9
$UCSXDIR
 10
1.0
 20
0.0
 30
0.0
  9
$UCSYDIR
 10
0.0
 20
1.0
 30
0.0
  9
$PUCSNAME
  2

  9
$PUCSORG
 10
0.0
 20
0.0
 30
0.0
  9
$PUCSXDIR
 10
1.0
 20
0.0
 30
0.0
  9
$PUCSYDIR
 10
0.0
 20
1.0
 30
0.0
  9
$USERI1
 70
     0
  9
$USERI2
 70
     0
  9
$USERI3
 70
     0
  9
$USERI4
 70
     0
  9
$USERI5
 70
     0
  9
$USERR1
 40
20.0
  9
$USERR2
 40
0.0
  9
$USERR3
 40
0.0
  9
$USERR4
 40
0.0
  9
$USERR5
 40
0.0
  9
$WORLDVIEW
 70
     1
  9
$SHADEDGE
 70
     3
  9
$SHADEDIF
 70
    70
  9
$TILEMODE
 70
     1
  9
$MAXACTVP
 70
    48
  9
$PLIMCHECK
 70
     0
  9
$PEXTMIN
 10
1.000000E+020
 20
1.000000E+020
 30
1.000000E+020
  9
$PEXTMAX
 10
-1.000000E+020
 20
-1.000000E+020
 30
-1.000000E+020
  9
$PLIMMIN
 10
0.0
 20
0.0
  9
$PLIMMAX
 10
12.0
 20
9.0
  9
$UNITMODE
 70
     0
  9
$VISRETAIN
 70
     1
  9
$PLINEGEN
 70
     0
  9
$PSLTSCALE
 70
     1
  0
ENDSEC
  0
SECTION
  2
TABLES
  0
TABLE
  2
VPORT
 70
     2
  0
VPORT
  2
*ACTIVE
 70
     0
 10
0.0
 20
0.0
 11
1.0
 21
1.0
 12
2344.761905
 22
0.0
 13
0.0
 23
0.0
 14
50.0
 24
50.0
 15
100.0
 25
100.0
 16
0.0
 26
0.0
 36
1.0
 17
0.0
 27
0.0
 37
0.0
 40
8000.0
 41
1.83619
 42
50.0
 43
0.0
 44
0.0
 50
0.0
 51
0.0
 71
     0
 72
  1000
 73
     1
 74
     0
 75
     0
 76
     0
 77
     0
 78
     0
  0
ENDTAB
  0
TABLE
  2
LTYPE
 70
     2
  0
LTYPE
  2
CONTINUOUS
 70
     0
  3
Ä└É³
 72
    65
 73
     0
 40
0.0
  0
LTYPE
  2
DASHDOT
 70
     0
  3
____ _ ____ _ ____ _ ____ _ ____ _ ____ _ ____
 72
    65
 73
     4
 40
5.5
 49
4.0
 49
-0.6
 49
0.3
 49
-0.6
  0
ENDTAB
  0
TABLE
  2
LAYER
 70
    12
  0
LAYER
  2
0
 70
     0
 62
     7
  6
CONTINUOUS
  0
LAYER
  2
OUTLINE
 70
     0
 62
     3
  6
CONTINUOUS
  0
LAYER
  2
DETAIL
 70
     0
 62
     5
  6
CONTINUOUS
  0
LAYER
  2
BASIS
 70
     0
 62
     6
  6
DASHDOT
  0
LAYER
  2
SIZE
 70
     0
 62
    30
  6
CONTINUOUS
  0
LAYER
  2
NOTE
 70
     0
 62
     4
  6
CONTINUOUS
  0
LAYER
  2
ARRANGE
 70
     0
 62
     1
  6
CONTINUOUS
  0
LAYER
  2
FIX
 70
     0
 62
    11
  6
CONTINUOUS
  0
LAYER
  2
SERVICESPACE
 70
     0
 62
     2
  6
DASHDOT
  0
LAYER
  2
ETC
 70
     0
 62
    61
  6
CONTINUOUS
  0
LAYER
  2
SYMBOLLINE
 70
     0
 62
    15
  6
CONTINUOUS
  0
LAYER
  2
DEFPOINTS
 70
     0
 62
     7
  6
CONTINUOUS
  0
ENDTAB
  0
TABLE
  2
STYLE
 70
     2
  0
STYLE
  2
STANDARD
 70
     0
 40
0.0
 41
0.9
 50
0.0
 71
     0
 42
64.0
  3
SIMPLEX
  4
BIGFONT
  0
STYLE
  2
STANDARD1
 70
     0
 40
0.0
 41
1.0
 50
0.0
 71
     0
 42
64.0
  3
MONOTXT
  4
BIGFONT
  0
ENDTAB
  0
TABLE
  2
VIEW
 70
     1
  0
VIEW
  2
ALL
 70
     0
 40
8000.0
 10
548.005908
 20
0.0
 41
11096.011817
 11
0.0
 21
0.0
 31
1.0
 12
0.0
 22
0.0
 32
0.0
 42
50.0
 43
0.0
 44
0.0
 50
0.0
 71
     0
  0
ENDTAB
  0
TABLE
  2
UCS
 70
     0
  0
ENDTAB
  0
TABLE
  2
APPID
 70
     1
  0
APPID
  2
ACAD
 70
     0
  0
ENDTAB
  0
TABLE
  2
DIMSTYLE
 70
     1
  0
DIMSTYLE
  2
STANDARD
 70
     0
  3

  4

  5

  6

  7

 40
1.0
 41
0.18
 42
0.0625
 43
0.38
 44
0.18
 45
0.0
 46
0.0
 47
0.0
 48
0.0
140
0.18
141
0.09
142
0.0
143
25.4
144
1.0
145
0.0
146
1.0
147
0.09
 71
     0
 72
     0
 73
     1
 74
     1
 75
     0
 76
     0
 77
     0
 78
     0
170
     0
171
     2
172
     0
173
     0
174
     0
175
     0
176
     0
177
     0
178
     0
  0
ENDTAB
  0
ENDSEC
  0
SECTION
  2
BLOCKS
  0
BLOCK
  8
0
  2
$MODEL_SPACE
 70
     0
 10
0.0
 20
0.0
 30
0.0
  3
$MODEL_SPACE
  1

  0
ENDBLK
  5
133
  8
0
  0
BLOCK
 67
     1
  8
0
  2
$PAPER_SPACE
 70
     0
 10
0.0
 20
0.0
 30
0.0
  3
$PAPER_SPACE
  1

  0
ENDBLK
  5
130
 67
     1
  8
0
  0
ENDSEC
  0
SECTION
  2
ENTITIES
  0
TEXT
  5
30
  8
ETC
  6
CONTINUOUS
 62
    61
 10
1319.5
 20
-146.0
 30
0.0
 40
64.0
  1
MPF-RP224BA_2
 50
0.000003
 41
0.659722
  7
STANDARD1
  0
TEXT
  5
31
  8
ETC
  6
CONTINUOUS
 62
    61
 10
1319.5
 20
-250.0
 30
0.0
 40
64.0
  1
PAC
 50
0.000003
 41
0.659722
  7
STANDARD1
  0
LINE
  5
32
  8
SIZE
  6
CONTINUOUS
 62
    30
 10
-492.5
 20
-155.251613
 30
0.0
 11
-670.122241
 21
-155.251613
 31
0.0
  0
LINE
  5
33
  8
SIZE
  6
CONTINUOUS
 62
    30
 10
-307.5
 20
-158.635723
 30
0.0
 11
-148.716719
 21
-158.635723
 31
0.0
  0
LINE
  5
34
  8
NOTE
  6
CONTINUOUS
 62
     4
 10
-478.257143
 20
33.0
 30
0.0
 11
-776.385685
 21
-154.17643
 31
0.0
  0
LINE
  5
35
  8
NOTE
  6
CONTINUOUS
 62
     4
 10
478.257143
 20
33.0
 30
0.0
 11
661.194531
 21
-152.01452
 31
0.0
  0
LINE
  5
36
  8
NOTE
  6
CONTINUOUS
 62
     4
 10
-1023.24543
 20
-154.17643
 30
0.0
 11
-776.385685
 21
-154.17643
 31
0.0
  0
TEXT
  5
37
  8
NOTE
  6
CONTINUOUS
 62
     4
 10
-994.241647
 20
-134.17643
 30
0.0
 40
64.0
  1
DâË30
 41
0.9
  0
TEXT
  5
38
  8
NOTE
  6
CONTINUOUS
 62
     4
 10
690.198314
 20
-132.01452
 30
0.0
 40
64.0
  1
DâË30
 41
0.9
  0
LINE
  5
39
  8
NOTE
  6
CONTINUOUS
 62
     4
 10
661.194531
 20
-152.01452
 30
0.0
 11
911.494036
 21
-152.01452
 31
0.0
  0
CIRCLE
  5
3A
  8
DETAIL
  6
CONTINUOUS
 62
     5
 10
-307.5
 20
242.0
 30
0.0
 40
12.7
  0
CIRCLE
  5
3B
  8
DETAIL
  6
CONTINUOUS
 62
     5
 10
-362.5
 20
242.0
 30
0.0
 40
4.76
  0
LINE
  5
3C
  8
DETAIL
  6
CONTINUOUS
 62
     5
 10
312.5
 20
1900.0
 30
0.0
 11
312.5
 21
1850.0
 31
0.0
  0
LINE
  5
3D
  8
DETAIL
  6
CONTINUOUS
 62
     5
 10
452.5
 20
1900.0
 30
0.0
 11
452.5
 21
1850.0
 31
0.0
  0
LINE
  5
3E
  8
DETAIL
  6
CONTINUOUS
 62
     5
 10
452.5
 20
1900.0
 30
0.0
 11
312.5
 21
1900.0
 31
0.0
  0
LINE
  5
3F
  8
NOTE
  6
CONTINUOUS
 62
     4
 10
387.5
 20
1880.0
 30
0.0
 11
427.5
 21
1880.0
 31
0.0
  0
LINE
  5
40
  8
NOTE
  6
CONTINUOUS
 62
     4
 10
407.5
 20
1900.0
 30
0.0
 11
407.5
 21
1860.0
 31
0.0
  0
LINE
  5
41
  8
NOTE
  6
CONTINUOUS
 62
     4
 10
337.5
 20
1880.0
 30
0.0
 11
377.5
 21
1880.0
 31
0.0
  0
LINE
  5
42
  8
NOTE
  6
CONTINUOUS
 62
     4
 10
357.5
 20
1900.0
 30
0.0
 11
357.5
 21
1860.0
 31
0.0
  0
CIRCLE
  5
43
  8
DETAIL
  6
CONTINUOUS
 62
     5
 10
357.5
 20
1880.0
 30
0.0
 40
3.5
  0
CIRCLE
  5
44
  8
DETAIL
  6
CONTINUOUS
 62
     5
 10
407.5
 20
1880.0
 30
0.0
 40
3.5
  0
LINE
  5
45
  8
NOTE
  6
CONTINUOUS
 62
     4
 10
-357.5
 20
1900.0
 30
0.0
 11
-357.5
 21
1860.0
 31
0.0
  0
LINE
  5
46
  8
NOTE
  6
CONTINUOUS
 62
     4
 10
-337.5
 20
1880.0
 30
0.0
 11
-377.5
 21
1880.0
 31
0.0
  0
LINE
  5
47
  8
NOTE
  6
CONTINUOUS
 62
     4
 10
-407.5
 20
1900.0
 30
0.0
 11
-407.5
 21
1860.0
 31
0.0
  0
LINE
  5
48
  8
NOTE
  6
CONTINUOUS
 62
     4
 10
-387.5
 20
1880.0
 30
0.0
 11
-427.5
 21
1880.0
 31
0.0
  0
LINE
  5
49
  8
DETAIL
  6
CONTINUOUS
 62
     5
 10
-452.5
 20
1900.0
 30
0.0
 11
-312.5
 21
1900.0
 31
0.0
  0
LINE
  5
4A
  8
DETAIL
  6
CONTINUOUS
 62
     5
 10
-452.5
 20
1900.0
 30
0.0
 11
-452.5
 21
1850.0
 31
0.0
  0
LINE
  5
4B
  8
DETAIL
  6
CONTINUOUS
 62
     5
 10
-312.5
 20
1900.0
 30
0.0
 11
-312.5
 21
1850.0
 31
0.0
  0
CIRCLE
  5
4C
  8
DETAIL
  6
CONTINUOUS
 62
     5
 10
-407.5
 20
1880.0
 30
0.0
 40
3.5
  0
CIRCLE
  5
4D
  8
DETAIL
  6
CONTINUOUS
 62
     5
 10
-357.5
 20
1880.0
 30
0.0
 40
3.5
  0
TEXT
  5
4E
  8
NOTE
  6
CONTINUOUS
 62
     4
 10
-1052.605714
 20
670.0
 30
0.0
 40
64.0
  1
RGâË25.4
 41
0.9
 72
     2
 11
-690.0
 21
670.0
 31
0.0
  0
LINE
  5
4F
  8
NOTE
  6
CONTINUOUS
 62
     4
 10
-654.0
 20
650.0
 30
0.0
 11
-1049.926
 21
650.0
 31
0.0
  0
LINE
  5
50
  8
NOTE
  6
CONTINUOUS
 62
     4
 10
-307.5
 20
242.0
 30
0.0
 11
-654.0
 21
650.0
 31
0.0
  0
TEXT
  5
51
  8
NOTE
  6
CONTINUOUS
 62
     4
 10
-1038.891429
 20
520.0
 30
0.0
 40
64.0
  1
RLâË9.52
 41
0.9
 72
     2
 11
-690.0
 21
520.0
 31
0.0
  0
LINE
  5
52
  8
NOTE
  6
CONTINUOUS
 62
     4
 10
-650.0
 20
500.0
 30
0.0
 11
-1038.3
 21
500.0
 31
0.0
  0
LINE
  5
53
  8
NOTE
  6
CONTINUOUS
 62
     4
 10
-362.5
 20
242.0
 30
0.0
 11
-650.0
 21
500.0
 31
0.0
  0
LINE
  5
54
  8
NOTE
  6
CONTINUOUS
 62
     4
 10
-342.5
 20
242.0
 30
0.0
 11
-382.5
 21
242.0
 31
0.0
  0
LINE
  5
55
  8
NOTE
  6
CONTINUOUS
 62
     4
 10
-362.5
 20
222.0
 30
0.0
 11
-362.5
 21
262.0
 31
0.0
  0
LINE
  5
56
  8
NOTE
  6
CONTINUOUS
 62
     4
 10
-287.5
 20
242.0
 30
0.0
 11
-327.5
 21
242.0
 31
0.0
  0
LINE
  5
57
  8
NOTE
  6
CONTINUOUS
 62
     4
 10
-307.5
 20
222.0
 30
0.0
 11
-307.5
 21
262.0
 31
0.0
  0
TEXT
  5
58
  8
NOTE
  6
CONTINUOUS
 62
     4
 10
-49.371429
 20
1668.412
 30
0.0
 40
64.0
  1
SA
 41
0.9
 72
     1
 11
0.0
 21
1668.412
 31
0.0
  0
TEXT
  5
59
  8
NOTE
  6
CONTINUOUS
 62
     4
 10
-50.742857
 20
486.284397
 30
0.0
 40
64.0
  1
RA
 41
0.9
 72
     1
 11
0.0
 21
486.284397
 31
0.0
  0
LINE
  5
5A
  8
NOTE
  6
CONTINUOUS
 62
     4
 10
-492.5
 20
148.0
 30
0.0
 11
-492.5
 21
188.0
 31
0.0
  0
LINE
  5
5B
  8
NOTE
  6
CONTINUOUS
 62
     4
 10
-512.5
 20
168.0
 30
0.0
 11
-472.5
 21
168.0
 31
0.0
  0
LINE
  5
5C
  8
NOTE
  6
CONTINUOUS
 62
     4
 10
-512.5
 20
94.0
 30
0.0
 11
-472.5
 21
94.0
 31
0.0
  0
LINE
  5
5D
  8
NOTE
  6
CONTINUOUS
 62
     4
 10
-492.5
 20
74.0
 30
0.0
 11
-492.5
 21
114.0
 31
0.0
  0
LINE
  5
5E
  8
NOTE
  6
CONTINUOUS
 62
     4
 10
-492.5
 20
168.0
 30
0.0
 11
-650.0
 21
350.0
 31
0.0
  0
LINE
  5
5F
  8
NOTE
  6
CONTINUOUS
 62
     4
 10
-650.0
 20
350.0
 30
0.0
 11
-1096.432
 21
350.0
 31
0.0
  0
TEXT
  5
60
  8
NOTE
  6
CONTINUOUS
 62
     4
 10
-1105.805544
 20
370.0
 30
0.0
 40
64.0
  1
RL,RGâË100
 41
0.9
 72
     2
 11
-652.685544
 21
370.0
 31
0.0
  0
LINE
  5
61
  8
NOTE
  6
CONTINUOUS
 62
     4
 10
-650.0
 20
200.0
 30
0.0
 11
-918.15854
 21
200.0
 31
0.0
  0
TEXT
  5
62
  8
NOTE
  6
CONTINUOUS
 62
     4
 10
-928.980053
 20
220.0
 30
0.0
 40
64.0
  1
CLâË27
 41
0.9
 72
     2
 11
-662.374339
 21
220.0
 31
0.0
  0
LINE
  5
63
  8
NOTE
  6
CONTINUOUS
 62
     4
 10
-492.5
 20
94.0
 30
0.0
 11
-650.0
 21
200.0
 31
0.0
  0
LINE
  5
64
  8
NOTE
  6
CONTINUOUS
 62
     4
 10
492.5
 20
94.0
 30
0.0
 11
650.0
 21
200.0
 31
0.0
  0
TEXT
  5
65
  8
NOTE
  6
CONTINUOUS
 62
     4
 10
690.0
 20
220.0
 30
0.0
 40
64.0
  1
CLâË27
 41
0.9
  0
LINE
  5
66
  8
NOTE
  6
CONTINUOUS
 62
     4
 10
650.0
 20
200.0
 30
0.0
 11
942.586278
 21
200.0
 31
0.0
  0
TEXT
  5
67
  8
NOTE
  6
CONTINUOUS
 62
     4
 10
690.0
 20
370.0
 30
0.0
 40
64.0
  1
RL,RGâË100
 41
0.9
  0
LINE
  5
68
  8
NOTE
  6
CONTINUOUS
 62
     4
 10
650.0
 20
350.0
 30
0.0
 11
1131.508
 21
350.0
 31
0.0
  0
LINE
  5
69
  8
NOTE
  6
CONTINUOUS
 62
     4
 10
492.5
 20
168.0
 30
0.0
 11
650.0
 21
350.0
 31
0.0
  0
LINE
  5
6A
  8
NOTE
  6
CONTINUOUS
 62
     4
 10
492.5
 20
74.0
 30
0.0
 11
492.5
 21
114.0
 31
0.0
  0
LINE
  5
6B
  8
NOTE
  6
CONTINUOUS
 62
     4
 10
512.5
 20
94.0
 30
0.0
 11
472.5
 21
94.0
 31
0.0
  0
LINE
  5
6C
  8
NOTE
  6
CONTINUOUS
 62
     4
 10
512.5
 20
168.0
 30
0.0
 11
472.5
 21
168.0
 31
0.0
  0
LINE
  5
6D
  8
NOTE
  6
CONTINUOUS
 62
     4
 10
492.5
 20
148.0
 30
0.0
 11
492.5
 21
188.0
 31
0.0
  0
LINE
  5
6E
  8
DETAIL
  6
CONTINUOUS
 62
     5
 10
482.5
 20
0.0
 30
0.0
 11
473.5
 21
70.0
 31
0.0
  0
LINE
  5
6F
  8
DETAIL
  6
CONTINUOUS
 62
     5
 10
-482.5
 20
0.0
 30
0.0
 11
-473.5
 21
70.0
 31
0.0
  0
LINE
  5
70
  8
DETAIL
  6
CONTINUOUS
 62
     5
 10
454.5
 20
1545.0
 30
0.0
 11
454.5
 21
70.0
 31
0.0
  0
LINE
  5
71
  8
DETAIL
  6
CONTINUOUS
 62
     5
 10
-454.5
 20
1545.0
 30
0.0
 11
-454.5
 21
70.0
 31
0.0
  0
LINE
  5
72
  8
DETAIL
  6
CONTINUOUS
 62
     5
 10
-492.5
 20
70.0
 30
0.0
 11
492.5
 21
70.0
 31
0.0
  0
LINE
  5
73
  8
DETAIL
  6
CONTINUOUS
 62
     5
 10
-492.5
 20
915.0
 30
0.0
 11
492.5
 21
915.0
 31
0.0
  0
LINE
  5
74
  8
DETAIL
  6
CONTINUOUS
 62
     5
 10
-492.5
 20
1000.0
 30
0.0
 11
492.5
 21
1000.0
 31
0.0
  0
LINE
  5
75
  8
DETAIL
  6
CONTINUOUS
 62
     5
 10
-492.5
 20
1545.0
 30
0.0
 11
492.5
 21
1545.0
 31
0.0
  0
LINE
  5
76
  8
DETAIL
  6
CONTINUOUS
 62
     5
 10
-492.5
 20
1825.0
 30
0.0
 11
492.5
 21
1825.0
 31
0.0
  0
POINT
  5
77
  8
ARRANGE
  6
CONTINUOUS
 62
     1
 10
0.0
 20
0.0
 30
0.0
  0
LINE
  5
78
  8
BASIS
  6
DASHDOT
 62
     6
 10
0.0
 20
2000.0
 30
0.0
 11
0.0
 21
-150.0
 31
0.0
  0
LINE
  5
79
  8
DETAIL
  6
CONTINUOUS
 62
     5
 10
-482.5
 20
0.0
 30
0.0
 11
482.5
 21
0.0
 31
0.0
  0
LINE
  5
7A
  8
DETAIL
  6
CONTINUOUS
 62
     5
 10
-492.5
 20
1850.0
 30
0.0
 11
492.5
 21
1850.0
 31
0.0
  0
LINE
  5
7B
  8
DETAIL
  6
CONTINUOUS
 62
     5
 10
492.5
 20
1850.0
 30
0.0
 11
492.5
 21
70.0
 31
0.0
  0
LINE
  5
7C
  8
DETAIL
  6
CONTINUOUS
 62
     5
 10
-492.5
 20
1850.0
 30
0.0
 11
-492.5
 21
70.0
 31
0.0
  0
CIRCLE
  5
7D
  8
ARRANGE
  6
CONTINUOUS
 62
     1
 10
0.0
 20
0.0
 30
0.0
 40
40.0
  0
LINE
  5
7E
  8
NOTE
  6
CONTINUOUS
 62
     4
 10
478.257143
 20
53.0
 30
0.0
 11
478.257143
 21
13.0
 31
0.0
  0
LINE
  5
7F
  8
NOTE
  6
CONTINUOUS
 62
     4
 10
458.257143
 20
33.0
 30
0.0
 11
498.257143
 21
33.0
 31
0.0
  0
LINE
  5
80
  8
NOTE
  6
CONTINUOUS
 62
     4
 10
-478.257143
 20
53.0
 30
0.0
 11
-478.257143
 21
13.0
 31
0.0
  0
LINE
  5
81
  8
NOTE
  6
CONTINUOUS
 62
     4
 10
-498.257143
 20
33.0
 30
0.0
 11
-458.257143
 21
33.0
 31
0.0
  0
CIRCLE
  5
82
  8
FIX
  6
CONTINUOUS
 62
    11
 10
-407.5
 20
1880.0
 30
0.0
 40
40.0
  0
CIRCLE
  5
83
  8
FIX
  6
CONTINUOUS
 62
    11
 10
-357.5
 20
1880.0
 30
0.0
 40
40.0
  0
CIRCLE
  5
84
  8
FIX
  6
CONTINUOUS
 62
    11
 10
357.5
 20
1880.0
 30
0.0
 40
40.0
  0
CIRCLE
  5
85
  8
FIX
  6
CONTINUOUS
 62
    11
 10
407.5
 20
1880.0
 30
0.0
 40
40.0
  0
LINE
  5
86
  8
OUTLINE
  6
CONTINUOUS
 62
     3
 10
-492.5
 20
1850.0
 30
0.0
 11
-492.5
 21
70.0
 31
0.0
  0
LINE
  5
87
  8
OUTLINE
  6
CONTINUOUS
 62
     3
 10
492.5
 20
1850.0
 30
0.0
 11
492.5
 21
70.0
 31
0.0
  0
LINE
  5
88
  8
OUTLINE
  6
CONTINUOUS
 62
     3
 10
-492.5
 20
1850.0
 30
0.0
 11
492.5
 21
1850.0
 31
0.0
  0
LINE
  5
89
  8
OUTLINE
  6
CONTINUOUS
 62
     3
 10
-482.5
 20
0.0
 30
0.0
 11
482.5
 21
0.0
 31
0.0
  0
LINE
  5
8A
  8
OUTLINE
  6
CONTINUOUS
 62
     3
 10
-492.5
 20
70.0
 30
0.0
 11
-473.5
 21
70.0
 31
0.0
  0
LINE
  5
8B
  8
OUTLINE
  6
CONTINUOUS
 62
     3
 10
-482.5
 20
0.0
 30
0.0
 11
-473.5
 21
70.0
 31
0.0
  0
LINE
  5
8C
  8
OUTLINE
  6
CONTINUOUS
 62
     3
 10
482.5
 20
0.0
 30
0.0
 11
473.5
 21
70.0
 31
0.0
  0
LINE
  5
8D
  8
OUTLINE
  6
CONTINUOUS
 62
     3
 10
473.5
 20
70.0
 30
0.0
 11
492.5
 21
70.0
 31
0.0
  0
LINE
  5
8E
  8
SIZE
  6
CONTINUOUS
 62
    30
 10
492.5
 20
1870.0
 30
0.0
 11
492.5
 21
2080.0
 31
0.0
  0
LINE
  5
8F
  8
SIZE
  6
CONTINUOUS
 62
    30
 10
-492.5
 20
1870.0
 30
0.0
 11
-492.5
 21
2080.0
 31
0.0
  0
LINE
  5
90
  8
SIZE
  6
CONTINUOUS
 62
    30
 10
490.5
 20
2050.0
 30
0.0
 11
0.0
 21
2050.0
 31
0.0
  0
LINE
  5
91
  8
SIZE
  6
CONTINUOUS
 62
    30
 10
-490.5
 20
2050.0
 30
0.0
 11
0.0
 21
2050.0
 31
0.0
  0
TEXT
  5
92
  8
SIZE
  6
CONTINUOUS
 62
    30
 10
-74.057143
 20
2082.0
 30
0.0
 40
64.0
  1
985
 41
0.9
  0
LINE
  5
93
  8
SIZE
  6
CONTINUOUS
 62
    30
 10
-502.5
 20
0.0
 30
0.0
 11
-1180.0
 21
0.0
 31
0.0
  0
LINE
  5
94
  8
SIZE
  6
CONTINUOUS
 62
    30
 10
-512.5
 20
70.0
 30
0.0
 11
-1180.0
 21
70.0
 31
0.0
  0
LINE
  5
95
  8
SIZE
  6
CONTINUOUS
 62
    30
 10
-1150.0
 20
2.0
 30
0.0
 11
-1150.0
 21
35.0
 31
0.0
  0
LINE
  5
96
  8
SIZE
  6
CONTINUOUS
 62
    30
 10
-1150.0
 20
68.0
 30
0.0
 11
-1150.0
 21
35.0
 31
0.0
  0
TEXT
  5
97
  8
SIZE
  6
CONTINUOUS
 62
    30
 10
-1182.0
 20
-11.628571
 30
0.0
 40
64.0
  1
70
 50
90.0
 41
0.9
  0
LINE
  5
98
  8
SIZE
  6
CONTINUOUS
 62
    30
 10
-512.5
 20
70.0
 30
0.0
 11
-1180.0
 21
70.0
 31
0.0
  0
LINE
  5
99
  8
SIZE
  6
CONTINUOUS
 62
    30
 10
-512.5
 20
915.0
 30
0.0
 11
-1180.0
 21
915.0
 31
0.0
  0
LINE
  5
9A
  8
SIZE
  6
CONTINUOUS
 62
    30
 10
-1150.0
 20
72.0
 30
0.0
 11
-1150.0
 21
492.5
 31
0.0
  0
LINE
  5
9B
  8
SIZE
  6
CONTINUOUS
 62
    30
 10
-1150.0
 20
913.0
 30
0.0
 11
-1150.0
 21
492.5
 31
0.0
  0
TEXT
  5
9C
  8
SIZE
  6
CONTINUOUS
 62
    30
 10
-1182.0
 20
418.442857
 30
0.0
 40
64.0
  1
845
 50
90.0
 41
0.9
  0
LINE
  5
9D
  8
SIZE
  6
CONTINUOUS
 62
    30
 10
-512.5
 20
915.0
 30
0.0
 11
-1180.0
 21
915.0
 31
0.0
  0
LINE
  5
9E
  8
SIZE
  6
CONTINUOUS
 62
    30
 10
-512.5
 20
1000.0
 30
0.0
 11
-1180.0
 21
1000.0
 31
0.0
  0
LINE
  5
9F
  8
SIZE
  6
CONTINUOUS
 62
    30
 10
-1150.0
 20
917.0
 30
0.0
 11
-1150.0
 21
957.5
 31
0.0
  0
LINE
  5
A0
  8
SIZE
  6
CONTINUOUS
 62
    30
 10
-1150.0
 20
998.0
 30
0.0
 11
-1150.0
 21
957.5
 31
0.0
  0
TEXT
  5
A1
  8
SIZE
  6
CONTINUOUS
 62
    30
 10
-1182.0
 20
910.871429
 30
0.0
 40
64.0
  1
85
 50
90.0
 41
0.9
  0
LINE
  5
A2
  8
SIZE
  6
CONTINUOUS
 62
    30
 10
-512.5
 20
1000.0
 30
0.0
 11
-1180.0
 21
1000.0
 31
0.0
  0
LINE
  5
A3
  8
SIZE
  6
CONTINUOUS
 62
    30
 10
-512.5
 20
1545.0
 30
0.0
 11
-1180.0
 21
1545.0
 31
0.0
  0
LINE
  5
A4
  8
SIZE
  6
CONTINUOUS
 62
    30
 10
-1150.0
 20
1002.0
 30
0.0
 11
-1150.0
 21
1272.5
 31
0.0
  0
LINE
  5
A5
  8
SIZE
  6
CONTINUOUS
 62
    30
 10
-1150.0
 20
1543.0
 30
0.0
 11
-1150.0
 21
1272.5
 31
0.0
  0
TEXT
  5
A6
  8
SIZE
  6
CONTINUOUS
 62
    30
 10
-1182.0
 20
1198.443
 30
0.0
 40
64.0
  1
545
 50
90.0
 41
0.9
  0
LINE
  5
A7
  8
SIZE
  6
CONTINUOUS
 62
    30
 10
-512.5
 20
1545.0
 30
0.0
 11
-1180.0
 21
1545.0
 31
0.0
  0
LINE
  5
A8
  8
SIZE
  6
CONTINUOUS
 62
    30
 10
-512.5
 20
1825.0
 30
0.0
 11
-1180.0
 21
1825.0
 31
0.0
  0
LINE
  5
A9
  8
SIZE
  6
CONTINUOUS
 62
    30
 10
-1150.0
 20
1547.0
 30
0.0
 11
-1150.0
 21
1685.0
 31
0.0
  0
LINE
  5
AA
  8
SIZE
  6
CONTINUOUS
 62
    30
 10
-1150.0
 20
1823.0
 30
0.0
 11
-1150.0
 21
1685.0
 31
0.0
  0
TEXT
  5
AB
  8
SIZE
  6
CONTINUOUS
 62
    30
 10
-1182.0
 20
1610.943
 30
0.0
 40
64.0
  1
280
 50
90.0
 41
0.9
  0
LINE
  5
AC
  8
SIZE
  6
CONTINUOUS
 62
    30
 10
-512.5
 20
1825.0
 30
0.0
 11
-1180.0
 21
1825.0
 31
0.0
  0
LINE
  5
AD
  8
SIZE
  6
CONTINUOUS
 62
    30
 10
-512.5
 20
1850.0
 30
0.0
 11
-1180.0
 21
1850.0
 31
0.0
  0
LINE
  5
AE
  8
SIZE
  6
CONTINUOUS
 62
    30
 10
-1150.0
 20
1827.0
 30
0.0
 11
-1150.0
 21
1837.5
 31
0.0
  0
LINE
  5
AF
  8
SIZE
  6
CONTINUOUS
 62
    30
 10
-1150.0
 20
1848.0
 30
0.0
 11
-1150.0
 21
1837.5
 31
0.0
  0
TEXT
  5
B0
  8
SIZE
  6
CONTINUOUS
 62
    30
 10
-1182.0
 20
1790.871
 30
0.0
 40
64.0
  1
25
 50
90.0
 41
0.9
  0
LINE
  5
B1
  8
SIZE
  6
CONTINUOUS
 62
    30
 10
-522.5
 20
0.0
 30
0.0
 11
-1330.0
 21
0.0
 31
0.0
  0
LINE
  5
B2
  8
SIZE
  6
CONTINUOUS
 62
    30
 10
-532.5
 20
1850.0
 30
0.0
 11
-1330.0
 21
1850.0
 31
0.0
  0
LINE
  5
B3
  8
SIZE
  6
CONTINUOUS
 62
    30
 10
-1300.0
 20
2.0
 30
0.0
 11
-1300.0
 21
925.0
 31
0.0
  0
LINE
  5
B4
  8
SIZE
  6
CONTINUOUS
 62
    30
 10
-1300.0
 20
1848.0
 30
0.0
 11
-1300.0
 21
925.0
 31
0.0
  0
TEXT
  5
B5
  8
SIZE
  6
CONTINUOUS
 62
    30
 10
-1332.0
 20
829.0
 30
0.0
 40
64.0
  1
1850
 50
90.0
 41
0.9
  0
LINE
  5
B6
  8
SIZE
  6
CONTINUOUS
 62
    30
 10
-492.5
 20
50.0
 30
0.0
 11
-492.5
 21
-330.0
 31
0.0
  0
LINE
  5
B7
  8
SIZE
  6
CONTINUOUS
 62
    30
 10
-482.5
 20
-20.0
 30
0.0
 11
-482.5
 21
-330.0
 31
0.0
  0
LINE
  5
B8
  8
SIZE
  6
CONTINUOUS
 62
    30
 10
-480.5
 20
-300.0
 30
0.0
 11
-478.5
 21
-300.0
 31
0.0
  0
LINE
  5
B9
  8
SIZE
  6
CONTINUOUS
 62
    30
 10
-494.5
 20
-300.0
 30
0.0
 11
-496.5
 21
-300.0
 31
0.0
  0
LINE
  5
BA
  8
SIZE
  6
CONTINUOUS
 62
    30
 10
-482.5
 20
-300.0
 30
0.0
 11
-492.5
 21
-300.0
 31
0.0
  0
TEXT
  5
BB
  8
SIZE
  6
CONTINUOUS
 62
    30
 10
-528.642857
 20
-268.0
 30
0.0
 40
64.0
  1
10
 41
0.9
  0
LINE
  5
BC
  8
SIZE
  6
CONTINUOUS
 62
    30
 10
-482.5
 20
-20.0
 30
0.0
 11
-482.5
 21
-330.0
 31
0.0
  0
LINE
  5
BD
  8
SIZE
  6
CONTINUOUS
 62
    30
 10
482.5
 20
-20.0
 30
0.0
 11
482.5
 21
-330.0
 31
0.0
  0
LINE
  5
BE
  8
SIZE
  6
CONTINUOUS
 62
    30
 10
-480.5
 20
-300.0
 30
0.0
 11
480.5
 21
-300.0
 31
0.0
  0
TEXT
  5
BF
  8
SIZE
  6
CONTINUOUS
 62
    30
 10
-74.057143
 20
-268.0
 30
0.0
 40
64.0
  1
965
 41
0.9
  0
LINE
  5
C0
  8
SIZE
  6
CONTINUOUS
 62
    30
 10
482.5
 20
-20.0
 30
0.0
 11
482.5
 21
-330.0
 31
0.0
  0
LINE
  5
C1
  8
SIZE
  6
CONTINUOUS
 62
    30
 10
492.5
 20
50.0
 30
0.0
 11
492.5
 21
-330.0
 31
0.0
  0
LINE
  5
C2
  8
SIZE
  6
CONTINUOUS
 62
    30
 10
494.5
 20
-300.0
 30
0.0
 11
496.5
 21
-300.0
 31
0.0
  0
LINE
  5
C3
  8
SIZE
  6
CONTINUOUS
 62
    30
 10
480.5
 20
-300.0
 30
0.0
 11
478.5
 21
-300.0
 31
0.0
  0
LINE
  5
C4
  8
SIZE
  6
CONTINUOUS
 62
    30
 10
492.5
 20
-300.0
 30
0.0
 11
482.5
 21
-300.0
 31
0.0
  0
TEXT
  5
C5
  8
SIZE
  6
CONTINUOUS
 62
    30
 10
446.357143
 20
-268.0
 30
0.0
 40
64.0
  1
10
 41
0.9
  0
LINE
  5
C6
  8
SIZE
  6
CONTINUOUS
 62
    30
 10
-263.5
 20
242.0
 30
0.0
 11
-61.637624
 21
242.0
 31
0.0
  0
LINE
  5
C7
  8
SIZE
  6
CONTINUOUS
 62
    30
 10
-263.5
 20
0.0
 30
0.0
 11
-61.637624
 21
0.0
 31
0.0
  0
LINE
  5
C8
  8
SIZE
  6
CONTINUOUS
 62
    30
 10
-91.637624
 20
240.0
 30
0.0
 11
-91.637624
 21
2.0
 31
0.0
  0
TEXT
  5
C9
  8
SIZE
  6
CONTINUOUS
 62
    30
 10
-123.637624
 20
46.942857
 30
0.0
 40
64.0
  1
242
 50
90.0
 41
0.9
  0
LINE
  5
CA
  8
SIZE
  6
CONTINUOUS
 62
    30
 10
-492.5
 20
50.0
 30
0.0
 11
-492.5
 21
-185.251613
 31
0.0
  0
LINE
  5
CB
  8
SIZE
  6
CONTINUOUS
 62
    30
 10
-362.5
 20
202.0
 30
0.0
 11
-362.5
 21
-185.251613
 31
0.0
  0
LINE
  5
CC
  8
SIZE
  6
CONTINUOUS
 62
    30
 10
-490.5
 20
-155.251613
 30
0.0
 11
-427.5
 21
-155.251613
 31
0.0
  0
LINE
  5
CD
  8
SIZE
  6
CONTINUOUS
 62
    30
 10
-364.5
 20
-155.251613
 30
0.0
 11
-427.5
 21
-155.251613
 31
0.0
  0
TEXT
  5
CE
  8
SIZE
  6
CONTINUOUS
 62
    30
 10
-640.719412
 20
-123.251613
 30
0.0
 40
64.0
  1
130
 41
0.9
  0
LINE
  5
CF
  8
SIZE
  6
CONTINUOUS
 62
    30
 10
-362.5
 20
202.0
 30
0.0
 11
-362.5
 21
-188.635723
 31
0.0
  0
LINE
  5
D0
  8
SIZE
  6
CONTINUOUS
 62
    30
 10
-307.5
 20
202.0
 30
0.0
 11
-307.5
 21
-188.635723
 31
0.0
  0
LINE
  5
D1
  8
SIZE
  6
CONTINUOUS
 62
    30
 10
-360.5
 20
-158.635723
 30
0.0
 11
-335.0
 21
-158.635723
 31
0.0
  0
LINE
  5
D2
  8
SIZE
  6
CONTINUOUS
 62
    30
 10
-309.5
 20
-158.635723
 30
0.0
 11
-335.0
 21
-158.635723
 31
0.0
  0
TEXT
  5
D3
  8
SIZE
  6
CONTINUOUS
 62
    30
 10
-284.07528
 20
-126.635723
 30
0.0
 40
64.0
  1
55
 41
0.9
  0
CIRCLE
  5
D4
  8
SIZE
  6
CONTINUOUS
 62
    30
 10
-307.5
 20
-158.635723
 30
0.0
 40
6.0
  0
CIRCLE
  5
D5
  8
SIZE
  6
CONTINUOUS
 62
    30
 10
-362.5
 20
-158.635723
 30
0.0
 40
6.0
  0
CIRCLE
  5
D6
  8
SIZE
  6
CONTINUOUS
 62
    30
 10
-362.5
 20
-155.251613
 30
0.0
 40
6.0
  0
CIRCLE
  5
D7
  8
SIZE
  6
CONTINUOUS
 62
    30
 10
-492.5
 20
-155.251613
 30
0.0
 40
6.0
  0
CIRCLE
  5
D8
  8
SIZE
  6
CONTINUOUS
 62
    30
 10
-91.637624
 20
0.0
 30
0.0
 40
6.0
  0
CIRCLE
  5
D9
  8
SIZE
  6
CONTINUOUS
 62
    30
 10
-91.637624
 20
242.0
 30
0.0
 40
6.0
  0
CIRCLE
  5
DA
  8
SIZE
  6
CONTINUOUS
 62
    30
 10
482.5
 20
-300.0
 30
0.0
 40
6.0
  0
CIRCLE
  5
DB
  8
SIZE
  6
CONTINUOUS
 62
    30
 10
492.5
 20
-300.0
 30
0.0
 40
6.0
  0
CIRCLE
  5
DC
  8
SIZE
  6
CONTINUOUS
 62
    30
 10
482.5
 20
-300.0
 30
0.0
 40
6.0
  0
CIRCLE
  5
DD
  8
SIZE
  6
CONTINUOUS
 62
    30
 10
-482.5
 20
-300.0
 30
0.0
 40
6.0
  0
CIRCLE
  5
DE
  8
SIZE
  6
CONTINUOUS
 62
    30
 10
-492.5
 20
-300.0
 30
0.0
 40
6.0
  0
CIRCLE
  5
DF
  8
SIZE
  6
CONTINUOUS
 62
    30
 10
-482.5
 20
-300.0
 30
0.0
 40
6.0
  0
CIRCLE
  5
E0
  8
SIZE
  6
CONTINUOUS
 62
    30
 10
-1300.0
 20
1850.0
 30
0.0
 40
6.0
  0
CIRCLE
  5
E1
  8
SIZE
  6
CONTINUOUS
 62
    30
 10
-1300.0
 20
0.0
 30
0.0
 40
6.0
  0
CIRCLE
  5
E2
  8
SIZE
  6
CONTINUOUS
 62
    30
 10
-1150.0
 20
1850.0
 30
0.0
 40
6.0
  0
CIRCLE
  5
E3
  8
SIZE
  6
CONTINUOUS
 62
    30
 10
-1150.0
 20
1825.0
 30
0.0
 40
6.0
  0
CIRCLE
  5
E4
  8
SIZE
  6
CONTINUOUS
 62
    30
 10
-1150.0
 20
1825.0
 30
0.0
 40
6.0
  0
CIRCLE
  5
E5
  8
SIZE
  6
CONTINUOUS
 62
    30
 10
-1150.0
 20
1545.0
 30
0.0
 40
6.0
  0
CIRCLE
  5
E6
  8
SIZE
  6
CONTINUOUS
 62
    30
 10
-1150.0
 20
1545.0
 30
0.0
 40
6.0
  0
CIRCLE
  5
E7
  8
SIZE
  6
CONTINUOUS
 62
    30
 10
-1150.0
 20
1000.0
 30
0.0
 40
6.0
  0
CIRCLE
  5
E8
  8
SIZE
  6
CONTINUOUS
 62
    30
 10
-1150.0
 20
1000.0
 30
0.0
 40
6.0
  0
CIRCLE
  5
E9
  8
SIZE
  6
CONTINUOUS
 62
    30
 10
-1150.0
 20
915.0
 30
0.0
 40
6.0
  0
CIRCLE
  5
EA
  8
SIZE
  6
CONTINUOUS
 62
    30
 10
-1150.0
 20
915.0
 30
0.0
 40
6.0
  0
CIRCLE
  5
EB
  8
SIZE
  6
CONTINUOUS
 62
    30
 10
-1150.0
 20
70.0
 30
0.0
 40
6.0
  0
CIRCLE
  5
EC
  8
SIZE
  6
CONTINUOUS
 62
    30
 10
-1150.0
 20
70.0
 30
0.0
 40
6.0
  0
CIRCLE
  5
ED
  8
SIZE
  6
CONTINUOUS
 62
    30
 10
-1150.0
 20
0.0
 30
0.0
 40
6.0
  0
CIRCLE
  5
EE
  8
SIZE
  6
CONTINUOUS
 62
    30
 10
-492.5
 20
2050.0
 30
0.0
 40
6.0
  0
CIRCLE
  5
EF
  8
SIZE
  6
CONTINUOUS
 62
    30
 10
492.5
 20
2050.0
 30
0.0
 40
6.0
  0
POLYLINE
  5
F0
  8
NOTE
  6
CONTINUOUS
 62
     4
 66
     1
 10
0.0
 20
0.0
 30
0.0
  0
VERTEX
  5
F1
  8
NOTE
  6
CONTINUOUS
 62
     4
 10
509.954799
 20
203.990693
 30
0.0
 50
229.1275
  0
VERTEX
  5
F2
  8
NOTE
  6
CONTINUOUS
 62
     4
 10
492.5
 20
168.0
 30
0.0
 50
229.1275
  0
VERTEX
  5
F3
  8
NOTE
  6
CONTINUOUS
 62
     4
 10
525.611646
 20
190.441455
 30
0.0
 50
229.1275
  0
SEQEND
  5
F4
  8
NOTE
  6
CONTINUOUS
 62
     4
  0
POLYLINE
  5
F5
  8
NOTE
  6
CONTINUOUS
 62
     4
 66
     1
 10
0.0
 20
0.0
 30
0.0
  0
VERTEX
  5
F6
  8
NOTE
  6
CONTINUOUS
 62
     4
 10
518.773375
 20
124.161395
 30
0.0
 50
213.941111
  0
VERTEX
  5
F7
  8
NOTE
  6
CONTINUOUS
 62
     4
 10
492.5
 20
94.0
 30
0.0
 50
213.941111
  0
VERTEX
  5
F8
  8
NOTE
  6
CONTINUOUS
 62
     4
 10
530.334108
 20
106.983847
 30
0.0
 50
213.941111
  0
SEQEND
  5
F9
  8
NOTE
  6
CONTINUOUS
 62
     4
  0
POLYLINE
  5
FA
  8
NOTE
  6
CONTINUOUS
 62
     4
 66
     1
 10
0.0
 20
0.0
 30
0.0
  0
VERTEX
  5
FB
  8
NOTE
  6
CONTINUOUS
 62
     4
 10
-518.773375
 20
124.161395
 30
0.0
  0
VERTEX
  5
FC
  8
NOTE
  6
CONTINUOUS
 62
     4
 10
-492.5
 20
94.0
 30
0.0
  0
VERTEX
  5
FD
  8
NOTE
  6
CONTINUOUS
 62
     4
 10
-530.334108
 20
106.983847
 30
0.0
  0
SEQEND
  5
FE
  8
NOTE
  6
CONTINUOUS
 62
     4
  0
POLYLINE
  5
FF
  8
NOTE
  6
CONTINUOUS
 62
     4
 66
     1
 10
0.0
 20
0.0
 30
0.0
  0
VERTEX
  5
100
  8
NOTE
  6
CONTINUOUS
 62
     4
 10
-509.954799
 20
203.990693
 30
0.0
  0
VERTEX
  5
101
  8
NOTE
  6
CONTINUOUS
 62
     4
 10
-492.5
 20
168.0
 30
0.0
  0
VERTEX
  5
102
  8
NOTE
  6
CONTINUOUS
 62
     4
 10
-525.611646
 20
190.441455
 30
0.0
  0
SEQEND
  5
103
  8
NOTE
  6
CONTINUOUS
 62
     4
  0
POLYLINE
  5
104
  8
NOTE
  6
CONTINUOUS
 62
     4
 66
     1
 10
0.0
 20
0.0
 30
0.0
  0
VERTEX
  5
105
  8
NOTE
  6
CONTINUOUS
 62
     4
 10
-398.170497
 20
260.100155
 30
0.0
 50
318.095556
  0
VERTEX
  5
106
  8
NOTE
  6
CONTINUOUS
 62
     4
 10
-362.5
 20
242.0
 30
0.0
 50
318.095556
  0
VERTEX
  5
107
  8
NOTE
  6
CONTINUOUS
 62
     4
 10
-384.341479
 20
275.510443
 30
0.0
 50
318.095556
  0
SEQEND
  5
108
  8
NOTE
  6
CONTINUOUS
 62
     4
  0
POLYLINE
  5
109
  8
NOTE
  6
CONTINUOUS
 62
     4
 66
     1
 10
0.0
 20
0.0
 30
0.0
  0
VERTEX
  5
10A
  8
NOTE
  6
CONTINUOUS
 62
     4
 10
-340.401651
 20
264.748217
 30
0.0
 50
310.34
  0
VERTEX
  5
10B
  8
NOTE
  6
CONTINUOUS
 62
     4
 10
-307.5
 20
242.0
 30
0.0
 50
310.34
  0
VERTEX
  5
10C
  8
NOTE
  6
CONTINUOUS
 62
     4
 10
-324.619557
 20
278.151359
 30
0.0
 50
310.34
  0
SEQEND
  5
10D
  8
NOTE
  6
CONTINUOUS
 62
     4
  0
POLYLINE
  5
10E
  8
NOTE
  6
CONTINUOUS
 62
     4
 66
     1
 10
0.0
 20
0.0
 30
0.0
  0
VERTEX
  5
10F
  8
NOTE
  6
CONTINUOUS
 62
     4
 10
510.826005
 20
9.777829
 30
0.0
 50
129.510464
  0
VERTEX
  5
110
  8
NOTE
  6
CONTINUOUS
 62
     4
 10
478.257143
 20
33.0
 30
0.0
 50
129.510464
  0
VERTEX
  5
111
  8
NOTE
  6
CONTINUOUS
 62
     4
 10
494.85152
 20
-3.395421
 30
0.0
 50
129.510464
  0
SEQEND
  5
112
  8
NOTE
  6
CONTINUOUS
 62
     4
  0
POLYLINE
  5
113
  8
NOTE
  6
CONTINUOUS
 62
     4
 66
     1
 10
0.0
 20
0.0
 30
0.0
  0
VERTEX
  5
114
  8
NOTE
  6
CONTINUOUS
 62
     4
 10
-506.097791
 20
4.278957
 30
0.0
 50
30.891749
  0
VERTEX
  5
115
  8
NOTE
  6
CONTINUOUS
 62
     4
 10
-478.257143
 20
33.0
 30
0.0
 50
30.891749
  0
VERTEX
  5
116
  8
NOTE
  6
CONTINUOUS
 62
     4
 10
-516.728373
 20
22.047171
 30
0.0
 50
30.891749
  0
SEQEND
  5
117
  8
NOTE
  6
CONTINUOUS
 62
     4
  0
ENDSEC
  0
EOF
