  0
SECTION
  2
HEADER
  9
$ACADVER
  1
AC1014
  9
$ACADMAINTVER
 70
     0
  9
$DWGCODEPAGE
  3
ANSI_932
  9
$INSBASE
 10
0.0
 20
0.0
 30
0.0
  9
$EXTMIN
 10
-1464.925405
 20
-586.213802
 30
-0.001526
  9
$EXTMAX
 10
757.20476
 20
1105.341056
 30
0.0
  9
$LIMMIN
 10
-4267.152221
 20
-2696.08321
  9
$LIMMAX
 10
7190.717423
 20
5141.155364
  9
$ORTHOMODE
 70
     0
  9
$REGENMODE
 70
     1
  9
$FILLMODE
 70
     1
  9
$QTEXTMODE
 70
     0
  9
$MIRRTEXT
 70
     0
  9
$DRAGMODE
 70
     2
  9
$LTSCALE
 40
20.0
  9
$OSMODE
 70
    37
  9
$ATTMODE
 70
     1
  9
$TEXTSIZE
 40
64.0
  9
$TRACEWID
 40
0.05
  9
$TEXTSTYLE
  7
STANDARD
  9
$CLAYER
  8
OUTLINE
  9
$CELTYPE
  6
CONTINUOUS
  9
$CECOLOR
 62
     7
  9
$CELTSCALE
 40
1.0
  9
$DELOBJ
 70
     1
  9
$DISPSILH
 70
     0
  9
$DIMSCALE
 40
1.0
  9
$DIMASZ
 40
10.0
  9
$DIMEXO
 40
20.0
  9
$DIMDLI
 40
200.0
  9
$DIMRND
 40
0.0
  9
$DIMDLE
 40
0.0
  9
$DIMEXE
 40
30.0
  9
$DIMTP
 40
0.0
  9
$DIMTM
 40
0.0
  9
$DIMTXT
 40
55.0
  9
$DIMCEN
 40
0.0
  9
$DIMTSZ
 40
0.0
  9
$DIMTOL
 70
     0
  9
$DIMLIM
 70
     0
  9
$DIMTIH
 70
     0
  9
$DIMTOH
 70
     0
  9
$DIMSE1
 70
     0
  9
$DIMSE2
 70
     0
  9
$DIMTAD
 70
     1
  9
$DIMZIN
 70
     8
  9
$DIMBLK
  1

  9
$DIMASO
 70
     1
  9
$DIMSHO
 70
     0
  9
$DIMPOST
  1

  9
$DIMAPOST
  1

  9
$DIMALT
 70
     0
  9
$DIMALTD
 70
     2
  9
$DIMALTF
 40
25.4
  9
$DIMLFAC
 40
1.0
  9
$DIMTOFL
 70
     1
  9
$DIMTVP
 40
0.0
  9
$DIMTIX
 70
     1
  9
$DIMSOXD
 70
     0
  9
$DIMSAH
 70
     1
  9
$DIMBLK1
  1
_DOTBLANK
  9
$DIMBLK2
  1
_DOTBLANK
  9
$DIMSTYLE
  2
STANDARD
  9
$DIMCLRD
 70
     0
  9
$DIMCLRE
 70
     0
  9
$DIMCLRT
 70
     0
  9
$DIMTFAC
 40
1.0
  9
$DIMGAP
 40
0.09
  9
$DIMJUST
 70
     0
  9
$DIMSD1
 70
     0
  9
$DIMSD2
 70
     0
  9
$DIMTOLJ
 70
     1
  9
$DIMTZIN
 70
     0
  9
$DIMALTZ
 70
     0
  9
$DIMALTTZ
 70
     0
  9
$DIMFIT
 70
     3
  9
$DIMUPT
 70
     0
  9
$DIMUNIT
 70
     2
  9
$DIMDEC
 70
     4
  9
$DIMTDEC
 70
     4
  9
$DIMALTU
 70
     2
  9
$DIMALTTD
 70
     2
  9
$DIMTXSTY
  7
STANDARD
  9
$DIMAUNIT
 70
     0
  9
$LUNITS
 70
     2
  9
$LUPREC
 70
     4
  9
$SKETCHINC
 40
0.1
  9
$FILLETRAD
 40
30.0
  9
$AUNITS
 70
     1
  9
$AUPREC
 70
     3
  9
$MENU
  1
ACAD
  9
$ELEVATION
 40
0.0
  9
$PELEVATION
 40
0.0
  9
$THICKNESS
 40
0.0
  9
$LIMCHECK
 70
     0
  9
$BLIPMODE
 70
     0
  9
$CHAMFERA
 40
0.0
  9
$CHAMFERB
 40
0.0
  9
$CHAMFERC
 40
0.0
  9
$CHAMFERD
 40
0.0
  9
$SKPOLY
 70
     0
  9
$TDCREATE
 40
2450330.439930995
  9
$TDUPDATE
 40
2454252.365999999
  9
$TDINDWG
 40
3.3588890046
  9
$TDUSRTIMER
 40
3.3588890046
  9
$USRTIMER
 70
     1
  9
$ANGBASE
 50
0.0
  9
$ANGDIR
 70
     0
  9
$PDMODE
 70
     3
  9
$PDSIZE
 40
-2.0
  9
$PLINEWID
 40
0.0
  9
$COORDS
 70
     2
  9
$SPLFRAME
 70
     0
  9
$SPLINETYPE
 70
     6
  9
$SPLINESEGS
 70
     8
  9
$ATTDIA
 70
     0
  9
$ATTREQ
 70
     1
  9
$HANDLING
 70
     1
  9
$HANDSEED
  5
7D2
  9
$SURFTAB1
 70
     6
  9
$SURFTAB2
 70
     6
  9
$SURFTYPE
 70
     6
  9
$SURFU
 70
     6
  9
$SURFV
 70
     6
  9
$UCSNAME
  2

  9
$UCSORG
 10
0.0
 20
0.0
 30
0.0
  9
$UCSXDIR
 10
1.0
 20
0.0
 30
0.0
  9
$UCSYDIR
 10
0.0
 20
1.0
 30
0.0
  9
$PUCSNAME
  2

  9
$PUCSORG
 10
0.0
 20
0.0
 30
0.0
  9
$PUCSXDIR
 10
1.0
 20
0.0
 30
0.0
  9
$PUCSYDIR
 10
0.0
 20
1.0
 30
0.0
  9
$USERI1
 70
     0
  9
$USERI2
 70
     0
  9
$USERI3
 70
     0
  9
$USERI4
 70
     0
  9
$USERI5
 70
     0
  9
$USERR1
 40
20.0
  9
$USERR2
 40
0.0
  9
$USERR3
 40
0.0
  9
$USERR4
 40
0.0
  9
$USERR5
 40
0.0
  9
$WORLDVIEW
 70
     1
  9
$SHADEDGE
 70
     3
  9
$SHADEDIF
 70
    70
  9
$TILEMODE
 70
     1
  9
$MAXACTVP
 70
    48
  9
$PINSBASE
 10
0.0
 20
0.0
 30
0.0
  9
$PLIMCHECK
 70
     0
  9
$PEXTMIN
 10
1.000000E+20
 20
1.000000E+20
 30
1.000000E+20
  9
$PEXTMAX
 10
-1.000000E+20
 20
-1.000000E+20
 30
-1.000000E+20
  9
$PLIMMIN
 10
0.0
 20
0.0
  9
$PLIMMAX
 10
12.0
 20
9.0
  9
$UNITMODE
 70
     0
  9
$VISRETAIN
 70
     1
  9
$PLINEGEN
 70
     0
  9
$PSLTSCALE
 70
     1
  9
$TREEDEPTH
 70
  3020
  9
$PICKSTYLE
 70
     1
  9
$CMLSTYLE
  2
STANDARD
  9
$CMLJUST
 70
     0
  9
$CMLSCALE
 40
1.0
  9
$PROXYGRAPHICS
 70
     1
  9
$MEASUREMENT
 70
     0
  0
ENDSEC
  0
SECTION
  2
CLASSES
  0
ENDSEC
  0
SECTION
  2
TABLES
  0
TABLE
  2
VPORT
  5
2D9
100
AcDbSymbolTable
 70
     3
  0
VPORT
  5
7D1
100
AcDbSymbolTableRecord
100
AcDbViewportTableRecord
  2
*ACTIVE
 70
     0
 10
0.0
 20
0.0
 11
1.0
 21
1.0
 12
1461.782601
 22
1331.287491
 13
0.0
 23
0.0
 14
50.0
 24
50.0
 15
100.0
 25
100.0
 16
0.0
 26
0.0
 36
1.0
 17
0.0
 27
0.0
 37
0.0
 40
8054.741402
 41
1.4225
 42
50.0
 43
0.0
 44
0.0
 50
0.0
 51
0.0
 71
     0
 72
  1000
 73
     1
 74
     0
 75
     0
 76
     0
 77
     0
 78
     0
  0
ENDTAB
  0
TABLE
  2
LTYPE
  5
2D6
100
AcDbSymbolTable
 70
     2
  0
LTYPE
  5
2E3
100
AcDbSymbolTableRecord
100
AcDbLinetypeTableRecord
  2
BYBLOCK
 70
     0
  3

 72
    65
 73
     0
 40
0.0
  0
LTYPE
  5
2E4
100
AcDbSymbolTableRecord
100
AcDbLinetypeTableRecord
  2
BYLAYER
 70
     0
  3

 72
    65
 73
     0
 40
0.0
  0
LTYPE
  5
2E5
100
AcDbSymbolTableRecord
100
AcDbLinetypeTableRecord
  2
CONTINUOUS
 70
     0
  3
実線
 72
    65
 73
     0
 40
0.0
  0
LTYPE
  5
2F1
100
AcDbSymbolTableRecord
100
AcDbLinetypeTableRecord
  2
DASHDOT
 70
     0
  3
____ _ ____ _ ____ _ ____ _ ____ _ ____ _ ____
 72
    65
 73
     4
 40
5.5
 49
4.0
 74
     0
 49
-0.6
 74
     0
 49
0.3
 74
     0
 49
-0.6
 74
     0
  0
ENDTAB
  0
TABLE
  2
LAYER
  5
2D3
100
AcDbSymbolTable
 70
    12
  0
LAYER
  5
2DF
100
AcDbSymbolTableRecord
100
AcDbLayerTableRecord
  2
0
 70
     0
 62
     7
  6
CONTINUOUS
  0
LAYER
  5
2F0
100
AcDbSymbolTableRecord
100
AcDbLayerTableRecord
  2
OUTLINE
 70
     0
 62
     3
  6
CONTINUOUS
  0
LAYER
  5
2F2
100
AcDbSymbolTableRecord
100
AcDbLayerTableRecord
  2
DETAIL
 70
     0
 62
     5
  6
CONTINUOUS
  0
LAYER
  5
2F3
100
AcDbSymbolTableRecord
100
AcDbLayerTableRecord
  2
BASIS
 70
     0
 62
     6
  6
DASHDOT
  0
LAYER
  5
2F4
100
AcDbSymbolTableRecord
100
AcDbLayerTableRecord
  2
SIZE
 70
     0
 62
    30
  6
CONTINUOUS
  0
LAYER
  5
2F5
100
AcDbSymbolTableRecord
100
AcDbLayerTableRecord
  2
NOTE
 70
     0
 62
     4
  6
CONTINUOUS
  0
LAYER
  5
2F6
100
AcDbSymbolTableRecord
100
AcDbLayerTableRecord
  2
ARRANGE
 70
     0
 62
     1
  6
CONTINUOUS
  0
LAYER
  5
2F7
100
AcDbSymbolTableRecord
100
AcDbLayerTableRecord
  2
FIX
 70
     0
 62
    11
  6
CONTINUOUS
  0
LAYER
  5
2F8
100
AcDbSymbolTableRecord
100
AcDbLayerTableRecord
  2
SERVICESPACE
 70
     0
 62
     2
  6
DASHDOT
  0
LAYER
  5
2F9
100
AcDbSymbolTableRecord
100
AcDbLayerTableRecord
  2
ETC
 70
     0
 62
    61
  6
CONTINUOUS
  0
LAYER
  5
2FA
100
AcDbSymbolTableRecord
100
AcDbLayerTableRecord
  2
SYMBOLLINE
 70
     0
 62
    15
  6
CONTINUOUS
  0
LAYER
  5
2FB
100
AcDbSymbolTableRecord
100
AcDbLayerTableRecord
  2
DEFPOINTS
 70
     0
 62
     7
  6
CONTINUOUS
  0
ENDTAB
  0
TABLE
  2
STYLE
  5
2D4
100
AcDbSymbolTable
 70
     2
  0
STYLE
  5
2E0
100
AcDbSymbolTableRecord
100
AcDbTextStyleTableRecord
  2
STANDARD
 70
     0
 40
0.0
 41
0.9
 50
0.0
 71
     0
 42
64.0
  3
SIMPLEX
  4
BIGFONT
  0
STYLE
  5
2FC
100
AcDbSymbolTableRecord
100
AcDbTextStyleTableRecord
  2
STANDARD1
 70
     0
 40
0.0
 41
1.0
 50
0.0
 71
     0
 42
64.0
  3
MONOTXT
  4
BIGFONT
  0
ENDTAB
  0
TABLE
  2
VIEW
  5
2D7
100
AcDbSymbolTable
 70
     1
  0
VIEW
  5
2FD
100
AcDbSymbolTableRecord
100
AcDbViewTableRecord
  2
ALL
 70
     0
 40
9000.0
 10
241.506647
 20
0.0
 41
12483.01
 11
0.0
 21
0.0
 31
1.0
 12
0.0
 22
0.0
 32
0.0
 42
50.0
 43
0.0
 44
0.0
 50
0.0
 71
     0
  0
ENDTAB
  0
TABLE
  2
UCS
  5
2D8
100
AcDbSymbolTable
 70
     0
  0
ENDTAB
  0
TABLE
  2
APPID
  5
2DA
100
AcDbSymbolTable
 70
     1
  0
APPID
  5
2E1
100
AcDbSymbolTableRecord
100
AcDbRegAppTableRecord
  2
ACAD
 70
     0
  0
ENDTAB
  0
TABLE
  2
DIMSTYLE
  5
2DB
100
AcDbSymbolTable
 70
     1
  0
DIMSTYLE
105
2FE
100
AcDbSymbolTableRecord
100
AcDbDimStyleTableRecord
  2
STANDARD
 70
     0
  3

  4

  5

  6

  7

 40
1.0
 41
0.18
 42
0.0625
 43
0.38
 44
0.18
 45
0.0
 46
0.0
 47
0.0
 48
0.0
140
0.18
141
0.09
142
0.0
143
25.4
144
1.0
145
0.0
146
1.0
147
0.09
 71
     0
 72
     0
 73
     1
 74
     1
 75
     0
 76
     0
 77
     0
 78
     0
170
     0
171
     2
172
     0
173
     0
174
     0
175
     0
176
     0
177
     0
178
     0
270
     2
271
     4
272
     4
273
     2
274
     2
340
2E0
275
     0
280
     0
281
     0
282
     0
283
     1
284
     0
285
     0
286
     0
287
     3
288
     0
  0
ENDTAB
  0
TABLE
  2
BLOCK_RECORD
  5
2D2
100
AcDbSymbolTable
 70
     4
  0
BLOCK_RECORD
  5
2E9
100
AcDbSymbolTableRecord
100
AcDbBlockTableRecord
  2
*MODEL_SPACE
  0
BLOCK_RECORD
  5
2E6
100
AcDbSymbolTableRecord
100
AcDbBlockTableRecord
  2
*PAPER_SPACE
  0
BLOCK_RECORD
  5
302
100
AcDbSymbolTableRecord
100
AcDbBlockTableRecord
  2
$MODEL_SPACE
  0
BLOCK_RECORD
  5
304
100
AcDbSymbolTableRecord
100
AcDbBlockTableRecord
  2
$PAPER_SPACE
  0
BLOCK_RECORD
  5
306
100
AcDbSymbolTableRecord
100
AcDbBlockTableRecord
  2
_DOTBLANK
  0
BLOCK_RECORD
  5
309
100
AcDbSymbolTableRecord
100
AcDbBlockTableRecord
  2
A$C5AEB16B6
  0
ENDTAB
  0
ENDSEC
  0
SECTION
  2
BLOCKS
  0
BLOCK
  5
2EA
100
AcDbEntity
  8
0
100
AcDbBlockBegin
  2
*MODEL_SPACE
 70
     0
 10
0.0
 20
0.0
 30
0.0
  3
*MODEL_SPACE
  1

  0
ENDBLK
  5
2EB
100
AcDbEntity
  8
0
100
AcDbBlockEnd
  0
BLOCK
  5
2E7
100
AcDbEntity
 67
     1
  8
0
100
AcDbBlockBegin
  2
*PAPER_SPACE
 70
     0
 10
0.0
 20
0.0
 30
0.0
  3
*PAPER_SPACE
  1

  0
ENDBLK
  5
2E8
100
AcDbEntity
 67
     1
  8
0
100
AcDbBlockEnd
  0
BLOCK
  5
303
100
AcDbEntity
  8
0
100
AcDbBlockBegin
  2
$MODEL_SPACE
 70
     0
 10
0.0
 20
0.0
 30
0.0
  3
$MODEL_SPACE
  1

  0
ENDBLK
  5
2B4
100
AcDbEntity
  8
0
100
AcDbBlockEnd
  0
BLOCK
  5
305
100
AcDbEntity
  8
0
100
AcDbBlockBegin
  2
$PAPER_SPACE
 70
     0
 10
0.0
 20
0.0
 30
0.0
  3
$PAPER_SPACE
  1

  0
ENDBLK
  5
2B1
100
AcDbEntity
  8
0
100
AcDbBlockEnd
  0
BLOCK
  5
307
100
AcDbEntity
  8
0
100
AcDbBlockBegin
  2
_DOTBLANK
 70
     0
 10
0.0
 20
0.0
 30
0.0
  3
_DOTBLANK
  1

  0
CIRCLE
  5
32
100
AcDbEntity
  8
0
  6
CONTINUOUS
 62
     7
100
AcDbCircle
 10
0.0
 20
0.0
 30
0.0
 40
0.5
  0
LINE
  5
33
100
AcDbEntity
  8
0
  6
CONTINUOUS
 62
     7
100
AcDbLine
 10
-0.5
 20
0.0
 30
0.0
 11
-1.0
 21
0.0
 31
0.0
  0
ENDBLK
  5
34
100
AcDbEntity
  8
0
100
AcDbBlockEnd
  0
BLOCK
  5
56C
100
AcDbEntity
  8
0
 62
     7
100
AcDbBlockBegin
  2
A$C5AEB16B6
 70
     0
 10
0.0
 20
0.0
 30
0.0
  3
A$C5AEB16B6
  1

  0
LINE
  5
30A
100
AcDbEntity
  8
DETAIL
  6
CONTINUOUS
 62
     5
100
AcDbLine
 10
1819.817114
 20
585.843546
 30
0.0
 11
1109.817114
 21
585.843546
 31
0.0
  0
LINE
  5
30B
100
AcDbEntity
  8
OUTLINE
  6
CONTINUOUS
 62
     3
100
AcDbLine
 10
1147.817114
 20
585.843546
 30
0.0
 11
1109.817114
 21
585.843546
 31
0.0
  0
ARC
  5
30C
100
AcDbEntity
  8
OUTLINE
  6
CONTINUOUS
 62
     3
100
AcDbCircle
 10
1214.817114
 20
898.608252
 30
0.0
 40
332.764706
100
AcDbArc
 50
251.606688
 51
259.429888
  0
LINE
  5
30D
100
AcDbEntity
  8
NOTE
  6
CONTINUOUS
 62
     4
100
AcDbLine
 10
945.667941
 20
1244.567354
 30
0.0
 11
1363.817512
 21
807.842427
 31
0.0
  0
LINE
  5
30E
100
AcDbEntity
  8
NOTE
  6
CONTINUOUS
 62
     4
100
AcDbLine
 10
887.93144
 20
1060.222009
 30
0.0
 11
1293.817648
 21
807.842579
 31
0.0
  0
LINE
  5
30F
100
AcDbEntity
  8
NOTE
  6
CONTINUOUS
 62
     4
100
AcDbLine
 10
672.193103
 20
252.691568
 30
0.0
 11
1177.817592
 21
739.843503
 31
0.0
  0
LINE
  5
310
100
AcDbEntity
  8
SIZE
  6
CONTINUOUS
 62
    30
100
AcDbLine
 10
1809.817114
 20
30.000008
 30
0.0
 11
1119.817114
 21
30.000008
 31
0.0
  0
LINE
  5
311
100
AcDbEntity
  8
SIZE
  6
CONTINUOUS
 62
    30
100
AcDbLine
 10
1167.817114
 20
191.121384
 30
0.0
 11
1119.817114
 21
191.121384
 31
0.0
  0
LINE
  5
312
100
AcDbEntity
  8
SIZE
  6
CONTINUOUS
 62
    30
100
AcDbLine
 10
1134.817114
 20
329.811086
 30
0.0
 11
1139.817114
 21
329.811086
 31
0.0
  0
LINE
  5
313
100
AcDbEntity
  8
SIZE
  6
CONTINUOUS
 62
    30
100
AcDbLine
 10
1134.817114
 20
329.811086
 30
0.0
 11
1139.817114
 21
329.811086
 31
0.0
  0
LINE
  5
314
100
AcDbEntity
  8
SIZE
  6
CONTINUOUS
 62
    30
100
AcDbLine
 10
1444.817114
 20
565.843546
 30
0.0
 11
447.80172
 21
565.843546
 31
0.0
  0
LINE
  5
315
100
AcDbEntity
  8
SIZE
  6
CONTINUOUS
 62
    30
100
AcDbLine
 10
1242.517114
 20
807.843042
 30
0.0
 11
869.838621
 21
807.843042
 31
0.0
  0
LINE
  5
316
100
AcDbEntity
  8
NOTE
  6
CONTINUOUS
 62
     4
100
AcDbLine
 10
1125.202239
 20
460.576158
 30
0.0
 11
1151.124687
 21
478.727252
 31
0.0
  0
LINE
  5
317
100
AcDbEntity
  8
NOTE
  6
CONTINUOUS
 62
     4
100
AcDbLine
 10
1125.202239
 20
460.576158
 30
0.0
 11
1169.344485
 21
537.032771
 31
0.0
  0
LINE
  5
318
100
AcDbEntity
  8
NOTE
  6
CONTINUOUS
 62
     4
100
AcDbLine
 10
1839.817114
 20
975.843546
 30
0.0
 11
1029.817114
 21
975.843546
 31
0.0
  0
ARC
  5
319
100
AcDbEntity
  8
DETAIL
  6
CONTINUOUS
 62
     5
100
AcDbCircle
 10
1214.817114
 20
898.608252
 30
0.0
 40
332.764706
100
AcDbArc
 50
251.606688
 51
259.429888
  0
TEXT
  5
31A
100
AcDbEntity
  8
ETC
  6
CONTINUOUS
 62
    61
100
AcDbText
 10
556.231619
 20
1595.754273
 30
0.0
 40
80.0
  1
MPL-RP40_56LA(ﾘﾌﾟﾚｽﾊﾟﾈﾙ)_3
 50
359.999997
 41
0.8
100
AcDbText
  0
LINE
  5
31B
100
AcDbEntity
  8
OUTLINE
  6
CONTINUOUS
 62
     3
100
AcDbLine
 10
1109.817114
 20
585.843546
 30
0.0
 11
1109.817114
 21
582.843546
 31
0.0
  0
CIRCLE
  5
31C
100
AcDbEntity
  8
SIZE
  6
CONTINUOUS
 62
    30
100
AcDbCircle
 10
477.80172
 20
585.843546
 30
0.0
 40
5.0
  0
LINE
  5
31D
100
AcDbEntity
  8
SIZE
  6
CONTINUOUS
 62
    30
100
AcDbLine
 10
477.80172
 20
585.843546
 30
0.0
 11
477.80172
 21
565.843546
 31
0.0
  0
LINE
  5
31E
100
AcDbEntity
  8
SIZE
  6
CONTINUOUS
 62
    30
100
AcDbLine
 10
477.80172
 20
585.843546
 30
0.0
 11
477.80172
 21
565.843546
 31
0.0
  0
CIRCLE
  5
31F
100
AcDbEntity
  8
SIZE
  6
CONTINUOUS
 62
    30
100
AcDbCircle
 10
477.80172
 20
585.843546
 30
0.0
 40
5.0
  0
LINE
  5
320
100
AcDbEntity
  8
DETAIL
  6
CONTINUOUS
 62
     5
100
AcDbLine
 10
1109.817114
 20
585.843546
 30
0.0
 11
1109.817114
 21
582.843546
 31
0.0
  0
LINE
  5
321
100
AcDbEntity
  8
NOTE
  6
CONTINUOUS
 62
     4
100
AcDbLine
 10
672.193103
 20
252.691568
 30
0.0
 11
0.000009
 21
252.691568
 31
0.0
  0
TEXT
  5
322
100
AcDbEntity
  8
NOTE
  6
CONTINUOUS
 62
     4
100
AcDbText
 10
5.299182
 20
272.562156
 30
0.0
 40
64.0
  1
AH4-14×30長穴
 41
0.9
100
AcDbText
  0
TEXT
  5
323
100
AcDbEntity
  8
SIZE
  6
CONTINUOUS
 62
    30
100
AcDbText
 10
462.80172
 20
445.616148
 30
0.0
 40
55.0
  1
20
 50
90.0
 41
0.9
 72
     1
 11
462.80172
 21
485.687577
 31
0.0
100
AcDbText
  0
LINE
  5
324
100
AcDbEntity
  8
SIZE
  6
CONTINUOUS
 62
    30
100
AcDbLine
 10
477.80172
 20
430.616148
 30
0.0
 11
477.80172
 21
565.843546
 31
0.0
  0
POINT
  5
325
100
AcDbEntity
  8
DEFPOINTS
  6
CONTINUOUS
 62
     7
100
AcDbPoint
 10
477.80172
 20
565.843546
 30
0.0
  0
LINE
  5
326
100
AcDbEntity
  8
SIZE
  6
CONTINUOUS
 62
    30
100
AcDbLine
 10
477.80172
 20
560.843546
 30
0.0
 11
477.80172
 21
555.843546
 31
0.0
  0
CIRCLE
  5
327
100
AcDbEntity
  8
SIZE
  6
CONTINUOUS
 62
    30
100
AcDbCircle
 10
477.80172
 20
565.843546
 30
0.0
 40
5.0
  0
LINE
  5
328
100
AcDbEntity
  8
SIZE
  6
CONTINUOUS
 62
    30
100
AcDbLine
 10
477.80172
 20
555.843546
 30
0.0
 11
477.80172
 21
545.843546
 31
0.0
  0
LINE
  5
329
100
AcDbEntity
  8
SIZE
  6
CONTINUOUS
 62
    30
100
AcDbLine
 10
1109.817114
 20
562.843546
 30
0.0
 11
1109.817114
 21
0.000008
 31
0.0
  0
LINE
  5
32A
100
AcDbEntity
  8
SIZE
  6
CONTINUOUS
 62
    30
100
AcDbLine
 10
1109.817114
 20
562.843546
 30
0.0
 11
1109.817114
 21
161.121384
 31
0.0
  0
POINT
  5
32B
100
AcDbEntity
  8
DEFPOINTS
  6
CONTINUOUS
 62
     7
100
AcDbPoint
 10
1109.817114
 20
30.000008
 30
0.0
  0
LINE
  5
32C
100
AcDbEntity
  8
SIZE
  6
CONTINUOUS
 62
    30
100
AcDbLine
 10
1114.817114
 20
30.000008
 30
0.0
 11
1119.817114
 21
30.000008
 31
0.0
  0
CIRCLE
  5
32D
100
AcDbEntity
  8
SIZE
  6
CONTINUOUS
 62
    30
100
AcDbCircle
 10
1109.817114
 20
30.000008
 30
0.0
 40
5.0
  0
TEXT
  5
32E
100
AcDbEntity
  8
SIZE
  6
CONTINUOUS
 62
    30
100
AcDbText
 10
1001.461368
 20
206.121384
 30
0.0
 40
55.0
  1
68
 41
0.9
 72
     1
 11
1041.532797
 21
206.121384
 31
0.0
100
AcDbText
  0
LINE
  5
32F
100
AcDbEntity
  8
SIZE
  6
CONTINUOUS
 62
    30
100
AcDbLine
 10
986.461368
 20
191.121384
 30
0.0
 11
1109.817114
 21
191.121384
 31
0.0
  0
POINT
  5
330
100
AcDbEntity
  8
DEFPOINTS
  6
CONTINUOUS
 62
     7
100
AcDbPoint
 10
1109.817114
 20
191.121384
 30
0.0
  0
LINE
  5
331
100
AcDbEntity
  8
SIZE
  6
CONTINUOUS
 62
    30
100
AcDbLine
 10
1114.817114
 20
191.121384
 30
0.0
 11
1119.817114
 21
191.121384
 31
0.0
  0
CIRCLE
  5
332
100
AcDbEntity
  8
SIZE
  6
CONTINUOUS
 62
    30
100
AcDbCircle
 10
1109.817114
 20
191.121384
 30
0.0
 40
5.0
  0
LINE
  5
333
100
AcDbEntity
  8
SIZE
  6
CONTINUOUS
 62
    30
100
AcDbLine
 10
1109.817114
 20
562.843546
 30
0.0
 11
1109.817114
 21
299.811086
 31
0.0
  0
LINE
  5
334
100
AcDbEntity
  8
SIZE
  6
CONTINUOUS
 62
    30
100
AcDbLine
 10
1129.817114
 20
565.843546
 30
0.0
 11
1129.817114
 21
299.811086
 31
0.0
  0
LINE
  5
335
100
AcDbEntity
  8
SIZE
  6
CONTINUOUS
 62
    30
100
AcDbLine
 10
1129.817114
 20
565.843546
 30
0.0
 11
1129.817114
 21
299.811086
 31
0.0
  0
TEXT
  5
336
100
AcDbEntity
  8
SIZE
  6
CONTINUOUS
 62
    30
100
AcDbText
 10
993.150208
 20
344.811086
 30
0.0
 40
55.0
  1
20
 41
0.9
 72
     1
 11
1033.221637
 21
344.811086
 31
0.0
100
AcDbText
  0
LINE
  5
337
100
AcDbEntity
  8
SIZE
  6
CONTINUOUS
 62
    30
100
AcDbLine
 10
978.150208
 20
329.811086
 30
0.0
 11
1109.817114
 21
329.811086
 31
0.0
  0
POINT
  5
338
100
AcDbEntity
  8
DEFPOINTS
  6
CONTINUOUS
 62
     7
100
AcDbPoint
 10
1109.817114
 20
329.811086
 30
0.0
  0
LINE
  5
339
100
AcDbEntity
  8
SIZE
  6
CONTINUOUS
 62
    30
100
AcDbLine
 10
1104.817114
 20
329.811086
 30
0.0
 11
1099.817114
 21
329.811086
 31
0.0
  0
CIRCLE
  5
33A
100
AcDbEntity
  8
SIZE
  6
CONTINUOUS
 62
    30
100
AcDbCircle
 10
1109.817114
 20
329.811086
 30
0.0
 40
5.0
  0
CIRCLE
  5
33B
100
AcDbEntity
  8
SIZE
  6
CONTINUOUS
 62
    30
100
AcDbCircle
 10
1129.817114
 20
329.811086
 30
0.0
 40
5.0
  0
LINE
  5
33C
100
AcDbEntity
  8
SIZE
  6
CONTINUOUS
 62
    30
100
AcDbLine
 10
1129.817114
 20
329.811086
 30
0.0
 11
1109.817114
 21
329.811086
 31
0.0
  0
LINE
  5
33D
100
AcDbEntity
  8
SIZE
  6
CONTINUOUS
 62
    30
100
AcDbLine
 10
1129.817114
 20
329.811086
 30
0.0
 11
1109.817114
 21
329.811086
 31
0.0
  0
LINE
  5
33E
100
AcDbEntity
  8
SIZE
  6
CONTINUOUS
 62
    30
100
AcDbLine
 10
1099.817114
 20
329.811086
 30
0.0
 11
1089.817114
 21
329.811086
 31
0.0
  0
POINT
  5
33F
100
AcDbEntity
  8
DEFPOINTS
  6
CONTINUOUS
 62
     7
100
AcDbPoint
 10
1129.817114
 20
329.811086
 30
0.0
  0
CIRCLE
  5
340
100
AcDbEntity
  8
SIZE
  6
CONTINUOUS
 62
    30
100
AcDbCircle
 10
1129.817114
 20
329.811086
 30
0.0
 40
5.0
  0
POINT
  5
341
100
AcDbEntity
  8
DEFPOINTS
  6
CONTINUOUS
 62
     7
100
AcDbPoint
 10
1109.817114
 20
582.843546
 30
0.0
  0
POINT
  5
342
100
AcDbEntity
  8
DEFPOINTS
  6
CONTINUOUS
 62
     7
100
AcDbPoint
 10
1109.817114
 20
582.843546
 30
0.0
  0
POINT
  5
343
100
AcDbEntity
  8
DEFPOINTS
  6
CONTINUOUS
 62
     7
100
AcDbPoint
 10
1109.817114
 20
582.843546
 30
0.0
  0
LINE
  5
344
100
AcDbEntity
  8
NOTE
  6
CONTINUOUS
 62
     4
100
AcDbLine
 10
1125.202239
 20
460.576158
 30
0.0
 11
1127.960323
 21
492.101204
 31
0.0
  0
LINE
  5
345
100
AcDbEntity
  8
NOTE
  6
CONTINUOUS
 62
     4
100
AcDbLine
 10
887.93144
 20
1060.222009
 30
0.0
 11
487.395357
 21
1060.222009
 31
0.0
  0
TEXT
  5
346
100
AcDbEntity
  8
NOTE
  6
CONTINUOUS
 62
     4
100
AcDbText
 10
505.250849
 20
1080.092597
 30
0.0
 40
64.0
  1
RG %%C12.7
 41
0.9
100
AcDbText
  0
LINE
  5
347
100
AcDbEntity
  8
SIZE
  6
CONTINUOUS
 62
    30
100
AcDbLine
 10
1009.817114
 20
585.843546
 30
0.0
 11
447.80172
 21
585.843546
 31
0.0
  0
LINE
  5
348
100
AcDbEntity
  8
SIZE
  6
CONTINUOUS
 62
    30
100
AcDbLine
 10
1009.817114
 20
585.843546
 30
0.0
 11
447.80172
 21
585.843546
 31
0.0
  0
LINE
  5
349
100
AcDbEntity
  8
SIZE
  6
CONTINUOUS
 62
    30
100
AcDbLine
 10
1009.817114
 20
975.843546
 30
0.0
 11
447.80172
 21
975.843546
 31
0.0
  0
LINE
  5
34A
100
AcDbEntity
  8
SIZE
  6
CONTINUOUS
 62
    30
100
AcDbLine
 10
1127.817114
 20
639.843042
 30
0.0
 11
582.854956
 21
639.843042
 31
0.0
  0
LINE
  5
34B
100
AcDbEntity
  8
SIZE
  6
CONTINUOUS
 62
    30
100
AcDbLine
 10
1127.817114
 20
929.843042
 30
0.0
 11
582.854956
 21
929.843042
 31
0.0
  0
TEXT
  5
34C
100
AcDbEntity
  8
SIZE
  6
CONTINUOUS
 62
    30
100
AcDbText
 10
462.80172
 20
657.32926
 30
0.0
 40
55.0
  1
350以上
 50
90.0
 41
0.9
 72
     1
 11
462.80172
 21
780.843546
 31
0.0
100
AcDbText
  0
LINE
  5
34D
100
AcDbEntity
  8
SIZE
  6
CONTINUOUS
 62
    30
100
AcDbLine
 10
477.80172
 20
965.843546
 30
0.0
 11
477.80172
 21
595.843546
 31
0.0
  0
LINE
  5
34E
100
AcDbEntity
  8
SIZE
  6
CONTINUOUS
 62
    30
100
AcDbLine
 10
612.854956
 20
919.843042
 30
0.0
 11
612.854956
 21
649.843042
 31
0.0
  0
TEXT
  5
34F
100
AcDbEntity
  8
SIZE
  6
CONTINUOUS
 62
    30
100
AcDbText
 10
597.854956
 20
721.200185
 30
0.0
 40
55.0
  1
290
 50
90.0
 41
0.9
 72
     1
 11
597.854956
 21
784.843042
 31
0.0
100
AcDbText
  0
LINE
  5
350
100
AcDbEntity
  8
SIZE
  6
CONTINUOUS
 62
    30
100
AcDbLine
 10
477.80172
 20
590.843546
 30
0.0
 11
477.80172
 21
595.843546
 31
0.0
  0
LINE
  5
351
100
AcDbEntity
  8
SIZE
  6
CONTINUOUS
 62
    30
100
AcDbLine
 10
477.80172
 20
595.843546
 30
0.0
 11
477.80172
 21
605.843546
 31
0.0
  0
POINT
  5
352
100
AcDbEntity
  8
DEFPOINTS
  6
CONTINUOUS
 62
     7
100
AcDbPoint
 10
477.80172
 20
585.843546
 30
0.0
  0
LINE
  5
353
100
AcDbEntity
  8
SIZE
  6
CONTINUOUS
 62
    30
100
AcDbLine
 10
477.80172
 20
590.843546
 30
0.0
 11
477.80172
 21
595.843546
 31
0.0
  0
POINT
  5
354
100
AcDbEntity
  8
DEFPOINTS
  6
CONTINUOUS
 62
     7
100
AcDbPoint
 10
612.854956
 20
639.843042
 30
0.0
  0
LINE
  5
355
100
AcDbEntity
  8
SIZE
  6
CONTINUOUS
 62
    30
100
AcDbLine
 10
612.854956
 20
644.843042
 30
0.0
 11
612.854956
 21
649.843042
 31
0.0
  0
CIRCLE
  5
356
100
AcDbEntity
  8
SIZE
  6
CONTINUOUS
 62
    30
100
AcDbCircle
 10
612.854956
 20
639.843042
 30
0.0
 40
5.0
  0
LINE
  5
357
100
AcDbEntity
  8
SIZE
  6
CONTINUOUS
 62
    30
100
AcDbLine
 10
477.80172
 20
970.843546
 30
0.0
 11
477.80172
 21
965.843546
 31
0.0
  0
CIRCLE
  5
358
100
AcDbEntity
  8
SIZE
  6
CONTINUOUS
 62
    30
100
AcDbCircle
 10
477.80172
 20
975.843546
 30
0.0
 40
5.0
  0
LINE
  5
359
100
AcDbEntity
  8
SIZE
  6
CONTINUOUS
 62
    30
100
AcDbLine
 10
612.854956
 20
924.843042
 30
0.0
 11
612.854956
 21
919.843042
 31
0.0
  0
CIRCLE
  5
35A
100
AcDbEntity
  8
SIZE
  6
CONTINUOUS
 62
    30
100
AcDbCircle
 10
612.854956
 20
929.843042
 30
0.0
 40
5.0
  0
TEXT
  5
35B
100
AcDbEntity
  8
SIZE
  6
CONTINUOUS
 62
    30
100
AcDbText
 10
745.508108
 20
775.91447
 30
0.0
 40
55.0
  1
190
 50
90.0
 41
0.9
 72
     1
 11
745.508108
 21
834.843042
 31
0.0
100
AcDbText
  0
LINE
  5
35C
100
AcDbEntity
  8
SIZE
  6
CONTINUOUS
 62
    30
100
AcDbLine
 10
760.508108
 20
919.843042
 30
0.0
 11
760.508108
 21
749.843042
 31
0.0
  0
TEXT
  5
35D
100
AcDbEntity
  8
SIZE
  6
CONTINUOUS
 62
    30
100
AcDbText
 10
884.838621
 20
809.91447
 30
0.0
 40
55.0
  1
122
 50
90.0
 41
0.9
 72
     1
 11
884.838621
 21
868.843042
 31
0.0
100
AcDbText
  0
LINE
  5
35E
100
AcDbEntity
  8
SIZE
  6
CONTINUOUS
 62
    30
100
AcDbLine
 10
899.838621
 20
929.843042
 30
0.0
 11
899.838621
 21
807.843042
 31
0.0
  0
LINE
  5
35F
100
AcDbEntity
  8
SIZE
  6
CONTINUOUS
 62
    30
100
AcDbLine
 10
1132.817114
 20
739.843042
 30
0.0
 11
730.508108
 21
739.843042
 31
0.0
  0
CIRCLE
  5
360
100
AcDbEntity
  8
SIZE
  6
CONTINUOUS
 62
    30
100
AcDbCircle
 10
760.508108
 20
739.843042
 30
0.0
 40
5.0
  0
POINT
  5
361
100
AcDbEntity
  8
DEFPOINTS
  6
CONTINUOUS
 62
     7
100
AcDbPoint
 10
760.508108
 20
739.843042
 30
0.0
  0
LINE
  5
362
100
AcDbEntity
  8
SIZE
  6
CONTINUOUS
 62
    30
100
AcDbLine
 10
760.508108
 20
744.843042
 30
0.0
 11
760.508108
 21
749.843042
 31
0.0
  0
POINT
  5
363
100
AcDbEntity
  8
DEFPOINTS
  6
CONTINUOUS
 62
     7
100
AcDbPoint
 10
899.838621
 20
807.843042
 30
0.0
  0
LINE
  5
364
100
AcDbEntity
  8
SIZE
  6
CONTINUOUS
 62
    30
100
AcDbLine
 10
899.838621
 20
802.843042
 30
0.0
 11
899.838621
 21
797.843042
 31
0.0
  0
CIRCLE
  5
365
100
AcDbEntity
  8
SIZE
  6
CONTINUOUS
 62
    30
100
AcDbCircle
 10
899.838621
 20
807.843042
 30
0.0
 40
5.0
  0
LINE
  5
366
100
AcDbEntity
  8
SIZE
  6
CONTINUOUS
 62
    30
100
AcDbLine
 10
899.838621
 20
797.843042
 30
0.0
 11
899.838621
 21
787.843042
 31
0.0
  0
POINT
  5
367
100
AcDbEntity
  8
DEFPOINTS
  6
CONTINUOUS
 62
     7
100
AcDbPoint
 10
1129.817114
 20
585.843546
 30
0.0
  0
POINT
  5
368
100
AcDbEntity
  8
DEFPOINTS
  6
CONTINUOUS
 62
     7
100
AcDbPoint
 10
1129.817114
 20
585.843546
 30
0.0
  0
POINT
  5
369
100
AcDbEntity
  8
DEFPOINTS
  6
CONTINUOUS
 62
     7
100
AcDbPoint
 10
1029.817114
 20
585.843546
 30
0.0
  0
POINT
  5
36A
100
AcDbEntity
  8
DEFPOINTS
  6
CONTINUOUS
 62
     7
100
AcDbPoint
 10
1029.817114
 20
585.843546
 30
0.0
  0
LINE
  5
36B
100
AcDbEntity
  8
NOTE
  6
CONTINUOUS
 62
     4
100
AcDbLine
 10
1129.817114
 20
591.821565
 30
0.0
 11
1120.795133
 21
600.843546
 31
0.0
  0
LINE
  5
36C
100
AcDbEntity
  8
NOTE
  6
CONTINUOUS
 62
     4
100
AcDbLine
 10
1121.652997
 20
585.843546
 30
0.0
 11
1106.652997
 21
600.843546
 31
0.0
  0
LINE
  5
36D
100
AcDbEntity
  8
NOTE
  6
CONTINUOUS
 62
     4
100
AcDbLine
 10
1107.510861
 20
585.843546
 30
0.0
 11
1092.510861
 21
600.843546
 31
0.0
  0
LINE
  5
36E
100
AcDbEntity
  8
NOTE
  6
CONTINUOUS
 62
     4
100
AcDbLine
 10
1065.084455
 20
585.843546
 30
0.0
 11
1050.084455
 21
600.843546
 31
0.0
  0
LINE
  5
36F
100
AcDbEntity
  8
NOTE
  6
CONTINUOUS
 62
     4
100
AcDbLine
 10
1050.942319
 20
585.843546
 30
0.0
 11
1035.942319
 21
600.843546
 31
0.0
  0
LINE
  5
370
100
AcDbEntity
  8
NOTE
  6
CONTINUOUS
 62
     4
100
AcDbLine
 10
1036.800183
 20
585.843546
 30
0.0
 11
1029.817114
 21
592.826615
 31
0.0
  0
LINE
  5
371
100
AcDbEntity
  8
NOTE
  6
CONTINUOUS
 62
     4
100
AcDbLine
 10
1129.817114
 20
585.843546
 30
0.0
 11
1029.817114
 21
585.843546
 31
0.0
  0
LINE
  5
372
100
AcDbEntity
  8
NOTE
  6
CONTINUOUS
 62
     4
100
AcDbLine
 10
1129.817114
 20
600.843546
 30
0.0
 11
1029.817114
 21
600.843546
 31
0.0
  0
LINE
  5
373
100
AcDbEntity
  8
NOTE
  6
CONTINUOUS
 62
     4
100
AcDbLine
 10
1129.817114
 20
585.843546
 30
0.0
 11
1129.817114
 21
600.843546
 31
0.0
  0
LINE
  5
374
100
AcDbEntity
  8
SIZE
  6
CONTINUOUS
 62
    30
100
AcDbLine
 10
1127.817114
 20
929.843042
 30
0.0
 11
730.508108
 21
929.843042
 31
0.0
  0
LINE
  5
375
100
AcDbEntity
  8
SIZE
  6
CONTINUOUS
 62
    30
100
AcDbLine
 10
1127.817114
 20
929.843042
 30
0.0
 11
869.838621
 21
929.843042
 31
0.0
  0
LINE
  5
376
100
AcDbEntity
  8
SIZE
  6
CONTINUOUS
 62
    30
100
AcDbLine
 10
760.508108
 20
924.843042
 30
0.0
 11
760.508108
 21
919.843042
 31
0.0
  0
CIRCLE
  5
377
100
AcDbEntity
  8
SIZE
  6
CONTINUOUS
 62
    30
100
AcDbCircle
 10
760.508108
 20
929.843042
 30
0.0
 40
5.0
  0
LINE
  5
378
100
AcDbEntity
  8
SIZE
  6
CONTINUOUS
 62
    30
100
AcDbLine
 10
899.838621
 20
934.843042
 30
0.0
 11
899.838621
 21
939.843042
 31
0.0
  0
CIRCLE
  5
379
100
AcDbEntity
  8
SIZE
  6
CONTINUOUS
 62
    30
100
AcDbCircle
 10
899.838621
 20
929.843042
 30
0.0
 40
5.0
  0
LINE
  5
37A
100
AcDbEntity
  8
SIZE
  6
CONTINUOUS
 62
    30
100
AcDbLine
 10
899.838621
 20
939.843042
 30
0.0
 11
899.838621
 21
949.843042
 31
0.0
  0
POINT
  5
37B
100
AcDbEntity
  8
DEFPOINTS
  6
CONTINUOUS
 62
     7
100
AcDbPoint
 10
1029.817114
 20
975.843546
 30
0.0
  0
LINE
  5
37C
100
AcDbEntity
  8
NOTE
  6
CONTINUOUS
 62
     4
100
AcDbLine
 10
1123.248572
 20
975.843546
 30
0.0
 11
1093.248572
 21
1005.843546
 31
0.0
  0
LINE
  5
37D
100
AcDbEntity
  8
NOTE
  6
CONTINUOUS
 62
     4
100
AcDbLine
 10
1096.680029
 20
975.843546
 30
0.0
 11
1066.680029
 21
1005.843546
 31
0.0
  0
LINE
  5
37E
100
AcDbEntity
  8
NOTE
  6
CONTINUOUS
 62
     4
100
AcDbLine
 10
1070.111487
 20
975.843546
 30
0.0
 11
1040.111487
 21
1005.843546
 31
0.0
  0
LINE
  5
37F
100
AcDbEntity
  8
NOTE
  6
CONTINUOUS
 62
     4
100
AcDbLine
 10
945.667941
 20
1244.567354
 30
0.0
 11
526.968976
 21
1244.567354
 31
0.0
  0
TEXT
  5
380
100
AcDbEntity
  8
NOTE
  6
CONTINUOUS
 62
     4
100
AcDbText
 10
544.824469
 20
1264.437942
 30
0.0
 40
64.0
  1
RL %%C6.35
 41
0.9
100
AcDbText
  0
LINE
  5
381
100
AcDbEntity
  8
BASIS
  6
DASHDOT
 62
     6
100
AcDbLine
 10
1464.817114
 20
956.001196
 30
0.0
 11
1464.817114
 21
544.235301
 31
0.0
  0
CIRCLE
  5
382
100
AcDbEntity
  8
ARRANGE
  6
CONTINUOUS
 62
     1
100
AcDbCircle
 10
1464.817114
 20
585.843546
 30
0.0
 40
42.5
  0
TEXT
  5
383
100
AcDbEntity
  8
SIZE
  6
CONTINUOUS
 62
    30
100
AcDbText
 10
2176.223166
 20
541.261418
 30
0.0
 40
55.0
  1
73
 50
90.0
 41
0.9
 72
     1
 11
2176.223166
 21
581.332847
 31
0.0
100
AcDbText
  0
LINE
  5
384
100
AcDbEntity
  8
SIZE
  6
CONTINUOUS
 62
    30
100
AcDbLine
 10
2191.223166
 20
526.261419
 30
0.0
 11
2191.223166
 21
654.843042
 31
0.0
  0
TEXT
  5
385
100
AcDbEntity
  8
SIZE
  6
CONTINUOUS
 62
    30
100
AcDbText
 10
2066.57764
 20
528.442942
 30
0.0
 40
55.0
  1
45
 50
90.0
 41
0.9
 72
     1
 11
2066.57764
 21
568.514371
 31
0.0
100
AcDbText
  0
LINE
  5
386
100
AcDbEntity
  8
SIZE
  6
CONTINUOUS
 62
    30
100
AcDbLine
 10
2081.57764
 20
513.442942
 30
0.0
 11
2081.57764
 21
668.843042
 31
0.0
  0
LINE
  5
387
100
AcDbEntity
  8
OUTLINE
  6
CONTINUOUS
 62
     3
100
AcDbLine
 10
1819.817114
 20
585.843546
 30
0.0
 11
1819.817114
 21
582.843546
 31
0.0
  0
LINE
  5
388
100
AcDbEntity
  8
SIZE
  6
CONTINUOUS
 62
    30
100
AcDbLine
 10
1177.817114
 20
704.902991
 30
0.0
 11
1177.817114
 21
161.121384
 31
0.0
  0
LINE
  5
389
100
AcDbEntity
  8
SIZE
  6
CONTINUOUS
 62
    30
100
AcDbLine
 10
1177.817114
 20
704.902991
 30
0.0
 11
1177.817114
 21
161.121384
 31
0.0
  0
LINE
  5
38A
100
AcDbEntity
  8
SIZE
  6
CONTINUOUS
 62
    30
100
AcDbLine
 10
1751.817114
 20
704.902991
 30
0.0
 11
1751.817114
 21
161.121384
 31
0.0
  0
LINE
  5
38B
100
AcDbEntity
  8
SIZE
  6
CONTINUOUS
 62
    30
100
AcDbLine
 10
1751.817114
 20
704.902991
 30
0.0
 11
1751.817114
 21
161.121384
 31
0.0
  0
CIRCLE
  5
38C
100
AcDbEntity
  8
SIZE
  6
CONTINUOUS
 62
    30
100
AcDbCircle
 10
1967.130632
 20
585.843546
 30
0.0
 40
5.0
  0
LINE
  5
38D
100
AcDbEntity
  8
ARRANGE
  6
CONTINUOUS
 62
     1
100
AcDbLine
 10
1422.347915
 20
628.000652
 30
0.0
 11
1507.286313
 21
543.68644
 31
0.0
  0
LINE
  5
38E
100
AcDbEntity
  8
ARRANGE
  6
CONTINUOUS
 62
     1
100
AcDbLine
 10
1422.285366
 20
543.749546
 30
0.0
 11
1507.348862
 21
627.937546
 31
0.0
  0
LINE
  5
38F
100
AcDbEntity
  8
DETAIL
  6
CONTINUOUS
 62
     5
100
AcDbLine
 10
1819.817114
 20
585.843546
 30
0.0
 11
1819.817114
 21
582.843546
 31
0.0
  0
LINE
  5
390
100
AcDbEntity
  8
OUTLINE
  6
CONTINUOUS
 62
     3
100
AcDbLine
 10
1214.817114
 20
565.843546
 30
0.0
 11
1714.817114
 21
565.843546
 31
0.0
  0
TEXT
  5
391
100
AcDbEntity
  8
SIZE
  6
CONTINUOUS
 62
    30
100
AcDbText
 10
1206.002828
 20
210.526146
 30
0.0
 40
55.0
  1
574(吊りﾎﾞﾙﾄﾋﾟｯﾁ)
 41
0.9
 72
     1
 11
1464.817114
 21
210.526146
 31
0.0
100
AcDbText
  0
LINE
  5
392
100
AcDbEntity
  8
SIZE
  6
CONTINUOUS
 62
    30
100
AcDbLine
 10
1741.817114
 20
191.121384
 30
0.0
 11
1187.817114
 21
191.121384
 31
0.0
  0
TEXT
  5
393
100
AcDbEntity
  8
SIZE
  6
CONTINUOUS
 62
    30
100
AcDbText
 10
1191.152828
 20
349.215848
 30
0.0
 40
55.0
  1
670(天井開口寸法)
 41
0.9
 72
     1
 11
1464.817114
 21
349.215848
 31
0.0
100
AcDbText
  0
LINE
  5
394
100
AcDbEntity
  8
SIZE
  6
CONTINUOUS
 62
    30
100
AcDbLine
 10
1789.817114
 20
329.811086
 30
0.0
 11
1139.817114
 21
329.811086
 31
0.0
  0
LINE
  5
395
100
AcDbEntity
  8
DETAIL
  6
CONTINUOUS
 62
     5
100
AcDbLine
 10
1214.817114
 20
565.843546
 30
0.0
 11
1714.817114
 21
565.843546
 31
0.0
  0
LINE
  5
396
100
AcDbEntity
  8
SIZE
  6
CONTINUOUS
 62
    30
100
AcDbLine
 10
1172.817114
 20
191.121384
 30
0.0
 11
1167.817114
 21
191.121384
 31
0.0
  0
CIRCLE
  5
397
100
AcDbEntity
  8
SIZE
  6
CONTINUOUS
 62
    30
100
AcDbCircle
 10
1177.817114
 20
191.121384
 30
0.0
 40
5.0
  0
POINT
  5
398
100
AcDbEntity
  8
DEFPOINTS
  6
CONTINUOUS
 62
     7
100
AcDbPoint
 10
1177.817114
 20
191.121384
 30
0.0
  0
LINE
  5
399
100
AcDbEntity
  8
SIZE
  6
CONTINUOUS
 62
    30
100
AcDbLine
 10
1182.817114
 20
191.121384
 30
0.0
 11
1187.817114
 21
191.121384
 31
0.0
  0
CIRCLE
  5
39A
100
AcDbEntity
  8
SIZE
  6
CONTINUOUS
 62
    30
100
AcDbCircle
 10
1177.817114
 20
191.121384
 30
0.0
 40
5.0
  0
TEXT
  5
39B
100
AcDbEntity
  8
SIZE
  6
CONTINUOUS
 62
    30
100
AcDbText
 10
1405.888542
 20
45.000008
 30
0.0
 40
55.0
  1
710
 41
0.9
 72
     1
 11
1464.817114
 21
45.000008
 31
0.0
100
AcDbText
  0
LINE
  5
39C
100
AcDbEntity
  8
SIZE
  6
CONTINUOUS
 62
    30
100
AcDbLine
 10
1139.817114
 20
329.811086
 30
0.0
 11
1149.817114
 21
329.811086
 31
0.0
  0
LINE
  5
39D
100
AcDbEntity
  8
NOTE
  6
CONTINUOUS
 62
     4
100
AcDbLine
 10
1247.928403
 20
504.25094
 30
0.0
 11
1263.214821
 21
537.032771
 31
0.0
  0
ARC
  5
39E
100
AcDbEntity
  8
OUTLINE
  6
CONTINUOUS
 62
     3
100
AcDbCircle
 10
1214.817114
 20
898.608252
 30
0.0
 40
332.764706
100
AcDbArc
 50
268.260704
 51
270.0
  0
LINE
  5
39F
100
AcDbEntity
  8
OUTLINE
  6
CONTINUOUS
 62
     3
100
AcDbLine
 10
1171.8409
 20
568.730522
 30
0.0
 11
1173.151445
 21
568.563232
 31
0.0
  0
LINE
  5
3A0
100
AcDbEntity
  8
OUTLINE
  6
CONTINUOUS
 62
     3
100
AcDbLine
 10
1170.456367
 20
568.912157
 30
0.0
 11
1171.8409
 21
568.730522
 31
0.0
  0
LINE
  5
3A1
100
AcDbEntity
  8
OUTLINE
  6
CONTINUOUS
 62
     3
100
AcDbLine
 10
1169.015808
 20
569.106519
 30
0.0
 11
1170.456367
 21
568.912157
 31
0.0
  0
LINE
  5
3A2
100
AcDbEntity
  8
OUTLINE
  6
CONTINUOUS
 62
     3
100
AcDbLine
 10
1167.540873
 20
569.31122
 30
0.0
 11
1169.015808
 21
569.106519
 31
0.0
  0
LINE
  5
3A3
100
AcDbEntity
  8
OUTLINE
  6
CONTINUOUS
 62
     3
100
AcDbLine
 10
1166.0529
 20
569.523594
 30
0.0
 11
1167.540873
 21
569.31122
 31
0.0
  0
LINE
  5
3A4
100
AcDbEntity
  8
OUTLINE
  6
CONTINUOUS
 62
     3
100
AcDbLine
 10
1164.576523
 20
569.740127
 30
0.0
 11
1166.0529
 21
569.523594
 31
0.0
  0
LINE
  5
3A5
100
AcDbEntity
  8
OUTLINE
  6
CONTINUOUS
 62
     3
100
AcDbLine
 10
1163.140382
 20
569.956312
 30
0.0
 11
1164.576523
 21
569.740127
 31
0.0
  0
LINE
  5
3A6
100
AcDbEntity
  8
OUTLINE
  6
CONTINUOUS
 62
     3
100
AcDbLine
 10
1161.771097
 20
570.167499
 30
0.0
 11
1163.140382
 21
569.956312
 31
0.0
  0
LINE
  5
3A7
100
AcDbEntity
  8
OUTLINE
  6
CONTINUOUS
 62
     3
100
AcDbLine
 10
1160.490682
 20
570.369401
 30
0.0
 11
1161.771097
 21
570.167499
 31
0.0
  0
LINE
  5
3A8
100
AcDbEntity
  8
OUTLINE
  6
CONTINUOUS
 62
     3
100
AcDbLine
 10
1158.239874
 20
570.734413
 30
0.0
 11
1160.490682
 21
570.369401
 31
0.0
  0
LINE
  5
3A9
100
AcDbEntity
  8
OUTLINE
  6
CONTINUOUS
 62
     3
100
AcDbLine
 10
1156.406368
 20
571.040658
 30
0.0
 11
1158.239874
 21
570.734413
 31
0.0
  0
LINE
  5
3AA
100
AcDbEntity
  8
OUTLINE
  6
CONTINUOUS
 62
     3
100
AcDbLine
 10
1153.775222
 20
571.490326
 30
0.0
 11
1156.406368
 21
571.040658
 31
0.0
  0
LINE
  5
3AB
100
AcDbEntity
  8
OUTLINE
  6
CONTINUOUS
 62
     3
100
AcDbLine
 10
1190.458146
 20
566.813564
 30
0.0
 11
1192.596731
 21
566.659188
 31
0.0
  0
LINE
  5
3AC
100
AcDbEntity
  8
OUTLINE
  6
CONTINUOUS
 62
     3
100
AcDbLine
 10
1188.093461
 20
567.000238
 30
0.0
 11
1190.458146
 21
566.813564
 31
0.0
  0
LINE
  5
3AD
100
AcDbEntity
  8
OUTLINE
  6
CONTINUOUS
 62
     3
100
AcDbLine
 10
1185.456831
 20
567.228064
 30
0.0
 11
1188.093461
 21
567.000238
 31
0.0
  0
LINE
  5
3AE
100
AcDbEntity
  8
OUTLINE
  6
CONTINUOUS
 62
     3
100
AcDbLine
 10
1182.502586
 20
567.507896
 30
0.0
 11
1185.456831
 21
567.228064
 31
0.0
  0
LINE
  5
3AF
100
AcDbEntity
  8
OUTLINE
  6
CONTINUOUS
 62
     3
100
AcDbLine
 10
1179.185644
 20
567.852939
 30
0.0
 11
1182.502586
 21
567.507896
 31
0.0
  0
LINE
  5
3B0
100
AcDbEntity
  8
OUTLINE
  6
CONTINUOUS
 62
     3
100
AcDbLine
 10
1175.460949
 20
568.279276
 30
0.0
 11
1179.185644
 21
567.852939
 31
0.0
  0
LINE
  5
3B1
100
AcDbEntity
  8
OUTLINE
  6
CONTINUOUS
 62
     3
100
AcDbLine
 10
1173.151445
 20
568.563232
 30
0.0
 11
1175.460949
 21
568.279276
 31
0.0
  0
LINE
  5
3B2
100
AcDbEntity
  8
OUTLINE
  6
CONTINUOUS
 62
     3
100
AcDbLine
 10
1196.63251
 20
566.403324
 30
0.0
 11
1198.324496
 21
566.30696
 31
0.0
  0
LINE
  5
3B3
100
AcDbEntity
  8
OUTLINE
  6
CONTINUOUS
 62
     3
100
AcDbLine
 10
1195.049987
 20
566.498971
 30
0.0
 11
1196.63251
 21
566.403324
 31
0.0
  0
LINE
  5
3B4
100
AcDbEntity
  8
OUTLINE
  6
CONTINUOUS
 62
     3
100
AcDbLine
 10
1192.596731
 20
566.659188
 30
0.0
 11
1195.049987
 21
566.498971
 31
0.0
  0
LINE
  5
3B5
100
AcDbEntity
  8
OUTLINE
  6
CONTINUOUS
 62
     3
100
AcDbLine
 10
1201.815283
 20
566.129072
 30
0.0
 11
1204.515004
 21
566.009541
 31
0.0
  0
LINE
  5
3B6
100
AcDbEntity
  8
OUTLINE
  6
CONTINUOUS
 62
     3
100
AcDbLine
 10
1199.954133
 20
566.220272
 30
0.0
 11
1201.815283
 21
566.129072
 31
0.0
  0
LINE
  5
3B7
100
AcDbEntity
  8
OUTLINE
  6
CONTINUOUS
 62
     3
100
AcDbLine
 10
1204.6961
 20
565.999679
 30
0.0
 11
1204.717114
 21
565.997075
 31
0.0
  0
LINE
  5
3B8
100
AcDbEntity
  8
OUTLINE
  6
CONTINUOUS
 62
     3
100
AcDbLine
 10
1204.629434
 20
566.003804
 30
0.0
 11
1204.6961
 21
565.999679
 31
0.0
  0
LINE
  5
3B9
100
AcDbEntity
  8
OUTLINE
  6
CONTINUOUS
 62
     3
100
AcDbLine
 10
1204.515004
 20
566.009541
 30
0.0
 11
1204.629434
 21
566.003804
 31
0.0
  0
LINE
  5
3BA
100
AcDbEntity
  8
OUTLINE
  6
CONTINUOUS
 62
     3
100
AcDbLine
 10
1198.324496
 20
566.30696
 30
0.0
 11
1199.954133
 21
566.220272
 31
0.0
  0
LINE
  5
3BB
100
AcDbEntity
  8
NOTE
  6
CONTINUOUS
 62
     4
100
AcDbLine
 10
1165.004739
 20
509.51611
 30
0.0
 11
1178.004739
 21
532.032771
 31
0.0
  0
LINE
  5
3BC
100
AcDbEntity
  8
NOTE
  6
CONTINUOUS
 62
     4
100
AcDbLine
 10
1147.684231
 20
519.51611
 30
0.0
 11
1160.684231
 21
542.032771
 31
0.0
  0
ARC
  5
3BD
100
AcDbEntity
  8
DETAIL
  6
CONTINUOUS
 62
     5
100
AcDbCircle
 10
1214.817114
 20
898.608252
 30
0.0
 40
332.764706
100
AcDbArc
 50
268.260704
 51
270.0
  0
LINE
  5
3BE
100
AcDbEntity
  8
DETAIL
  6
CONTINUOUS
 62
     5
100
AcDbLine
 10
1171.8409
 20
568.730522
 30
0.0
 11
1173.151445
 21
568.563232
 31
0.0
  0
LINE
  5
3BF
100
AcDbEntity
  8
DETAIL
  6
CONTINUOUS
 62
     5
100
AcDbLine
 10
1170.456367
 20
568.912157
 30
0.0
 11
1171.8409
 21
568.730522
 31
0.0
  0
LINE
  5
3C0
100
AcDbEntity
  8
DETAIL
  6
CONTINUOUS
 62
     5
100
AcDbLine
 10
1169.015808
 20
569.106519
 30
0.0
 11
1170.456367
 21
568.912157
 31
0.0
  0
LINE
  5
3C1
100
AcDbEntity
  8
DETAIL
  6
CONTINUOUS
 62
     5
100
AcDbLine
 10
1167.540873
 20
569.31122
 30
0.0
 11
1169.015808
 21
569.106519
 31
0.0
  0
LINE
  5
3C2
100
AcDbEntity
  8
DETAIL
  6
CONTINUOUS
 62
     5
100
AcDbLine
 10
1166.0529
 20
569.523594
 30
0.0
 11
1167.540873
 21
569.31122
 31
0.0
  0
LINE
  5
3C3
100
AcDbEntity
  8
DETAIL
  6
CONTINUOUS
 62
     5
100
AcDbLine
 10
1164.576523
 20
569.740127
 30
0.0
 11
1166.0529
 21
569.523594
 31
0.0
  0
LINE
  5
3C4
100
AcDbEntity
  8
DETAIL
  6
CONTINUOUS
 62
     5
100
AcDbLine
 10
1163.140382
 20
569.956312
 30
0.0
 11
1164.576523
 21
569.740127
 31
0.0
  0
LINE
  5
3C5
100
AcDbEntity
  8
DETAIL
  6
CONTINUOUS
 62
     5
100
AcDbLine
 10
1161.771097
 20
570.167499
 30
0.0
 11
1163.140382
 21
569.956312
 31
0.0
  0
LINE
  5
3C6
100
AcDbEntity
  8
DETAIL
  6
CONTINUOUS
 62
     5
100
AcDbLine
 10
1160.490682
 20
570.369401
 30
0.0
 11
1161.771097
 21
570.167499
 31
0.0
  0
LINE
  5
3C7
100
AcDbEntity
  8
DETAIL
  6
CONTINUOUS
 62
     5
100
AcDbLine
 10
1158.239874
 20
570.734413
 30
0.0
 11
1160.490682
 21
570.369401
 31
0.0
  0
LINE
  5
3C8
100
AcDbEntity
  8
DETAIL
  6
CONTINUOUS
 62
     5
100
AcDbLine
 10
1156.406368
 20
571.040658
 30
0.0
 11
1158.239874
 21
570.734413
 31
0.0
  0
LINE
  5
3C9
100
AcDbEntity
  8
DETAIL
  6
CONTINUOUS
 62
     5
100
AcDbLine
 10
1153.775222
 20
571.490326
 30
0.0
 11
1156.406368
 21
571.040658
 31
0.0
  0
LINE
  5
3CA
100
AcDbEntity
  8
DETAIL
  6
CONTINUOUS
 62
     5
100
AcDbLine
 10
1190.458146
 20
566.813564
 30
0.0
 11
1192.596731
 21
566.659188
 31
0.0
  0
LINE
  5
3CB
100
AcDbEntity
  8
DETAIL
  6
CONTINUOUS
 62
     5
100
AcDbLine
 10
1188.093461
 20
567.000238
 30
0.0
 11
1190.458146
 21
566.813564
 31
0.0
  0
LINE
  5
3CC
100
AcDbEntity
  8
DETAIL
  6
CONTINUOUS
 62
     5
100
AcDbLine
 10
1185.456831
 20
567.228064
 30
0.0
 11
1188.093461
 21
567.000238
 31
0.0
  0
LINE
  5
3CD
100
AcDbEntity
  8
DETAIL
  6
CONTINUOUS
 62
     5
100
AcDbLine
 10
1182.502586
 20
567.507896
 30
0.0
 11
1185.456831
 21
567.228064
 31
0.0
  0
LINE
  5
3CE
100
AcDbEntity
  8
DETAIL
  6
CONTINUOUS
 62
     5
100
AcDbLine
 10
1179.185644
 20
567.852939
 30
0.0
 11
1182.502586
 21
567.507896
 31
0.0
  0
LINE
  5
3CF
100
AcDbEntity
  8
DETAIL
  6
CONTINUOUS
 62
     5
100
AcDbLine
 10
1175.460949
 20
568.279276
 30
0.0
 11
1179.185644
 21
567.852939
 31
0.0
  0
LINE
  5
3D0
100
AcDbEntity
  8
DETAIL
  6
CONTINUOUS
 62
     5
100
AcDbLine
 10
1173.151445
 20
568.563232
 30
0.0
 11
1175.460949
 21
568.279276
 31
0.0
  0
LINE
  5
3D1
100
AcDbEntity
  8
DETAIL
  6
CONTINUOUS
 62
     5
100
AcDbLine
 10
1196.63251
 20
566.403324
 30
0.0
 11
1198.324496
 21
566.30696
 31
0.0
  0
LINE
  5
3D2
100
AcDbEntity
  8
DETAIL
  6
CONTINUOUS
 62
     5
100
AcDbLine
 10
1195.049987
 20
566.498971
 30
0.0
 11
1196.63251
 21
566.403324
 31
0.0
  0
LINE
  5
3D3
100
AcDbEntity
  8
DETAIL
  6
CONTINUOUS
 62
     5
100
AcDbLine
 10
1192.596731
 20
566.659188
 30
0.0
 11
1195.049987
 21
566.498971
 31
0.0
  0
LINE
  5
3D4
100
AcDbEntity
  8
DETAIL
  6
CONTINUOUS
 62
     5
100
AcDbLine
 10
1201.815283
 20
566.129072
 30
0.0
 11
1204.515004
 21
566.009541
 31
0.0
  0
LINE
  5
3D5
100
AcDbEntity
  8
DETAIL
  6
CONTINUOUS
 62
     5
100
AcDbLine
 10
1199.954133
 20
566.220272
 30
0.0
 11
1201.815283
 21
566.129072
 31
0.0
  0
LINE
  5
3D6
100
AcDbEntity
  8
DETAIL
  6
CONTINUOUS
 62
     5
100
AcDbLine
 10
1204.6961
 20
565.999679
 30
0.0
 11
1204.717114
 21
565.997075
 31
0.0
  0
LINE
  5
3D7
100
AcDbEntity
  8
DETAIL
  6
CONTINUOUS
 62
     5
100
AcDbLine
 10
1204.629434
 20
566.003804
 30
0.0
 11
1204.6961
 21
565.999679
 31
0.0
  0
LINE
  5
3D8
100
AcDbEntity
  8
DETAIL
  6
CONTINUOUS
 62
     5
100
AcDbLine
 10
1204.515004
 20
566.009541
 30
0.0
 11
1204.629434
 21
566.003804
 31
0.0
  0
LINE
  5
3D9
100
AcDbEntity
  8
DETAIL
  6
CONTINUOUS
 62
     5
100
AcDbLine
 10
1198.324496
 20
566.30696
 30
0.0
 11
1199.954133
 21
566.220272
 31
0.0
  0
ARC
  5
3DA
100
AcDbEntity
  8
NOTE
  6
CONTINUOUS
 62
     4
100
AcDbCircle
 10
1269.153475
 20
463.804464
 30
0.0
 40
2.236779
100
AcDbArc
 50
319.904575
 51
40.095425
  0
ARC
  5
3DB
100
AcDbEntity
  8
NOTE
  6
CONTINUOUS
 62
     4
100
AcDbCircle
 10
1268.901008
 20
473.804464
 30
0.0
 40
2.428163
100
AcDbArc
 50
318.67406
 51
41.32594
  0
ARC
  5
3DC
100
AcDbEntity
  8
NOTE
  6
CONTINUOUS
 62
     4
100
AcDbCircle
 10
1269.596907
 20
483.804464
 30
0.0
 40
1.892533
100
AcDbArc
 50
321.923328
 51
38.076672
  0
ARC
  5
3DD
100
AcDbEntity
  8
NOTE
  6
CONTINUOUS
 62
     4
100
AcDbCircle
 10
1263.214821
 20
468.804464
 30
0.0
 40
10.0
100
AcDbArc
 50
41.32594
 51
150.0
  0
ARC
  5
3DE
100
AcDbEntity
  8
NOTE
  6
CONTINUOUS
 62
     4
100
AcDbCircle
 10
1263.214821
 20
468.804464
 30
0.0
 40
10.0
100
AcDbArc
 50
150.0
 51
210.0
  0
ARC
  5
3DF
100
AcDbEntity
  8
NOTE
  6
CONTINUOUS
 62
     4
100
AcDbCircle
 10
1263.214821
 20
468.804464
 30
0.0
 40
10.0
100
AcDbArc
 50
210.0
 51
319.904575
  0
ARC
  5
3E0
100
AcDbEntity
  8
NOTE
  6
CONTINUOUS
 62
     4
100
AcDbCircle
 10
1263.214821
 20
478.804464
 30
0.0
 40
10.0
100
AcDbArc
 50
150.0
 51
210.0
  0
ARC
  5
3E1
100
AcDbEntity
  8
NOTE
  6
CONTINUOUS
 62
     4
100
AcDbCircle
 10
1263.214821
 20
478.804464
 30
0.0
 40
10.0
100
AcDbArc
 50
38.076672
 51
150.0
  0
ARC
  5
3E2
100
AcDbEntity
  8
NOTE
  6
CONTINUOUS
 62
     4
100
AcDbCircle
 10
1263.214821
 20
478.804464
 30
0.0
 40
10.0
100
AcDbArc
 50
210.0
 51
318.67406
  0
ARC
  5
3E3
100
AcDbEntity
  8
NOTE
  6
CONTINUOUS
 62
     4
100
AcDbCircle
 10
1263.214821
 20
488.804464
 30
0.0
 40
10.0
100
AcDbArc
 50
90.0
 51
321.923328
  0
ARC
  5
3E4
100
AcDbEntity
  8
NOTE
  6
CONTINUOUS
 62
     4
100
AcDbCircle
 10
1263.214821
 20
458.804464
 30
0.0
 40
10.0
100
AcDbArc
 50
40.095425
 51
270.0
  0
LINE
  5
3E5
100
AcDbEntity
  8
NOTE
  6
CONTINUOUS
 62
     4
100
AcDbLine
 10
1278.50124
 20
504.25094
 30
0.0
 11
1263.214821
 21
537.032771
 31
0.0
  0
LINE
  5
3E6
100
AcDbEntity
  8
NOTE
  6
CONTINUOUS
 62
     4
100
AcDbLine
 10
1263.214821
 20
437.2794
 30
0.0
 11
1263.214821
 21
537.032771
 31
0.0
  0
POINT
  5
3E7
100
AcDbEntity
  8
DEFPOINTS
  6
CONTINUOUS
 62
     7
100
AcDbPoint
 10
1464.817114
 20
565.843546
 30
0.0
  0
LINE
  5
3E8
100
AcDbEntity
  8
SIZE
  6
CONTINUOUS
 62
    30
100
AcDbLine
 10
1819.817114
 20
562.843546
 30
0.0
 11
1819.817114
 21
0.000008
 31
0.0
  0
LINE
  5
3E9
100
AcDbEntity
  8
SIZE
  6
CONTINUOUS
 62
    30
100
AcDbLine
 10
1819.817114
 20
562.843546
 30
0.0
 11
1819.817114
 21
161.121384
 31
0.0
  0
LINE
  5
3EA
100
AcDbEntity
  8
SIZE
  6
CONTINUOUS
 62
    30
100
AcDbLine
 10
1761.817114
 20
191.121384
 30
0.0
 11
1809.817114
 21
191.121384
 31
0.0
  0
LINE
  5
3EB
100
AcDbEntity
  8
SIZE
  6
CONTINUOUS
 62
    30
100
AcDbLine
 10
1746.817114
 20
191.121384
 30
0.0
 11
1741.817114
 21
191.121384
 31
0.0
  0
CIRCLE
  5
3EC
100
AcDbEntity
  8
SIZE
  6
CONTINUOUS
 62
    30
100
AcDbCircle
 10
1751.817114
 20
191.121384
 30
0.0
 40
5.0
  0
POINT
  5
3ED
100
AcDbEntity
  8
DEFPOINTS
  6
CONTINUOUS
 62
     7
100
AcDbPoint
 10
1751.817114
 20
191.121384
 30
0.0
  0
LINE
  5
3EE
100
AcDbEntity
  8
SIZE
  6
CONTINUOUS
 62
    30
100
AcDbLine
 10
1756.817114
 20
191.121384
 30
0.0
 11
1761.817114
 21
191.121384
 31
0.0
  0
CIRCLE
  5
3EF
100
AcDbEntity
  8
SIZE
  6
CONTINUOUS
 62
    30
100
AcDbCircle
 10
1751.817114
 20
191.121384
 30
0.0
 40
5.0
  0
LINE
  5
3F0
100
AcDbEntity
  8
SIZE
  6
CONTINUOUS
 62
    30
100
AcDbLine
 10
1814.817114
 20
30.000008
 30
0.0
 11
1809.817114
 21
30.000008
 31
0.0
  0
CIRCLE
  5
3F1
100
AcDbEntity
  8
SIZE
  6
CONTINUOUS
 62
    30
100
AcDbCircle
 10
1819.817114
 20
30.000008
 30
0.0
 40
5.0
  0
TEXT
  5
3F2
100
AcDbEntity
  8
SIZE
  6
CONTINUOUS
 62
    30
100
AcDbText
 10
1844.817114
 20
206.121384
 30
0.0
 40
55.0
  1
68
 41
0.9
 72
     1
 11
1884.888543
 21
206.121384
 31
0.0
100
AcDbText
  0
LINE
  5
3F3
100
AcDbEntity
  8
SIZE
  6
CONTINUOUS
 62
    30
100
AcDbLine
 10
1819.817114
 20
191.121384
 30
0.0
 11
1939.959971
 21
191.121384
 31
0.0
  0
LINE
  5
3F4
100
AcDbEntity
  8
SIZE
  6
CONTINUOUS
 62
    30
100
AcDbLine
 10
1814.817114
 20
191.121384
 30
0.0
 11
1809.817114
 21
191.121384
 31
0.0
  0
CIRCLE
  5
3F5
100
AcDbEntity
  8
SIZE
  6
CONTINUOUS
 62
    30
100
AcDbCircle
 10
1819.817114
 20
191.121384
 30
0.0
 40
5.0
  0
ARC
  5
3F6
100
AcDbEntity
  8
OUTLINE
  6
CONTINUOUS
 62
     3
100
AcDbCircle
 10
1714.817114
 20
898.608252
 30
0.0
 40
332.764706
100
AcDbArc
 50
280.570112
 51
288.393312
  0
LINE
  5
3F7
100
AcDbEntity
  8
SIZE
  6
CONTINUOUS
 62
    30
100
AcDbLine
 10
1799.817114
 20
329.811086
 30
0.0
 11
1819.817114
 21
329.811086
 31
0.0
  0
LINE
  5
3F8
100
AcDbEntity
  8
NOTE
  6
CONTINUOUS
 62
     4
100
AcDbLine
 10
1812.831833
 20
460.576158
 30
0.0
 11
1786.909384
 21
478.727252
 31
0.0
  0
LINE
  5
3F9
100
AcDbEntity
  8
NOTE
  6
CONTINUOUS
 62
     4
100
AcDbLine
 10
1812.831833
 20
460.576158
 30
0.0
 11
1768.689587
 21
537.032771
 31
0.0
  0
ARC
  5
3FA
100
AcDbEntity
  8
DETAIL
  6
CONTINUOUS
 62
     5
100
AcDbCircle
 10
1714.817114
 20
898.608252
 30
0.0
 40
332.764706
100
AcDbArc
 50
280.570112
 51
288.393312
  0
LINE
  5
3FB
100
AcDbEntity
  8
SIZE
  6
CONTINUOUS
 62
    30
100
AcDbLine
 10
1799.817114
 20
565.843546
 30
0.0
 11
1799.817114
 21
299.811086
 31
0.0
  0
LINE
  5
3FC
100
AcDbEntity
  8
SIZE
  6
CONTINUOUS
 62
    30
100
AcDbLine
 10
1799.817114
 20
565.843546
 30
0.0
 11
1799.817114
 21
299.811086
 31
0.0
  0
LINE
  5
3FD
100
AcDbEntity
  8
SIZE
  6
CONTINUOUS
 62
    30
100
AcDbLine
 10
1794.817114
 20
329.811086
 30
0.0
 11
1789.817114
 21
329.811086
 31
0.0
  0
CIRCLE
  5
3FE
100
AcDbEntity
  8
SIZE
  6
CONTINUOUS
 62
    30
100
AcDbCircle
 10
1799.817114
 20
329.811086
 30
0.0
 40
5.0
  0
POINT
  5
3FF
100
AcDbEntity
  8
DEFPOINTS
  6
CONTINUOUS
 62
     7
100
AcDbPoint
 10
1799.817114
 20
329.811086
 30
0.0
  0
LINE
  5
400
100
AcDbEntity
  8
SIZE
  6
CONTINUOUS
 62
    30
100
AcDbLine
 10
1794.817114
 20
329.811086
 30
0.0
 11
1789.817114
 21
329.811086
 31
0.0
  0
CIRCLE
  5
401
100
AcDbEntity
  8
SIZE
  6
CONTINUOUS
 62
    30
100
AcDbCircle
 10
1799.817114
 20
329.811086
 30
0.0
 40
5.0
  0
LINE
  5
402
100
AcDbEntity
  8
SIZE
  6
CONTINUOUS
 62
    30
100
AcDbLine
 10
1789.817114
 20
329.811086
 30
0.0
 11
1779.817114
 21
329.811086
 31
0.0
  0
ARC
  5
403
100
AcDbEntity
  8
NOTE
  6
CONTINUOUS
 62
     4
100
AcDbCircle
 10
1673.880597
 20
463.804464
 30
0.0
 40
2.236779
100
AcDbArc
 50
139.904575
 51
220.095425
  0
ARC
  5
404
100
AcDbEntity
  8
NOTE
  6
CONTINUOUS
 62
     4
100
AcDbCircle
 10
1674.133064
 20
473.804464
 30
0.0
 40
2.428163
100
AcDbArc
 50
138.67406
 51
221.32594
  0
ARC
  5
405
100
AcDbEntity
  8
NOTE
  6
CONTINUOUS
 62
     4
100
AcDbCircle
 10
1673.437164
 20
483.804464
 30
0.0
 40
1.892533
100
AcDbArc
 50
141.923328
 51
218.076672
  0
ARC
  5
406
100
AcDbEntity
  8
NOTE
  6
CONTINUOUS
 62
     4
100
AcDbCircle
 10
1679.81925
 20
468.804464
 30
0.0
 40
10.0
100
AcDbArc
 50
30.0
 51
138.67406
  0
ARC
  5
407
100
AcDbEntity
  8
NOTE
  6
CONTINUOUS
 62
     4
100
AcDbCircle
 10
1679.81925
 20
468.804464
 30
0.0
 40
10.0
100
AcDbArc
 50
330.0
 51
30.0
  0
ARC
  5
408
100
AcDbEntity
  8
NOTE
  6
CONTINUOUS
 62
     4
100
AcDbCircle
 10
1679.81925
 20
468.804464
 30
0.0
 40
10.0
100
AcDbArc
 50
220.095425
 51
330.0
  0
ARC
  5
409
100
AcDbEntity
  8
NOTE
  6
CONTINUOUS
 62
     4
100
AcDbCircle
 10
1679.81925
 20
478.804464
 30
0.0
 40
10.0
100
AcDbArc
 50
330.0
 51
30.0
  0
ARC
  5
40A
100
AcDbEntity
  8
NOTE
  6
CONTINUOUS
 62
     4
100
AcDbCircle
 10
1679.81925
 20
478.804464
 30
0.0
 40
10.0
100
AcDbArc
 50
30.0
 51
141.923328
  0
ARC
  5
40B
100
AcDbEntity
  8
NOTE
  6
CONTINUOUS
 62
     4
100
AcDbCircle
 10
1679.81925
 20
478.804464
 30
0.0
 40
10.0
100
AcDbArc
 50
221.32594
 51
330.0
  0
ARC
  5
40C
100
AcDbEntity
  8
NOTE
  6
CONTINUOUS
 62
     4
100
AcDbCircle
 10
1679.81925
 20
488.804464
 30
0.0
 40
10.0
100
AcDbArc
 50
218.076672
 51
90.0
  0
ARC
  5
40D
100
AcDbEntity
  8
NOTE
  6
CONTINUOUS
 62
     4
100
AcDbCircle
 10
1679.81925
 20
458.804464
 30
0.0
 40
10.0
100
AcDbArc
 50
270.0
 51
139.904575
  0
LINE
  5
40E
100
AcDbEntity
  8
NOTE
  6
CONTINUOUS
 62
     4
100
AcDbLine
 10
1695.105669
 20
504.25094
 30
0.0
 11
1679.81925
 21
537.032771
 31
0.0
  0
LINE
  5
40F
100
AcDbEntity
  8
NOTE
  6
CONTINUOUS
 62
     4
100
AcDbLine
 10
1664.532831
 20
504.25094
 30
0.0
 11
1679.81925
 21
537.032771
 31
0.0
  0
LINE
  5
410
100
AcDbEntity
  8
NOTE
  6
CONTINUOUS
 62
     4
100
AcDbLine
 10
1679.81925
 20
437.2794
 30
0.0
 11
1679.81925
 21
537.032771
 31
0.0
  0
ARC
  5
411
100
AcDbEntity
  8
OUTLINE
  6
CONTINUOUS
 62
     3
100
AcDbCircle
 10
1714.817114
 20
898.608252
 30
0.0
 40
332.764706
100
AcDbArc
 50
270.0
 51
271.739296
  0
LINE
  5
412
100
AcDbEntity
  8
OUTLINE
  6
CONTINUOUS
 62
     3
100
AcDbLine
 10
1773.996811
 20
571.17117
 30
0.0
 11
1771.394354
 21
570.734413
 31
0.0
  0
LINE
  5
413
100
AcDbEntity
  8
OUTLINE
  6
CONTINUOUS
 62
     3
100
AcDbLine
 10
1771.394354
 20
570.734413
 30
0.0
 11
1769.143546
 21
570.369401
 31
0.0
  0
LINE
  5
414
100
AcDbEntity
  8
OUTLINE
  6
CONTINUOUS
 62
     3
100
AcDbLine
 10
1756.482783
 20
568.563232
 30
0.0
 11
1754.173279
 21
568.279276
 31
0.0
  0
LINE
  5
415
100
AcDbEntity
  8
OUTLINE
  6
CONTINUOUS
 62
     3
100
AcDbLine
 10
1757.793328
 20
568.730522
 30
0.0
 11
1756.482783
 21
568.563232
 31
0.0
  0
LINE
  5
416
100
AcDbEntity
  8
OUTLINE
  6
CONTINUOUS
 62
     3
100
AcDbLine
 10
1759.177861
 20
568.912157
 30
0.0
 11
1757.793328
 21
568.730522
 31
0.0
  0
LINE
  5
417
100
AcDbEntity
  8
OUTLINE
  6
CONTINUOUS
 62
     3
100
AcDbLine
 10
1760.61842
 20
569.106519
 30
0.0
 11
1759.177861
 21
568.912157
 31
0.0
  0
LINE
  5
418
100
AcDbEntity
  8
OUTLINE
  6
CONTINUOUS
 62
     3
100
AcDbLine
 10
1762.093355
 20
569.31122
 30
0.0
 11
1760.61842
 21
569.106519
 31
0.0
  0
LINE
  5
419
100
AcDbEntity
  8
OUTLINE
  6
CONTINUOUS
 62
     3
100
AcDbLine
 10
1763.581328
 20
569.523594
 30
0.0
 11
1762.093355
 21
569.31122
 31
0.0
  0
LINE
  5
41A
100
AcDbEntity
  8
OUTLINE
  6
CONTINUOUS
 62
     3
100
AcDbLine
 10
1765.057705
 20
569.740127
 30
0.0
 11
1763.581328
 21
569.523594
 31
0.0
  0
LINE
  5
41B
100
AcDbEntity
  8
OUTLINE
  6
CONTINUOUS
 62
     3
100
AcDbLine
 10
1766.493846
 20
569.956312
 30
0.0
 11
1765.057705
 21
569.740127
 31
0.0
  0
LINE
  5
41C
100
AcDbEntity
  8
OUTLINE
  6
CONTINUOUS
 62
     3
100
AcDbLine
 10
1767.863131
 20
570.167499
 30
0.0
 11
1766.493846
 21
569.956312
 31
0.0
  0
LINE
  5
41D
100
AcDbEntity
  8
OUTLINE
  6
CONTINUOUS
 62
     3
100
AcDbLine
 10
1769.143546
 20
570.369401
 30
0.0
 11
1767.863131
 21
570.167499
 31
0.0
  0
LINE
  5
41E
100
AcDbEntity
  8
OUTLINE
  6
CONTINUOUS
 62
     3
100
AcDbLine
 10
1737.037497
 20
566.659188
 30
0.0
 11
1735.077932
 21
566.52985
 31
0.0
  0
LINE
  5
41F
100
AcDbEntity
  8
OUTLINE
  6
CONTINUOUS
 62
     3
100
AcDbLine
 10
1739.176082
 20
566.813564
 30
0.0
 11
1737.037497
 21
566.659188
 31
0.0
  0
LINE
  5
420
100
AcDbEntity
  8
OUTLINE
  6
CONTINUOUS
 62
     3
100
AcDbLine
 10
1741.540767
 20
567.000238
 30
0.0
 11
1739.176082
 21
566.813564
 31
0.0
  0
LINE
  5
421
100
AcDbEntity
  8
OUTLINE
  6
CONTINUOUS
 62
     3
100
AcDbLine
 10
1744.177397
 20
567.228064
 30
0.0
 11
1741.540767
 21
567.000238
 31
0.0
  0
LINE
  5
422
100
AcDbEntity
  8
OUTLINE
  6
CONTINUOUS
 62
     3
100
AcDbLine
 10
1747.131642
 20
567.507896
 30
0.0
 11
1744.177397
 21
567.228064
 31
0.0
  0
LINE
  5
423
100
AcDbEntity
  8
OUTLINE
  6
CONTINUOUS
 62
     3
100
AcDbLine
 10
1750.448584
 20
567.852939
 30
0.0
 11
1747.131642
 21
567.507896
 31
0.0
  0
LINE
  5
424
100
AcDbEntity
  8
OUTLINE
  6
CONTINUOUS
 62
     3
100
AcDbLine
 10
1754.173279
 20
568.279276
 30
0.0
 11
1750.448584
 21
567.852939
 31
0.0
  0
LINE
  5
425
100
AcDbEntity
  8
OUTLINE
  6
CONTINUOUS
 62
     3
100
AcDbLine
 10
1735.077932
 20
566.52985
 30
0.0
 11
1733.545339
 21
566.435596
 31
0.0
  0
LINE
  5
426
100
AcDbEntity
  8
OUTLINE
  6
CONTINUOUS
 62
     3
100
AcDbLine
 10
1733.545339
 20
566.435596
 30
0.0
 11
1731.309732
 21
566.30696
 31
0.0
  0
LINE
  5
427
100
AcDbEntity
  8
OUTLINE
  6
CONTINUOUS
 62
     3
100
AcDbLine
 10
1731.309732
 20
566.30696
 30
0.0
 11
1729.680095
 21
566.220272
 31
0.0
  0
LINE
  5
428
100
AcDbEntity
  8
OUTLINE
  6
CONTINUOUS
 62
     3
100
AcDbLine
 10
1729.680095
 20
566.220272
 30
0.0
 11
1727.818945
 21
566.129072
 31
0.0
  0
LINE
  5
429
100
AcDbEntity
  8
OUTLINE
  6
CONTINUOUS
 62
     3
100
AcDbLine
 10
1724.938128
 20
565.999679
 30
0.0
 11
1724.917114
 21
565.997075
 31
0.0
  0
LINE
  5
42A
100
AcDbEntity
  8
OUTLINE
  6
CONTINUOUS
 62
     3
100
AcDbLine
 10
1725.004794
 20
566.003804
 30
0.0
 11
1724.938128
 21
565.999679
 31
0.0
  0
LINE
  5
42B
100
AcDbEntity
  8
OUTLINE
  6
CONTINUOUS
 62
     3
100
AcDbLine
 10
1725.119224
 20
566.009541
 30
0.0
 11
1725.004794
 21
566.003804
 31
0.0
  0
LINE
  5
42C
100
AcDbEntity
  8
OUTLINE
  6
CONTINUOUS
 62
     3
100
AcDbLine
 10
1727.818945
 20
566.129072
 30
0.0
 11
1725.119224
 21
566.009541
 31
0.0
  0
LINE
  5
42D
100
AcDbEntity
  8
NOTE
  6
CONTINUOUS
 62
     4
100
AcDbLine
 10
1773.029333
 20
509.51611
 30
0.0
 11
1760.029333
 21
532.032771
 31
0.0
  0
LINE
  5
42E
100
AcDbEntity
  8
NOTE
  6
CONTINUOUS
 62
     4
100
AcDbLine
 10
1790.349841
 20
519.51611
 30
0.0
 11
1777.349841
 21
542.032771
 31
0.0
  0
ARC
  5
42F
100
AcDbEntity
  8
DETAIL
  6
CONTINUOUS
 62
     5
100
AcDbCircle
 10
1714.817114
 20
898.608252
 30
0.0
 40
332.764706
100
AcDbArc
 50
270.0
 51
271.739296
  0
LINE
  5
430
100
AcDbEntity
  8
DETAIL
  6
CONTINUOUS
 62
     5
100
AcDbLine
 10
1775.859006
 20
571.490326
 30
0.0
 11
1773.996811
 21
571.17117
 31
0.0
  0
LINE
  5
431
100
AcDbEntity
  8
DETAIL
  6
CONTINUOUS
 62
     5
100
AcDbLine
 10
1773.996811
 20
571.17117
 30
0.0
 11
1771.394354
 21
570.734413
 31
0.0
  0
LINE
  5
432
100
AcDbEntity
  8
DETAIL
  6
CONTINUOUS
 62
     5
100
AcDbLine
 10
1771.394354
 20
570.734413
 30
0.0
 11
1769.143546
 21
570.369401
 31
0.0
  0
LINE
  5
433
100
AcDbEntity
  8
DETAIL
  6
CONTINUOUS
 62
     5
100
AcDbLine
 10
1756.482783
 20
568.563232
 30
0.0
 11
1754.173279
 21
568.279276
 31
0.0
  0
LINE
  5
434
100
AcDbEntity
  8
DETAIL
  6
CONTINUOUS
 62
     5
100
AcDbLine
 10
1757.793328
 20
568.730522
 30
0.0
 11
1756.482783
 21
568.563232
 31
0.0
  0
LINE
  5
435
100
AcDbEntity
  8
DETAIL
  6
CONTINUOUS
 62
     5
100
AcDbLine
 10
1759.177861
 20
568.912157
 30
0.0
 11
1757.793328
 21
568.730522
 31
0.0
  0
LINE
  5
436
100
AcDbEntity
  8
DETAIL
  6
CONTINUOUS
 62
     5
100
AcDbLine
 10
1760.61842
 20
569.106519
 30
0.0
 11
1759.177861
 21
568.912157
 31
0.0
  0
LINE
  5
437
100
AcDbEntity
  8
DETAIL
  6
CONTINUOUS
 62
     5
100
AcDbLine
 10
1762.093355
 20
569.31122
 30
0.0
 11
1760.61842
 21
569.106519
 31
0.0
  0
LINE
  5
438
100
AcDbEntity
  8
DETAIL
  6
CONTINUOUS
 62
     5
100
AcDbLine
 10
1763.581328
 20
569.523594
 30
0.0
 11
1762.093355
 21
569.31122
 31
0.0
  0
LINE
  5
439
100
AcDbEntity
  8
DETAIL
  6
CONTINUOUS
 62
     5
100
AcDbLine
 10
1765.057705
 20
569.740127
 30
0.0
 11
1763.581328
 21
569.523594
 31
0.0
  0
LINE
  5
43A
100
AcDbEntity
  8
DETAIL
  6
CONTINUOUS
 62
     5
100
AcDbLine
 10
1766.493846
 20
569.956312
 30
0.0
 11
1765.057705
 21
569.740127
 31
0.0
  0
LINE
  5
43B
100
AcDbEntity
  8
DETAIL
  6
CONTINUOUS
 62
     5
100
AcDbLine
 10
1767.863131
 20
570.167499
 30
0.0
 11
1766.493846
 21
569.956312
 31
0.0
  0
LINE
  5
43C
100
AcDbEntity
  8
DETAIL
  6
CONTINUOUS
 62
     5
100
AcDbLine
 10
1769.143546
 20
570.369401
 30
0.0
 11
1767.863131
 21
570.167499
 31
0.0
  0
LINE
  5
43D
100
AcDbEntity
  8
DETAIL
  6
CONTINUOUS
 62
     5
100
AcDbLine
 10
1737.037497
 20
566.659188
 30
0.0
 11
1735.077932
 21
566.52985
 31
0.0
  0
LINE
  5
43E
100
AcDbEntity
  8
DETAIL
  6
CONTINUOUS
 62
     5
100
AcDbLine
 10
1739.176082
 20
566.813564
 30
0.0
 11
1737.037497
 21
566.659188
 31
0.0
  0
LINE
  5
43F
100
AcDbEntity
  8
DETAIL
  6
CONTINUOUS
 62
     5
100
AcDbLine
 10
1741.540767
 20
567.000238
 30
0.0
 11
1739.176082
 21
566.813564
 31
0.0
  0
LINE
  5
440
100
AcDbEntity
  8
DETAIL
  6
CONTINUOUS
 62
     5
100
AcDbLine
 10
1744.177397
 20
567.228064
 30
0.0
 11
1741.540767
 21
567.000238
 31
0.0
  0
LINE
  5
441
100
AcDbEntity
  8
DETAIL
  6
CONTINUOUS
 62
     5
100
AcDbLine
 10
1747.131642
 20
567.507896
 30
0.0
 11
1744.177397
 21
567.228064
 31
0.0
  0
LINE
  5
442
100
AcDbEntity
  8
DETAIL
  6
CONTINUOUS
 62
     5
100
AcDbLine
 10
1750.448584
 20
567.852939
 30
0.0
 11
1747.131642
 21
567.507896
 31
0.0
  0
LINE
  5
443
100
AcDbEntity
  8
DETAIL
  6
CONTINUOUS
 62
     5
100
AcDbLine
 10
1754.173279
 20
568.279276
 30
0.0
 11
1750.448584
 21
567.852939
 31
0.0
  0
LINE
  5
444
100
AcDbEntity
  8
DETAIL
  6
CONTINUOUS
 62
     5
100
AcDbLine
 10
1735.077932
 20
566.52985
 30
0.0
 11
1733.545339
 21
566.435596
 31
0.0
  0
LINE
  5
445
100
AcDbEntity
  8
DETAIL
  6
CONTINUOUS
 62
     5
100
AcDbLine
 10
1733.545339
 20
566.435596
 30
0.0
 11
1731.309732
 21
566.30696
 31
0.0
  0
LINE
  5
446
100
AcDbEntity
  8
DETAIL
  6
CONTINUOUS
 62
     5
100
AcDbLine
 10
1731.309732
 20
566.30696
 30
0.0
 11
1729.680095
 21
566.220272
 31
0.0
  0
LINE
  5
447
100
AcDbEntity
  8
DETAIL
  6
CONTINUOUS
 62
     5
100
AcDbLine
 10
1729.680095
 20
566.220272
 30
0.0
 11
1727.818945
 21
566.129072
 31
0.0
  0
LINE
  5
448
100
AcDbEntity
  8
DETAIL
  6
CONTINUOUS
 62
     5
100
AcDbLine
 10
1724.938128
 20
565.999679
 30
0.0
 11
1724.917114
 21
565.997075
 31
0.0
  0
LINE
  5
449
100
AcDbEntity
  8
DETAIL
  6
CONTINUOUS
 62
     5
100
AcDbLine
 10
1725.004794
 20
566.003804
 30
0.0
 11
1724.938128
 21
565.999679
 31
0.0
  0
LINE
  5
44A
100
AcDbEntity
  8
DETAIL
  6
CONTINUOUS
 62
     5
100
AcDbLine
 10
1725.119224
 20
566.009541
 30
0.0
 11
1725.004794
 21
566.003804
 31
0.0
  0
LINE
  5
44B
100
AcDbEntity
  8
DETAIL
  6
CONTINUOUS
 62
     5
100
AcDbLine
 10
1727.818945
 20
566.129072
 30
0.0
 11
1725.119224
 21
566.009541
 31
0.0
  0
LINE
  5
44C
100
AcDbEntity
  8
SIZE
  6
CONTINUOUS
 62
    30
100
AcDbLine
 10
1819.817114
 20
562.843546
 30
0.0
 11
1819.817114
 21
299.811086
 31
0.0
  0
TEXT
  5
44D
100
AcDbEntity
  8
SIZE
  6
CONTINUOUS
 62
    30
100
AcDbText
 10
1854.817114
 20
344.811086
 30
0.0
 40
55.0
  1
20
 41
0.9
 72
     1
 11
1894.888543
 21
344.811086
 31
0.0
100
AcDbText
  0
LINE
  5
44E
100
AcDbEntity
  8
SIZE
  6
CONTINUOUS
 62
    30
100
AcDbLine
 10
1829.817114
 20
329.811086
 30
0.0
 11
1949.959971
 21
329.811086
 31
0.0
  0
LINE
  5
44F
100
AcDbEntity
  8
SIZE
  6
CONTINUOUS
 62
    30
100
AcDbLine
 10
1824.817114
 20
329.811086
 30
0.0
 11
1829.817114
 21
329.811086
 31
0.0
  0
CIRCLE
  5
450
100
AcDbEntity
  8
SIZE
  6
CONTINUOUS
 62
    30
100
AcDbCircle
 10
1819.817114
 20
329.811086
 30
0.0
 40
5.0
  0
TEXT
  5
451
100
AcDbEntity
  8
SIZE
  6
CONTINUOUS
 62
    30
100
AcDbText
 10
1952.130632
 20
455.577404
 30
0.0
 40
55.0
  1
45
 50
90.0
 41
0.9
 72
     1
 11
1952.130632
 21
495.648833
 31
0.0
100
AcDbText
  0
POINT
  5
452
100
AcDbEntity
  8
DEFPOINTS
  6
CONTINUOUS
 62
     7
100
AcDbPoint
 10
1819.817114
 20
582.843546
 30
0.0
  0
POINT
  5
453
100
AcDbEntity
  8
DEFPOINTS
  6
CONTINUOUS
 62
     7
100
AcDbPoint
 10
1819.817114
 20
582.843546
 30
0.0
  0
POINT
  5
454
100
AcDbEntity
  8
DEFPOINTS
  6
CONTINUOUS
 62
     7
100
AcDbPoint
 10
1819.817114
 20
582.843546
 30
0.0
  0
LINE
  5
455
100
AcDbEntity
  8
NOTE
  6
CONTINUOUS
 62
     4
100
AcDbLine
 10
1812.831833
 20
460.576158
 30
0.0
 11
1810.073748
 21
492.101204
 31
0.0
  0
LINE
  5
456
100
AcDbEntity
  8
SIZE
  6
CONTINUOUS
 62
    30
100
AcDbLine
 10
1967.130632
 20
580.843546
 30
0.0
 11
1967.130632
 21
575.843546
 31
0.0
  0
LINE
  5
457
100
AcDbEntity
  8
SIZE
  6
CONTINUOUS
 62
    30
100
AcDbLine
 10
1967.130632
 20
575.843546
 30
0.0
 11
1967.130632
 21
440.577404
 31
0.0
  0
TEXT
  5
458
100
AcDbEntity
  8
NOTE
  6
CONTINUOUS
 62
     4
100
AcDbText
 10
1942.188848
 20
1015.064999
 30
0.0
 40
55.0
  1
外気取入口
 41
0.9
100
AcDbText
  0
LINE
  5
459
100
AcDbEntity
  8
NOTE
  6
CONTINUOUS
 62
     4
100
AcDbLine
 10
1922.581115
 20
1005.442021
 30
0.0
 11
2241.690476
 21
1005.442021
 31
0.0
  0
LINE
  5
45A
100
AcDbEntity
  8
NOTE
  6
CONTINUOUS
 62
     4
100
AcDbLine
 10
2201.355251
 20
1112.669836
 30
0.0
 11
1854.638796
 21
1112.669836
 31
0.0
  0
TEXT
  5
45B
100
AcDbEntity
  8
NOTE
  6
CONTINUOUS
 62
     4
100
AcDbText
 10
1888.891803
 20
1132.540424
 30
0.0
 40
64.0
  1
4-%%C2.9
 41
0.9
100
AcDbText
  0
LINE
  5
45C
100
AcDbEntity
  8
SIZE
  6
CONTINUOUS
 62
    30
100
AcDbLine
 10
1591.267114
 20
654.843042
 30
0.0
 11
2221.223166
 21
654.843042
 31
0.0
  0
LINE
  5
45D
100
AcDbEntity
  8
SIZE
  6
CONTINUOUS
 62
    30
100
AcDbLine
 10
1591.267114
 20
727.843042
 30
0.0
 11
2221.223166
 21
727.843042
 31
0.0
  0
LINE
  5
45E
100
AcDbEntity
  8
SIZE
  6
CONTINUOUS
 62
    30
100
AcDbLine
 10
1591.267114
 20
727.843042
 30
0.0
 11
2221.223166
 21
727.843042
 31
0.0
  0
LINE
  5
45F
100
AcDbEntity
  8
SIZE
  6
CONTINUOUS
 62
    30
100
AcDbLine
 10
1801.817114
 20
929.843042
 30
0.0
 11
2221.223166
 21
929.843042
 31
0.0
  0
LINE
  5
460
100
AcDbEntity
  8
SIZE
  6
CONTINUOUS
 62
    30
100
AcDbLine
 10
1604.817114
 20
668.843042
 30
0.0
 11
2111.57764
 21
668.843042
 31
0.0
  0
LINE
  5
461
100
AcDbEntity
  8
SIZE
  6
CONTINUOUS
 62
    30
100
AcDbLine
 10
1604.817114
 20
713.843042
 30
0.0
 11
2111.57764
 21
713.843042
 31
0.0
  0
TEXT
  5
462
100
AcDbEntity
  8
SIZE
  6
CONTINUOUS
 62
    30
100
AcDbText
 10
2066.57764
 20
764.093042
 30
0.0
 40
55.0
  1
216
 50
90.0
 41
0.9
 72
     1
 11
2066.57764
 21
821.843042
 31
0.0
100
AcDbText
  0
LINE
  5
463
100
AcDbEntity
  8
SIZE
  6
CONTINUOUS
 62
    30
100
AcDbLine
 10
1604.817114
 20
713.843042
 30
0.0
 11
2111.57764
 21
713.843042
 31
0.0
  0
LINE
  5
464
100
AcDbEntity
  8
SIZE
  6
CONTINUOUS
 62
    30
100
AcDbLine
 10
1801.817114
 20
929.843042
 30
0.0
 11
2111.57764
 21
929.843042
 31
0.0
  0
LINE
  5
465
100
AcDbEntity
  8
SIZE
  6
CONTINUOUS
 62
    30
100
AcDbLine
 10
1344.817114
 20
733.843042
 30
0.0
 11
1344.817114
 21
1326.353491
 31
0.0
  0
LINE
  5
466
100
AcDbEntity
  8
SIZE
  6
CONTINUOUS
 62
    30
100
AcDbLine
 10
1584.817114
 20
733.843042
 30
0.0
 11
1584.817114
 21
1326.353491
 31
0.0
  0
LINE
  5
467
100
AcDbEntity
  8
SIZE
  6
CONTINUOUS
 62
    30
100
AcDbLine
 10
1584.817114
 20
733.843042
 30
0.0
 11
1584.817114
 21
1326.353491
 31
0.0
  0
LINE
  5
468
100
AcDbEntity
  8
SIZE
  6
CONTINUOUS
 62
    30
100
AcDbLine
 10
1781.817114
 20
949.843042
 30
0.0
 11
1781.817114
 21
1326.353491
 31
0.0
  0
LINE
  5
469
100
AcDbEntity
  8
SIZE
  6
CONTINUOUS
 62
    30
100
AcDbLine
 10
1369.817114
 20
759.293042
 30
0.0
 11
1369.817114
 21
1220.729388
 31
0.0
  0
LINE
  5
46A
100
AcDbEntity
  8
SIZE
  6
CONTINUOUS
 62
    30
100
AcDbLine
 10
1559.817114
 20
759.293042
 30
0.0
 11
1559.817114
 21
1220.729388
 31
0.0
  0
LINE
  5
46B
100
AcDbEntity
  8
SIZE
  6
CONTINUOUS
 62
    30
100
AcDbLine
 10
1559.817114
 20
759.293042
 30
0.0
 11
1559.817114
 21
1220.729388
 31
0.0
  0
LINE
  5
46C
100
AcDbEntity
  8
SIZE
  6
CONTINUOUS
 62
    30
100
AcDbLine
 10
1781.817114
 20
949.843042
 30
0.0
 11
1781.817114
 21
1220.729388
 31
0.0
  0
LINE
  5
46D
100
AcDbEntity
  8
SIZE
  6
CONTINUOUS
 62
    30
100
AcDbLine
 10
1781.817114
 20
949.843042
 30
0.0
 11
1781.817114
 21
1456.79875
 31
0.0
  0
LINE
  5
46E
100
AcDbEntity
  8
SIZE
  6
CONTINUOUS
 62
    30
100
AcDbLine
 10
1147.817114
 20
949.843042
 30
0.0
 11
1147.817114
 21
1456.79875
 31
0.0
  0
POLYLINE
  5
46F
100
AcDbEntity
  8
OUTLINE
  6
CONTINUOUS
 62
     3
100
AcDb2dPolyline
 66
     1
 10
0.0
 20
0.0
 30
0.0
 70
     1
  0
VERTEX
  5
470
100
AcDbEntity
  8
OUTLINE
  6
CONTINUOUS
 62
     3
100
AcDbVertex
100
AcDb2dVertex
 10
1147.817114
 20
639.843042
 30
0.0
  0
VERTEX
  5
471
100
AcDbEntity
  8
OUTLINE
  6
CONTINUOUS
 62
     3
100
AcDbVertex
100
AcDb2dVertex
 10
1781.817114
 20
639.843042
 30
0.0
  0
VERTEX
  5
472
100
AcDbEntity
  8
OUTLINE
  6
CONTINUOUS
 62
     3
100
AcDbVertex
100
AcDb2dVertex
 10
1781.817114
 20
630.843546
 30
0.0
  0
VERTEX
  5
473
100
AcDbEntity
  8
OUTLINE
  6
CONTINUOUS
 62
     3
100
AcDbVertex
100
AcDb2dVertex
 10
1147.817114
 20
630.843546
 30
0.0
  0
SEQEND
  5
474
100
AcDbEntity
  8
OUTLINE
  6
CONTINUOUS
 62
     3
  0
LINE
  5
475
100
AcDbEntity
  8
NOTE
  6
CONTINUOUS
 62
     4
100
AcDbLine
 10
1558.115114
 20
687.925249
 30
0.0
 11
1922.581115
 21
1005.442021
 31
0.0
  0
LINE
  5
476
100
AcDbEntity
  8
NOTE
  6
CONTINUOUS
 62
     4
100
AcDbLine
 10
1854.638796
 20
1112.669836
 30
0.0
 11
1559.816675
 21
727.842518
 31
0.0
  0
LINE
  5
477
100
AcDbEntity
  8
NOTE
  6
CONTINUOUS
 62
     4
100
AcDbLine
 10
1559.817017
 20
727.842998
 30
0.0
 11
1587.125443
 21
748.737963
 31
0.0
  0
LINE
  5
478
100
AcDbEntity
  8
SIZE
  6
CONTINUOUS
 62
    30
100
AcDbLine
 10
1771.817114
 20
1190.729388
 30
0.0
 11
1569.817114
 21
1190.729388
 31
0.0
  0
POLYLINE
  5
479
100
AcDbEntity
  8
DETAIL
  6
CONTINUOUS
 62
     5
100
AcDb2dPolyline
 66
     1
 10
0.0
 20
0.0
 30
0.0
 70
     1
  0
VERTEX
  5
47A
100
AcDbEntity
  8
DETAIL
  6
CONTINUOUS
 62
     5
100
AcDbVertex
100
AcDb2dVertex
 10
1344.817114
 20
713.843042
 30
0.0
  0
VERTEX
  5
47B
100
AcDbEntity
  8
DETAIL
  6
CONTINUOUS
 62
     5
100
AcDbVertex
100
AcDb2dVertex
 10
1584.817114
 20
713.843042
 30
0.0
  0
VERTEX
  5
47C
100
AcDbEntity
  8
DETAIL
  6
CONTINUOUS
 62
     5
100
AcDbVertex
100
AcDb2dVertex
 10
1584.817114
 20
668.843042
 30
0.0
  0
VERTEX
  5
47D
100
AcDbEntity
  8
DETAIL
  6
CONTINUOUS
 62
     5
100
AcDbVertex
100
AcDb2dVertex
 10
1344.817114
 20
668.843042
 30
0.0
  0
SEQEND
  5
47E
100
AcDbEntity
  8
DETAIL
  6
CONTINUOUS
 62
     5
  0
LINE
  5
47F
100
AcDbEntity
  8
OUTLINE
  6
CONTINUOUS
 62
     3
100
AcDbLine
 10
1147.817114
 20
929.843042
 30
0.0
 11
1781.817114
 21
929.843042
 31
0.0
  0
LINE
  5
480
100
AcDbEntity
  8
DETAIL
  6
CONTINUOUS
 62
     5
100
AcDbLine
 10
1147.817114
 20
929.843042
 30
0.0
 11
1781.817114
 21
929.843042
 31
0.0
  0
LINE
  5
481
100
AcDbEntity
  8
NOTE
  6
CONTINUOUS
 62
     4
100
AcDbLine
 10
1606.680029
 20
975.843546
 30
0.0
 11
1576.680029
 21
1005.843546
 31
0.0
  0
LINE
  5
482
100
AcDbEntity
  8
DETAIL
  6
CONTINUOUS
 62
     5
100
AcDbLine
 10
1781.817114
 20
630.843546
 30
0.0
 11
1147.817114
 21
630.843546
 31
0.0
  0
LINE
  5
483
100
AcDbEntity
  8
DETAIL
  6
CONTINUOUS
 62
     5
100
AcDbLine
 10
1147.817114
 20
639.843042
 30
0.0
 11
1781.817114
 21
639.843042
 31
0.0
  0
LINE
  5
484
100
AcDbEntity
  8
DETAIL
  6
CONTINUOUS
 62
     5
100
AcDbLine
 10
1147.817114
 20
630.843546
 30
0.0
 11
1781.817114
 21
630.843546
 31
0.0
  0
LINE
  5
485
100
AcDbEntity
  8
OUTLINE
  6
CONTINUOUS
 62
     3
100
AcDbLine
 10
1147.817114
 20
929.843042
 30
0.0
 11
1147.817114
 21
585.843546
 31
0.0
  0
LINE
  5
486
100
AcDbEntity
  8
SIZE
  6
CONTINUOUS
 62
    30
100
AcDbLine
 10
1363.817114
 20
858.343042
 30
0.0
 11
1363.817114
 21
1111.487705
 31
0.0
  0
LINE
  5
487
100
AcDbEntity
  8
SIZE
  6
CONTINUOUS
 62
    30
100
AcDbLine
 10
1293.817114
 20
859.143042
 30
0.0
 11
1293.817114
 21
1111.487705
 31
0.0
  0
LINE
  5
488
100
AcDbEntity
  8
SIZE
  6
CONTINUOUS
 62
    30
100
AcDbLine
 10
1293.817114
 20
859.143042
 30
0.0
 11
1293.817114
 21
1111.487705
 31
0.0
  0
LINE
  5
489
100
AcDbEntity
  8
DETAIL
  6
CONTINUOUS
 62
     5
100
AcDbLine
 10
1147.817114
 20
929.843042
 30
0.0
 11
1147.817114
 21
585.843546
 31
0.0
  0
LINE
  5
48A
100
AcDbEntity
  8
NOTE
  6
CONTINUOUS
 62
     4
100
AcDbLine
 10
1381.267114
 20
654.843042
 30
0.0
 11
1358.367114
 21
654.843042
 31
0.0
  0
LINE
  5
48B
100
AcDbEntity
  8
NOTE
  6
CONTINUOUS
 62
     4
100
AcDbLine
 10
1381.267114
 20
727.843042
 30
0.0
 11
1358.367114
 21
727.843042
 31
0.0
  0
LINE
  5
48C
100
AcDbEntity
  8
NOTE
  6
CONTINUOUS
 62
     4
100
AcDbLine
 10
1363.81709
 20
807.842839
 30
0.0
 11
1347.339832
 21
838.023124
 31
0.0
  0
LINE
  5
48D
100
AcDbEntity
  8
NOTE
  6
CONTINUOUS
 62
     4
100
AcDbLine
 10
1363.81709
 20
807.842839
 30
0.0
 11
1334.457223
 21
825.741103
 31
0.0
  0
LINE
  5
48E
100
AcDbEntity
  8
NOTE
  6
CONTINUOUS
 62
     4
100
AcDbLine
 10
1333.317114
 20
807.843042
 30
0.0
 11
1394.317114
 21
807.843042
 31
0.0
  0
LINE
  5
48F
100
AcDbEntity
  8
NOTE
  6
CONTINUOUS
 62
     4
100
AcDbLine
 10
1177.817181
 20
739.843079
 30
0.0
 11
1147.68846
 21
723.271723
 31
0.0
  0
LINE
  5
490
100
AcDbEntity
  8
NOTE
  6
CONTINUOUS
 62
     4
100
AcDbLine
 10
1177.817181
 20
739.843079
 30
0.0
 11
1160.010622
 21
710.427503
 31
0.0
  0
CIRCLE
  5
491
100
AcDbEntity
  8
FIX
  6
CONTINUOUS
 62
    11
100
AcDbCircle
 10
1177.817114
 20
739.843042
 30
0.0
 40
14.940051
  0
LINE
  5
492
100
AcDbEntity
  8
NOTE
  6
CONTINUOUS
 62
     4
100
AcDbLine
 10
1177.817114
 20
757.843042
 30
0.0
 11
1177.817114
 21
721.843042
 31
0.0
  0
LINE
  5
493
100
AcDbEntity
  8
DETAIL
  6
CONTINUOUS
 62
     5
100
AcDbLine
 10
1202.817114
 20
739.843042
 30
0.0
 11
1202.817114
 21
701.843042
 31
0.0
  0
LINE
  5
494
100
AcDbEntity
  8
DETAIL
  6
CONTINUOUS
 62
     5
100
AcDbLine
 10
1152.817114
 20
739.843042
 30
0.0
 11
1152.817114
 21
701.843042
 31
0.0
  0
LINE
  5
495
100
AcDbEntity
  8
DETAIL
  6
CONTINUOUS
 62
     5
100
AcDbLine
 10
1171.817114
 20
739.843042
 30
0.0
 11
1171.817114
 21
730.843042
 31
0.0
  0
LINE
  5
496
100
AcDbEntity
  8
DETAIL
  6
CONTINUOUS
 62
     5
100
AcDbLine
 10
1183.817114
 20
739.843042
 30
0.0
 11
1183.817114
 21
730.843042
 31
0.0
  0
POINT
  5
497
100
AcDbEntity
  8
DEFPOINTS
  6
CONTINUOUS
 62
     7
100
AcDbPoint
 10
1177.817114
 20
724.902991
 30
0.0
  0
POINT
  5
498
100
AcDbEntity
  8
DEFPOINTS
  6
CONTINUOUS
 62
     7
100
AcDbPoint
 10
1177.817114
 20
724.902991
 30
0.0
  0
POINT
  5
499
100
AcDbEntity
  8
DEFPOINTS
  6
CONTINUOUS
 62
     7
100
AcDbPoint
 10
1147.817114
 20
639.843042
 30
0.0
  0
LINE
  5
49A
100
AcDbEntity
  8
DETAIL
  6
CONTINUOUS
 62
     5
100
AcDbLine
 10
1188.817114
 20
695.143042
 30
0.0
 11
1166.817114
 21
695.143042
 31
0.0
  0
LINE
  5
49B
100
AcDbEntity
  8
DETAIL
  6
CONTINUOUS
 62
     5
100
AcDbLine
 10
1166.817114
 20
700.143042
 30
0.0
 11
1167.817114
 21
700.143042
 31
0.0
  0
LINE
  5
49C
100
AcDbEntity
  8
DETAIL
  6
CONTINUOUS
 62
     5
100
AcDbLine
 10
1188.817114
 20
700.143042
 30
0.0
 11
1188.817114
 21
695.143042
 31
0.0
  0
LINE
  5
49D
100
AcDbEntity
  8
DETAIL
  6
CONTINUOUS
 62
     5
100
AcDbLine
 10
1166.817114
 20
695.143042
 30
0.0
 11
1166.817114
 21
700.143042
 31
0.0
  0
LINE
  5
49E
100
AcDbEntity
  8
DETAIL
  6
CONTINUOUS
 62
     5
100
AcDbLine
 10
1187.817114
 20
700.143042
 30
0.0
 11
1188.817114
 21
700.143042
 31
0.0
  0
LINE
  5
49F
100
AcDbEntity
  8
DETAIL
  6
CONTINUOUS
 62
     5
100
AcDbLine
 10
1167.817114
 20
701.843042
 30
0.0
 11
1152.817114
 21
701.843042
 31
0.0
  0
LINE
  5
4A0
100
AcDbEntity
  8
DETAIL
  6
CONTINUOUS
 62
     5
100
AcDbLine
 10
1202.817114
 20
701.843042
 30
0.0
 11
1187.817114
 21
701.843042
 31
0.0
  0
LINE
  5
4A1
100
AcDbEntity
  8
DETAIL
  6
CONTINUOUS
 62
     5
100
AcDbLine
 10
1187.817114
 20
701.843042
 30
0.0
 11
1187.817114
 21
696.843042
 31
0.0
  0
LINE
  5
4A2
100
AcDbEntity
  8
DETAIL
  6
CONTINUOUS
 62
     5
100
AcDbLine
 10
1167.817114
 20
701.843042
 30
0.0
 11
1167.817114
 21
696.843042
 31
0.0
  0
LINE
  5
4A3
100
AcDbEntity
  8
DETAIL
  6
CONTINUOUS
 62
     5
100
AcDbLine
 10
1187.817114
 20
696.843042
 30
0.0
 11
1167.817114
 21
696.843042
 31
0.0
  0
CIRCLE
  5
4A4
100
AcDbEntity
  8
DETAIL
  6
CONTINUOUS
 62
     5
100
AcDbCircle
 10
1177.817114
 20
719.843042
 30
0.0
 40
3.5
  0
ARC
  5
4A5
100
AcDbEntity
  8
DETAIL
  6
CONTINUOUS
 62
     5
100
AcDbCircle
 10
1168.817114
 20
730.843042
 30
0.0
 40
3.0
100
AcDbArc
 50
270.0
 51
0.0
  0
LINE
  5
4A6
100
AcDbEntity
  8
DETAIL
  6
CONTINUOUS
 62
     5
100
AcDbLine
 10
1168.817114
 20
727.843042
 30
0.0
 11
1155.817114
 21
727.843042
 31
0.0
  0
ARC
  5
4A7
100
AcDbEntity
  8
DETAIL
  6
CONTINUOUS
 62
     5
100
AcDbCircle
 10
1186.817114
 20
730.843042
 30
0.0
 40
3.0
100
AcDbArc
 50
180.0
 51
270.0
  0
LINE
  5
4A8
100
AcDbEntity
  8
DETAIL
  6
CONTINUOUS
 62
     5
100
AcDbLine
 10
1199.817114
 20
727.843042
 30
0.0
 11
1186.817114
 21
727.843042
 31
0.0
  0
ARC
  5
4A9
100
AcDbEntity
  8
DETAIL
  6
CONTINUOUS
 62
     5
100
AcDbCircle
 10
1199.817114
 20
730.843042
 30
0.0
 40
3.0
100
AcDbArc
 50
270.0
 51
0.0
  0
ARC
  5
4AA
100
AcDbEntity
  8
DETAIL
  6
CONTINUOUS
 62
     5
100
AcDbCircle
 10
1155.817114
 20
730.843042
 30
0.0
 40
3.0
100
AcDbArc
 50
180.0
 51
270.0
  0
POINT
  5
4AB
100
AcDbEntity
  8
DEFPOINTS
  6
CONTINUOUS
 62
     7
100
AcDbPoint
 10
1344.817114
 20
713.843042
 30
0.0
  0
POINT
  5
4AC
100
AcDbEntity
  8
DEFPOINTS
  6
CONTINUOUS
 62
     7
100
AcDbPoint
 10
1152.817114
 20
739.843042
 30
0.0
  0
LINE
  5
4AD
100
AcDbEntity
  8
NOTE
  6
CONTINUOUS
 62
     4
100
AcDbLine
 10
1159.817114
 20
739.843042
 30
0.0
 11
1195.817114
 21
739.843042
 31
0.0
  0
LINE
  5
4AE
100
AcDbEntity
  8
DETAIL
  6
CONTINUOUS
 62
     5
100
AcDbLine
 10
1183.817114
 20
737.543042
 30
0.0
 11
1171.817114
 21
737.543042
 31
0.0
  0
LINE
  5
4AF
100
AcDbEntity
  8
DETAIL
  6
CONTINUOUS
 62
     5
100
AcDbLine
 10
1202.817114
 20
739.843042
 30
0.0
 11
1152.817114
 21
739.843042
 31
0.0
  0
LINE
  5
4B0
100
AcDbEntity
  8
NOTE
  6
CONTINUOUS
 62
     4
100
AcDbLine
 10
1293.817137
 20
807.842873
 30
0.0
 11
1270.364523
 21
832.988937
 31
0.0
  0
LINE
  5
4B1
100
AcDbEntity
  8
NOTE
  6
CONTINUOUS
 62
     4
100
AcDbLine
 10
1293.817137
 20
807.842873
 30
0.0
 11
1260.933545
 21
817.893696
 31
0.0
  0
POINT
  5
4B2
100
AcDbEntity
  8
DEFPOINTS
  6
CONTINUOUS
 62
     7
100
AcDbPoint
 10
1293.817114
 20
839.143042
 30
0.0
  0
POINT
  5
4B3
100
AcDbEntity
  8
DEFPOINTS
  6
CONTINUOUS
 62
     7
100
AcDbPoint
 10
1293.817114
 20
839.143042
 30
0.0
  0
POINT
  5
4B4
100
AcDbEntity
  8
DEFPOINTS
  6
CONTINUOUS
 62
     7
100
AcDbPoint
 10
1262.517114
 20
807.843042
 30
0.0
  0
LINE
  5
4B5
100
AcDbEntity
  8
NOTE
  6
CONTINUOUS
 62
     4
100
AcDbLine
 10
1262.517114
 20
807.843042
 30
0.0
 11
1325.117114
 21
807.843042
 31
0.0
  0
LINE
  5
4B6
100
AcDbEntity
  8
NOTE
  6
CONTINUOUS
 62
     4
100
AcDbLine
 10
1293.817114
 20
839.143042
 30
0.0
 11
1293.817114
 21
776.543042
 31
0.0
  0
LINE
  5
4B7
100
AcDbEntity
  8
NOTE
  6
CONTINUOUS
 62
     4
100
AcDbLine
 10
1559.817017
 20
727.842998
 30
0.0
 11
1573.019325
 21
759.592782
 31
0.0
  0
LINE
  5
4B8
100
AcDbEntity
  8
NOTE
  6
CONTINUOUS
 62
     4
100
AcDbLine
 10
1559.817114
 20
739.293042
 30
0.0
 11
1559.817114
 21
716.393042
 31
0.0
  0
LINE
  5
4B9
100
AcDbEntity
  8
NOTE
  6
CONTINUOUS
 62
     4
100
AcDbLine
 10
1369.817114
 20
739.293042
 30
0.0
 11
1369.817114
 21
716.393042
 31
0.0
  0
LINE
  5
4BA
100
AcDbEntity
  8
NOTE
  6
CONTINUOUS
 62
     4
100
AcDbLine
 10
1369.817114
 20
666.293042
 30
0.0
 11
1369.817114
 21
643.393042
 31
0.0
  0
CIRCLE
  5
4BB
100
AcDbEntity
  8
DETAIL
  6
CONTINUOUS
 62
     5
100
AcDbCircle
 10
1369.817114
 20
654.843042
 30
0.0
 40
1.45
  0
CIRCLE
  5
4BC
100
AcDbEntity
  8
DETAIL
  6
CONTINUOUS
 62
     5
100
AcDbCircle
 10
1369.817114
 20
727.843042
 30
0.0
 40
1.45
  0
SOLID
  5
4BD
100
AcDbEntity
  8
NOTE
  6
CONTINUOUS
 62
     4
100
AcDbTrace
 10
1547.919691
 20
687.925249
 30
0.0
 11
1550.905861
 21
680.715997
 31
0.0
 12
1550.905861
 22
695.134502
 32
0.0
 13
1550.905861
 23
695.134502
 33
0.0
  0
SOLID
  5
4BE
100
AcDbEntity
  8
NOTE
  6
CONTINUOUS
 62
     4
100
AcDbTrace
 10
1558.115114
 20
677.729827
 30
0.0
 11
1550.905861
 21
695.134502
 31
0.0
 12
1550.905861
 22
680.715997
 32
0.0
 13
1550.905861
 23
680.715997
 33
0.0
  0
SOLID
  5
4BF
100
AcDbEntity
  8
NOTE
  6
CONTINUOUS
 62
     4
100
AcDbTrace
 10
1550.905861
 20
695.134502
 30
0.0
 11
1558.115114
 21
677.729827
 31
0.0
 12
1558.115114
 22
698.120672
 32
0.0
 13
1558.115114
 23
698.120672
 33
0.0
  0
SOLID
  5
4C0
100
AcDbEntity
  8
NOTE
  6
CONTINUOUS
 62
     4
100
AcDbTrace
 10
1565.324366
 20
680.715997
 30
0.0
 11
1558.115114
 21
698.120672
 31
0.0
 12
1558.115114
 22
677.729827
 32
0.0
 13
1558.115114
 23
677.729827
 33
0.0
  0
SOLID
  5
4C1
100
AcDbEntity
  8
NOTE
  6
CONTINUOUS
 62
     4
100
AcDbTrace
 10
1558.115114
 20
698.120672
 30
0.0
 11
1565.324366
 21
680.715997
 31
0.0
 12
1565.324366
 22
695.134502
 32
0.0
 13
1565.324366
 23
695.134502
 33
0.0
  0
SOLID
  5
4C2
100
AcDbEntity
  8
NOTE
  6
CONTINUOUS
 62
     4
100
AcDbTrace
 10
1568.310537
 20
687.925249
 30
0.0
 11
1565.324366
 21
695.134502
 31
0.0
 12
1565.324366
 22
680.715997
 32
0.0
 13
1565.324366
 23
680.715997
 33
0.0
  0
CIRCLE
  5
4C3
100
AcDbEntity
  8
NOTE
  6
CONTINUOUS
 62
     4
100
AcDbCircle
 10
1558.115114
 20
687.925249
 30
0.0
 40
10.195423
  0
POINT
  5
4C4
100
AcDbEntity
  8
DEFPOINTS
  6
CONTINUOUS
 62
     7
100
AcDbPoint
 10
1571.267114
 20
654.843042
 30
0.0
  0
POINT
  5
4C5
100
AcDbEntity
  8
DEFPOINTS
  6
CONTINUOUS
 62
     7
100
AcDbPoint
 10
1571.267114
 20
727.843042
 30
0.0
  0
POINT
  5
4C6
100
AcDbEntity
  8
DEFPOINTS
  6
CONTINUOUS
 62
     7
100
AcDbPoint
 10
1571.267114
 20
727.843042
 30
0.0
  0
LINE
  5
4C7
100
AcDbEntity
  8
NOTE
  6
CONTINUOUS
 62
     4
100
AcDbLine
 10
1571.267114
 20
654.843042
 30
0.0
 11
1548.367114
 21
654.843042
 31
0.0
  0
LINE
  5
4C8
100
AcDbEntity
  8
NOTE
  6
CONTINUOUS
 62
     4
100
AcDbLine
 10
1571.267114
 20
727.843042
 30
0.0
 11
1548.367114
 21
727.843042
 31
0.0
  0
CIRCLE
  5
4C9
100
AcDbEntity
  8
DETAIL
  6
CONTINUOUS
 62
     5
100
AcDbCircle
 10
1559.817114
 20
727.843042
 30
0.0
 40
1.45
  0
LINE
  5
4CA
100
AcDbEntity
  8
NOTE
  6
CONTINUOUS
 62
     4
100
AcDbLine
 10
1559.817114
 20
666.293042
 30
0.0
 11
1559.817114
 21
643.393042
 31
0.0
  0
CIRCLE
  5
4CB
100
AcDbEntity
  8
DETAIL
  6
CONTINUOUS
 62
     5
100
AcDbCircle
 10
1559.817114
 20
654.843042
 30
0.0
 40
1.45
  0
POINT
  5
4CC
100
AcDbEntity
  8
DEFPOINTS
  6
CONTINUOUS
 62
     7
100
AcDbPoint
 10
1369.817114
 20
739.293042
 30
0.0
  0
POINT
  5
4CD
100
AcDbEntity
  8
DEFPOINTS
  6
CONTINUOUS
 62
     7
100
AcDbPoint
 10
1363.817114
 20
838.343042
 30
0.0
  0
LINE
  5
4CE
100
AcDbEntity
  8
NOTE
  6
CONTINUOUS
 62
     4
100
AcDbLine
 10
1363.817114
 20
838.343042
 30
0.0
 11
1363.817114
 21
777.343042
 31
0.0
  0
POINT
  5
4CF
100
AcDbEntity
  8
DEFPOINTS
  6
CONTINUOUS
 62
     7
100
AcDbPoint
 10
1559.817114
 20
739.293042
 30
0.0
  0
POINT
  5
4D0
100
AcDbEntity
  8
DEFPOINTS
  6
CONTINUOUS
 62
     7
100
AcDbPoint
 10
1559.817114
 20
739.293042
 30
0.0
  0
CIRCLE
  5
4D1
100
AcDbEntity
  8
SIZE
  6
CONTINUOUS
 62
    30
100
AcDbCircle
 10
1363.817114
 20
1081.487705
 30
0.0
 40
5.0
  0
LINE
  5
4D2
100
AcDbEntity
  8
SIZE
  6
CONTINUOUS
 62
    30
100
AcDbLine
 10
1147.817114
 20
949.843042
 30
0.0
 11
1147.817114
 21
1111.487705
 31
0.0
  0
LINE
  5
4D3
100
AcDbEntity
  8
NOTE
  6
CONTINUOUS
 62
     4
100
AcDbLine
 10
1256.680029
 20
975.843546
 30
0.0
 11
1226.680029
 21
1005.843546
 31
0.0
  0
POINT
  5
4D4
100
AcDbEntity
  8
DEFPOINTS
  6
CONTINUOUS
 62
     7
100
AcDbPoint
 10
1147.817114
 20
929.843042
 30
0.0
  0
POINT
  5
4D5
100
AcDbEntity
  8
DEFPOINTS
  6
CONTINUOUS
 62
     7
100
AcDbPoint
 10
1147.817114
 20
929.843042
 30
0.0
  0
POINT
  5
4D6
100
AcDbEntity
  8
DEFPOINTS
  6
CONTINUOUS
 62
     7
100
AcDbPoint
 10
1147.817114
 20
929.843042
 30
0.0
  0
POINT
  5
4D7
100
AcDbEntity
  8
DEFPOINTS
  6
CONTINUOUS
 62
     7
100
AcDbPoint
 10
1147.817114
 20
929.843042
 30
0.0
  0
POINT
  5
4D8
100
AcDbEntity
  8
DEFPOINTS
  6
CONTINUOUS
 62
     7
100
AcDbPoint
 10
1147.817114
 20
929.843042
 30
0.0
  0
LINE
  5
4D9
100
AcDbEntity
  8
NOTE
  6
CONTINUOUS
 62
     4
100
AcDbLine
 10
1230.111487
 20
975.843546
 30
0.0
 11
1200.111487
 21
1005.843546
 31
0.0
  0
LINE
  5
4DA
100
AcDbEntity
  8
NOTE
  6
CONTINUOUS
 62
     4
100
AcDbLine
 10
1283.248572
 20
975.843546
 30
0.0
 11
1253.248572
 21
1005.843546
 31
0.0
  0
TEXT
  5
4DB
100
AcDbEntity
  8
SIZE
  6
CONTINUOUS
 62
    30
100
AcDbText
 10
1163.067114
 20
1096.487705
 30
0.0
 40
55.0
  1
146
 41
0.9
 72
     1
 11
1220.817114
 21
1096.487705
 31
0.0
100
AcDbText
  0
LINE
  5
4DC
100
AcDbEntity
  8
SIZE
  6
CONTINUOUS
 62
    30
100
AcDbLine
 10
1157.817114
 20
1081.487705
 30
0.0
 11
1283.817114
 21
1081.487705
 31
0.0
  0
LINE
  5
4DD
100
AcDbEntity
  8
SIZE
  6
CONTINUOUS
 62
    30
100
AcDbLine
 10
1152.817114
 20
1081.487705
 30
0.0
 11
1157.817114
 21
1081.487705
 31
0.0
  0
CIRCLE
  5
4DE
100
AcDbEntity
  8
SIZE
  6
CONTINUOUS
 62
    30
100
AcDbCircle
 10
1147.817114
 20
1081.487705
 30
0.0
 40
5.0
  0
LINE
  5
4DF
100
AcDbEntity
  8
SIZE
  6
CONTINUOUS
 62
    30
100
AcDbLine
 10
1358.817114
 20
1081.487705
 30
0.0
 11
1353.817114
 21
1081.487705
 31
0.0
  0
LINE
  5
4E0
100
AcDbEntity
  8
SIZE
  6
CONTINUOUS
 62
    30
100
AcDbLine
 10
1298.817114
 20
1081.487705
 30
0.0
 11
1303.817114
 21
1081.487705
 31
0.0
  0
CIRCLE
  5
4E1
100
AcDbEntity
  8
SIZE
  6
CONTINUOUS
 62
    30
100
AcDbCircle
 10
1293.817114
 20
1081.487705
 30
0.0
 40
5.0
  0
LINE
  5
4E2
100
AcDbEntity
  8
SIZE
  6
CONTINUOUS
 62
    30
100
AcDbLine
 10
1303.817114
 20
1081.487705
 30
0.0
 11
1353.817114
 21
1081.487705
 31
0.0
  0
POINT
  5
4E3
100
AcDbEntity
  8
DEFPOINTS
  6
CONTINUOUS
 62
     7
100
AcDbPoint
 10
1293.817114
 20
1081.487705
 30
0.0
  0
LINE
  5
4E4
100
AcDbEntity
  8
SIZE
  6
CONTINUOUS
 62
    30
100
AcDbLine
 10
1288.817114
 20
1081.487705
 30
0.0
 11
1283.817114
 21
1081.487705
 31
0.0
  0
CIRCLE
  5
4E5
100
AcDbEntity
  8
SIZE
  6
CONTINUOUS
 62
    30
100
AcDbCircle
 10
1293.817114
 20
1081.487705
 30
0.0
 40
5.0
  0
LINE
  5
4E6
100
AcDbEntity
  8
NOTE
  6
CONTINUOUS
 62
     4
100
AcDbLine
 10
1463.248572
 20
975.843546
 30
0.0
 11
1433.248572
 21
1005.843546
 31
0.0
  0
LINE
  5
4E7
100
AcDbEntity
  8
NOTE
  6
CONTINUOUS
 62
     4
100
AcDbLine
 10
1436.680029
 20
975.843546
 30
0.0
 11
1406.680029
 21
1005.843546
 31
0.0
  0
LINE
  5
4E8
100
AcDbEntity
  8
NOTE
  6
CONTINUOUS
 62
     4
100
AcDbLine
 10
1410.111487
 20
975.843546
 30
0.0
 11
1380.111487
 21
1005.843546
 31
0.0
  0
LINE
  5
4E9
100
AcDbEntity
  8
NOTE
  6
CONTINUOUS
 62
     4
100
AcDbLine
 10
1580.111487
 20
975.843546
 30
0.0
 11
1550.111487
 21
1005.843546
 31
0.0
  0
LINE
  5
4EA
100
AcDbEntity
  8
SIZE
  6
CONTINUOUS
 62
    30
100
AcDbLine
 10
1549.817114
 20
1190.729388
 30
0.0
 11
1379.817114
 21
1190.729388
 31
0.0
  0
TEXT
  5
4EB
100
AcDbEntity
  8
SIZE
  6
CONTINUOUS
 62
    30
100
AcDbText
 10
1398.719303
 20
1096.487705
 30
0.0
 40
55.0
  1
70
 41
0.9
 72
     1
 11
1438.790732
 21
1096.487705
 31
0.0
100
AcDbText
  0
LINE
  5
4EC
100
AcDbEntity
  8
SIZE
  6
CONTINUOUS
 62
    30
100
AcDbLine
 10
1493.862161
 20
1081.487705
 30
0.0
 11
1363.817114
 21
1081.487705
 31
0.0
  0
POINT
  5
4ED
100
AcDbEntity
  8
DEFPOINTS
  6
CONTINUOUS
 62
     7
100
AcDbPoint
 10
1369.817114
 20
1190.729388
 30
0.0
  0
LINE
  5
4EE
100
AcDbEntity
  8
SIZE
  6
CONTINUOUS
 62
    30
100
AcDbLine
 10
1374.817114
 20
1190.729388
 30
0.0
 11
1379.817114
 21
1190.729388
 31
0.0
  0
CIRCLE
  5
4EF
100
AcDbEntity
  8
SIZE
  6
CONTINUOUS
 62
    30
100
AcDbCircle
 10
1369.817114
 20
1190.729388
 30
0.0
 40
5.0
  0
POINT
  5
4F0
100
AcDbEntity
  8
DEFPOINTS
  6
CONTINUOUS
 62
     7
100
AcDbPoint
 10
1363.817114
 20
1081.487705
 30
0.0
  0
LINE
  5
4F1
100
AcDbEntity
  8
SIZE
  6
CONTINUOUS
 62
    30
100
AcDbLine
 10
1554.817114
 20
1190.729388
 30
0.0
 11
1549.817114
 21
1190.729388
 31
0.0
  0
CIRCLE
  5
4F2
100
AcDbEntity
  8
SIZE
  6
CONTINUOUS
 62
    30
100
AcDbCircle
 10
1559.817114
 20
1190.729388
 30
0.0
 40
5.0
  0
POINT
  5
4F3
100
AcDbEntity
  8
DEFPOINTS
  6
CONTINUOUS
 62
     7
100
AcDbPoint
 10
1559.817114
 20
1190.729388
 30
0.0
  0
LINE
  5
4F4
100
AcDbEntity
  8
SIZE
  6
CONTINUOUS
 62
    30
100
AcDbLine
 10
1564.817114
 20
1190.729388
 30
0.0
 11
1569.817114
 21
1190.729388
 31
0.0
  0
CIRCLE
  5
4F5
100
AcDbEntity
  8
SIZE
  6
CONTINUOUS
 62
    30
100
AcDbCircle
 10
1559.817114
 20
1190.729388
 30
0.0
 40
5.0
  0
LINE
  5
4F6
100
AcDbEntity
  8
OUTLINE
  6
CONTINUOUS
 62
     3
100
AcDbLine
 10
1781.817114
 20
585.843546
 30
0.0
 11
1781.817114
 21
929.843042
 31
0.0
  0
LINE
  5
4F7
100
AcDbEntity
  8
DETAIL
  6
CONTINUOUS
 62
     5
100
AcDbLine
 10
1781.817114
 20
585.843546
 30
0.0
 11
1781.817114
 21
929.843042
 31
0.0
  0
LINE
  5
4F8
100
AcDbEntity
  8
OUTLINE
  6
CONTINUOUS
 62
     3
100
AcDbLine
 10
1819.817114
 20
585.843546
 30
0.0
 11
1781.817114
 21
585.843546
 31
0.0
  0
LINE
  5
4F9
100
AcDbEntity
  8
SIZE
  6
CONTINUOUS
 62
    30
100
AcDbLine
 10
1801.817114
 20
630.843546
 30
0.0
 11
1997.130632
 21
630.843546
 31
0.0
  0
LINE
  5
4FA
100
AcDbEntity
  8
NOTE
  6
CONTINUOUS
 62
     4
100
AcDbLine
 10
1820.539047
 20
585.843546
 30
0.0
 11
1805.539047
 21
600.843546
 31
0.0
  0
LINE
  5
4FB
100
AcDbEntity
  8
NOTE
  6
CONTINUOUS
 62
     4
100
AcDbLine
 10
1899.817114
 20
585.843546
 30
0.0
 11
1799.817114
 21
585.843546
 31
0.0
  0
LINE
  5
4FC
100
AcDbEntity
  8
NOTE
  6
CONTINUOUS
 62
     4
100
AcDbLine
 10
1899.817114
 20
600.843546
 30
0.0
 11
1799.817114
 21
600.843546
 31
0.0
  0
CIRCLE
  5
4FD
100
AcDbEntity
  8
FIX
  6
CONTINUOUS
 62
    11
100
AcDbCircle
 10
1751.817114
 20
739.843042
 30
0.0
 40
14.940051
  0
LINE
  5
4FE
100
AcDbEntity
  8
NOTE
  6
CONTINUOUS
 62
     4
100
AcDbLine
 10
1751.817114
 20
757.843042
 30
0.0
 11
1751.817114
 21
721.843042
 31
0.0
  0
LINE
  5
4FF
100
AcDbEntity
  8
DETAIL
  6
CONTINUOUS
 62
     5
100
AcDbLine
 10
1726.817114
 20
739.843042
 30
0.0
 11
1726.817114
 21
701.843042
 31
0.0
  0
LINE
  5
500
100
AcDbEntity
  8
DETAIL
  6
CONTINUOUS
 62
     5
100
AcDbLine
 10
1776.817114
 20
739.843042
 30
0.0
 11
1776.817114
 21
701.843042
 31
0.0
  0
LINE
  5
501
100
AcDbEntity
  8
DETAIL
  6
CONTINUOUS
 62
     5
100
AcDbLine
 10
1757.817114
 20
739.843042
 30
0.0
 11
1757.817114
 21
730.843042
 31
0.0
  0
LINE
  5
502
100
AcDbEntity
  8
DETAIL
  6
CONTINUOUS
 62
     5
100
AcDbLine
 10
1745.817114
 20
739.843042
 30
0.0
 11
1745.817114
 21
730.843042
 31
0.0
  0
POINT
  5
503
100
AcDbEntity
  8
DEFPOINTS
  6
CONTINUOUS
 62
     7
100
AcDbPoint
 10
1584.817114
 20
668.843042
 30
0.0
  0
POINT
  5
504
100
AcDbEntity
  8
DEFPOINTS
  6
CONTINUOUS
 62
     7
100
AcDbPoint
 10
1584.817114
 20
713.843042
 30
0.0
  0
POINT
  5
505
100
AcDbEntity
  8
DEFPOINTS
  6
CONTINUOUS
 62
     7
100
AcDbPoint
 10
1584.817114
 20
713.843042
 30
0.0
  0
POINT
  5
506
100
AcDbEntity
  8
DEFPOINTS
  6
CONTINUOUS
 62
     7
100
AcDbPoint
 10
1584.817114
 20
713.843042
 30
0.0
  0
POINT
  5
507
100
AcDbEntity
  8
DEFPOINTS
  6
CONTINUOUS
 62
     7
100
AcDbPoint
 10
1584.817114
 20
713.843042
 30
0.0
  0
POINT
  5
508
100
AcDbEntity
  8
DEFPOINTS
  6
CONTINUOUS
 62
     7
100
AcDbPoint
 10
1751.817114
 20
724.902991
 30
0.0
  0
POINT
  5
509
100
AcDbEntity
  8
DEFPOINTS
  6
CONTINUOUS
 62
     7
100
AcDbPoint
 10
1751.817114
 20
724.902991
 30
0.0
  0
POINT
  5
50A
100
AcDbEntity
  8
DEFPOINTS
  6
CONTINUOUS
 62
     7
100
AcDbPoint
 10
1799.817114
 20
585.843546
 30
0.0
  0
POINT
  5
50B
100
AcDbEntity
  8
DEFPOINTS
  6
CONTINUOUS
 62
     7
100
AcDbPoint
 10
1799.817114
 20
585.843546
 30
0.0
  0
POINT
  5
50C
100
AcDbEntity
  8
DEFPOINTS
  6
CONTINUOUS
 62
     7
100
AcDbPoint
 10
1781.817114
 20
630.843546
 30
0.0
  0
LINE
  5
50D
100
AcDbEntity
  8
DETAIL
  6
CONTINUOUS
 62
     5
100
AcDbLine
 10
1740.817114
 20
695.143042
 30
0.0
 11
1762.817114
 21
695.143042
 31
0.0
  0
LINE
  5
50E
100
AcDbEntity
  8
DETAIL
  6
CONTINUOUS
 62
     5
100
AcDbLine
 10
1762.817114
 20
700.143042
 30
0.0
 11
1761.817114
 21
700.143042
 31
0.0
  0
LINE
  5
50F
100
AcDbEntity
  8
DETAIL
  6
CONTINUOUS
 62
     5
100
AcDbLine
 10
1740.817114
 20
700.143042
 30
0.0
 11
1740.817114
 21
695.143042
 31
0.0
  0
LINE
  5
510
100
AcDbEntity
  8
DETAIL
  6
CONTINUOUS
 62
     5
100
AcDbLine
 10
1762.817114
 20
695.143042
 30
0.0
 11
1762.817114
 21
700.143042
 31
0.0
  0
LINE
  5
511
100
AcDbEntity
  8
DETAIL
  6
CONTINUOUS
 62
     5
100
AcDbLine
 10
1741.817114
 20
700.143042
 30
0.0
 11
1740.817114
 21
700.143042
 31
0.0
  0
LINE
  5
512
100
AcDbEntity
  8
DETAIL
  6
CONTINUOUS
 62
     5
100
AcDbLine
 10
1761.817114
 20
701.843042
 30
0.0
 11
1776.817114
 21
701.843042
 31
0.0
  0
LINE
  5
513
100
AcDbEntity
  8
DETAIL
  6
CONTINUOUS
 62
     5
100
AcDbLine
 10
1726.817114
 20
701.843042
 30
0.0
 11
1741.817114
 21
701.843042
 31
0.0
  0
LINE
  5
514
100
AcDbEntity
  8
DETAIL
  6
CONTINUOUS
 62
     5
100
AcDbLine
 10
1741.817114
 20
701.843042
 30
0.0
 11
1741.817114
 21
696.843042
 31
0.0
  0
LINE
  5
515
100
AcDbEntity
  8
DETAIL
  6
CONTINUOUS
 62
     5
100
AcDbLine
 10
1761.817114
 20
701.843042
 30
0.0
 11
1761.817114
 21
696.843042
 31
0.0
  0
LINE
  5
516
100
AcDbEntity
  8
DETAIL
  6
CONTINUOUS
 62
     5
100
AcDbLine
 10
1741.817114
 20
696.843042
 30
0.0
 11
1761.817114
 21
696.843042
 31
0.0
  0
CIRCLE
  5
517
100
AcDbEntity
  8
DETAIL
  6
CONTINUOUS
 62
     5
100
AcDbCircle
 10
1751.817114
 20
719.843042
 30
0.0
 40
3.5
  0
ARC
  5
518
100
AcDbEntity
  8
DETAIL
  6
CONTINUOUS
 62
     5
100
AcDbCircle
 10
1760.817114
 20
730.843042
 30
0.0
 40
3.0
100
AcDbArc
 50
180.0
 51
270.0
  0
LINE
  5
519
100
AcDbEntity
  8
DETAIL
  6
CONTINUOUS
 62
     5
100
AcDbLine
 10
1760.817114
 20
727.843042
 30
0.0
 11
1773.817114
 21
727.843042
 31
0.0
  0
ARC
  5
51A
100
AcDbEntity
  8
DETAIL
  6
CONTINUOUS
 62
     5
100
AcDbCircle
 10
1742.817114
 20
730.843042
 30
0.0
 40
3.0
100
AcDbArc
 50
270.0
 51
0.0
  0
LINE
  5
51B
100
AcDbEntity
  8
DETAIL
  6
CONTINUOUS
 62
     5
100
AcDbLine
 10
1729.817114
 20
727.843042
 30
0.0
 11
1742.817114
 21
727.843042
 31
0.0
  0
ARC
  5
51C
100
AcDbEntity
  8
DETAIL
  6
CONTINUOUS
 62
     5
100
AcDbCircle
 10
1729.817114
 20
730.843042
 30
0.0
 40
3.0
100
AcDbArc
 50
180.0
 51
270.0
  0
ARC
  5
51D
100
AcDbEntity
  8
DETAIL
  6
CONTINUOUS
 62
     5
100
AcDbCircle
 10
1773.817114
 20
730.843042
 30
0.0
 40
3.0
100
AcDbArc
 50
270.0
 51
0.0
  0
LINE
  5
51E
100
AcDbEntity
  8
NOTE
  6
CONTINUOUS
 62
     4
100
AcDbLine
 10
1806.396912
 20
585.843546
 30
0.0
 11
1799.817114
 21
592.423344
 31
0.0
  0
LINE
  5
51F
100
AcDbEntity
  8
NOTE
  6
CONTINUOUS
 62
     4
100
AcDbLine
 10
1799.817114
 20
585.843546
 30
0.0
 11
1799.817114
 21
600.843546
 31
0.0
  0
LINE
  5
520
100
AcDbEntity
  8
NOTE
  6
CONTINUOUS
 62
     4
100
AcDbLine
 10
1733.817114
 20
739.843042
 30
0.0
 11
1769.817114
 21
739.843042
 31
0.0
  0
LINE
  5
521
100
AcDbEntity
  8
DETAIL
  6
CONTINUOUS
 62
     5
100
AcDbLine
 10
1745.817114
 20
737.543042
 30
0.0
 11
1757.817114
 21
737.543042
 31
0.0
  0
LINE
  5
522
100
AcDbEntity
  8
DETAIL
  6
CONTINUOUS
 62
     5
100
AcDbLine
 10
1726.817114
 20
739.843042
 30
0.0
 11
1776.817114
 21
739.843042
 31
0.0
  0
POINT
  5
523
100
AcDbEntity
  8
DEFPOINTS
  6
CONTINUOUS
 62
     7
100
AcDbPoint
 10
1899.817114
 20
585.843546
 30
0.0
  0
LINE
  5
524
100
AcDbEntity
  8
NOTE
  6
CONTINUOUS
 62
     4
100
AcDbLine
 10
1899.817114
 20
591.418293
 30
0.0
 11
1890.391861
 21
600.843546
 31
0.0
  0
LINE
  5
525
100
AcDbEntity
  8
NOTE
  6
CONTINUOUS
 62
     4
100
AcDbLine
 10
1891.249725
 20
585.843546
 30
0.0
 11
1876.249725
 21
600.843546
 31
0.0
  0
LINE
  5
526
100
AcDbEntity
  8
NOTE
  6
CONTINUOUS
 62
     4
100
AcDbLine
 10
1877.10759
 20
585.843546
 30
0.0
 11
1862.10759
 21
600.843546
 31
0.0
  0
LINE
  5
527
100
AcDbEntity
  8
NOTE
  6
CONTINUOUS
 62
     4
100
AcDbLine
 10
1834.681183
 20
585.843546
 30
0.0
 11
1819.681183
 21
600.843546
 31
0.0
  0
POINT
  5
528
100
AcDbEntity
  8
DEFPOINTS
  6
CONTINUOUS
 62
     7
100
AcDbPoint
 10
1967.130632
 20
630.843546
 30
0.0
  0
LINE
  5
529
100
AcDbEntity
  8
SIZE
  6
CONTINUOUS
 62
    30
100
AcDbLine
 10
1967.130632
 20
635.843546
 30
0.0
 11
1967.130632
 21
640.843546
 31
0.0
  0
CIRCLE
  5
52A
100
AcDbEntity
  8
SIZE
  6
CONTINUOUS
 62
    30
100
AcDbCircle
 10
1967.130632
 20
630.843546
 30
0.0
 40
5.0
  0
LINE
  5
52B
100
AcDbEntity
  8
SIZE
  6
CONTINUOUS
 62
    30
100
AcDbLine
 10
1967.130632
 20
630.843546
 30
0.0
 11
1967.130632
 21
585.843546
 31
0.0
  0
LINE
  5
52C
100
AcDbEntity
  8
SIZE
  6
CONTINUOUS
 62
    30
100
AcDbLine
 10
1967.130632
 20
640.843546
 30
0.0
 11
1967.130632
 21
650.843546
 31
0.0
  0
LINE
  5
52D
100
AcDbEntity
  8
SIZE
  6
CONTINUOUS
 62
    30
100
AcDbLine
 10
1919.817114
 20
585.843546
 30
0.0
 11
1997.130632
 21
585.843546
 31
0.0
  0
LINE
  5
52E
100
AcDbEntity
  8
NOTE
  6
CONTINUOUS
 62
     4
100
AcDbLine
 10
1823.248572
 20
975.843546
 30
0.0
 11
1793.248572
 21
1005.843546
 31
0.0
  0
LINE
  5
52F
100
AcDbEntity
  8
NOTE
  6
CONTINUOUS
 62
     4
100
AcDbLine
 10
1633.248572
 20
975.843546
 30
0.0
 11
1603.248572
 21
1005.843546
 31
0.0
  0
POINT
  5
530
100
AcDbEntity
  8
DEFPOINTS
  6
CONTINUOUS
 62
     7
100
AcDbPoint
 10
1781.817114
 20
929.843042
 30
0.0
  0
POINT
  5
531
100
AcDbEntity
  8
DEFPOINTS
  6
CONTINUOUS
 62
     7
100
AcDbPoint
 10
1781.817114
 20
929.843042
 30
0.0
  0
POINT
  5
532
100
AcDbEntity
  8
DEFPOINTS
  6
CONTINUOUS
 62
     7
100
AcDbPoint
 10
1781.817114
 20
929.843042
 30
0.0
  0
POINT
  5
533
100
AcDbEntity
  8
DEFPOINTS
  6
CONTINUOUS
 62
     7
100
AcDbPoint
 10
1781.817114
 20
929.843042
 30
0.0
  0
POINT
  5
534
100
AcDbEntity
  8
DEFPOINTS
  6
CONTINUOUS
 62
     7
100
AcDbPoint
 10
1781.817114
 20
929.843042
 30
0.0
  0
LINE
  5
535
100
AcDbEntity
  8
NOTE
  6
CONTINUOUS
 62
     4
100
AcDbLine
 10
1796.680029
 20
975.843546
 30
0.0
 11
1766.680029
 21
1005.843546
 31
0.0
  0
LINE
  5
536
100
AcDbEntity
  8
NOTE
  6
CONTINUOUS
 62
     4
100
AcDbLine
 10
1770.111487
 20
975.843546
 30
0.0
 11
1740.111487
 21
1005.843546
 31
0.0
  0
LINE
  5
537
100
AcDbEntity
  8
SIZE
  6
CONTINUOUS
 62
    30
100
AcDbLine
 10
1776.817114
 20
1190.729388
 30
0.0
 11
1771.817114
 21
1190.729388
 31
0.0
  0
CIRCLE
  5
538
100
AcDbEntity
  8
SIZE
  6
CONTINUOUS
 62
    30
100
AcDbCircle
 10
1781.817114
 20
1190.729388
 30
0.0
 40
5.0
  0
CIRCLE
  5
539
100
AcDbEntity
  8
SIZE
  6
CONTINUOUS
 62
    30
100
AcDbCircle
 10
1584.817114
 20
1296.353491
 30
0.0
 40
5.0
  0
CIRCLE
  5
53A
100
AcDbEntity
  8
SIZE
  6
CONTINUOUS
 62
    30
100
AcDbCircle
 10
1584.817114
 20
1296.353491
 30
0.0
 40
5.0
  0
LINE
  5
53B
100
AcDbEntity
  8
SIZE
  6
CONTINUOUS
 62
    30
100
AcDbLine
 10
1157.817114
 20
1426.79875
 30
0.0
 11
1771.817114
 21
1426.79875
 31
0.0
  0
LINE
  5
53C
100
AcDbEntity
  8
SIZE
  6
CONTINUOUS
 62
    30
100
AcDbLine
 10
1574.817114
 20
1296.353491
 30
0.0
 11
1354.817114
 21
1296.353491
 31
0.0
  0
POINT
  5
53D
100
AcDbEntity
  8
DEFPOINTS
  6
CONTINUOUS
 62
     7
100
AcDbPoint
 10
1344.817114
 20
1296.353491
 30
0.0
  0
LINE
  5
53E
100
AcDbEntity
  8
SIZE
  6
CONTINUOUS
 62
    30
100
AcDbLine
 10
1349.817114
 20
1296.353491
 30
0.0
 11
1354.817114
 21
1296.353491
 31
0.0
  0
CIRCLE
  5
53F
100
AcDbEntity
  8
SIZE
  6
CONTINUOUS
 62
    30
100
AcDbCircle
 10
1344.817114
 20
1296.353491
 30
0.0
 40
5.0
  0
LINE
  5
540
100
AcDbEntity
  8
SIZE
  6
CONTINUOUS
 62
    30
100
AcDbLine
 10
1152.817114
 20
1426.79875
 30
0.0
 11
1157.817114
 21
1426.79875
 31
0.0
  0
CIRCLE
  5
541
100
AcDbEntity
  8
SIZE
  6
CONTINUOUS
 62
    30
100
AcDbCircle
 10
1147.817114
 20
1426.79875
 30
0.0
 40
5.0
  0
TEXT
  5
542
100
AcDbEntity
  8
SIZE
  6
CONTINUOUS
 62
    30
100
AcDbText
 10
1401.174257
 20
1311.353491
 30
0.0
 40
55.0
  1
240
 41
0.9
 72
     1
 11
1464.817114
 21
1311.353491
 31
0.0
100
AcDbText
  0
TEXT
  5
543
100
AcDbEntity
  8
SIZE
  6
CONTINUOUS
 62
    30
100
AcDbText
 10
1405.888542
 20
1205.729388
 30
0.0
 40
55.0
  1
190
 41
0.9
 72
     1
 11
1464.817114
 21
1205.729388
 31
0.0
100
AcDbText
  0
LINE
  5
544
100
AcDbEntity
  8
SIZE
  6
CONTINUOUS
 62
    30
100
AcDbLine
 10
1579.817114
 20
1296.353491
 30
0.0
 11
1574.817114
 21
1296.353491
 31
0.0
  0
TEXT
  5
545
100
AcDbEntity
  8
SIZE
  6
CONTINUOUS
 62
    30
100
AcDbText
 10
1399.995685
 20
1441.79875
 30
0.0
 40
55.0
  1
634
 41
0.9
 72
     1
 11
1464.817114
 21
1441.79875
 31
0.0
100
AcDbText
  0
TEXT
  5
546
100
AcDbEntity
  8
SIZE
  6
CONTINUOUS
 62
    30
100
AcDbText
 10
1624.388542
 20
1311.353491
 30
0.0
 40
55.0
  1
197
 41
0.9
 72
     1
 11
1683.317114
 21
1311.353491
 31
0.0
100
AcDbText
  0
LINE
  5
547
100
AcDbEntity
  8
SIZE
  6
CONTINUOUS
 62
    30
100
AcDbLine
 10
1771.817114
 20
1296.353491
 30
0.0
 11
1594.817114
 21
1296.353491
 31
0.0
  0
TEXT
  5
548
100
AcDbEntity
  8
SIZE
  6
CONTINUOUS
 62
    30
100
AcDbText
 10
1607.174257
 20
1205.729388
 30
0.0
 40
55.0
  1
222
 41
0.9
 72
     1
 11
1670.817114
 21
1205.729388
 31
0.0
100
AcDbText
  0
POINT
  5
549
100
AcDbEntity
  8
DEFPOINTS
  6
CONTINUOUS
 62
     7
100
AcDbPoint
 10
1584.817114
 20
1296.353491
 30
0.0
  0
LINE
  5
54A
100
AcDbEntity
  8
SIZE
  6
CONTINUOUS
 62
    30
100
AcDbLine
 10
1589.817114
 20
1296.353491
 30
0.0
 11
1594.817114
 21
1296.353491
 31
0.0
  0
LINE
  5
54B
100
AcDbEntity
  8
SIZE
  6
CONTINUOUS
 62
    30
100
AcDbLine
 10
1776.817114
 20
1296.353491
 30
0.0
 11
1771.817114
 21
1296.353491
 31
0.0
  0
CIRCLE
  5
54C
100
AcDbEntity
  8
SIZE
  6
CONTINUOUS
 62
    30
100
AcDbCircle
 10
1781.817114
 20
1296.353491
 30
0.0
 40
5.0
  0
POINT
  5
54D
100
AcDbEntity
  8
DEFPOINTS
  6
CONTINUOUS
 62
     7
100
AcDbPoint
 10
1781.817114
 20
1426.79875
 30
0.0
  0
LINE
  5
54E
100
AcDbEntity
  8
SIZE
  6
CONTINUOUS
 62
    30
100
AcDbLine
 10
1776.817114
 20
1426.79875
 30
0.0
 11
1771.817114
 21
1426.79875
 31
0.0
  0
CIRCLE
  5
54F
100
AcDbEntity
  8
SIZE
  6
CONTINUOUS
 62
    30
100
AcDbCircle
 10
1781.817114
 20
1426.79875
 30
0.0
 40
5.0
  0
TEXT
  5
550
100
AcDbEntity
  8
SIZE
  6
CONTINUOUS
 62
    30
100
AcDbText
 10
2176.223166
 20
765.200185
 30
0.0
 40
55.0
  1
202
 50
90.0
 41
0.9
 72
     1
 11
2176.223166
 21
828.843042
 31
0.0
100
AcDbText
  0
LINE
  5
551
100
AcDbEntity
  8
SIZE
  6
CONTINUOUS
 62
    30
100
AcDbLine
 10
2191.223166
 20
919.843042
 30
0.0
 11
2191.223166
 21
737.843042
 31
0.0
  0
LINE
  5
552
100
AcDbEntity
  8
SIZE
  6
CONTINUOUS
 62
    30
100
AcDbLine
 10
2081.57764
 20
919.843042
 30
0.0
 11
2081.57764
 21
723.843042
 31
0.0
  0
LINE
  5
553
100
AcDbEntity
  8
SIZE
  6
CONTINUOUS
 62
    30
100
AcDbLine
 10
2191.223166
 20
732.843042
 30
0.0
 11
2191.223166
 21
737.843042
 31
0.0
  0
POINT
  5
554
100
AcDbEntity
  8
DEFPOINTS
  6
CONTINUOUS
 62
     7
100
AcDbPoint
 10
2081.57764
 20
668.843042
 30
0.0
  0
LINE
  5
555
100
AcDbEntity
  8
SIZE
  6
CONTINUOUS
 62
    30
100
AcDbLine
 10
2081.57764
 20
663.843042
 30
0.0
 11
2081.57764
 21
658.843042
 31
0.0
  0
CIRCLE
  5
556
100
AcDbEntity
  8
SIZE
  6
CONTINUOUS
 62
    30
100
AcDbCircle
 10
2081.57764
 20
668.843042
 30
0.0
 40
5.0
  0
LINE
  5
557
100
AcDbEntity
  8
SIZE
  6
CONTINUOUS
 62
    30
100
AcDbLine
 10
2081.57764
 20
718.843042
 30
0.0
 11
2081.57764
 21
723.843042
 31
0.0
  0
CIRCLE
  5
558
100
AcDbEntity
  8
SIZE
  6
CONTINUOUS
 62
    30
100
AcDbCircle
 10
2081.57764
 20
713.843042
 30
0.0
 40
5.0
  0
LINE
  5
559
100
AcDbEntity
  8
SIZE
  6
CONTINUOUS
 62
    30
100
AcDbLine
 10
2081.57764
 20
713.843042
 30
0.0
 11
2081.57764
 21
668.843042
 31
0.0
  0
LINE
  5
55A
100
AcDbEntity
  8
SIZE
  6
CONTINUOUS
 62
    30
100
AcDbLine
 10
2081.57764
 20
713.843042
 30
0.0
 11
2081.57764
 21
668.843042
 31
0.0
  0
LINE
  5
55B
100
AcDbEntity
  8
SIZE
  6
CONTINUOUS
 62
    30
100
AcDbLine
 10
2081.57764
 20
658.843042
 30
0.0
 11
2081.57764
 21
648.843042
 31
0.0
  0
LINE
  5
55C
100
AcDbEntity
  8
SIZE
  6
CONTINUOUS
 62
    30
100
AcDbLine
 10
2081.57764
 20
723.843042
 30
0.0
 11
2081.57764
 21
733.843042
 31
0.0
  0
POINT
  5
55D
100
AcDbEntity
  8
DEFPOINTS
  6
CONTINUOUS
 62
     7
100
AcDbPoint
 10
2081.57764
 20
713.843042
 30
0.0
  0
LINE
  5
55E
100
AcDbEntity
  8
SIZE
  6
CONTINUOUS
 62
    30
100
AcDbLine
 10
2081.57764
 20
718.843042
 30
0.0
 11
2081.57764
 21
723.843042
 31
0.0
  0
CIRCLE
  5
55F
100
AcDbEntity
  8
SIZE
  6
CONTINUOUS
 62
    30
100
AcDbCircle
 10
2081.57764
 20
713.843042
 30
0.0
 40
5.0
  0
POINT
  5
560
100
AcDbEntity
  8
DEFPOINTS
  6
CONTINUOUS
 62
     7
100
AcDbPoint
 10
2191.223166
 20
654.843042
 30
0.0
  0
LINE
  5
561
100
AcDbEntity
  8
SIZE
  6
CONTINUOUS
 62
    30
100
AcDbLine
 10
2191.223166
 20
659.843042
 30
0.0
 11
2191.223166
 21
664.843042
 31
0.0
  0
CIRCLE
  5
562
100
AcDbEntity
  8
SIZE
  6
CONTINUOUS
 62
    30
100
AcDbCircle
 10
2191.223166
 20
654.843042
 30
0.0
 40
5.0
  0
LINE
  5
563
100
AcDbEntity
  8
SIZE
  6
CONTINUOUS
 62
    30
100
AcDbLine
 10
2191.223166
 20
722.843042
 30
0.0
 11
2191.223166
 21
717.843042
 31
0.0
  0
CIRCLE
  5
564
100
AcDbEntity
  8
SIZE
  6
CONTINUOUS
 62
    30
100
AcDbCircle
 10
2191.223166
 20
727.843042
 30
0.0
 40
5.0
  0
LINE
  5
565
100
AcDbEntity
  8
SIZE
  6
CONTINUOUS
 62
    30
100
AcDbLine
 10
2191.223166
 20
717.843042
 30
0.0
 11
2191.223166
 21
664.843042
 31
0.0
  0
POINT
  5
566
100
AcDbEntity
  8
DEFPOINTS
  6
CONTINUOUS
 62
     7
100
AcDbPoint
 10
2191.223166
 20
727.843042
 30
0.0
  0
CIRCLE
  5
567
100
AcDbEntity
  8
SIZE
  6
CONTINUOUS
 62
    30
100
AcDbCircle
 10
2191.223166
 20
727.843042
 30
0.0
 40
5.0
  0
LINE
  5
568
100
AcDbEntity
  8
SIZE
  6
CONTINUOUS
 62
    30
100
AcDbLine
 10
2081.57764
 20
924.843042
 30
0.0
 11
2081.57764
 21
919.843042
 31
0.0
  0
CIRCLE
  5
569
100
AcDbEntity
  8
SIZE
  6
CONTINUOUS
 62
    30
100
AcDbCircle
 10
2081.57764
 20
929.843042
 30
0.0
 40
5.0
  0
LINE
  5
56A
100
AcDbEntity
  8
SIZE
  6
CONTINUOUS
 62
    30
100
AcDbLine
 10
2191.223166
 20
924.843042
 30
0.0
 11
2191.223166
 21
919.843042
 31
0.0
  0
CIRCLE
  5
56B
100
AcDbEntity
  8
SIZE
  6
CONTINUOUS
 62
    30
100
AcDbCircle
 10
2191.223166
 20
929.843042
 30
0.0
 40
5.0
  0
ENDBLK
  5
56D
100
AcDbEntity
  8
0
 62
     7
100
AcDbBlockEnd
  0
ENDSEC
  0
SECTION
  2
ENTITIES
  0
LINE
  5
56F
100
AcDbEntity
  8
DETAIL
  6
CONTINUOUS
 62
     5
100
AcDbLine
 10
355.0
 20
0.0
 30
0.0
 11
-355.0
 21
0.0
 31
0.0
  0
LINE
  5
570
100
AcDbEntity
  8
OUTLINE
  6
CONTINUOUS
 62
     3
100
AcDbLine
 10
-317.0
 20
0.0
 30
0.0
 11
-355.0
 21
0.0
 31
0.0
  0
ARC
  5
571
100
AcDbEntity
  8
OUTLINE
  6
CONTINUOUS
 62
     3
100
AcDbCircle
 10
-250.0
 20
312.764706
 30
0.0
 40
332.764706
100
AcDbArc
 50
251.606688
 51
259.429888
  0
LINE
  5
572
100
AcDbEntity
  8
NOTE
  6
CONTINUOUS
 62
     4
100
AcDbLine
 10
-519.149173
 20
658.723808
 30
0.0
 11
-100.999602
 21
221.998881
 31
0.0
  0
LINE
  5
573
100
AcDbEntity
  8
NOTE
  6
CONTINUOUS
 62
     4
100
AcDbLine
 10
-576.885674
 20
474.378463
 30
0.0
 11
-170.999466
 21
221.999033
 31
0.0
  0
LINE
  5
574
100
AcDbEntity
  8
NOTE
  6
CONTINUOUS
 62
     4
100
AcDbLine
 10
-792.624011
 20
-333.151978
 30
0.0
 11
-286.999522
 21
153.999957
 31
0.0
  0
LINE
  5
575
100
AcDbEntity
  8
SIZE
  6
CONTINUOUS
 62
    30
100
AcDbLine
 10
345.0
 20
-555.843538
 30
0.0
 11
-345.0
 21
-555.843538
 31
0.0
  0
LINE
  5
576
100
AcDbEntity
  8
SIZE
  6
CONTINUOUS
 62
    30
100
AcDbLine
 10
-297.0
 20
-394.722162
 30
0.0
 11
-345.0
 21
-394.722162
 31
0.0
  0
LINE
  5
577
100
AcDbEntity
  8
SIZE
  6
CONTINUOUS
 62
    30
100
AcDbLine
 10
-330.0
 20
-256.03246
 30
0.0
 11
-325.0
 21
-256.03246
 31
0.0
  0
LINE
  5
578
100
AcDbEntity
  8
SIZE
  6
CONTINUOUS
 62
    30
100
AcDbLine
 10
-330.0
 20
-256.03246
 30
0.0
 11
-325.0
 21
-256.03246
 31
0.0
  0
LINE
  5
579
100
AcDbEntity
  8
SIZE
  6
CONTINUOUS
 62
    30
100
AcDbLine
 10
-20.0
 20
-20.0
 30
0.0
 11
-1017.015394
 21
-20.0
 31
0.0
  0
LINE
  5
57A
100
AcDbEntity
  8
SIZE
  6
CONTINUOUS
 62
    30
100
AcDbLine
 10
-222.3
 20
221.999496
 30
0.0
 11
-594.978493
 21
221.999496
 31
0.0
  0
LINE
  5
57B
100
AcDbEntity
  8
NOTE
  6
CONTINUOUS
 62
     4
100
AcDbLine
 10
-339.614875
 20
-125.267388
 30
0.0
 11
-313.692427
 21
-107.116294
 31
0.0
  0
LINE
  5
57C
100
AcDbEntity
  8
NOTE
  6
CONTINUOUS
 62
     4
100
AcDbLine
 10
-339.614875
 20
-125.267388
 30
0.0
 11
-295.472629
 21
-48.810775
 31
0.0
  0
LINE
  5
57D
100
AcDbEntity
  8
NOTE
  6
CONTINUOUS
 62
     4
100
AcDbLine
 10
375.0
 20
390.0
 30
0.0
 11
-435.0
 21
390.0
 31
0.0
  0
ARC
  5
57E
100
AcDbEntity
  8
DETAIL
  6
CONTINUOUS
 62
     5
100
AcDbCircle
 10
-250.0
 20
312.764706
 30
0.0
 40
332.764706
100
AcDbArc
 50
251.606688
 51
259.429888
  0
TEXT
  5
57F
100
AcDbEntity
  8
ETC
  6
CONTINUOUS
 62
    61
100
AcDbText
 10
-908.585495
 20
1009.910727
 30
0.0
 40
80.0
  1
MPL-RP40_56LA(ﾘﾌﾟﾚｽﾊﾟﾈﾙ)_3
 50
359.999997
 41
0.8
100
AcDbText
  0
LINE
  5
580
100
AcDbEntity
  8
OUTLINE
  6
CONTINUOUS
 62
     3
100
AcDbLine
 10
-355.0
 20
0.0
 30
0.0
 11
-355.0
 21
-3.0
 31
0.0
  0
CIRCLE
  5
581
100
AcDbEntity
  8
SIZE
  6
CONTINUOUS
 62
    30
100
AcDbCircle
 10
-987.015394
 20
0.0
 30
0.0
 40
5.0
  0
LINE
  5
582
100
AcDbEntity
  8
SIZE
  6
CONTINUOUS
 62
    30
100
AcDbLine
 10
-987.015394
 20
0.0
 30
0.0
 11
-987.015394
 21
-20.0
 31
0.0
  0
LINE
  5
583
100
AcDbEntity
  8
SIZE
  6
CONTINUOUS
 62
    30
100
AcDbLine
 10
-987.015394
 20
0.0
 30
0.0
 11
-987.015394
 21
-20.0
 31
0.0
  0
CIRCLE
  5
584
100
AcDbEntity
  8
SIZE
  6
CONTINUOUS
 62
    30
100
AcDbCircle
 10
-987.015394
 20
0.0
 30
0.0
 40
5.0
  0
LINE
  5
585
100
AcDbEntity
  8
DETAIL
  6
CONTINUOUS
 62
     5
100
AcDbLine
 10
-355.0
 20
0.0
 30
0.0
 11
-355.0
 21
-3.0
 31
0.0
  0
LINE
  5
586
100
AcDbEntity
  8
NOTE
  6
CONTINUOUS
 62
     4
100
AcDbLine
 10
-792.624011
 20
-333.151978
 30
0.0
 11
-1464.817105
 21
-333.151978
 31
0.0
  0
TEXT
  5
587
100
AcDbEntity
  8
NOTE
  6
CONTINUOUS
 62
     4
100
AcDbText
 10
-1459.517932
 20
-313.28139
 30
0.0
 40
64.0
  1
AH4-14×30長穴
 41
0.9
100
AcDbText
  0
TEXT
  5
588
100
AcDbEntity
  8
SIZE
  6
CONTINUOUS
 62
    30
100
AcDbText
 10
-1002.015394
 20
-140.227398
 30
0.0
 40
55.0
  1
20
 50
90.0
 41
0.9
 72
     1
 11
-1002.015394
 21
-100.155969
 31
0.0
100
AcDbText
  0
LINE
  5
589
100
AcDbEntity
  8
SIZE
  6
CONTINUOUS
 62
    30
100
AcDbLine
 10
-987.015394
 20
-155.227398
 30
0.0
 11
-987.015394
 21
-20.0
 31
0.0
  0
POINT
  5
58A
100
AcDbEntity
  8
DEFPOINTS
  6
CONTINUOUS
 62
     7
100
AcDbPoint
 10
-987.015394
 20
-20.0
 30
0.0
  0
LINE
  5
58B
100
AcDbEntity
  8
SIZE
  6
CONTINUOUS
 62
    30
100
AcDbLine
 10
-987.015394
 20
-25.0
 30
0.0
 11
-987.015394
 21
-30.0
 31
0.0
  0
CIRCLE
  5
58C
100
AcDbEntity
  8
SIZE
  6
CONTINUOUS
 62
    30
100
AcDbCircle
 10
-987.015394
 20
-20.0
 30
0.0
 40
5.0
  0
LINE
  5
58D
100
AcDbEntity
  8
SIZE
  6
CONTINUOUS
 62
    30
100
AcDbLine
 10
-987.015394
 20
-30.0
 30
0.0
 11
-987.015394
 21
-40.0
 31
0.0
  0
LINE
  5
58E
100
AcDbEntity
  8
SIZE
  6
CONTINUOUS
 62
    30
100
AcDbLine
 10
-355.0
 20
-23.0
 30
0.0
 11
-355.0
 21
-585.843538
 31
0.0
  0
LINE
  5
58F
100
AcDbEntity
  8
SIZE
  6
CONTINUOUS
 62
    30
100
AcDbLine
 10
-355.0
 20
-23.0
 30
0.0
 11
-355.0
 21
-424.722162
 31
0.0
  0
POINT
  5
590
100
AcDbEntity
  8
DEFPOINTS
  6
CONTINUOUS
 62
     7
100
AcDbPoint
 10
-355.0
 20
-555.843538
 30
0.0
  0
LINE
  5
591
100
AcDbEntity
  8
SIZE
  6
CONTINUOUS
 62
    30
100
AcDbLine
 10
-350.0
 20
-555.843538
 30
0.0
 11
-345.0
 21
-555.843538
 31
0.0
  0
CIRCLE
  5
592
100
AcDbEntity
  8
SIZE
  6
CONTINUOUS
 62
    30
100
AcDbCircle
 10
-355.0
 20
-555.843538
 30
0.0
 40
5.0
  0
TEXT
  5
593
100
AcDbEntity
  8
SIZE
  6
CONTINUOUS
 62
    30
100
AcDbText
 10
-463.355746
 20
-379.722162
 30
0.0
 40
55.0
  1
68
 41
0.9
 72
     1
 11
-423.284317
 21
-379.722162
 31
0.0
100
AcDbText
  0
LINE
  5
594
100
AcDbEntity
  8
SIZE
  6
CONTINUOUS
 62
    30
100
AcDbLine
 10
-478.355746
 20
-394.722162
 30
0.0
 11
-355.0
 21
-394.722162
 31
0.0
  0
POINT
  5
595
100
AcDbEntity
  8
DEFPOINTS
  6
CONTINUOUS
 62
     7
100
AcDbPoint
 10
-355.0
 20
-394.722162
 30
0.0
  0
LINE
  5
596
100
AcDbEntity
  8
SIZE
  6
CONTINUOUS
 62
    30
100
AcDbLine
 10
-350.0
 20
-394.722162
 30
0.0
 11
-345.0
 21
-394.722162
 31
0.0
  0
CIRCLE
  5
597
100
AcDbEntity
  8
SIZE
  6
CONTINUOUS
 62
    30
100
AcDbCircle
 10
-355.0
 20
-394.722162
 30
0.0
 40
5.0
  0
LINE
  5
598
100
AcDbEntity
  8
SIZE
  6
CONTINUOUS
 62
    30
100
AcDbLine
 10
-355.0
 20
-23.0
 30
0.0
 11
-355.0
 21
-286.03246
 31
0.0
  0
LINE
  5
59A
100
AcDbEntity
  8
SIZE
  6
CONTINUOUS
 62
    30
100
AcDbLine
 10
-335.0
 20
-20.0
 30
0.0
 11
-335.0
 21
-286.03246
 31
0.0
  0
TEXT
  5
59B
100
AcDbEntity
  8
SIZE
  6
CONTINUOUS
 62
    30
100
AcDbText
 10
-471.666906
 20
-241.03246
 30
0.0
 40
55.0
  1
20
 41
0.9
 72
     1
 11
-431.595477
 21
-241.03246
 31
0.0
100
AcDbText
  0
LINE
  5
59C
100
AcDbEntity
  8
SIZE
  6
CONTINUOUS
 62
    30
100
AcDbLine
 10
-486.666906
 20
-256.03246
 30
0.0
 11
-355.0
 21
-256.03246
 31
0.0
  0
POINT
  5
59D
100
AcDbEntity
  8
DEFPOINTS
  6
CONTINUOUS
 62
     7
100
AcDbPoint
 10
-355.0
 20
-256.03246
 30
0.0
  0
LINE
  5
59E
100
AcDbEntity
  8
SIZE
  6
CONTINUOUS
 62
    30
100
AcDbLine
 10
-360.0
 20
-256.03246
 30
0.0
 11
-365.0
 21
-256.03246
 31
0.0
  0
CIRCLE
  5
59F
100
AcDbEntity
  8
SIZE
  6
CONTINUOUS
 62
    30
100
AcDbCircle
 10
-355.0
 20
-256.03246
 30
0.0
 40
5.0
  0
CIRCLE
  5
5A0
100
AcDbEntity
  8
SIZE
  6
CONTINUOUS
 62
    30
100
AcDbCircle
 10
-335.0
 20
-256.03246
 30
0.0
 40
5.0
  0
LINE
  5
5A1
100
AcDbEntity
  8
SIZE
  6
CONTINUOUS
 62
    30
100
AcDbLine
 10
-335.0
 20
-256.03246
 30
0.0
 11
-355.0
 21
-256.03246
 31
0.0
  0
LINE
  5
5A2
100
AcDbEntity
  8
SIZE
  6
CONTINUOUS
 62
    30
100
AcDbLine
 10
-335.0
 20
-256.03246
 30
0.0
 11
-355.0
 21
-256.03246
 31
0.0
  0
LINE
  5
5A3
100
AcDbEntity
  8
SIZE
  6
CONTINUOUS
 62
    30
100
AcDbLine
 10
-365.0
 20
-256.03246
 30
0.0
 11
-375.0
 21
-256.03246
 31
0.0
  0
POINT
  5
5A4
100
AcDbEntity
  8
DEFPOINTS
  6
CONTINUOUS
 62
     7
100
AcDbPoint
 10
-335.0
 20
-256.03246
 30
0.0
  0
CIRCLE
  5
5A5
100
AcDbEntity
  8
SIZE
  6
CONTINUOUS
 62
    30
100
AcDbCircle
 10
-335.0
 20
-256.03246
 30
0.0
 40
5.0
  0
POINT
  5
5A6
100
AcDbEntity
  8
DEFPOINTS
  6
CONTINUOUS
 62
     7
100
AcDbPoint
 10
-355.0
 20
-3.0
 30
0.0
  0
POINT
  5
5A7
100
AcDbEntity
  8
DEFPOINTS
  6
CONTINUOUS
 62
     7
100
AcDbPoint
 10
-355.0
 20
-3.0
 30
0.0
  0
POINT
  5
5A8
100
AcDbEntity
  8
DEFPOINTS
  6
CONTINUOUS
 62
     7
100
AcDbPoint
 10
-355.0
 20
-3.0
 30
0.0
  0
LINE
  5
5A9
100
AcDbEntity
  8
NOTE
  6
CONTINUOUS
 62
     4
100
AcDbLine
 10
-339.614875
 20
-125.267388
 30
0.0
 11
-336.856791
 21
-93.742342
 31
0.0
  0
LINE
  5
5AA
100
AcDbEntity
  8
NOTE
  6
CONTINUOUS
 62
     4
100
AcDbLine
 10
-576.885674
 20
474.378463
 30
0.0
 11
-977.421757
 21
474.378463
 31
0.0
  0
TEXT
  5
5AB
100
AcDbEntity
  8
NOTE
  6
CONTINUOUS
 62
     4
100
AcDbText
 10
-959.566265
 20
494.249051
 30
0.0
 40
64.0
  1
RG %%C12.7
 41
0.9
100
AcDbText
  0
LINE
  5
5AD
100
AcDbEntity
  8
SIZE
  6
CONTINUOUS
 62
    30
100
AcDbLine
 10
-455.0
 20
0.0
 30
0.0
 11
-1017.015394
 21
0.0
 31
0.0
  0
LINE
  5
5AE
100
AcDbEntity
  8
SIZE
  6
CONTINUOUS
 62
    30
100
AcDbLine
 10
-455.0
 20
390.0
 30
0.0
 11
-1017.015394
 21
390.0
 31
0.0
  0
LINE
  5
5AF
100
AcDbEntity
  8
SIZE
  6
CONTINUOUS
 62
    30
100
AcDbLine
 10
-337.0
 20
53.999496
 30
0.0
 11
-881.962158
 21
53.999496
 31
0.0
  0
LINE
  5
5B0
100
AcDbEntity
  8
SIZE
  6
CONTINUOUS
 62
    30
100
AcDbLine
 10
-337.0
 20
343.999496
 30
0.0
 11
-881.962158
 21
343.999496
 31
0.0
  0
TEXT
  5
5B1
100
AcDbEntity
  8
SIZE
  6
CONTINUOUS
 62
    30
100
AcDbText
 10
-1002.015394
 20
71.485714
 30
0.0
 40
55.0
  1
350以上
 50
90.0
 41
0.9
 72
     1
 11
-1002.015394
 21
195.0
 31
0.0
100
AcDbText
  0
LINE
  5
5B2
100
AcDbEntity
  8
SIZE
  6
CONTINUOUS
 62
    30
100
AcDbLine
 10
-987.015394
 20
380.0
 30
0.0
 11
-987.015394
 21
10.0
 31
0.0
  0
LINE
  5
5B3
100
AcDbEntity
  8
SIZE
  6
CONTINUOUS
 62
    30
100
AcDbLine
 10
-851.962158
 20
333.999496
 30
0.0
 11
-851.962158
 21
63.999496
 31
0.0
  0
TEXT
  5
5B4
100
AcDbEntity
  8
SIZE
  6
CONTINUOUS
 62
    30
100
AcDbText
 10
-866.962158
 20
135.356639
 30
0.0
 40
55.0
  1
290
 50
90.0
 41
0.9
 72
     1
 11
-866.962158
 21
198.999496
 31
0.0
100
AcDbText
  0
LINE
  5
5B5
100
AcDbEntity
  8
SIZE
  6
CONTINUOUS
 62
    30
100
AcDbLine
 10
-987.015394
 20
5.0
 30
0.0
 11
-987.015394
 21
10.0
 31
0.0
  0
LINE
  5
5B6
100
AcDbEntity
  8
SIZE
  6
CONTINUOUS
 62
    30
100
AcDbLine
 10
-987.015394
 20
10.0
 30
0.0
 11
-987.015394
 21
20.0
 31
0.0
  0
POINT
  5
5B7
100
AcDbEntity
  8
DEFPOINTS
  6
CONTINUOUS
 62
     7
100
AcDbPoint
 10
-987.015394
 20
0.0
 30
0.0
  0
LINE
  5
5B8
100
AcDbEntity
  8
SIZE
  6
CONTINUOUS
 62
    30
100
AcDbLine
 10
-987.015394
 20
5.0
 30
0.0
 11
-987.015394
 21
10.0
 31
0.0
  0
POINT
  5
5B9
100
AcDbEntity
  8
DEFPOINTS
  6
CONTINUOUS
 62
     7
100
AcDbPoint
 10
-851.962158
 20
53.999496
 30
0.0
  0
LINE
  5
5BA
100
AcDbEntity
  8
SIZE
  6
CONTINUOUS
 62
    30
100
AcDbLine
 10
-851.962158
 20
58.999496
 30
0.0
 11
-851.962158
 21
63.999496
 31
0.0
  0
CIRCLE
  5
5BB
100
AcDbEntity
  8
SIZE
  6
CONTINUOUS
 62
    30
100
AcDbCircle
 10
-851.962158
 20
53.999496
 30
0.0
 40
5.0
  0
LINE
  5
5BC
100
AcDbEntity
  8
SIZE
  6
CONTINUOUS
 62
    30
100
AcDbLine
 10
-987.015394
 20
385.0
 30
0.0
 11
-987.015394
 21
380.0
 31
0.0
  0
CIRCLE
  5
5BD
100
AcDbEntity
  8
SIZE
  6
CONTINUOUS
 62
    30
100
AcDbCircle
 10
-987.015394
 20
390.0
 30
0.0
 40
5.0
  0
LINE
  5
5BE
100
AcDbEntity
  8
SIZE
  6
CONTINUOUS
 62
    30
100
AcDbLine
 10
-851.962158
 20
338.999496
 30
0.0
 11
-851.962158
 21
333.999496
 31
0.0
  0
CIRCLE
  5
5BF
100
AcDbEntity
  8
SIZE
  6
CONTINUOUS
 62
    30
100
AcDbCircle
 10
-851.962158
 20
343.999496
 30
0.0
 40
5.0
  0
TEXT
  5
5C0
100
AcDbEntity
  8
SIZE
  6
CONTINUOUS
 62
    30
100
AcDbText
 10
-719.309006
 20
190.070925
 30
0.0
 40
55.0
  1
190
 50
90.0
 41
0.9
 72
     1
 11
-719.309006
 21
248.999496
 31
0.0
100
AcDbText
  0
LINE
  5
5C1
100
AcDbEntity
  8
SIZE
  6
CONTINUOUS
 62
    30
100
AcDbLine
 10
-704.309006
 20
333.999496
 30
0.0
 11
-704.309006
 21
163.999496
 31
0.0
  0
TEXT
  5
5C2
100
AcDbEntity
  8
SIZE
  6
CONTINUOUS
 62
    30
100
AcDbText
 10
-579.978493
 20
224.070925
 30
0.0
 40
55.0
  1
122
 50
90.0
 41
0.9
 72
     1
 11
-579.978493
 21
282.999496
 31
0.0
100
AcDbText
  0
LINE
  5
5C3
100
AcDbEntity
  8
SIZE
  6
CONTINUOUS
 62
    30
100
AcDbLine
 10
-564.978493
 20
343.999496
 30
0.0
 11
-564.978493
 21
221.999496
 31
0.0
  0
LINE
  5
5C4
100
AcDbEntity
  8
SIZE
  6
CONTINUOUS
 62
    30
100
AcDbLine
 10
-332.0
 20
153.999496
 30
0.0
 11
-734.309006
 21
153.999496
 31
0.0
  0
CIRCLE
  5
5C5
100
AcDbEntity
  8
SIZE
  6
CONTINUOUS
 62
    30
100
AcDbCircle
 10
-704.309006
 20
153.999496
 30
0.0
 40
5.0
  0
POINT
  5
5C6
100
AcDbEntity
  8
DEFPOINTS
  6
CONTINUOUS
 62
     7
100
AcDbPoint
 10
-704.309006
 20
153.999496
 30
0.0
  0
LINE
  5
5C7
100
AcDbEntity
  8
SIZE
  6
CONTINUOUS
 62
    30
100
AcDbLine
 10
-704.309006
 20
158.999496
 30
0.0
 11
-704.309006
 21
163.999496
 31
0.0
  0
POINT
  5
5C8
100
AcDbEntity
  8
DEFPOINTS
  6
CONTINUOUS
 62
     7
100
AcDbPoint
 10
-564.978493
 20
221.999496
 30
0.0
  0
LINE
  5
5C9
100
AcDbEntity
  8
SIZE
  6
CONTINUOUS
 62
    30
100
AcDbLine
 10
-564.978493
 20
216.999496
 30
0.0
 11
-564.978493
 21
211.999496
 31
0.0
  0
CIRCLE
  5
5CA
100
AcDbEntity
  8
SIZE
  6
CONTINUOUS
 62
    30
100
AcDbCircle
 10
-564.978493
 20
221.999496
 30
0.0
 40
5.0
  0
LINE
  5
5CB
100
AcDbEntity
  8
SIZE
  6
CONTINUOUS
 62
    30
100
AcDbLine
 10
-564.978493
 20
211.999496
 30
0.0
 11
-564.978493
 21
201.999496
 31
0.0
  0
POINT
  5
5CC
100
AcDbEntity
  8
DEFPOINTS
  6
CONTINUOUS
 62
     7
100
AcDbPoint
 10
-335.0
 20
0.0
 30
0.0
  0
POINT
  5
5CD
100
AcDbEntity
  8
DEFPOINTS
  6
CONTINUOUS
 62
     7
100
AcDbPoint
 10
-335.0
 20
0.0
 30
0.0
  0
POINT
  5
5CE
100
AcDbEntity
  8
DEFPOINTS
  6
CONTINUOUS
 62
     7
100
AcDbPoint
 10
-435.0
 20
0.0
 30
0.0
  0
POINT
  5
5CF
100
AcDbEntity
  8
DEFPOINTS
  6
CONTINUOUS
 62
     7
100
AcDbPoint
 10
-435.0
 20
0.0
 30
0.0
  0
LINE
  5
5D0
100
AcDbEntity
  8
NOTE
  6
CONTINUOUS
 62
     4
100
AcDbLine
 10
-335.0
 20
5.978019
 30
0.0
 11
-344.021981
 21
15.0
 31
0.0
  0
LINE
  5
5D1
100
AcDbEntity
  8
NOTE
  6
CONTINUOUS
 62
     4
100
AcDbLine
 10
-343.164117
 20
0.0
 30
0.0
 11
-358.164117
 21
15.0
 31
0.0
  0
LINE
  5
5D2
100
AcDbEntity
  8
NOTE
  6
CONTINUOUS
 62
     4
100
AcDbLine
 10
-357.306253
 20
0.0
 30
0.0
 11
-372.306253
 21
15.0
 31
0.0
  0
LINE
  5
5D3
100
AcDbEntity
  8
NOTE
  6
CONTINUOUS
 62
     4
100
AcDbLine
 10
-399.732659
 20
0.0
 30
0.0
 11
-414.732659
 21
15.0
 31
0.0
  0
LINE
  5
5D4
100
AcDbEntity
  8
NOTE
  6
CONTINUOUS
 62
     4
100
AcDbLine
 10
-413.874795
 20
0.0
 30
0.0
 11
-428.874795
 21
15.0
 31
0.0
  0
LINE
  5
5D5
100
AcDbEntity
  8
NOTE
  6
CONTINUOUS
 62
     4
100
AcDbLine
 10
-428.016931
 20
0.0
 30
0.0
 11
-435.0
 21
6.983069
 31
0.0
  0
LINE
  5
5D6
100
AcDbEntity
  8
NOTE
  6
CONTINUOUS
 62
     4
100
AcDbLine
 10
-335.0
 20
0.0
 30
0.0
 11
-435.0
 21
0.0
 31
0.0
  0
LINE
  5
5D7
100
AcDbEntity
  8
NOTE
  6
CONTINUOUS
 62
     4
100
AcDbLine
 10
-335.0
 20
15.0
 30
0.0
 11
-435.0
 21
15.0
 31
0.0
  0
LINE
  5
5D8
100
AcDbEntity
  8
NOTE
  6
CONTINUOUS
 62
     4
100
AcDbLine
 10
-335.0
 20
0.0
 30
0.0
 11
-335.0
 21
15.0
 31
0.0
  0
LINE
  5
5D9
100
AcDbEntity
  8
SIZE
  6
CONTINUOUS
 62
    30
100
AcDbLine
 10
-337.0
 20
343.999496
 30
0.0
 11
-734.309006
 21
343.999496
 31
0.0
  0
LINE
  5
5DA
100
AcDbEntity
  8
SIZE
  6
CONTINUOUS
 62
    30
100
AcDbLine
 10
-337.0
 20
343.999496
 30
0.0
 11
-594.978493
 21
343.999496
 31
0.0
  0
LINE
  5
5DB
100
AcDbEntity
  8
SIZE
  6
CONTINUOUS
 62
    30
100
AcDbLine
 10
-704.309006
 20
338.999496
 30
0.0
 11
-704.309006
 21
333.999496
 31
0.0
  0
CIRCLE
  5
5DC
100
AcDbEntity
  8
SIZE
  6
CONTINUOUS
 62
    30
100
AcDbCircle
 10
-704.309006
 20
343.999496
 30
0.0
 40
5.0
  0
LINE
  5
5DD
100
AcDbEntity
  8
SIZE
  6
CONTINUOUS
 62
    30
100
AcDbLine
 10
-564.978493
 20
348.999496
 30
0.0
 11
-564.978493
 21
353.999496
 31
0.0
  0
CIRCLE
  5
5DE
100
AcDbEntity
  8
SIZE
  6
CONTINUOUS
 62
    30
100
AcDbCircle
 10
-564.978493
 20
343.999496
 30
0.0
 40
5.0
  0
LINE
  5
5DF
100
AcDbEntity
  8
SIZE
  6
CONTINUOUS
 62
    30
100
AcDbLine
 10
-564.978493
 20
353.999496
 30
0.0
 11
-564.978493
 21
363.999496
 31
0.0
  0
POINT
  5
5E0
100
AcDbEntity
  8
DEFPOINTS
  6
CONTINUOUS
 62
     7
100
AcDbPoint
 10
-435.0
 20
390.0
 30
0.0
  0
LINE
  5
5E1
100
AcDbEntity
  8
NOTE
  6
CONTINUOUS
 62
     4
100
AcDbLine
 10
-341.568542
 20
390.0
 30
0.0
 11
-371.568542
 21
420.0
 31
0.0
  0
LINE
  5
5E2
100
AcDbEntity
  8
NOTE
  6
CONTINUOUS
 62
     4
100
AcDbLine
 10
-368.137085
 20
390.0
 30
0.0
 11
-398.137085
 21
420.0
 31
0.0
  0
LINE
  5
5E3
100
AcDbEntity
  8
NOTE
  6
CONTINUOUS
 62
     4
100
AcDbLine
 10
-394.705627
 20
390.0
 30
0.0
 11
-424.705627
 21
420.0
 31
0.0
  0
LINE
  5
5E4
100
AcDbEntity
  8
NOTE
  6
CONTINUOUS
 62
     4
100
AcDbLine
 10
-519.149173
 20
658.723808
 30
0.0
 11
-937.848138
 21
658.723808
 31
0.0
  0
TEXT
  5
5E5
100
AcDbEntity
  8
NOTE
  6
CONTINUOUS
 62
     4
100
AcDbText
 10
-919.992645
 20
678.594396
 30
0.0
 40
64.0
  1
RL %%C6.35
 41
0.9
100
AcDbText
  0
LINE
  5
5E6
100
AcDbEntity
  8
BASIS
  6
DASHDOT
 62
     6
100
AcDbLine
 10
0.0
 20
370.15765
 30
0.0
 11
0.0
 21
-41.608245
 31
0.0
  0
CIRCLE
  5
5E7
100
AcDbEntity
  8
ARRANGE
  6
CONTINUOUS
 62
     1
100
AcDbCircle
 10
0.0
 20
0.0
 30
0.0
 40
42.5
  0
TEXT
  5
5E8
100
AcDbEntity
  8
SIZE
  6
CONTINUOUS
 62
    30
100
AcDbText
 10
711.406052
 20
-44.582128
 30
0.0
 40
55.0
  1
73
 50
90.0
 41
0.9
 72
     1
 11
711.406052
 21
-4.510699
 31
0.0
100
AcDbText
  0
LINE
  5
5E9
100
AcDbEntity
  8
SIZE
  6
CONTINUOUS
 62
    30
100
AcDbLine
 10
726.406052
 20
-59.582127
 30
0.0
 11
726.406052
 21
68.999496
 31
0.0
  0
TEXT
  5
5EA
100
AcDbEntity
  8
SIZE
  6
CONTINUOUS
 62
    30
100
AcDbText
 10
601.760526
 20
-57.400604
 30
0.0
 40
55.0
  1
45
 50
90.0
 41
0.9
 72
     1
 11
601.760526
 21
-17.329175
 31
0.0
100
AcDbText
  0
LINE
  5
5EB
100
AcDbEntity
  8
SIZE
  6
CONTINUOUS
 62
    30
100
AcDbLine
 10
616.760526
 20
-72.400604
 30
0.0
 11
616.760526
 21
82.999496
 31
0.0
  0
LINE
  5
5EC
100
AcDbEntity
  8
OUTLINE
  6
CONTINUOUS
 62
     3
100
AcDbLine
 10
355.0
 20
0.0
 30
0.0
 11
355.0
 21
-3.0
 31
0.0
  0
LINE
  5
5ED
100
AcDbEntity
  8
SIZE
  6
CONTINUOUS
 62
    30
100
AcDbLine
 10
-287.0
 20
119.059445
 30
0.0
 11
-287.0
 21
-424.722162
 31
0.0
  0
LINE
  5
5EE
100
AcDbEntity
  8
SIZE
  6
CONTINUOUS
 62
    30
100
AcDbLine
 10
-287.0
 20
119.059445
 30
0.0
 11
-287.0
 21
-424.722162
 31
0.0
  0
LINE
  5
5EF
100
AcDbEntity
  8
SIZE
  6
CONTINUOUS
 62
    30
100
AcDbLine
 10
287.0
 20
119.059445
 30
0.0
 11
287.0
 21
-424.722162
 31
0.0
  0
LINE
  5
5F0
100
AcDbEntity
  8
SIZE
  6
CONTINUOUS
 62
    30
100
AcDbLine
 10
287.0
 20
119.059445
 30
0.0
 11
287.0
 21
-424.722162
 31
0.0
  0
CIRCLE
  5
5F1
100
AcDbEntity
  8
SIZE
  6
CONTINUOUS
 62
    30
100
AcDbCircle
 10
502.313518
 20
0.0
 30
0.0
 40
5.0
  0
LINE
  5
5F2
100
AcDbEntity
  8
ARRANGE
  6
CONTINUOUS
 62
     1
100
AcDbLine
 10
-42.469199
 20
42.157106
 30
0.0
 11
42.469199
 21
-42.157106
 31
0.0
  0
LINE
  5
5F3
100
AcDbEntity
  8
ARRANGE
  6
CONTINUOUS
 62
     1
100
AcDbLine
 10
-42.531748
 20
-42.094
 30
0.0
 11
42.531748
 21
42.094
 31
0.0
  0
LINE
  5
5F4
100
AcDbEntity
  8
DETAIL
  6
CONTINUOUS
 62
     5
100
AcDbLine
 10
355.0
 20
0.0
 30
0.0
 11
355.0
 21
-3.0
 31
0.0
  0
LINE
  5
5F5
100
AcDbEntity
  8
OUTLINE
  6
CONTINUOUS
 62
     3
100
AcDbLine
 10
-250.0
 20
-20.0
 30
0.0
 11
250.0
 21
-20.0
 31
0.0
  0
TEXT
  5
5F6
100
AcDbEntity
  8
SIZE
  6
CONTINUOUS
 62
    30
100
AcDbText
 10
-258.814286
 20
-375.3174
 30
0.0
 40
55.0
  1
574(吊りﾎﾞﾙﾄﾋﾟｯﾁ)
 41
0.9
 72
     1
 11
0.0
 21
-375.3174
 31
0.0
100
AcDbText
  0
LINE
  5
5F7
100
AcDbEntity
  8
SIZE
  6
CONTINUOUS
 62
    30
100
AcDbLine
 10
277.0
 20
-394.722162
 30
0.0
 11
-277.0
 21
-394.722162
 31
0.0
  0
TEXT
  5
5F8
100
AcDbEntity
  8
SIZE
  6
CONTINUOUS
 62
    30
100
AcDbText
 10
-273.664286
 20
-236.627698
 30
0.0
 40
55.0
  1
670(天井開口寸法)
 41
0.9
 72
     1
 11
0.0
 21
-236.627698
 31
0.0
100
AcDbText
  0
LINE
  5
5F9
100
AcDbEntity
  8
SIZE
  6
CONTINUOUS
 62
    30
100
AcDbLine
 10
325.0
 20
-256.03246
 30
0.0
 11
-325.0
 21
-256.03246
 31
0.0
  0
LINE
  5
5FA
100
AcDbEntity
  8
DETAIL
  6
CONTINUOUS
 62
     5
100
AcDbLine
 10
-250.0
 20
-20.0
 30
0.0
 11
250.0
 21
-20.0
 31
0.0
  0
LINE
  5
5FB
100
AcDbEntity
  8
SIZE
  6
CONTINUOUS
 62
    30
100
AcDbLine
 10
-292.0
 20
-394.722162
 30
0.0
 11
-297.0
 21
-394.722162
 31
0.0
  0
CIRCLE
  5
5FC
100
AcDbEntity
  8
SIZE
  6
CONTINUOUS
 62
    30
100
AcDbCircle
 10
-287.0
 20
-394.722162
 30
0.0
 40
5.0
  0
POINT
  5
5FD
100
AcDbEntity
  8
DEFPOINTS
  6
CONTINUOUS
 62
     7
100
AcDbPoint
 10
-287.0
 20
-394.722162
 30
0.0
  0
LINE
  5
5FE
100
AcDbEntity
  8
SIZE
  6
CONTINUOUS
 62
    30
100
AcDbLine
 10
-282.0
 20
-394.722162
 30
0.0
 11
-277.0
 21
-394.722162
 31
0.0
  0
CIRCLE
  5
5FF
100
AcDbEntity
  8
SIZE
  6
CONTINUOUS
 62
    30
100
AcDbCircle
 10
-287.0
 20
-394.722162
 30
0.0
 40
5.0
  0
TEXT
  5
600
100
AcDbEntity
  8
SIZE
  6
CONTINUOUS
 62
    30
100
AcDbText
 10
-58.928571
 20
-540.843538
 30
0.0
 40
55.0
  1
710
 41
0.9
 72
     1
 11
0.0
 21
-540.843538
 31
0.0
100
AcDbText
  0
LINE
  5
601
100
AcDbEntity
  8
SIZE
  6
CONTINUOUS
 62
    30
100
AcDbLine
 10
-325.0
 20
-256.03246
 30
0.0
 11
-315.0
 21
-256.03246
 31
0.0
  0
LINE
  5
602
100
AcDbEntity
  8
NOTE
  6
CONTINUOUS
 62
     4
100
AcDbLine
 10
-216.888711
 20
-81.592606
 30
0.0
 11
-201.602293
 21
-48.810775
 31
0.0
  0
ARC
  5
603
100
AcDbEntity
  8
OUTLINE
  6
CONTINUOUS
 62
     3
100
AcDbCircle
 10
-250.0
 20
312.764706
 30
0.0
 40
332.764706
100
AcDbArc
 50
268.260704
 51
270.0
  0
LINE
  5
604
100
AcDbEntity
  8
OUTLINE
  6
CONTINUOUS
 62
     3
100
AcDbLine
 10
-292.976214
 20
-17.113024
 30
0.0
 11
-291.665669
 21
-17.280314
 31
0.0
  0
LINE
  5
605
100
AcDbEntity
  8
OUTLINE
  6
CONTINUOUS
 62
     3
100
AcDbLine
 10
-294.360747
 20
-16.931389
 30
0.0
 11
-292.976214
 21
-17.113024
 31
0.0
  0
LINE
  5
606
100
AcDbEntity
  8
OUTLINE
  6
CONTINUOUS
 62
     3
100
AcDbLine
 10
-295.801306
 20
-16.737027
 30
0.0
 11
-294.360747
 21
-16.931389
 31
0.0
  0
LINE
  5
607
100
AcDbEntity
  8
OUTLINE
  6
CONTINUOUS
 62
     3
100
AcDbLine
 10
-297.276241
 20
-16.532326
 30
0.0
 11
-295.801306
 21
-16.737027
 31
0.0
  0
LINE
  5
608
100
AcDbEntity
  8
OUTLINE
  6
CONTINUOUS
 62
     3
100
AcDbLine
 10
-298.764214
 20
-16.319952
 30
0.0
 11
-297.276241
 21
-16.532326
 31
0.0
  0
LINE
  5
609
100
AcDbEntity
  8
OUTLINE
  6
CONTINUOUS
 62
     3
100
AcDbLine
 10
-300.240591
 20
-16.103419
 30
0.0
 11
-298.764214
 21
-16.319952
 31
0.0
  0
LINE
  5
60A
100
AcDbEntity
  8
OUTLINE
  6
CONTINUOUS
 62
     3
100
AcDbLine
 10
-301.676732
 20
-15.887234
 30
0.0
 11
-300.240591
 21
-16.103419
 31
0.0
  0
LINE
  5
60B
100
AcDbEntity
  8
OUTLINE
  6
CONTINUOUS
 62
     3
100
AcDbLine
 10
-303.046017
 20
-15.676047
 30
0.0
 11
-301.676732
 21
-15.887234
 31
0.0
  0
LINE
  5
60C
100
AcDbEntity
  8
OUTLINE
  6
CONTINUOUS
 62
     3
100
AcDbLine
 10
-304.326432
 20
-15.474145
 30
0.0
 11
-303.046017
 21
-15.676047
 31
0.0
  0
LINE
  5
60D
100
AcDbEntity
  8
OUTLINE
  6
CONTINUOUS
 62
     3
100
AcDbLine
 10
-306.57724
 20
-15.109133
 30
0.0
 11
-304.326432
 21
-15.474145
 31
0.0
  0
LINE
  5
60E
100
AcDbEntity
  8
OUTLINE
  6
CONTINUOUS
 62
     3
100
AcDbLine
 10
-308.410746
 20
-14.802888
 30
0.0
 11
-306.57724
 21
-15.109133
 31
0.0
  0
LINE
  5
60F
100
AcDbEntity
  8
OUTLINE
  6
CONTINUOUS
 62
     3
100
AcDbLine
 10
-311.041892
 20
-14.35322
 30
0.0
 11
-308.410746
 21
-14.802888
 31
0.0
  0
LINE
  5
610
100
AcDbEntity
  8
OUTLINE
  6
CONTINUOUS
 62
     3
100
AcDbLine
 10
-274.358968
 20
-19.029982
 30
0.0
 11
-272.220383
 21
-19.184358
 31
0.0
  0
LINE
  5
611
100
AcDbEntity
  8
OUTLINE
  6
CONTINUOUS
 62
     3
100
AcDbLine
 10
-276.723653
 20
-18.843308
 30
0.0
 11
-274.358968
 21
-19.029982
 31
0.0
  0
LINE
  5
612
100
AcDbEntity
  8
OUTLINE
  6
CONTINUOUS
 62
     3
100
AcDbLine
 10
-279.360283
 20
-18.615482
 30
0.0
 11
-276.723653
 21
-18.843308
 31
0.0
  0
LINE
  5
613
100
AcDbEntity
  8
OUTLINE
  6
CONTINUOUS
 62
     3
100
AcDbLine
 10
-282.314528
 20
-18.33565
 30
0.0
 11
-279.360283
 21
-18.615482
 31
0.0
  0
LINE
  5
614
100
AcDbEntity
  8
OUTLINE
  6
CONTINUOUS
 62
     3
100
AcDbLine
 10
-285.63147
 20
-17.990607
 30
0.0
 11
-282.314528
 21
-18.33565
 31
0.0
  0
LINE
  5
615
100
AcDbEntity
  8
OUTLINE
  6
CONTINUOUS
 62
     3
100
AcDbLine
 10
-289.356165
 20
-17.56427
 30
0.0
 11
-285.63147
 21
-17.990607
 31
0.0
  0
LINE
  5
616
100
AcDbEntity
  8
OUTLINE
  6
CONTINUOUS
 62
     3
100
AcDbLine
 10
-291.665669
 20
-17.280314
 30
0.0
 11
-289.356165
 21
-17.56427
 31
0.0
  0
LINE
  5
617
100
AcDbEntity
  8
OUTLINE
  6
CONTINUOUS
 62
     3
100
AcDbLine
 10
-268.184604
 20
-19.440222
 30
0.0
 11
-266.492618
 21
-19.536586
 31
0.0
  0
LINE
  5
618
100
AcDbEntity
  8
OUTLINE
  6
CONTINUOUS
 62
     3
100
AcDbLine
 10
-269.767127
 20
-19.344575
 30
0.0
 11
-268.184604
 21
-19.440222
 31
0.0
  0
LINE
  5
619
100
AcDbEntity
  8
OUTLINE
  6
CONTINUOUS
 62
     3
100
AcDbLine
 10
-272.220383
 20
-19.184358
 30
0.0
 11
-269.767127
 21
-19.344575
 31
0.0
  0
LINE
  5
61A
100
AcDbEntity
  8
OUTLINE
  6
CONTINUOUS
 62
     3
100
AcDbLine
 10
-263.001831
 20
-19.714474
 30
0.0
 11
-260.30211
 21
-19.834005
 31
0.0
  0
LINE
  5
61B
100
AcDbEntity
  8
OUTLINE
  6
CONTINUOUS
 62
     3
100
AcDbLine
 10
-264.862981
 20
-19.623274
 30
0.0
 11
-263.001831
 21
-19.714474
 31
0.0
  0
LINE
  5
61C
100
AcDbEntity
  8
OUTLINE
  6
CONTINUOUS
 62
     3
100
AcDbLine
 10
-260.121014
 20
-19.843867
 30
0.0
 11
-260.1
 21
-19.846471
 31
0.0
  0
LINE
  5
61D
100
AcDbEntity
  8
OUTLINE
  6
CONTINUOUS
 62
     3
100
AcDbLine
 10
-260.18768
 20
-19.839742
 30
0.0
 11
-260.121014
 21
-19.843867
 31
0.0
  0
LINE
  5
61E
100
AcDbEntity
  8
OUTLINE
  6
CONTINUOUS
 62
     3
100
AcDbLine
 10
-260.30211
 20
-19.834005
 30
0.0
 11
-260.18768
 21
-19.839742
 31
0.0
  0
LINE
  5
61F
100
AcDbEntity
  8
OUTLINE
  6
CONTINUOUS
 62
     3
100
AcDbLine
 10
-266.492618
 20
-19.536586
 30
0.0
 11
-264.862981
 21
-19.623274
 31
0.0
  0
ARC
  5
622
100
AcDbEntity
  8
DETAIL
  6
CONTINUOUS
 62
     5
100
AcDbCircle
 10
-250.0
 20
312.764706
 30
0.0
 40
332.764706
100
AcDbArc
 50
268.260704
 51
270.0
  0
LINE
  5
623
100
AcDbEntity
  8
DETAIL
  6
CONTINUOUS
 62
     5
100
AcDbLine
 10
-292.976214
 20
-17.113024
 30
0.0
 11
-291.665669
 21
-17.280314
 31
0.0
  0
LINE
  5
624
100
AcDbEntity
  8
DETAIL
  6
CONTINUOUS
 62
     5
100
AcDbLine
 10
-294.360747
 20
-16.931389
 30
0.0
 11
-292.976214
 21
-17.113024
 31
0.0
  0
LINE
  5
625
100
AcDbEntity
  8
DETAIL
  6
CONTINUOUS
 62
     5
100
AcDbLine
 10
-295.801306
 20
-16.737027
 30
0.0
 11
-294.360747
 21
-16.931389
 31
0.0
  0
LINE
  5
626
100
AcDbEntity
  8
DETAIL
  6
CONTINUOUS
 62
     5
100
AcDbLine
 10
-297.276241
 20
-16.532326
 30
0.0
 11
-295.801306
 21
-16.737027
 31
0.0
  0
LINE
  5
627
100
AcDbEntity
  8
DETAIL
  6
CONTINUOUS
 62
     5
100
AcDbLine
 10
-298.764214
 20
-16.319952
 30
0.0
 11
-297.276241
 21
-16.532326
 31
0.0
  0
LINE
  5
628
100
AcDbEntity
  8
DETAIL
  6
CONTINUOUS
 62
     5
100
AcDbLine
 10
-300.240591
 20
-16.103419
 30
0.0
 11
-298.764214
 21
-16.319952
 31
0.0
  0
LINE
  5
629
100
AcDbEntity
  8
DETAIL
  6
CONTINUOUS
 62
     5
100
AcDbLine
 10
-301.676732
 20
-15.887234
 30
0.0
 11
-300.240591
 21
-16.103419
 31
0.0
  0
LINE
  5
62A
100
AcDbEntity
  8
DETAIL
  6
CONTINUOUS
 62
     5
100
AcDbLine
 10
-303.046017
 20
-15.676047
 30
0.0
 11
-301.676732
 21
-15.887234
 31
0.0
  0
LINE
  5
62B
100
AcDbEntity
  8
DETAIL
  6
CONTINUOUS
 62
     5
100
AcDbLine
 10
-304.326432
 20
-15.474145
 30
0.0
 11
-303.046017
 21
-15.676047
 31
0.0
  0
LINE
  5
62C
100
AcDbEntity
  8
DETAIL
  6
CONTINUOUS
 62
     5
100
AcDbLine
 10
-306.57724
 20
-15.109133
 30
0.0
 11
-304.326432
 21
-15.474145
 31
0.0
  0
LINE
  5
62D
100
AcDbEntity
  8
DETAIL
  6
CONTINUOUS
 62
     5
100
AcDbLine
 10
-308.410746
 20
-14.802888
 30
0.0
 11
-306.57724
 21
-15.109133
 31
0.0
  0
LINE
  5
62E
100
AcDbEntity
  8
DETAIL
  6
CONTINUOUS
 62
     5
100
AcDbLine
 10
-311.041892
 20
-14.35322
 30
0.0
 11
-308.410746
 21
-14.802888
 31
0.0
  0
LINE
  5
62F
100
AcDbEntity
  8
DETAIL
  6
CONTINUOUS
 62
     5
100
AcDbLine
 10
-274.358968
 20
-19.029982
 30
0.0
 11
-272.220383
 21
-19.184358
 31
0.0
  0
LINE
  5
630
100
AcDbEntity
  8
DETAIL
  6
CONTINUOUS
 62
     5
100
AcDbLine
 10
-276.723653
 20
-18.843308
 30
0.0
 11
-274.358968
 21
-19.029982
 31
0.0
  0
LINE
  5
631
100
AcDbEntity
  8
DETAIL
  6
CONTINUOUS
 62
     5
100
AcDbLine
 10
-279.360283
 20
-18.615482
 30
0.0
 11
-276.723653
 21
-18.843308
 31
0.0
  0
LINE
  5
632
100
AcDbEntity
  8
DETAIL
  6
CONTINUOUS
 62
     5
100
AcDbLine
 10
-282.314528
 20
-18.33565
 30
0.0
 11
-279.360283
 21
-18.615482
 31
0.0
  0
LINE
  5
633
100
AcDbEntity
  8
DETAIL
  6
CONTINUOUS
 62
     5
100
AcDbLine
 10
-285.63147
 20
-17.990607
 30
0.0
 11
-282.314528
 21
-18.33565
 31
0.0
  0
LINE
  5
634
100
AcDbEntity
  8
DETAIL
  6
CONTINUOUS
 62
     5
100
AcDbLine
 10
-289.356165
 20
-17.56427
 30
0.0
 11
-285.63147
 21
-17.990607
 31
0.0
  0
LINE
  5
635
100
AcDbEntity
  8
DETAIL
  6
CONTINUOUS
 62
     5
100
AcDbLine
 10
-291.665669
 20
-17.280314
 30
0.0
 11
-289.356165
 21
-17.56427
 31
0.0
  0
LINE
  5
636
100
AcDbEntity
  8
DETAIL
  6
CONTINUOUS
 62
     5
100
AcDbLine
 10
-268.184604
 20
-19.440222
 30
0.0
 11
-266.492618
 21
-19.536586
 31
0.0
  0
LINE
  5
637
100
AcDbEntity
  8
DETAIL
  6
CONTINUOUS
 62
     5
100
AcDbLine
 10
-269.767127
 20
-19.344575
 30
0.0
 11
-268.184604
 21
-19.440222
 31
0.0
  0
LINE
  5
638
100
AcDbEntity
  8
DETAIL
  6
CONTINUOUS
 62
     5
100
AcDbLine
 10
-272.220383
 20
-19.184358
 30
0.0
 11
-269.767127
 21
-19.344575
 31
0.0
  0
LINE
  5
639
100
AcDbEntity
  8
DETAIL
  6
CONTINUOUS
 62
     5
100
AcDbLine
 10
-263.001831
 20
-19.714474
 30
0.0
 11
-260.30211
 21
-19.834005
 31
0.0
  0
LINE
  5
63A
100
AcDbEntity
  8
DETAIL
  6
CONTINUOUS
 62
     5
100
AcDbLine
 10
-264.862981
 20
-19.623274
 30
0.0
 11
-263.001831
 21
-19.714474
 31
0.0
  0
LINE
  5
63B
100
AcDbEntity
  8
DETAIL
  6
CONTINUOUS
 62
     5
100
AcDbLine
 10
-260.121014
 20
-19.843867
 30
0.0
 11
-260.1
 21
-19.846471
 31
0.0
  0
LINE
  5
63C
100
AcDbEntity
  8
DETAIL
  6
CONTINUOUS
 62
     5
100
AcDbLine
 10
-260.18768
 20
-19.839742
 30
0.0
 11
-260.121014
 21
-19.843867
 31
0.0
  0
LINE
  5
63D
100
AcDbEntity
  8
DETAIL
  6
CONTINUOUS
 62
     5
100
AcDbLine
 10
-260.30211
 20
-19.834005
 30
0.0
 11
-260.18768
 21
-19.839742
 31
0.0
  0
LINE
  5
63E
100
AcDbEntity
  8
DETAIL
  6
CONTINUOUS
 62
     5
100
AcDbLine
 10
-266.492618
 20
-19.536586
 30
0.0
 11
-264.862981
 21
-19.623274
 31
0.0
  0
LINE
  5
64A
100
AcDbEntity
  8
NOTE
  6
CONTINUOUS
 62
     4
100
AcDbLine
 10
-186.315874
 20
-81.592606
 30
0.0
 11
-201.602293
 21
-48.810775
 31
0.0
  0
LINE
  5
64B
100
AcDbEntity
  8
NOTE
  6
CONTINUOUS
 62
     4
100
AcDbLine
 10
-201.602293
 20
-148.564146
 30
0.0
 11
-201.602293
 21
-48.810775
 31
0.0
  0
POINT
  5
64C
100
AcDbEntity
  8
DEFPOINTS
  6
CONTINUOUS
 62
     7
100
AcDbPoint
 10
0.0
 20
-20.0
 30
0.0
  0
LINE
  5
64D
100
AcDbEntity
  8
SIZE
  6
CONTINUOUS
 62
    30
100
AcDbLine
 10
355.0
 20
-23.0
 30
0.0
 11
355.0
 21
-585.843538
 31
0.0
  0
LINE
  5
64E
100
AcDbEntity
  8
SIZE
  6
CONTINUOUS
 62
    30
100
AcDbLine
 10
355.0
 20
-23.0
 30
0.0
 11
355.0
 21
-424.722162
 31
0.0
  0
LINE
  5
64F
100
AcDbEntity
  8
SIZE
  6
CONTINUOUS
 62
    30
100
AcDbLine
 10
297.0
 20
-394.722162
 30
0.0
 11
345.0
 21
-394.722162
 31
0.0
  0
LINE
  5
650
100
AcDbEntity
  8
SIZE
  6
CONTINUOUS
 62
    30
100
AcDbLine
 10
282.0
 20
-394.722162
 30
0.0
 11
277.0
 21
-394.722162
 31
0.0
  0
CIRCLE
  5
651
100
AcDbEntity
  8
SIZE
  6
CONTINUOUS
 62
    30
100
AcDbCircle
 10
287.0
 20
-394.722162
 30
0.0
 40
5.0
  0
POINT
  5
652
100
AcDbEntity
  8
DEFPOINTS
  6
CONTINUOUS
 62
     7
100
AcDbPoint
 10
287.0
 20
-394.722162
 30
0.0
  0
LINE
  5
653
100
AcDbEntity
  8
SIZE
  6
CONTINUOUS
 62
    30
100
AcDbLine
 10
292.0
 20
-394.722162
 30
0.0
 11
297.0
 21
-394.722162
 31
0.0
  0
CIRCLE
  5
654
100
AcDbEntity
  8
SIZE
  6
CONTINUOUS
 62
    30
100
AcDbCircle
 10
287.0
 20
-394.722162
 30
0.0
 40
5.0
  0
LINE
  5
655
100
AcDbEntity
  8
SIZE
  6
CONTINUOUS
 62
    30
100
AcDbLine
 10
350.0
 20
-555.843538
 30
0.0
 11
345.0
 21
-555.843538
 31
0.0
  0
CIRCLE
  5
656
100
AcDbEntity
  8
SIZE
  6
CONTINUOUS
 62
    30
100
AcDbCircle
 10
355.0
 20
-555.843538
 30
0.0
 40
5.0
  0
TEXT
  5
657
100
AcDbEntity
  8
SIZE
  6
CONTINUOUS
 62
    30
100
AcDbText
 10
380.0
 20
-379.722162
 30
0.0
 40
55.0
  1
68
 41
0.9
 72
     1
 11
420.071429
 21
-379.722162
 31
0.0
100
AcDbText
  0
LINE
  5
658
100
AcDbEntity
  8
SIZE
  6
CONTINUOUS
 62
    30
100
AcDbLine
 10
355.0
 20
-394.722162
 30
0.0
 11
475.142857
 21
-394.722162
 31
0.0
  0
LINE
  5
659
100
AcDbEntity
  8
SIZE
  6
CONTINUOUS
 62
    30
100
AcDbLine
 10
350.0
 20
-394.722162
 30
0.0
 11
345.0
 21
-394.722162
 31
0.0
  0
CIRCLE
  5
65A
100
AcDbEntity
  8
SIZE
  6
CONTINUOUS
 62
    30
100
AcDbCircle
 10
355.0
 20
-394.722162
 30
0.0
 40
5.0
  0
ARC
  5
65B
100
AcDbEntity
  8
OUTLINE
  6
CONTINUOUS
 62
     3
100
AcDbCircle
 10
250.0
 20
312.764706
 30
0.0
 40
332.764706
100
AcDbArc
 50
280.570112
 51
288.393312
  0
LINE
  5
65C
100
AcDbEntity
  8
SIZE
  6
CONTINUOUS
 62
    30
100
AcDbLine
 10
335.0
 20
-256.03246
 30
0.0
 11
355.0
 21
-256.03246
 31
0.0
  0
LINE
  5
65D
100
AcDbEntity
  8
NOTE
  6
CONTINUOUS
 62
     4
100
AcDbLine
 10
348.014719
 20
-125.267388
 30
0.0
 11
322.09227
 21
-107.116294
 31
0.0
  0
LINE
  5
65E
100
AcDbEntity
  8
NOTE
  6
CONTINUOUS
 62
     4
100
AcDbLine
 10
348.014719
 20
-125.267388
 30
0.0
 11
303.872473
 21
-48.810775
 31
0.0
  0
ARC
  5
65F
100
AcDbEntity
  8
DETAIL
  6
CONTINUOUS
 62
     5
100
AcDbCircle
 10
250.0
 20
312.764706
 30
0.0
 40
332.764706
100
AcDbArc
 50
280.570112
 51
288.393312
  0
LINE
  5
661
100
AcDbEntity
  8
SIZE
  6
CONTINUOUS
 62
    30
100
AcDbLine
 10
335.0
 20
-20.0
 30
0.0
 11
335.0
 21
-286.03246
 31
0.0
  0
LINE
  5
662
100
AcDbEntity
  8
SIZE
  6
CONTINUOUS
 62
    30
100
AcDbLine
 10
330.0
 20
-256.03246
 30
0.0
 11
325.0
 21
-256.03246
 31
0.0
  0
CIRCLE
  5
663
100
AcDbEntity
  8
SIZE
  6
CONTINUOUS
 62
    30
100
AcDbCircle
 10
335.0
 20
-256.03246
 30
0.0
 40
5.0
  0
POINT
  5
664
100
AcDbEntity
  8
DEFPOINTS
  6
CONTINUOUS
 62
     7
100
AcDbPoint
 10
335.0
 20
-256.03246
 30
0.0
  0
LINE
  5
665
100
AcDbEntity
  8
SIZE
  6
CONTINUOUS
 62
    30
100
AcDbLine
 10
330.0
 20
-256.03246
 30
0.0
 11
325.0
 21
-256.03246
 31
0.0
  0
CIRCLE
  5
666
100
AcDbEntity
  8
SIZE
  6
CONTINUOUS
 62
    30
100
AcDbCircle
 10
335.0
 20
-256.03246
 30
0.0
 40
5.0
  0
LINE
  5
667
100
AcDbEntity
  8
SIZE
  6
CONTINUOUS
 62
    30
100
AcDbLine
 10
325.0
 20
-256.03246
 30
0.0
 11
315.0
 21
-256.03246
 31
0.0
  0
LINE
  5
673
100
AcDbEntity
  8
NOTE
  6
CONTINUOUS
 62
     4
100
AcDbLine
 10
230.288555
 20
-81.592606
 30
0.0
 11
215.002136
 21
-48.810775
 31
0.0
  0
LINE
  5
674
100
AcDbEntity
  8
NOTE
  6
CONTINUOUS
 62
     4
100
AcDbLine
 10
199.715717
 20
-81.592606
 30
0.0
 11
215.002136
 21
-48.810775
 31
0.0
  0
LINE
  5
675
100
AcDbEntity
  8
NOTE
  6
CONTINUOUS
 62
     4
100
AcDbLine
 10
215.002136
 20
-148.564146
 30
0.0
 11
215.002136
 21
-48.810775
 31
0.0
  0
ARC
  5
676
100
AcDbEntity
  8
OUTLINE
  6
CONTINUOUS
 62
     3
100
AcDbCircle
 10
250.0
 20
312.764706
 30
0.0
 40
332.764706
100
AcDbArc
 50
270.0
 51
271.739296
  0
LINE
  5
677
100
AcDbEntity
  8
OUTLINE
  6
CONTINUOUS
 62
     3
100
AcDbLine
 10
309.179697
 20
-14.672376
 30
0.0
 11
306.57724
 21
-15.109133
 31
0.0
  0
LINE
  5
678
100
AcDbEntity
  8
OUTLINE
  6
CONTINUOUS
 62
     3
100
AcDbLine
 10
306.57724
 20
-15.109133
 30
0.0
 11
304.326432
 21
-15.474145
 31
0.0
  0
LINE
  5
679
100
AcDbEntity
  8
OUTLINE
  6
CONTINUOUS
 62
     3
100
AcDbLine
 10
291.665669
 20
-17.280314
 30
0.0
 11
289.356165
 21
-17.56427
 31
0.0
  0
LINE
  5
67A
100
AcDbEntity
  8
OUTLINE
  6
CONTINUOUS
 62
     3
100
AcDbLine
 10
292.976214
 20
-17.113024
 30
0.0
 11
291.665669
 21
-17.280314
 31
0.0
  0
LINE
  5
67B
100
AcDbEntity
  8
OUTLINE
  6
CONTINUOUS
 62
     3
100
AcDbLine
 10
294.360747
 20
-16.931389
 30
0.0
 11
292.976214
 21
-17.113024
 31
0.0
  0
LINE
  5
67C
100
AcDbEntity
  8
OUTLINE
  6
CONTINUOUS
 62
     3
100
AcDbLine
 10
295.801306
 20
-16.737027
 30
0.0
 11
294.360747
 21
-16.931389
 31
0.0
  0
LINE
  5
67D
100
AcDbEntity
  8
OUTLINE
  6
CONTINUOUS
 62
     3
100
AcDbLine
 10
297.276241
 20
-16.532326
 30
0.0
 11
295.801306
 21
-16.737027
 31
0.0
  0
LINE
  5
67E
100
AcDbEntity
  8
OUTLINE
  6
CONTINUOUS
 62
     3
100
AcDbLine
 10
298.764214
 20
-16.319952
 30
0.0
 11
297.276241
 21
-16.532326
 31
0.0
  0
LINE
  5
67F
100
AcDbEntity
  8
OUTLINE
  6
CONTINUOUS
 62
     3
100
AcDbLine
 10
300.240591
 20
-16.103419
 30
0.0
 11
298.764214
 21
-16.319952
 31
0.0
  0
LINE
  5
680
100
AcDbEntity
  8
OUTLINE
  6
CONTINUOUS
 62
     3
100
AcDbLine
 10
301.676732
 20
-15.887234
 30
0.0
 11
300.240591
 21
-16.103419
 31
0.0
  0
LINE
  5
681
100
AcDbEntity
  8
OUTLINE
  6
CONTINUOUS
 62
     3
100
AcDbLine
 10
303.046017
 20
-15.676047
 30
0.0
 11
301.676732
 21
-15.887234
 31
0.0
  0
LINE
  5
682
100
AcDbEntity
  8
OUTLINE
  6
CONTINUOUS
 62
     3
100
AcDbLine
 10
304.326432
 20
-15.474145
 30
0.0
 11
303.046017
 21
-15.676047
 31
0.0
  0
LINE
  5
683
100
AcDbEntity
  8
OUTLINE
  6
CONTINUOUS
 62
     3
100
AcDbLine
 10
272.220383
 20
-19.184358
 30
0.0
 11
270.260818
 21
-19.313696
 31
0.0
  0
LINE
  5
684
100
AcDbEntity
  8
OUTLINE
  6
CONTINUOUS
 62
     3
100
AcDbLine
 10
274.358968
 20
-19.029982
 30
0.0
 11
272.220383
 21
-19.184358
 31
0.0
  0
LINE
  5
685
100
AcDbEntity
  8
OUTLINE
  6
CONTINUOUS
 62
     3
100
AcDbLine
 10
276.723653
 20
-18.843308
 30
0.0
 11
274.358968
 21
-19.029982
 31
0.0
  0
LINE
  5
686
100
AcDbEntity
  8
OUTLINE
  6
CONTINUOUS
 62
     3
100
AcDbLine
 10
279.360283
 20
-18.615482
 30
0.0
 11
276.723653
 21
-18.843308
 31
0.0
  0
LINE
  5
687
100
AcDbEntity
  8
OUTLINE
  6
CONTINUOUS
 62
     3
100
AcDbLine
 10
282.314528
 20
-18.33565
 30
0.0
 11
279.360283
 21
-18.615482
 31
0.0
  0
LINE
  5
688
100
AcDbEntity
  8
OUTLINE
  6
CONTINUOUS
 62
     3
100
AcDbLine
 10
285.63147
 20
-17.990607
 30
0.0
 11
282.314528
 21
-18.33565
 31
0.0
  0
LINE
  5
689
100
AcDbEntity
  8
OUTLINE
  6
CONTINUOUS
 62
     3
100
AcDbLine
 10
289.356165
 20
-17.56427
 30
0.0
 11
285.63147
 21
-17.990607
 31
0.0
  0
LINE
  5
68A
100
AcDbEntity
  8
OUTLINE
  6
CONTINUOUS
 62
     3
100
AcDbLine
 10
270.260818
 20
-19.313696
 30
0.0
 11
268.728225
 21
-19.40795
 31
0.0
  0
LINE
  5
68B
100
AcDbEntity
  8
OUTLINE
  6
CONTINUOUS
 62
     3
100
AcDbLine
 10
268.728225
 20
-19.40795
 30
0.0
 11
266.492618
 21
-19.536586
 31
0.0
  0
LINE
  5
68C
100
AcDbEntity
  8
OUTLINE
  6
CONTINUOUS
 62
     3
100
AcDbLine
 10
266.492618
 20
-19.536586
 30
0.0
 11
264.862981
 21
-19.623274
 31
0.0
  0
LINE
  5
68D
100
AcDbEntity
  8
OUTLINE
  6
CONTINUOUS
 62
     3
100
AcDbLine
 10
264.862981
 20
-19.623274
 30
0.0
 11
263.001831
 21
-19.714474
 31
0.0
  0
LINE
  5
68E
100
AcDbEntity
  8
OUTLINE
  6
CONTINUOUS
 62
     3
100
AcDbLine
 10
260.121014
 20
-19.843867
 30
0.0
 11
260.1
 21
-19.846471
 31
0.0
  0
LINE
  5
68F
100
AcDbEntity
  8
OUTLINE
  6
CONTINUOUS
 62
     3
100
AcDbLine
 10
260.18768
 20
-19.839742
 30
0.0
 11
260.121014
 21
-19.843867
 31
0.0
  0
LINE
  5
690
100
AcDbEntity
  8
OUTLINE
  6
CONTINUOUS
 62
     3
100
AcDbLine
 10
260.30211
 20
-19.834005
 30
0.0
 11
260.18768
 21
-19.839742
 31
0.0
  0
LINE
  5
691
100
AcDbEntity
  8
OUTLINE
  6
CONTINUOUS
 62
     3
100
AcDbLine
 10
263.001831
 20
-19.714474
 30
0.0
 11
260.30211
 21
-19.834005
 31
0.0
  0
ARC
  5
694
100
AcDbEntity
  8
DETAIL
  6
CONTINUOUS
 62
     5
100
AcDbCircle
 10
250.0
 20
312.764706
 30
0.0
 40
332.764706
100
AcDbArc
 50
270.0
 51
271.739296
  0
LINE
  5
695
100
AcDbEntity
  8
DETAIL
  6
CONTINUOUS
 62
     5
100
AcDbLine
 10
311.041892
 20
-14.35322
 30
0.0
 11
309.179697
 21
-14.672376
 31
0.0
  0
LINE
  5
696
100
AcDbEntity
  8
DETAIL
  6
CONTINUOUS
 62
     5
100
AcDbLine
 10
309.179697
 20
-14.672376
 30
0.0
 11
306.57724
 21
-15.109133
 31
0.0
  0
LINE
  5
697
100
AcDbEntity
  8
DETAIL
  6
CONTINUOUS
 62
     5
100
AcDbLine
 10
306.57724
 20
-15.109133
 30
0.0
 11
304.326432
 21
-15.474145
 31
0.0
  0
LINE
  5
698
100
AcDbEntity
  8
DETAIL
  6
CONTINUOUS
 62
     5
100
AcDbLine
 10
291.665669
 20
-17.280314
 30
0.0
 11
289.356165
 21
-17.56427
 31
0.0
  0
LINE
  5
699
100
AcDbEntity
  8
DETAIL
  6
CONTINUOUS
 62
     5
100
AcDbLine
 10
292.976214
 20
-17.113024
 30
0.0
 11
291.665669
 21
-17.280314
 31
0.0
  0
LINE
  5
69A
100
AcDbEntity
  8
DETAIL
  6
CONTINUOUS
 62
     5
100
AcDbLine
 10
294.360747
 20
-16.931389
 30
0.0
 11
292.976214
 21
-17.113024
 31
0.0
  0
LINE
  5
69B
100
AcDbEntity
  8
DETAIL
  6
CONTINUOUS
 62
     5
100
AcDbLine
 10
295.801306
 20
-16.737027
 30
0.0
 11
294.360747
 21
-16.931389
 31
0.0
  0
LINE
  5
69C
100
AcDbEntity
  8
DETAIL
  6
CONTINUOUS
 62
     5
100
AcDbLine
 10
297.276241
 20
-16.532326
 30
0.0
 11
295.801306
 21
-16.737027
 31
0.0
  0
LINE
  5
69D
100
AcDbEntity
  8
DETAIL
  6
CONTINUOUS
 62
     5
100
AcDbLine
 10
298.764214
 20
-16.319952
 30
0.0
 11
297.276241
 21
-16.532326
 31
0.0
  0
LINE
  5
69E
100
AcDbEntity
  8
DETAIL
  6
CONTINUOUS
 62
     5
100
AcDbLine
 10
300.240591
 20
-16.103419
 30
0.0
 11
298.764214
 21
-16.319952
 31
0.0
  0
LINE
  5
69F
100
AcDbEntity
  8
DETAIL
  6
CONTINUOUS
 62
     5
100
AcDbLine
 10
301.676732
 20
-15.887234
 30
0.0
 11
300.240591
 21
-16.103419
 31
0.0
  0
LINE
  5
6A0
100
AcDbEntity
  8
DETAIL
  6
CONTINUOUS
 62
     5
100
AcDbLine
 10
303.046017
 20
-15.676047
 30
0.0
 11
301.676732
 21
-15.887234
 31
0.0
  0
LINE
  5
6A1
100
AcDbEntity
  8
DETAIL
  6
CONTINUOUS
 62
     5
100
AcDbLine
 10
304.326432
 20
-15.474145
 30
0.0
 11
303.046017
 21
-15.676047
 31
0.0
  0
LINE
  5
6A2
100
AcDbEntity
  8
DETAIL
  6
CONTINUOUS
 62
     5
100
AcDbLine
 10
272.220383
 20
-19.184358
 30
0.0
 11
270.260818
 21
-19.313696
 31
0.0
  0
LINE
  5
6A3
100
AcDbEntity
  8
DETAIL
  6
CONTINUOUS
 62
     5
100
AcDbLine
 10
274.358968
 20
-19.029982
 30
0.0
 11
272.220383
 21
-19.184358
 31
0.0
  0
LINE
  5
6A4
100
AcDbEntity
  8
DETAIL
  6
CONTINUOUS
 62
     5
100
AcDbLine
 10
276.723653
 20
-18.843308
 30
0.0
 11
274.358968
 21
-19.029982
 31
0.0
  0
LINE
  5
6A5
100
AcDbEntity
  8
DETAIL
  6
CONTINUOUS
 62
     5
100
AcDbLine
 10
279.360283
 20
-18.615482
 30
0.0
 11
276.723653
 21
-18.843308
 31
0.0
  0
LINE
  5
6A6
100
AcDbEntity
  8
DETAIL
  6
CONTINUOUS
 62
     5
100
AcDbLine
 10
282.314528
 20
-18.33565
 30
0.0
 11
279.360283
 21
-18.615482
 31
0.0
  0
LINE
  5
6A7
100
AcDbEntity
  8
DETAIL
  6
CONTINUOUS
 62
     5
100
AcDbLine
 10
285.63147
 20
-17.990607
 30
0.0
 11
282.314528
 21
-18.33565
 31
0.0
  0
LINE
  5
6A8
100
AcDbEntity
  8
DETAIL
  6
CONTINUOUS
 62
     5
100
AcDbLine
 10
289.356165
 20
-17.56427
 30
0.0
 11
285.63147
 21
-17.990607
 31
0.0
  0
LINE
  5
6A9
100
AcDbEntity
  8
DETAIL
  6
CONTINUOUS
 62
     5
100
AcDbLine
 10
270.260818
 20
-19.313696
 30
0.0
 11
268.728225
 21
-19.40795
 31
0.0
  0
LINE
  5
6AA
100
AcDbEntity
  8
DETAIL
  6
CONTINUOUS
 62
     5
100
AcDbLine
 10
268.728225
 20
-19.40795
 30
0.0
 11
266.492618
 21
-19.536586
 31
0.0
  0
LINE
  5
6AB
100
AcDbEntity
  8
DETAIL
  6
CONTINUOUS
 62
     5
100
AcDbLine
 10
266.492618
 20
-19.536586
 30
0.0
 11
264.862981
 21
-19.623274
 31
0.0
  0
LINE
  5
6AC
100
AcDbEntity
  8
DETAIL
  6
CONTINUOUS
 62
     5
100
AcDbLine
 10
264.862981
 20
-19.623274
 30
0.0
 11
263.001831
 21
-19.714474
 31
0.0
  0
LINE
  5
6AD
100
AcDbEntity
  8
DETAIL
  6
CONTINUOUS
 62
     5
100
AcDbLine
 10
260.121014
 20
-19.843867
 30
0.0
 11
260.1
 21
-19.846471
 31
0.0
  0
LINE
  5
6AE
100
AcDbEntity
  8
DETAIL
  6
CONTINUOUS
 62
     5
100
AcDbLine
 10
260.18768
 20
-19.839742
 30
0.0
 11
260.121014
 21
-19.843867
 31
0.0
  0
LINE
  5
6AF
100
AcDbEntity
  8
DETAIL
  6
CONTINUOUS
 62
     5
100
AcDbLine
 10
260.30211
 20
-19.834005
 30
0.0
 11
260.18768
 21
-19.839742
 31
0.0
  0
LINE
  5
6B0
100
AcDbEntity
  8
DETAIL
  6
CONTINUOUS
 62
     5
100
AcDbLine
 10
263.001831
 20
-19.714474
 30
0.0
 11
260.30211
 21
-19.834005
 31
0.0
  0
LINE
  5
6B1
100
AcDbEntity
  8
SIZE
  6
CONTINUOUS
 62
    30
100
AcDbLine
 10
355.0
 20
-23.0
 30
0.0
 11
355.0
 21
-286.03246
 31
0.0
  0
TEXT
  5
6B2
100
AcDbEntity
  8
SIZE
  6
CONTINUOUS
 62
    30
100
AcDbText
 10
390.0
 20
-241.03246
 30
0.0
 40
55.0
  1
20
 41
0.9
 72
     1
 11
430.071429
 21
-241.03246
 31
0.0
100
AcDbText
  0
LINE
  5
6B3
100
AcDbEntity
  8
SIZE
  6
CONTINUOUS
 62
    30
100
AcDbLine
 10
365.0
 20
-256.03246
 30
0.0
 11
485.142857
 21
-256.03246
 31
0.0
  0
LINE
  5
6B4
100
AcDbEntity
  8
SIZE
  6
CONTINUOUS
 62
    30
100
AcDbLine
 10
360.0
 20
-256.03246
 30
0.0
 11
365.0
 21
-256.03246
 31
0.0
  0
CIRCLE
  5
6B5
100
AcDbEntity
  8
SIZE
  6
CONTINUOUS
 62
    30
100
AcDbCircle
 10
355.0
 20
-256.03246
 30
0.0
 40
5.0
  0
TEXT
  5
6B6
100
AcDbEntity
  8
SIZE
  6
CONTINUOUS
 62
    30
100
AcDbText
 10
487.313518
 20
-130.266142
 30
0.0
 40
55.0
  1
45
 50
90.0
 41
0.9
 72
     1
 11
487.313518
 21
-90.194713
 31
0.0
100
AcDbText
  0
POINT
  5
6B7
100
AcDbEntity
  8
DEFPOINTS
  6
CONTINUOUS
 62
     7
100
AcDbPoint
 10
355.0
 20
-3.0
 30
0.0
  0
POINT
  5
6B8
100
AcDbEntity
  8
DEFPOINTS
  6
CONTINUOUS
 62
     7
100
AcDbPoint
 10
355.0
 20
-3.0
 30
0.0
  0
POINT
  5
6B9
100
AcDbEntity
  8
DEFPOINTS
  6
CONTINUOUS
 62
     7
100
AcDbPoint
 10
355.0
 20
-3.0
 30
0.0
  0
LINE
  5
6BA
100
AcDbEntity
  8
NOTE
  6
CONTINUOUS
 62
     4
100
AcDbLine
 10
348.014719
 20
-125.267388
 30
0.0
 11
345.256634
 21
-93.742342
 31
0.0
  0
LINE
  5
6BB
100
AcDbEntity
  8
SIZE
  6
CONTINUOUS
 62
    30
100
AcDbLine
 10
502.313518
 20
-5.0
 30
0.0
 11
502.313518
 21
-10.0
 31
0.0
  0
LINE
  5
6BC
100
AcDbEntity
  8
SIZE
  6
CONTINUOUS
 62
    30
100
AcDbLine
 10
502.313518
 20
-10.0
 30
0.0
 11
502.313518
 21
-145.266142
 31
0.0
  0
LINE
  5
6BF
100
AcDbEntity
  8
NOTE
  6
CONTINUOUS
 62
     4
100
AcDbLine
 10
736.538137
 20
526.82629
 30
0.0
 11
389.821682
 21
526.82629
 31
0.0
  0
TEXT
  5
6C0
100
AcDbEntity
  8
NOTE
  6
CONTINUOUS
 62
     4
100
AcDbText
 10
424.074689
 20
546.696878
 30
0.0
 40
64.0
  1
4-%%C2.9
 41
0.9
100
AcDbText
  0
LINE
  5
6C1
100
AcDbEntity
  8
SIZE
  6
CONTINUOUS
 62
    30
100
AcDbLine
 10
126.45
 20
68.999496
 30
0.0
 11
756.406052
 21
68.999496
 31
0.0
  0
LINE
  5
6C2
100
AcDbEntity
  8
SIZE
  6
CONTINUOUS
 62
    30
100
AcDbLine
 10
126.45
 20
141.999496
 30
0.0
 11
756.406052
 21
141.999496
 31
0.0
  0
LINE
  5
6C3
100
AcDbEntity
  8
SIZE
  6
CONTINUOUS
 62
    30
100
AcDbLine
 10
126.45
 20
141.999496
 30
0.0
 11
756.406052
 21
141.999496
 31
0.0
  0
LINE
  5
6C4
100
AcDbEntity
  8
SIZE
  6
CONTINUOUS
 62
    30
100
AcDbLine
 10
337.0
 20
343.999496
 30
0.0
 11
756.406052
 21
343.999496
 31
0.0
  0
LINE
  5
6C5
100
AcDbEntity
  8
SIZE
  6
CONTINUOUS
 62
    30
100
AcDbLine
 10
140.0
 20
82.999496
 30
0.0
 11
646.760526
 21
82.999496
 31
0.0
  0
LINE
  5
6C6
100
AcDbEntity
  8
SIZE
  6
CONTINUOUS
 62
    30
100
AcDbLine
 10
140.0
 20
127.999496
 30
0.0
 11
646.760526
 21
127.999496
 31
0.0
  0
TEXT
  5
6C7
100
AcDbEntity
  8
SIZE
  6
CONTINUOUS
 62
    30
100
AcDbText
 10
601.760526
 20
178.249496
 30
0.0
 40
55.0
  1
216
 50
90.0
 41
0.9
 72
     1
 11
601.760526
 21
235.999496
 31
0.0
100
AcDbText
  0
LINE
  5
6C8
100
AcDbEntity
  8
SIZE
  6
CONTINUOUS
 62
    30
100
AcDbLine
 10
140.0
 20
127.999496
 30
0.0
 11
646.760526
 21
127.999496
 31
0.0
  0
LINE
  5
6C9
100
AcDbEntity
  8
SIZE
  6
CONTINUOUS
 62
    30
100
AcDbLine
 10
337.0
 20
343.999496
 30
0.0
 11
646.760526
 21
343.999496
 31
0.0
  0
LINE
  5
6CA
100
AcDbEntity
  8
SIZE
  6
CONTINUOUS
 62
    30
100
AcDbLine
 10
-120.0
 20
147.999496
 30
0.0
 11
-120.0
 21
740.509945
 31
0.0
  0
LINE
  5
6CC
100
AcDbEntity
  8
SIZE
  6
CONTINUOUS
 62
    30
100
AcDbLine
 10
120.0
 20
147.999496
 30
0.0
 11
120.0
 21
740.509945
 31
0.0
  0
LINE
  5
6CD
100
AcDbEntity
  8
SIZE
  6
CONTINUOUS
 62
    30
100
AcDbLine
 10
317.0
 20
363.999496
 30
0.0
 11
317.0
 21
740.509945
 31
0.0
  0
LINE
  5
6CE
100
AcDbEntity
  8
SIZE
  6
CONTINUOUS
 62
    30
100
AcDbLine
 10
-95.0
 20
173.449496
 30
0.0
 11
-95.0
 21
634.885842
 31
0.0
  0
LINE
  5
6CF
100
AcDbEntity
  8
SIZE
  6
CONTINUOUS
 62
    30
100
AcDbLine
 10
95.0
 20
173.449496
 30
0.0
 11
95.0
 21
634.885842
 31
0.0
  0
LINE
  5
6D0
100
AcDbEntity
  8
SIZE
  6
CONTINUOUS
 62
    30
100
AcDbLine
 10
95.0
 20
173.449496
 30
0.0
 11
95.0
 21
634.885842
 31
0.0
  0
LINE
  5
6D1
100
AcDbEntity
  8
SIZE
  6
CONTINUOUS
 62
    30
100
AcDbLine
 10
317.0
 20
363.999496
 30
0.0
 11
317.0
 21
634.885842
 31
0.0
  0
LINE
  5
6D2
100
AcDbEntity
  8
SIZE
  6
CONTINUOUS
 62
    30
100
AcDbLine
 10
317.0
 20
363.999496
 30
0.0
 11
317.0
 21
870.955204
 31
0.0
  0
LINE
  5
6D3
100
AcDbEntity
  8
SIZE
  6
CONTINUOUS
 62
    30
100
AcDbLine
 10
-317.0
 20
363.999496
 30
0.0
 11
-317.0
 21
870.955204
 31
0.0
  0
POLYLINE
  5
6D4
100
AcDbEntity
  8
OUTLINE
  6
CONTINUOUS
 62
     3
100
AcDb2dPolyline
 66
     1
 10
0.0
 20
0.0
 30
0.0
 70
     1
  0
VERTEX
  5
6D5
100
AcDbEntity
  8
OUTLINE
  6
CONTINUOUS
 62
     3
100
AcDbVertex
100
AcDb2dVertex
 10
-317.0
 20
53.999496
 30
0.0
  0
VERTEX
  5
6D6
100
AcDbEntity
  8
OUTLINE
  6
CONTINUOUS
 62
     3
100
AcDbVertex
100
AcDb2dVertex
 10
317.0
 20
53.999496
 30
0.0
  0
VERTEX
  5
6D7
100
AcDbEntity
  8
OUTLINE
  6
CONTINUOUS
 62
     3
100
AcDbVertex
100
AcDb2dVertex
 10
317.0
 20
45.0
 30
0.0
  0
VERTEX
  5
6D8
100
AcDbEntity
  8
OUTLINE
  6
CONTINUOUS
 62
     3
100
AcDbVertex
100
AcDb2dVertex
 10
-317.0
 20
45.0
 30
0.0
  0
SEQEND
  5
6D9
100
AcDbEntity
  8
OUTLINE
  6
CONTINUOUS
 62
     3
  0
LINE
  5
6DB
100
AcDbEntity
  8
NOTE
  6
CONTINUOUS
 62
     4
100
AcDbLine
 10
389.821682
 20
526.82629
 30
0.0
 11
94.999561
 21
141.998972
 31
0.0
  0
LINE
  5
6DC
100
AcDbEntity
  8
NOTE
  6
CONTINUOUS
 62
     4
100
AcDbLine
 10
94.999903
 20
141.999452
 30
0.0
 11
122.308329
 21
162.894417
 31
0.0
  0
LINE
  5
6DD
100
AcDbEntity
  8
SIZE
  6
CONTINUOUS
 62
    30
100
AcDbLine
 10
307.0
 20
604.885842
 30
0.0
 11
105.0
 21
604.885842
 31
0.0
  0
POLYLINE
  5
6DE
100
AcDbEntity
  8
DETAIL
  6
CONTINUOUS
 62
     5
100
AcDb2dPolyline
 66
     1
 10
0.0
 20
0.0
 30
0.0
 70
     1
  0
VERTEX
  5
6DF
100
AcDbEntity
  8
DETAIL
  6
CONTINUOUS
 62
     5
100
AcDbVertex
100
AcDb2dVertex
 10
-120.0
 20
127.999496
 30
0.0
  0
VERTEX
  5
6E0
100
AcDbEntity
  8
DETAIL
  6
CONTINUOUS
 62
     5
100
AcDbVertex
100
AcDb2dVertex
 10
120.0
 20
127.999496
 30
0.0
  0
VERTEX
  5
6E1
100
AcDbEntity
  8
DETAIL
  6
CONTINUOUS
 62
     5
100
AcDbVertex
100
AcDb2dVertex
 10
120.0
 20
82.999496
 30
0.0
  0
VERTEX
  5
6E2
100
AcDbEntity
  8
DETAIL
  6
CONTINUOUS
 62
     5
100
AcDbVertex
100
AcDb2dVertex
 10
-120.0
 20
82.999496
 30
0.0
  0
SEQEND
  5
6E3
100
AcDbEntity
  8
DETAIL
  6
CONTINUOUS
 62
     5
  0
LINE
  5
6E4
100
AcDbEntity
  8
OUTLINE
  6
CONTINUOUS
 62
     3
100
AcDbLine
 10
-317.0
 20
343.999496
 30
0.0
 11
317.0
 21
343.999496
 31
0.0
  0
LINE
  5
6E5
100
AcDbEntity
  8
DETAIL
  6
CONTINUOUS
 62
     5
100
AcDbLine
 10
-317.0
 20
343.999496
 30
0.0
 11
317.0
 21
343.999496
 31
0.0
  0
LINE
  5
6E7
100
AcDbEntity
  8
DETAIL
  6
CONTINUOUS
 62
     5
100
AcDbLine
 10
317.0
 20
45.0
 30
0.0
 11
-317.0
 21
45.0
 31
0.0
  0
LINE
  5
6E8
100
AcDbEntity
  8
DETAIL
  6
CONTINUOUS
 62
     5
100
AcDbLine
 10
-317.0
 20
53.999496
 30
0.0
 11
317.0
 21
53.999496
 31
0.0
  0
LINE
  5
6E9
100
AcDbEntity
  8
DETAIL
  6
CONTINUOUS
 62
     5
100
AcDbLine
 10
-317.0
 20
45.0
 30
0.0
 11
317.0
 21
45.0
 31
0.0
  0
LINE
  5
6EA
100
AcDbEntity
  8
OUTLINE
  6
CONTINUOUS
 62
     3
100
AcDbLine
 10
-317.0
 20
343.999496
 30
0.0
 11
-317.0
 21
0.0
 31
0.0
  0
LINE
  5
6EB
100
AcDbEntity
  8
SIZE
  6
CONTINUOUS
 62
    30
100
AcDbLine
 10
-101.0
 20
272.499496
 30
0.0
 11
-101.0
 21
525.644159
 31
0.0
  0
LINE
  5
6EC
100
AcDbEntity
  8
SIZE
  6
CONTINUOUS
 62
    30
100
AcDbLine
 10
-171.0
 20
273.299496
 30
0.0
 11
-171.0
 21
525.644159
 31
0.0
  0
LINE
  5
6ED
100
AcDbEntity
  8
SIZE
  6
CONTINUOUS
 62
    30
100
AcDbLine
 10
-171.0
 20
273.299496
 30
0.0
 11
-171.0
 21
525.644159
 31
0.0
  0
LINE
  5
6EE
100
AcDbEntity
  8
DETAIL
  6
CONTINUOUS
 62
     5
100
AcDbLine
 10
-317.0
 20
343.999496
 30
0.0
 11
-317.0
 21
0.0
 31
0.0
  0
LINE
  5
6EF
100
AcDbEntity
  8
NOTE
  6
CONTINUOUS
 62
     4
100
AcDbLine
 10
-83.55
 20
68.999496
 30
0.0
 11
-106.45
 21
68.999496
 31
0.0
  0
LINE
  5
6F0
100
AcDbEntity
  8
NOTE
  6
CONTINUOUS
 62
     4
100
AcDbLine
 10
-83.55
 20
141.999496
 30
0.0
 11
-106.45
 21
141.999496
 31
0.0
  0
LINE
  5
6F1
100
AcDbEntity
  8
NOTE
  6
CONTINUOUS
 62
     4
100
AcDbLine
 10
-101.000024
 20
221.999293
 30
0.0
 11
-117.477282
 21
252.179578
 31
0.0
  0
LINE
  5
6F2
100
AcDbEntity
  8
NOTE
  6
CONTINUOUS
 62
     4
100
AcDbLine
 10
-101.000024
 20
221.999293
 30
0.0
 11
-130.359891
 21
239.897557
 31
0.0
  0
LINE
  5
6F3
100
AcDbEntity
  8
NOTE
  6
CONTINUOUS
 62
     4
100
AcDbLine
 10
-131.5
 20
221.999496
 30
0.0
 11
-70.5
 21
221.999496
 31
0.0
  0
LINE
  5
6F4
100
AcDbEntity
  8
NOTE
  6
CONTINUOUS
 62
     4
100
AcDbLine
 10
-286.999933
 20
153.999533
 30
0.0
 11
-317.128654
 21
137.428177
 31
0.0
  0
LINE
  5
6F5
100
AcDbEntity
  8
NOTE
  6
CONTINUOUS
 62
     4
100
AcDbLine
 10
-286.999933
 20
153.999533
 30
0.0
 11
-304.806492
 21
124.583957
 31
0.0
  0
CIRCLE
  5
6F6
100
AcDbEntity
  8
FIX
  6
CONTINUOUS
 62
    11
100
AcDbCircle
 10
-287.0
 20
153.999496
 30
0.0
 40
14.940051
  0
LINE
  5
6F7
100
AcDbEntity
  8
NOTE
  6
CONTINUOUS
 62
     4
100
AcDbLine
 10
-287.0
 20
171.999496
 30
0.0
 11
-287.0
 21
135.999496
 31
0.0
  0
LINE
  5
6F8
100
AcDbEntity
  8
DETAIL
  6
CONTINUOUS
 62
     5
100
AcDbLine
 10
-262.0
 20
153.999496
 30
0.0
 11
-262.0
 21
115.999496
 31
0.0
  0
LINE
  5
6F9
100
AcDbEntity
  8
DETAIL
  6
CONTINUOUS
 62
     5
100
AcDbLine
 10
-312.0
 20
153.999496
 30
0.0
 11
-312.0
 21
115.999496
 31
0.0
  0
POINT
  5
6FC
100
AcDbEntity
  8
DEFPOINTS
  6
CONTINUOUS
 62
     7
100
AcDbPoint
 10
-287.0
 20
139.059445
 30
0.0
  0
POINT
  5
6FD
100
AcDbEntity
  8
DEFPOINTS
  6
CONTINUOUS
 62
     7
100
AcDbPoint
 10
-287.0
 20
139.059445
 30
0.0
  0
POINT
  5
6FE
100
AcDbEntity
  8
DEFPOINTS
  6
CONTINUOUS
 62
     7
100
AcDbPoint
 10
-317.0
 20
53.999496
 30
0.0
  0
LINE
  5
704
100
AcDbEntity
  8
DETAIL
  6
CONTINUOUS
 62
     5
100
AcDbLine
 10
-297.0
 20
115.999496
 30
0.0
 11
-312.0
 21
115.999496
 31
0.0
  0
LINE
  5
705
100
AcDbEntity
  8
DETAIL
  6
CONTINUOUS
 62
     5
100
AcDbLine
 10
-262.0
 20
115.999496
 30
0.0
 11
-277.0
 21
115.999496
 31
0.0
  0
LINE
  5
706
100
AcDbEntity
  8
DETAIL
  6
CONTINUOUS
 62
     5
100
AcDbLine
 10
-277.0
 20
115.999496
 30
0.0
 11
-277.0
 21
110.999496
 31
0.0
  0
LINE
  5
707
100
AcDbEntity
  8
DETAIL
  6
CONTINUOUS
 62
     5
100
AcDbLine
 10
-297.0
 20
115.999496
 30
0.0
 11
-297.0
 21
110.999496
 31
0.0
  0
LINE
  5
708
100
AcDbEntity
  8
DETAIL
  6
CONTINUOUS
 62
     5
100
AcDbLine
 10
-277.0
 20
110.999496
 30
0.0
 11
-297.0
 21
110.999496
 31
0.0
  0
POINT
  5
710
100
AcDbEntity
  8
DEFPOINTS
  6
CONTINUOUS
 62
     7
100
AcDbPoint
 10
-120.0
 20
127.999496
 30
0.0
  0
POINT
  5
711
100
AcDbEntity
  8
DEFPOINTS
  6
CONTINUOUS
 62
     7
100
AcDbPoint
 10
-312.0
 20
153.999496
 30
0.0
  0
LINE
  5
712
100
AcDbEntity
  8
NOTE
  6
CONTINUOUS
 62
     4
100
AcDbLine
 10
-305.0
 20
153.999496
 30
0.0
 11
-269.0
 21
153.999496
 31
0.0
  0
LINE
  5
714
100
AcDbEntity
  8
DETAIL
  6
CONTINUOUS
 62
     5
100
AcDbLine
 10
-262.0
 20
153.999496
 30
0.0
 11
-312.0
 21
153.999496
 31
0.0
  0
LINE
  5
715
100
AcDbEntity
  8
NOTE
  6
CONTINUOUS
 62
     4
100
AcDbLine
 10
-170.999977
 20
221.999327
 30
0.0
 11
-194.452591
 21
247.145391
 31
0.0
  0
LINE
  5
716
100
AcDbEntity
  8
NOTE
  6
CONTINUOUS
 62
     4
100
AcDbLine
 10
-170.999977
 20
221.999327
 30
0.0
 11
-203.883569
 21
232.05015
 31
0.0
  0
POINT
  5
717
100
AcDbEntity
  8
DEFPOINTS
  6
CONTINUOUS
 62
     7
100
AcDbPoint
 10
-171.0
 20
253.299496
 30
0.0
  0
POINT
  5
718
100
AcDbEntity
  8
DEFPOINTS
  6
CONTINUOUS
 62
     7
100
AcDbPoint
 10
-171.0
 20
253.299496
 30
0.0
  0
POINT
  5
719
100
AcDbEntity
  8
DEFPOINTS
  6
CONTINUOUS
 62
     7
100
AcDbPoint
 10
-202.3
 20
221.999496
 30
0.0
  0
LINE
  5
71A
100
AcDbEntity
  8
NOTE
  6
CONTINUOUS
 62
     4
100
AcDbLine
 10
-202.3
 20
221.999496
 30
0.0
 11
-139.7
 21
221.999496
 31
0.0
  0
LINE
  5
71B
100
AcDbEntity
  8
NOTE
  6
CONTINUOUS
 62
     4
100
AcDbLine
 10
-171.0
 20
253.299496
 30
0.0
 11
-171.0
 21
190.699496
 31
0.0
  0
LINE
  5
71C
100
AcDbEntity
  8
NOTE
  6
CONTINUOUS
 62
     4
100
AcDbLine
 10
94.999903
 20
141.999452
 30
0.0
 11
108.202211
 21
173.749236
 31
0.0
  0
LINE
  5
71D
100
AcDbEntity
  8
NOTE
  6
CONTINUOUS
 62
     4
100
AcDbLine
 10
95.0
 20
153.449496
 30
0.0
 11
95.0
 21
130.549496
 31
0.0
  0
LINE
  5
71E
100
AcDbEntity
  8
NOTE
  6
CONTINUOUS
 62
     4
100
AcDbLine
 10
-95.0
 20
153.449496
 30
0.0
 11
-95.0
 21
130.549496
 31
0.0
  0
LINE
  5
71F
100
AcDbEntity
  8
NOTE
  6
CONTINUOUS
 62
     4
100
AcDbLine
 10
-95.0
 20
80.449496
 30
0.0
 11
-95.0
 21
57.549496
 31
0.0
  0
CIRCLE
  5
720
100
AcDbEntity
  8
DETAIL
  6
CONTINUOUS
 62
     5
100
AcDbCircle
 10
-95.0
 20
68.999496
 30
0.0
 40
1.45
  0
CIRCLE
  5
721
100
AcDbEntity
  8
DETAIL
  6
CONTINUOUS
 62
     5
100
AcDbCircle
 10
-95.0
 20
141.999496
 30
0.0
 40
1.45
  0
POINT
  5
729
100
AcDbEntity
  8
DEFPOINTS
  6
CONTINUOUS
 62
     7
100
AcDbPoint
 10
106.45
 20
68.999496
 30
0.0
  0
POINT
  5
72A
100
AcDbEntity
  8
DEFPOINTS
  6
CONTINUOUS
 62
     7
100
AcDbPoint
 10
106.45
 20
141.999496
 30
0.0
  0
POINT
  5
72B
100
AcDbEntity
  8
DEFPOINTS
  6
CONTINUOUS
 62
     7
100
AcDbPoint
 10
106.45
 20
141.999496
 30
0.0
  0
LINE
  5
72C
100
AcDbEntity
  8
NOTE
  6
CONTINUOUS
 62
     4
100
AcDbLine
 10
106.45
 20
68.999496
 30
0.0
 11
83.55
 21
68.999496
 31
0.0
  0
LINE
  5
72D
100
AcDbEntity
  8
NOTE
  6
CONTINUOUS
 62
     4
100
AcDbLine
 10
106.45
 20
141.999496
 30
0.0
 11
83.55
 21
141.999496
 31
0.0
  0
CIRCLE
  5
72E
100
AcDbEntity
  8
DETAIL
  6
CONTINUOUS
 62
     5
100
AcDbCircle
 10
95.0
 20
141.999496
 30
0.0
 40
1.45
  0
LINE
  5
72F
100
AcDbEntity
  8
NOTE
  6
CONTINUOUS
 62
     4
100
AcDbLine
 10
95.0
 20
80.449496
 30
0.0
 11
95.0
 21
57.549496
 31
0.0
  0
CIRCLE
  5
730
100
AcDbEntity
  8
DETAIL
  6
CONTINUOUS
 62
     5
100
AcDbCircle
 10
95.0
 20
68.999496
 30
0.0
 40
1.45
  0
POINT
  5
731
100
AcDbEntity
  8
DEFPOINTS
  6
CONTINUOUS
 62
     7
100
AcDbPoint
 10
-95.0
 20
153.449496
 30
0.0
  0
POINT
  5
732
100
AcDbEntity
  8
DEFPOINTS
  6
CONTINUOUS
 62
     7
100
AcDbPoint
 10
-101.0
 20
252.499496
 30
0.0
  0
LINE
  5
733
100
AcDbEntity
  8
NOTE
  6
CONTINUOUS
 62
     4
100
AcDbLine
 10
-101.0
 20
252.499496
 30
0.0
 11
-101.0
 21
191.499496
 31
0.0
  0
POINT
  5
734
100
AcDbEntity
  8
DEFPOINTS
  6
CONTINUOUS
 62
     7
100
AcDbPoint
 10
95.0
 20
153.449496
 30
0.0
  0
POINT
  5
735
100
AcDbEntity
  8
DEFPOINTS
  6
CONTINUOUS
 62
     7
100
AcDbPoint
 10
95.0
 20
153.449496
 30
0.0
  0
CIRCLE
  5
736
100
AcDbEntity
  8
SIZE
  6
CONTINUOUS
 62
    30
100
AcDbCircle
 10
-101.0
 20
495.644159
 30
0.0
 40
5.0
  0
LINE
  5
737
100
AcDbEntity
  8
SIZE
  6
CONTINUOUS
 62
    30
100
AcDbLine
 10
-317.0
 20
363.999496
 30
0.0
 11
-317.0
 21
525.644159
 31
0.0
  0
POINT
  5
739
100
AcDbEntity
  8
DEFPOINTS
  6
CONTINUOUS
 62
     7
100
AcDbPoint
 10
-317.0
 20
343.999496
 30
0.0
  0
POINT
  5
73A
100
AcDbEntity
  8
DEFPOINTS
  6
CONTINUOUS
 62
     7
100
AcDbPoint
 10
-317.0
 20
343.999496
 30
0.0
  0
POINT
  5
73B
100
AcDbEntity
  8
DEFPOINTS
  6
CONTINUOUS
 62
     7
100
AcDbPoint
 10
-317.0
 20
343.999496
 30
0.0
  0
POINT
  5
73C
100
AcDbEntity
  8
DEFPOINTS
  6
CONTINUOUS
 62
     7
100
AcDbPoint
 10
-317.0
 20
343.999496
 30
0.0
  0
POINT
  5
73D
100
AcDbEntity
  8
DEFPOINTS
  6
CONTINUOUS
 62
     7
100
AcDbPoint
 10
-317.0
 20
343.999496
 30
0.0
  0
TEXT
  5
740
100
AcDbEntity
  8
SIZE
  6
CONTINUOUS
 62
    30
100
AcDbText
 10
-301.75
 20
510.644159
 30
0.0
 40
55.0
  1
146
 41
0.9
 72
     1
 11
-244.0
 21
510.644159
 31
0.0
100
AcDbText
  0
LINE
  5
741
100
AcDbEntity
  8
SIZE
  6
CONTINUOUS
 62
    30
100
AcDbLine
 10
-307.0
 20
495.644159
 30
0.0
 11
-181.0
 21
495.644159
 31
0.0
  0
LINE
  5
742
100
AcDbEntity
  8
SIZE
  6
CONTINUOUS
 62
    30
100
AcDbLine
 10
-312.0
 20
495.644159
 30
0.0
 11
-307.0
 21
495.644159
 31
0.0
  0
CIRCLE
  5
743
100
AcDbEntity
  8
SIZE
  6
CONTINUOUS
 62
    30
100
AcDbCircle
 10
-317.0
 20
495.644159
 30
0.0
 40
5.0
  0
LINE
  5
744
100
AcDbEntity
  8
SIZE
  6
CONTINUOUS
 62
    30
100
AcDbLine
 10
-106.0
 20
495.644159
 30
0.0
 11
-111.0
 21
495.644159
 31
0.0
  0
LINE
  5
745
100
AcDbEntity
  8
SIZE
  6
CONTINUOUS
 62
    30
100
AcDbLine
 10
-166.0
 20
495.644159
 30
0.0
 11
-161.0
 21
495.644159
 31
0.0
  0
CIRCLE
  5
746
100
AcDbEntity
  8
SIZE
  6
CONTINUOUS
 62
    30
100
AcDbCircle
 10
-171.0
 20
495.644159
 30
0.0
 40
5.0
  0
LINE
  5
747
100
AcDbEntity
  8
SIZE
  6
CONTINUOUS
 62
    30
100
AcDbLine
 10
-161.0
 20
495.644159
 30
0.0
 11
-111.0
 21
495.644159
 31
0.0
  0
POINT
  5
748
100
AcDbEntity
  8
DEFPOINTS
  6
CONTINUOUS
 62
     7
100
AcDbPoint
 10
-171.0
 20
495.644159
 30
0.0
  0
LINE
  5
749
100
AcDbEntity
  8
SIZE
  6
CONTINUOUS
 62
    30
100
AcDbLine
 10
-176.0
 20
495.644159
 30
0.0
 11
-181.0
 21
495.644159
 31
0.0
  0
CIRCLE
  5
74A
100
AcDbEntity
  8
SIZE
  6
CONTINUOUS
 62
    30
100
AcDbCircle
 10
-171.0
 20
495.644159
 30
0.0
 40
5.0
  0
LINE
  5
74B
100
AcDbEntity
  8
NOTE
  6
CONTINUOUS
 62
     4
100
AcDbLine
 10
-1.568542
 20
390.0
 30
0.0
 11
-31.568542
 21
420.0
 31
0.0
  0
LINE
  5
74C
100
AcDbEntity
  8
NOTE
  6
CONTINUOUS
 62
     4
100
AcDbLine
 10
-28.137085
 20
390.0
 30
0.0
 11
-58.137085
 21
420.0
 31
0.0
  0
LINE
  5
74D
100
AcDbEntity
  8
NOTE
  6
CONTINUOUS
 62
     4
100
AcDbLine
 10
-54.705627
 20
390.0
 30
0.0
 11
-84.705627
 21
420.0
 31
0.0
  0
LINE
  5
74F
100
AcDbEntity
  8
SIZE
  6
CONTINUOUS
 62
    30
100
AcDbLine
 10
85.0
 20
604.885842
 30
0.0
 11
-85.0
 21
604.885842
 31
0.0
  0
TEXT
  5
750
100
AcDbEntity
  8
SIZE
  6
CONTINUOUS
 62
    30
100
AcDbText
 10
-66.097811
 20
510.644159
 30
0.0
 40
55.0
  1
70
 41
0.9
 72
     1
 11
-26.026382
 21
510.644159
 31
0.0
100
AcDbText
  0
LINE
  5
751
100
AcDbEntity
  8
SIZE
  6
CONTINUOUS
 62
    30
100
AcDbLine
 10
29.045047
 20
495.644159
 30
0.0
 11
-101.0
 21
495.644159
 31
0.0
  0
POINT
  5
752
100
AcDbEntity
  8
DEFPOINTS
  6
CONTINUOUS
 62
     7
100
AcDbPoint
 10
-95.0
 20
604.885842
 30
0.0
  0
LINE
  5
753
100
AcDbEntity
  8
SIZE
  6
CONTINUOUS
 62
    30
100
AcDbLine
 10
-90.0
 20
604.885842
 30
0.0
 11
-85.0
 21
604.885842
 31
0.0
  0
CIRCLE
  5
754
100
AcDbEntity
  8
SIZE
  6
CONTINUOUS
 62
    30
100
AcDbCircle
 10
-95.0
 20
604.885842
 30
0.0
 40
5.0
  0
POINT
  5
755
100
AcDbEntity
  8
DEFPOINTS
  6
CONTINUOUS
 62
     7
100
AcDbPoint
 10
-101.0
 20
495.644159
 30
0.0
  0
LINE
  5
756
100
AcDbEntity
  8
SIZE
  6
CONTINUOUS
 62
    30
100
AcDbLine
 10
90.0
 20
604.885842
 30
0.0
 11
85.0
 21
604.885842
 31
0.0
  0
CIRCLE
  5
757
100
AcDbEntity
  8
SIZE
  6
CONTINUOUS
 62
    30
100
AcDbCircle
 10
95.0
 20
604.885842
 30
0.0
 40
5.0
  0
POINT
  5
758
100
AcDbEntity
  8
DEFPOINTS
  6
CONTINUOUS
 62
     7
100
AcDbPoint
 10
95.0
 20
604.885842
 30
0.0
  0
LINE
  5
759
100
AcDbEntity
  8
SIZE
  6
CONTINUOUS
 62
    30
100
AcDbLine
 10
100.0
 20
604.885842
 30
0.0
 11
105.0
 21
604.885842
 31
0.0
  0
CIRCLE
  5
75A
100
AcDbEntity
  8
SIZE
  6
CONTINUOUS
 62
    30
100
AcDbCircle
 10
95.0
 20
604.885842
 30
0.0
 40
5.0
  0
LINE
  5
75B
100
AcDbEntity
  8
OUTLINE
  6
CONTINUOUS
 62
     3
100
AcDbLine
 10
317.0
 20
0.0
 30
0.0
 11
317.0
 21
343.999496
 31
0.0
  0
LINE
  5
75C
100
AcDbEntity
  8
DETAIL
  6
CONTINUOUS
 62
     5
100
AcDbLine
 10
317.0
 20
0.0
 30
0.0
 11
317.0
 21
343.999496
 31
0.0
  0
LINE
  5
75D
100
AcDbEntity
  8
OUTLINE
  6
CONTINUOUS
 62
     3
100
AcDbLine
 10
355.0
 20
0.0
 30
0.0
 11
317.0
 21
0.0
 31
0.0
  0
LINE
  5
75E
100
AcDbEntity
  8
SIZE
  6
CONTINUOUS
 62
    30
100
AcDbLine
 10
337.0
 20
45.0
 30
0.0
 11
532.313518
 21
45.0
 31
0.0
  0
LINE
  5
75F
100
AcDbEntity
  8
NOTE
  6
CONTINUOUS
 62
     4
100
AcDbLine
 10
355.721933
 20
0.0
 30
0.0
 11
340.721933
 21
15.0
 31
0.0
  0
LINE
  5
760
100
AcDbEntity
  8
NOTE
  6
CONTINUOUS
 62
     4
100
AcDbLine
 10
435.0
 20
0.0
 30
0.0
 11
335.0
 21
0.0
 31
0.0
  0
LINE
  5
761
100
AcDbEntity
  8
NOTE
  6
CONTINUOUS
 62
     4
100
AcDbLine
 10
435.0
 20
15.0
 30
0.0
 11
335.0
 21
15.0
 31
0.0
  0
CIRCLE
  5
762
100
AcDbEntity
  8
FIX
  6
CONTINUOUS
 62
    11
100
AcDbCircle
 10
287.0
 20
153.999496
 30
0.0
 40
14.940051
  0
LINE
  5
763
100
AcDbEntity
  8
NOTE
  6
CONTINUOUS
 62
     4
100
AcDbLine
 10
287.0
 20
171.999496
 30
0.0
 11
287.0
 21
135.999496
 31
0.0
  0
LINE
  5
764
100
AcDbEntity
  8
DETAIL
  6
CONTINUOUS
 62
     5
100
AcDbLine
 10
262.0
 20
153.999496
 30
0.0
 11
262.0
 21
115.999496
 31
0.0
  0
LINE
  5
765
100
AcDbEntity
  8
DETAIL
  6
CONTINUOUS
 62
     5
100
AcDbLine
 10
312.0
 20
153.999496
 30
0.0
 11
312.0
 21
115.999496
 31
0.0
  0
POINT
  5
768
100
AcDbEntity
  8
DEFPOINTS
  6
CONTINUOUS
 62
     7
100
AcDbPoint
 10
120.0
 20
82.999496
 30
0.0
  0
POINT
  5
769
100
AcDbEntity
  8
DEFPOINTS
  6
CONTINUOUS
 62
     7
100
AcDbPoint
 10
120.0
 20
127.999496
 30
0.0
  0
POINT
  5
76A
100
AcDbEntity
  8
DEFPOINTS
  6
CONTINUOUS
 62
     7
100
AcDbPoint
 10
120.0
 20
127.999496
 30
0.0
  0
POINT
  5
76B
100
AcDbEntity
  8
DEFPOINTS
  6
CONTINUOUS
 62
     7
100
AcDbPoint
 10
120.0
 20
127.999496
 30
0.0
  0
POINT
  5
76C
100
AcDbEntity
  8
DEFPOINTS
  6
CONTINUOUS
 62
     7
100
AcDbPoint
 10
120.0
 20
127.999496
 30
0.0
  0
POINT
  5
76D
100
AcDbEntity
  8
DEFPOINTS
  6
CONTINUOUS
 62
     7
100
AcDbPoint
 10
287.0
 20
139.059445
 30
0.0
  0
POINT
  5
76E
100
AcDbEntity
  8
DEFPOINTS
  6
CONTINUOUS
 62
     7
100
AcDbPoint
 10
287.0
 20
139.059445
 30
0.0
  0
POINT
  5
76F
100
AcDbEntity
  8
DEFPOINTS
  6
CONTINUOUS
 62
     7
100
AcDbPoint
 10
335.0
 20
0.0
 30
0.0
  0
POINT
  5
770
100
AcDbEntity
  8
DEFPOINTS
  6
CONTINUOUS
 62
     7
100
AcDbPoint
 10
335.0
 20
0.0
 30
0.0
  0
POINT
  5
771
100
AcDbEntity
  8
DEFPOINTS
  6
CONTINUOUS
 62
     7
100
AcDbPoint
 10
317.0
 20
45.0
 30
0.0
  0
LINE
  5
777
100
AcDbEntity
  8
DETAIL
  6
CONTINUOUS
 62
     5
100
AcDbLine
 10
297.0
 20
115.999496
 30
0.0
 11
312.0
 21
115.999496
 31
0.0
  0
LINE
  5
778
100
AcDbEntity
  8
DETAIL
  6
CONTINUOUS
 62
     5
100
AcDbLine
 10
262.0
 20
115.999496
 30
0.0
 11
277.0
 21
115.999496
 31
0.0
  0
LINE
  5
779
100
AcDbEntity
  8
DETAIL
  6
CONTINUOUS
 62
     5
100
AcDbLine
 10
277.0
 20
115.999496
 30
0.0
 11
277.0
 21
110.999496
 31
0.0
  0
LINE
  5
77A
100
AcDbEntity
  8
DETAIL
  6
CONTINUOUS
 62
     5
100
AcDbLine
 10
297.0
 20
115.999496
 30
0.0
 11
297.0
 21
110.999496
 31
0.0
  0
LINE
  5
77B
100
AcDbEntity
  8
DETAIL
  6
CONTINUOUS
 62
     5
100
AcDbLine
 10
277.0
 20
110.999496
 30
0.0
 11
297.0
 21
110.999496
 31
0.0
  0
LINE
  5
783
100
AcDbEntity
  8
NOTE
  6
CONTINUOUS
 62
     4
100
AcDbLine
 10
341.579798
 20
0.0
 30
0.0
 11
335.0
 21
6.579798
 31
0.0
  0
LINE
  5
784
100
AcDbEntity
  8
NOTE
  6
CONTINUOUS
 62
     4
100
AcDbLine
 10
335.0
 20
0.0
 30
0.0
 11
335.0
 21
15.0
 31
0.0
  0
LINE
  5
785
100
AcDbEntity
  8
NOTE
  6
CONTINUOUS
 62
     4
100
AcDbLine
 10
269.0
 20
153.999496
 30
0.0
 11
305.0
 21
153.999496
 31
0.0
  0
LINE
  5
787
100
AcDbEntity
  8
DETAIL
  6
CONTINUOUS
 62
     5
100
AcDbLine
 10
262.0
 20
153.999496
 30
0.0
 11
312.0
 21
153.999496
 31
0.0
  0
POINT
  5
788
100
AcDbEntity
  8
DEFPOINTS
  6
CONTINUOUS
 62
     7
100
AcDbPoint
 10
435.0
 20
0.0
 30
0.0
  0
LINE
  5
789
100
AcDbEntity
  8
NOTE
  6
CONTINUOUS
 62
     4
100
AcDbLine
 10
435.0
 20
5.574747
 30
0.0
 11
425.574747
 21
15.0
 31
0.0
  0
LINE
  5
78A
100
AcDbEntity
  8
NOTE
  6
CONTINUOUS
 62
     4
100
AcDbLine
 10
426.432611
 20
0.0
 30
0.0
 11
411.432611
 21
15.0
 31
0.0
  0
LINE
  5
78B
100
AcDbEntity
  8
NOTE
  6
CONTINUOUS
 62
     4
100
AcDbLine
 10
412.290476
 20
0.0
 30
0.0
 11
397.290476
 21
15.0
 31
0.0
  0
LINE
  5
78C
100
AcDbEntity
  8
NOTE
  6
CONTINUOUS
 62
     4
100
AcDbLine
 10
369.864069
 20
0.0
 30
0.0
 11
354.864069
 21
15.0
 31
0.0
  0
POINT
  5
78D
100
AcDbEntity
  8
DEFPOINTS
  6
CONTINUOUS
 62
     7
100
AcDbPoint
 10
502.313518
 20
45.0
 30
0.0
  0
LINE
  5
78E
100
AcDbEntity
  8
SIZE
  6
CONTINUOUS
 62
    30
100
AcDbLine
 10
502.313518
 20
50.0
 30
0.0
 11
502.313518
 21
55.0
 31
0.0
  0
CIRCLE
  5
78F
100
AcDbEntity
  8
SIZE
  6
CONTINUOUS
 62
    30
100
AcDbCircle
 10
502.313518
 20
45.0
 30
0.0
 40
5.0
  0
LINE
  5
790
100
AcDbEntity
  8
SIZE
  6
CONTINUOUS
 62
    30
100
AcDbLine
 10
502.313518
 20
45.0
 30
0.0
 11
502.313518
 21
0.0
 31
0.0
  0
LINE
  5
791
100
AcDbEntity
  8
SIZE
  6
CONTINUOUS
 62
    30
100
AcDbLine
 10
502.313518
 20
55.0
 30
0.0
 11
502.313518
 21
65.0
 31
0.0
  0
LINE
  5
792
100
AcDbEntity
  8
SIZE
  6
CONTINUOUS
 62
    30
100
AcDbLine
 10
455.0
 20
0.0
 30
0.0
 11
532.313518
 21
0.0
 31
0.0
  0
LINE
  5
793
100
AcDbEntity
  8
NOTE
  6
CONTINUOUS
 62
     4
100
AcDbLine
 10
358.431458
 20
390.0
 30
0.0
 11
328.431458
 21
420.0
 31
0.0
  0
POINT
  5
795
100
AcDbEntity
  8
DEFPOINTS
  6
CONTINUOUS
 62
     7
100
AcDbPoint
 10
317.0
 20
343.999496
 30
0.0
  0
POINT
  5
796
100
AcDbEntity
  8
DEFPOINTS
  6
CONTINUOUS
 62
     7
100
AcDbPoint
 10
317.0
 20
343.999496
 30
0.0
  0
POINT
  5
797
100
AcDbEntity
  8
DEFPOINTS
  6
CONTINUOUS
 62
     7
100
AcDbPoint
 10
317.0
 20
343.999496
 30
0.0
  0
POINT
  5
798
100
AcDbEntity
  8
DEFPOINTS
  6
CONTINUOUS
 62
     7
100
AcDbPoint
 10
317.0
 20
343.999496
 30
0.0
  0
POINT
  5
799
100
AcDbEntity
  8
DEFPOINTS
  6
CONTINUOUS
 62
     7
100
AcDbPoint
 10
317.0
 20
343.999496
 30
0.0
  0
LINE
  5
79A
100
AcDbEntity
  8
NOTE
  6
CONTINUOUS
 62
     4
100
AcDbLine
 10
331.862915
 20
390.0
 30
0.0
 11
301.862915
 21
420.0
 31
0.0
  0
LINE
  5
79B
100
AcDbEntity
  8
NOTE
  6
CONTINUOUS
 62
     4
100
AcDbLine
 10
305.294373
 20
390.0
 30
0.0
 11
275.294373
 21
420.0
 31
0.0
  0
LINE
  5
79C
100
AcDbEntity
  8
SIZE
  6
CONTINUOUS
 62
    30
100
AcDbLine
 10
312.0
 20
604.885842
 30
0.0
 11
307.0
 21
604.885842
 31
0.0
  0
CIRCLE
  5
79D
100
AcDbEntity
  8
SIZE
  6
CONTINUOUS
 62
    30
100
AcDbCircle
 10
317.0
 20
604.885842
 30
0.0
 40
5.0
  0
CIRCLE
  5
79E
100
AcDbEntity
  8
SIZE
  6
CONTINUOUS
 62
    30
100
AcDbCircle
 10
120.0
 20
710.509945
 30
0.0
 40
5.0
  0
CIRCLE
  5
79F
100
AcDbEntity
  8
SIZE
  6
CONTINUOUS
 62
    30
100
AcDbCircle
 10
120.0
 20
710.509945
 30
0.0
 40
5.0
  0
LINE
  5
7A0
100
AcDbEntity
  8
SIZE
  6
CONTINUOUS
 62
    30
100
AcDbLine
 10
-307.0
 20
840.955204
 30
0.0
 11
307.0
 21
840.955204
 31
0.0
  0
LINE
  5
7A1
100
AcDbEntity
  8
SIZE
  6
CONTINUOUS
 62
    30
100
AcDbLine
 10
110.0
 20
710.509945
 30
0.0
 11
-110.0
 21
710.509945
 31
0.0
  0
POINT
  5
7A2
100
AcDbEntity
  8
DEFPOINTS
  6
CONTINUOUS
 62
     7
100
AcDbPoint
 10
-120.0
 20
710.509945
 30
0.0
  0
LINE
  5
7A3
100
AcDbEntity
  8
SIZE
  6
CONTINUOUS
 62
    30
100
AcDbLine
 10
-115.0
 20
710.509945
 30
0.0
 11
-110.0
 21
710.509945
 31
0.0
  0
CIRCLE
  5
7A4
100
AcDbEntity
  8
SIZE
  6
CONTINUOUS
 62
    30
100
AcDbCircle
 10
-120.0
 20
710.509945
 30
0.0
 40
5.0
  0
LINE
  5
7A5
100
AcDbEntity
  8
SIZE
  6
CONTINUOUS
 62
    30
100
AcDbLine
 10
-312.0
 20
840.955204
 30
0.0
 11
-307.0
 21
840.955204
 31
0.0
  0
CIRCLE
  5
7A6
100
AcDbEntity
  8
SIZE
  6
CONTINUOUS
 62
    30
100
AcDbCircle
 10
-317.0
 20
840.955204
 30
0.0
 40
5.0
  0
TEXT
  5
7A7
100
AcDbEntity
  8
SIZE
  6
CONTINUOUS
 62
    30
100
AcDbText
 10
-63.642857
 20
725.509945
 30
0.0
 40
55.0
  1
240
 41
0.9
 72
     1
 11
0.0
 21
725.509945
 31
0.0
100
AcDbText
  0
TEXT
  5
7A8
100
AcDbEntity
  8
SIZE
  6
CONTINUOUS
 62
    30
100
AcDbText
 10
-58.928571
 20
619.885842
 30
0.0
 40
55.0
  1
190
 41
0.9
 72
     1
 11
0.0
 21
619.885842
 31
0.0
100
AcDbText
  0
LINE
  5
7A9
100
AcDbEntity
  8
SIZE
  6
CONTINUOUS
 62
    30
100
AcDbLine
 10
115.0
 20
710.509945
 30
0.0
 11
110.0
 21
710.509945
 31
0.0
  0
TEXT
  5
7AA
100
AcDbEntity
  8
SIZE
  6
CONTINUOUS
 62
    30
100
AcDbText
 10
-64.821429
 20
855.955204
 30
0.0
 40
55.0
  1
634
 41
0.9
 72
     1
 11
0.0
 21
855.955204
 31
0.0
100
AcDbText
  0
TEXT
  5
7AB
100
AcDbEntity
  8
SIZE
  6
CONTINUOUS
 62
    30
100
AcDbText
 10
159.571429
 20
725.509945
 30
0.0
 40
55.0
  1
197
 41
0.9
 72
     1
 11
218.5
 21
725.509945
 31
0.0
100
AcDbText
  0
LINE
  5
7AC
100
AcDbEntity
  8
SIZE
  6
CONTINUOUS
 62
    30
100
AcDbLine
 10
307.0
 20
710.509945
 30
0.0
 11
130.0
 21
710.509945
 31
0.0
  0
TEXT
  5
7AD
100
AcDbEntity
  8
SIZE
  6
CONTINUOUS
 62
    30
100
AcDbText
 10
142.357143
 20
619.885842
 30
0.0
 40
55.0
  1
222
 41
0.9
 72
     1
 11
206.0
 21
619.885842
 31
0.0
100
AcDbText
  0
POINT
  5
7AE
100
AcDbEntity
  8
DEFPOINTS
  6
CONTINUOUS
 62
     7
100
AcDbPoint
 10
120.0
 20
710.509945
 30
0.0
  0
LINE
  5
7AF
100
AcDbEntity
  8
SIZE
  6
CONTINUOUS
 62
    30
100
AcDbLine
 10
125.0
 20
710.509945
 30
0.0
 11
130.0
 21
710.509945
 31
0.0
  0
LINE
  5
7B0
100
AcDbEntity
  8
SIZE
  6
CONTINUOUS
 62
    30
100
AcDbLine
 10
312.0
 20
710.509945
 30
0.0
 11
307.0
 21
710.509945
 31
0.0
  0
CIRCLE
  5
7B1
100
AcDbEntity
  8
SIZE
  6
CONTINUOUS
 62
    30
100
AcDbCircle
 10
317.0
 20
710.509945
 30
0.0
 40
5.0
  0
POINT
  5
7B2
100
AcDbEntity
  8
DEFPOINTS
  6
CONTINUOUS
 62
     7
100
AcDbPoint
 10
317.0
 20
840.955204
 30
0.0
  0
LINE
  5
7B3
100
AcDbEntity
  8
SIZE
  6
CONTINUOUS
 62
    30
100
AcDbLine
 10
312.0
 20
840.955204
 30
0.0
 11
307.0
 21
840.955204
 31
0.0
  0
CIRCLE
  5
7B4
100
AcDbEntity
  8
SIZE
  6
CONTINUOUS
 62
    30
100
AcDbCircle
 10
317.0
 20
840.955204
 30
0.0
 40
5.0
  0
TEXT
  5
7B5
100
AcDbEntity
  8
SIZE
  6
CONTINUOUS
 62
    30
100
AcDbText
 10
711.406052
 20
179.356639
 30
0.0
 40
55.0
  1
202
 50
90.0
 41
0.9
 72
     1
 11
711.406052
 21
242.999496
 31
0.0
100
AcDbText
  0
LINE
  5
7B6
100
AcDbEntity
  8
SIZE
  6
CONTINUOUS
 62
    30
100
AcDbLine
 10
726.406052
 20
333.999496
 30
0.0
 11
726.406052
 21
151.999496
 31
0.0
  0
LINE
  5
7B7
100
AcDbEntity
  8
SIZE
  6
CONTINUOUS
 62
    30
100
AcDbLine
 10
616.760526
 20
333.999496
 30
0.0
 11
616.760526
 21
137.999496
 31
0.0
  0
LINE
  5
7B8
100
AcDbEntity
  8
SIZE
  6
CONTINUOUS
 62
    30
100
AcDbLine
 10
726.406052
 20
146.999496
 30
0.0
 11
726.406052
 21
151.999496
 31
0.0
  0
POINT
  5
7B9
100
AcDbEntity
  8
DEFPOINTS
  6
CONTINUOUS
 62
     7
100
AcDbPoint
 10
616.760526
 20
82.999496
 30
0.0
  0
LINE
  5
7BA
100
AcDbEntity
  8
SIZE
  6
CONTINUOUS
 62
    30
100
AcDbLine
 10
616.760526
 20
77.999496
 30
0.0
 11
616.760526
 21
72.999496
 31
0.0
  0
CIRCLE
  5
7BB
100
AcDbEntity
  8
SIZE
  6
CONTINUOUS
 62
    30
100
AcDbCircle
 10
616.760526
 20
82.999496
 30
0.0
 40
5.0
  0
LINE
  5
7BC
100
AcDbEntity
  8
SIZE
  6
CONTINUOUS
 62
    30
100
AcDbLine
 10
616.760526
 20
132.999496
 30
0.0
 11
616.760526
 21
137.999496
 31
0.0
  0
CIRCLE
  5
7BD
100
AcDbEntity
  8
SIZE
  6
CONTINUOUS
 62
    30
100
AcDbCircle
 10
616.760526
 20
127.999496
 30
0.0
 40
5.0
  0
LINE
  5
7BE
100
AcDbEntity
  8
SIZE
  6
CONTINUOUS
 62
    30
100
AcDbLine
 10
616.760526
 20
127.999496
 30
0.0
 11
616.760526
 21
82.999496
 31
0.0
  0
LINE
  5
7BF
100
AcDbEntity
  8
SIZE
  6
CONTINUOUS
 62
    30
100
AcDbLine
 10
616.760526
 20
127.999496
 30
0.0
 11
616.760526
 21
82.999496
 31
0.0
  0
LINE
  5
7C0
100
AcDbEntity
  8
SIZE
  6
CONTINUOUS
 62
    30
100
AcDbLine
 10
616.760526
 20
72.999496
 30
0.0
 11
616.760526
 21
62.999496
 31
0.0
  0
LINE
  5
7C1
100
AcDbEntity
  8
SIZE
  6
CONTINUOUS
 62
    30
100
AcDbLine
 10
616.760526
 20
137.999496
 30
0.0
 11
616.760526
 21
147.999496
 31
0.0
  0
POINT
  5
7C2
100
AcDbEntity
  8
DEFPOINTS
  6
CONTINUOUS
 62
     7
100
AcDbPoint
 10
616.760526
 20
127.999496
 30
0.0
  0
LINE
  5
7C3
100
AcDbEntity
  8
SIZE
  6
CONTINUOUS
 62
    30
100
AcDbLine
 10
616.760526
 20
132.999496
 30
0.0
 11
616.760526
 21
137.999496
 31
0.0
  0
CIRCLE
  5
7C4
100
AcDbEntity
  8
SIZE
  6
CONTINUOUS
 62
    30
100
AcDbCircle
 10
616.760526
 20
127.999496
 30
0.0
 40
5.0
  0
POINT
  5
7C5
100
AcDbEntity
  8
DEFPOINTS
  6
CONTINUOUS
 62
     7
100
AcDbPoint
 10
726.406052
 20
68.999496
 30
0.0
  0
LINE
  5
7C6
100
AcDbEntity
  8
SIZE
  6
CONTINUOUS
 62
    30
100
AcDbLine
 10
726.406052
 20
73.999496
 30
0.0
 11
726.406052
 21
78.999496
 31
0.0
  0
CIRCLE
  5
7C7
100
AcDbEntity
  8
SIZE
  6
CONTINUOUS
 62
    30
100
AcDbCircle
 10
726.406052
 20
68.999496
 30
0.0
 40
5.0
  0
LINE
  5
7C8
100
AcDbEntity
  8
SIZE
  6
CONTINUOUS
 62
    30
100
AcDbLine
 10
726.406052
 20
136.999496
 30
0.0
 11
726.406052
 21
131.999496
 31
0.0
  0
CIRCLE
  5
7C9
100
AcDbEntity
  8
SIZE
  6
CONTINUOUS
 62
    30
100
AcDbCircle
 10
726.406052
 20
141.999496
 30
0.0
 40
5.0
  0
LINE
  5
7CA
100
AcDbEntity
  8
SIZE
  6
CONTINUOUS
 62
    30
100
AcDbLine
 10
726.406052
 20
131.999496
 30
0.0
 11
726.406052
 21
78.999496
 31
0.0
  0
POINT
  5
7CB
100
AcDbEntity
  8
DEFPOINTS
  6
CONTINUOUS
 62
     7
100
AcDbPoint
 10
726.406052
 20
141.999496
 30
0.0
  0
CIRCLE
  5
7CC
100
AcDbEntity
  8
SIZE
  6
CONTINUOUS
 62
    30
100
AcDbCircle
 10
726.406052
 20
141.999496
 30
0.0
 40
5.0
  0
LINE
  5
7CD
100
AcDbEntity
  8
SIZE
  6
CONTINUOUS
 62
    30
100
AcDbLine
 10
616.760526
 20
338.999496
 30
0.0
 11
616.760526
 21
333.999496
 31
0.0
  0
CIRCLE
  5
7CE
100
AcDbEntity
  8
SIZE
  6
CONTINUOUS
 62
    30
100
AcDbCircle
 10
616.760526
 20
343.999496
 30
0.0
 40
5.0
  0
LINE
  5
7CF
100
AcDbEntity
  8
SIZE
  6
CONTINUOUS
 62
    30
100
AcDbLine
 10
726.406052
 20
338.999496
 30
0.0
 11
726.406052
 21
333.999496
 31
0.0
  0
CIRCLE
  5
7D0
100
AcDbEntity
  8
SIZE
  6
CONTINUOUS
 62
    30
100
AcDbCircle
 10
726.406052
 20
343.999496
 30
0.0
 40
5.0
  0
ENDSEC
  0
SECTION
  2
OBJECTS
  0
DICTIONARY
  5
2DD
100
AcDbDictionary
  3
ACAD_GROUP
350
2DE
  3
ACAD_MLINESTYLE
350
2EC
  0
DICTIONARY
  5
2DE
102
{ACAD_REACTORS
330
2DD
102
}
100
AcDbDictionary
  0
DICTIONARY
  5
2EC
102
{ACAD_REACTORS
330
2DD
102
}
100
AcDbDictionary
  3
STANDARD
350
2ED
  0
MLINESTYLE
  5
2ED
102
{ACAD_REACTORS
330
2EC
102
}
100
AcDbMlineStyle
  2
STANDARD
 70
     0
  3

 62
   256
 51
90.0
 52
90.0
 71
     2
 49
0.5
 62
   256
  6
BYLAYER
 49
-0.5
 62
   256
  6
BYLAYER
  0
ENDSEC
  0
EOF
