  0
SECTION
  2
HEADER
  9
$ACADVER
  1
AC1014
  9
$ACADMAINTVER
 70
     0
  9
$DWGCODEPAGE
  3
ANSI_932
  9
$INSBASE
 10
0.0
 20
0.0
 30
0.0
  9
$EXTMIN
 10
-1151.973948
 20
-731.511728
 30
-0.001526
  9
$EXTMAX
 10
976.620446
 20
1025.21792
 30
0.0
  9
$LIMMIN
 10
-4267.152221
 20
-2696.08321
  9
$LIMMAX
 10
7190.717423
 20
5141.155364
  9
$ORTHOMODE
 70
     0
  9
$REGENMODE
 70
     1
  9
$FILLMODE
 70
     1
  9
$QTEXTMODE
 70
     0
  9
$MIRRTEXT
 70
     0
  9
$DRAGMODE
 70
     2
  9
$LTSCALE
 40
20.0
  9
$OSMODE
 70
    37
  9
$ATTMODE
 70
     1
  9
$TEXTSIZE
 40
64.0
  9
$TRACEWID
 40
0.05
  9
$TEXTSTYLE
  7
STANDARD
  9
$CLAYER
  8
OUTLINE
  9
$CELTYPE
  6
CONTINUOUS
  9
$CECOLOR
 62
     7
  9
$CELTSCALE
 40
1.0
  9
$DELOBJ
 70
     1
  9
$DISPSILH
 70
     0
  9
$DIMSCALE
 40
1.0
  9
$DIMASZ
 40
10.0
  9
$DIMEXO
 40
20.0
  9
$DIMDLI
 40
200.0
  9
$DIMRND
 40
0.0
  9
$DIMDLE
 40
0.0
  9
$DIMEXE
 40
30.0
  9
$DIMTP
 40
0.0
  9
$DIMTM
 40
0.0
  9
$DIMTXT
 40
55.0
  9
$DIMCEN
 40
0.0
  9
$DIMTSZ
 40
0.0
  9
$DIMTOL
 70
     0
  9
$DIMLIM
 70
     0
  9
$DIMTIH
 70
     0
  9
$DIMTOH
 70
     0
  9
$DIMSE1
 70
     0
  9
$DIMSE2
 70
     0
  9
$DIMTAD
 70
     1
  9
$DIMZIN
 70
     8
  9
$DIMBLK
  1

  9
$DIMASO
 70
     1
  9
$DIMSHO
 70
     0
  9
$DIMPOST
  1

  9
$DIMAPOST
  1

  9
$DIMALT
 70
     0
  9
$DIMALTD
 70
     2
  9
$DIMALTF
 40
25.4
  9
$DIMLFAC
 40
1.0
  9
$DIMTOFL
 70
     1
  9
$DIMTVP
 40
0.0
  9
$DIMTIX
 70
     1
  9
$DIMSOXD
 70
     0
  9
$DIMSAH
 70
     1
  9
$DIMBLK1
  1
_DOTBLANK
  9
$DIMBLK2
  1
_DOTBLANK
  9
$DIMSTYLE
  2
STANDARD
  9
$DIMCLRD
 70
     0
  9
$DIMCLRE
 70
     0
  9
$DIMCLRT
 70
     0
  9
$DIMTFAC
 40
1.0
  9
$DIMGAP
 40
0.09
  9
$DIMJUST
 70
     0
  9
$DIMSD1
 70
     0
  9
$DIMSD2
 70
     0
  9
$DIMTOLJ
 70
     1
  9
$DIMTZIN
 70
     0
  9
$DIMALTZ
 70
     0
  9
$DIMALTTZ
 70
     0
  9
$DIMFIT
 70
     3
  9
$DIMUPT
 70
     0
  9
$DIMUNIT
 70
     2
  9
$DIMDEC
 70
     4
  9
$DIMTDEC
 70
     4
  9
$DIMALTU
 70
     2
  9
$DIMALTTD
 70
     2
  9
$DIMTXSTY
  7
STANDARD
  9
$DIMAUNIT
 70
     0
  9
$LUNITS
 70
     2
  9
$LUPREC
 70
     4
  9
$SKETCHINC
 40
0.1
  9
$FILLETRAD
 40
30.0
  9
$AUNITS
 70
     1
  9
$AUPREC
 70
     3
  9
$MENU
  1
ACAD
  9
$ELEVATION
 40
0.0
  9
$PELEVATION
 40
0.0
  9
$THICKNESS
 40
0.0
  9
$LIMCHECK
 70
     0
  9
$BLIPMODE
 70
     0
  9
$CHAMFERA
 40
0.0
  9
$CHAMFERB
 40
0.0
  9
$CHAMFERC
 40
0.0
  9
$CHAMFERD
 40
0.0
  9
$SKPOLY
 70
     0
  9
$TDCREATE
 40
2450330.439930995
  9
$TDUPDATE
 40
2454252.365517997
  9
$TDINDWG
 40
3.3598850000
  9
$TDUSRTIMER
 40
3.3598850000
  9
$USRTIMER
 70
     1
  9
$ANGBASE
 50
0.0
  9
$ANGDIR
 70
     0
  9
$PDMODE
 70
     3
  9
$PDSIZE
 40
-2.0
  9
$PLINEWID
 40
0.0
  9
$COORDS
 70
     2
  9
$SPLFRAME
 70
     0
  9
$SPLINETYPE
 70
     6
  9
$SPLINESEGS
 70
     8
  9
$ATTDIA
 70
     0
  9
$ATTREQ
 70
     1
  9
$HANDLING
 70
     1
  9
$HANDSEED
  5
787
  9
$SURFTAB1
 70
     6
  9
$SURFTAB2
 70
     6
  9
$SURFTYPE
 70
     6
  9
$SURFU
 70
     6
  9
$SURFV
 70
     6
  9
$UCSNAME
  2

  9
$UCSORG
 10
0.0
 20
0.0
 30
0.0
  9
$UCSXDIR
 10
1.0
 20
0.0
 30
0.0
  9
$UCSYDIR
 10
0.0
 20
1.0
 30
0.0
  9
$PUCSNAME
  2

  9
$PUCSORG
 10
0.0
 20
0.0
 30
0.0
  9
$PUCSXDIR
 10
1.0
 20
0.0
 30
0.0
  9
$PUCSYDIR
 10
0.0
 20
1.0
 30
0.0
  9
$USERI1
 70
     0
  9
$USERI2
 70
     0
  9
$USERI3
 70
     0
  9
$USERI4
 70
     0
  9
$USERI5
 70
     0
  9
$USERR1
 40
20.0
  9
$USERR2
 40
0.0
  9
$USERR3
 40
0.0
  9
$USERR4
 40
0.0
  9
$USERR5
 40
0.0
  9
$WORLDVIEW
 70
     1
  9
$SHADEDGE
 70
     3
  9
$SHADEDIF
 70
    70
  9
$TILEMODE
 70
     1
  9
$MAXACTVP
 70
    48
  9
$PINSBASE
 10
0.0
 20
0.0
 30
0.0
  9
$PLIMCHECK
 70
     0
  9
$PEXTMIN
 10
1.000000E+20
 20
1.000000E+20
 30
1.000000E+20
  9
$PEXTMAX
 10
-1.000000E+20
 20
-1.000000E+20
 30
-1.000000E+20
  9
$PLIMMIN
 10
0.0
 20
0.0
  9
$PLIMMAX
 10
12.0
 20
9.0
  9
$UNITMODE
 70
     0
  9
$VISRETAIN
 70
     1
  9
$PLINEGEN
 70
     0
  9
$PSLTSCALE
 70
     1
  9
$TREEDEPTH
 70
  3020
  9
$PICKSTYLE
 70
     1
  9
$CMLSTYLE
  2
STANDARD
  9
$CMLJUST
 70
     0
  9
$CMLSCALE
 40
1.0
  9
$PROXYGRAPHICS
 70
     1
  9
$MEASUREMENT
 70
     0
  0
ENDSEC
  0
SECTION
  2
CLASSES
  0
ENDSEC
  0
SECTION
  2
TABLES
  0
TABLE
  2
VPORT
  5
2C0
100
AcDbSymbolTable
 70
     3
  0
VPORT
  5
786
100
AcDbSymbolTableRecord
100
AcDbViewportTableRecord
  2
*ACTIVE
 70
     0
 10
0.0
 20
0.0
 11
1.0
 21
1.0
 12
1461.782601
 22
1331.287491
 13
0.0
 23
0.0
 14
50.0
 24
50.0
 15
100.0
 25
100.0
 16
0.0
 26
0.0
 36
1.0
 17
0.0
 27
0.0
 37
0.0
 40
8054.741402
 41
1.4225
 42
50.0
 43
0.0
 44
0.0
 50
0.0
 51
0.0
 71
     0
 72
  1000
 73
     1
 74
     0
 75
     0
 76
     0
 77
     0
 78
     0
  0
ENDTAB
  0
TABLE
  2
LTYPE
  5
2BD
100
AcDbSymbolTable
 70
     2
  0
LTYPE
  5
2CA
100
AcDbSymbolTableRecord
100
AcDbLinetypeTableRecord
  2
BYBLOCK
 70
     0
  3

 72
    65
 73
     0
 40
0.0
  0
LTYPE
  5
2CB
100
AcDbSymbolTableRecord
100
AcDbLinetypeTableRecord
  2
BYLAYER
 70
     0
  3

 72
    65
 73
     0
 40
0.0
  0
LTYPE
  5
2CC
100
AcDbSymbolTableRecord
100
AcDbLinetypeTableRecord
  2
CONTINUOUS
 70
     0
  3
実線
 72
    65
 73
     0
 40
0.0
  0
LTYPE
  5
2D8
100
AcDbSymbolTableRecord
100
AcDbLinetypeTableRecord
  2
DASHDOT
 70
     0
  3
____ _ ____ _ ____ _ ____ _ ____ _ ____ _ ____
 72
    65
 73
     4
 40
5.5
 49
4.0
 74
     0
 49
-0.6
 74
     0
 49
0.3
 74
     0
 49
-0.6
 74
     0
  0
ENDTAB
  0
TABLE
  2
LAYER
  5
2BA
100
AcDbSymbolTable
 70
    12
  0
LAYER
  5
2C6
100
AcDbSymbolTableRecord
100
AcDbLayerTableRecord
  2
0
 70
     0
 62
     7
  6
CONTINUOUS
  0
LAYER
  5
2D7
100
AcDbSymbolTableRecord
100
AcDbLayerTableRecord
  2
OUTLINE
 70
     0
 62
     3
  6
CONTINUOUS
  0
LAYER
  5
2D9
100
AcDbSymbolTableRecord
100
AcDbLayerTableRecord
  2
DETAIL
 70
     0
 62
     5
  6
CONTINUOUS
  0
LAYER
  5
2DA
100
AcDbSymbolTableRecord
100
AcDbLayerTableRecord
  2
BASIS
 70
     0
 62
     6
  6
DASHDOT
  0
LAYER
  5
2DB
100
AcDbSymbolTableRecord
100
AcDbLayerTableRecord
  2
SIZE
 70
     0
 62
    30
  6
CONTINUOUS
  0
LAYER
  5
2DC
100
AcDbSymbolTableRecord
100
AcDbLayerTableRecord
  2
NOTE
 70
     0
 62
     4
  6
CONTINUOUS
  0
LAYER
  5
2DD
100
AcDbSymbolTableRecord
100
AcDbLayerTableRecord
  2
ARRANGE
 70
     0
 62
     1
  6
CONTINUOUS
  0
LAYER
  5
2DE
100
AcDbSymbolTableRecord
100
AcDbLayerTableRecord
  2
FIX
 70
     0
 62
    11
  6
CONTINUOUS
  0
LAYER
  5
2DF
100
AcDbSymbolTableRecord
100
AcDbLayerTableRecord
  2
SERVICESPACE
 70
     0
 62
     2
  6
DASHDOT
  0
LAYER
  5
2E0
100
AcDbSymbolTableRecord
100
AcDbLayerTableRecord
  2
ETC
 70
     0
 62
    61
  6
CONTINUOUS
  0
LAYER
  5
2E1
100
AcDbSymbolTableRecord
100
AcDbLayerTableRecord
  2
SYMBOLLINE
 70
     0
 62
    15
  6
CONTINUOUS
  0
LAYER
  5
2E2
100
AcDbSymbolTableRecord
100
AcDbLayerTableRecord
  2
DEFPOINTS
 70
     0
 62
     7
  6
CONTINUOUS
  0
ENDTAB
  0
TABLE
  2
STYLE
  5
2BB
100
AcDbSymbolTable
 70
     2
  0
STYLE
  5
2C7
100
AcDbSymbolTableRecord
100
AcDbTextStyleTableRecord
  2
STANDARD
 70
     0
 40
0.0
 41
0.9
 50
0.0
 71
     0
 42
64.0
  3
SIMPLEX
  4
BIGFONT
  0
STYLE
  5
2E3
100
AcDbSymbolTableRecord
100
AcDbTextStyleTableRecord
  2
STANDARD1
 70
     0
 40
0.0
 41
1.0
 50
0.0
 71
     0
 42
64.0
  3
MONOTXT
  4
BIGFONT
  0
ENDTAB
  0
TABLE
  2
VIEW
  5
2BE
100
AcDbSymbolTable
 70
     1
  0
VIEW
  5
2E4
100
AcDbSymbolTableRecord
100
AcDbViewTableRecord
  2
ALL
 70
     0
 40
9000.0
 10
241.506647
 20
0.0
 41
12483.01
 11
0.0
 21
0.0
 31
1.0
 12
0.0
 22
0.0
 32
0.0
 42
50.0
 43
0.0
 44
0.0
 50
0.0
 71
     0
  0
ENDTAB
  0
TABLE
  2
UCS
  5
2BF
100
AcDbSymbolTable
 70
     0
  0
ENDTAB
  0
TABLE
  2
APPID
  5
2C1
100
AcDbSymbolTable
 70
     1
  0
APPID
  5
2C8
100
AcDbSymbolTableRecord
100
AcDbRegAppTableRecord
  2
ACAD
 70
     0
  0
ENDTAB
  0
TABLE
  2
DIMSTYLE
  5
2C2
100
AcDbSymbolTable
 70
     1
  0
DIMSTYLE
105
2E5
100
AcDbSymbolTableRecord
100
AcDbDimStyleTableRecord
  2
STANDARD
 70
     0
  3

  4

  5

  6

  7

 40
1.0
 41
0.18
 42
0.0625
 43
0.38
 44
0.18
 45
0.0
 46
0.0
 47
0.0
 48
0.0
140
0.18
141
0.09
142
0.0
143
25.4
144
1.0
145
0.0
146
1.0
147
0.09
 71
     0
 72
     0
 73
     1
 74
     1
 75
     0
 76
     0
 77
     0
 78
     0
170
     0
171
     2
172
     0
173
     0
174
     0
175
     0
176
     0
177
     0
178
     0
270
     2
271
     4
272
     4
273
     2
274
     2
340
2C7
275
     0
280
     0
281
     0
282
     0
283
     1
284
     0
285
     0
286
     0
287
     3
288
     0
  0
ENDTAB
  0
TABLE
  2
BLOCK_RECORD
  5
2B9
100
AcDbSymbolTable
 70
     4
  0
BLOCK_RECORD
  5
2D0
100
AcDbSymbolTableRecord
100
AcDbBlockTableRecord
  2
*MODEL_SPACE
  0
BLOCK_RECORD
  5
2CD
100
AcDbSymbolTableRecord
100
AcDbBlockTableRecord
  2
*PAPER_SPACE
  0
BLOCK_RECORD
  5
2E9
100
AcDbSymbolTableRecord
100
AcDbBlockTableRecord
  2
$MODEL_SPACE
  0
BLOCK_RECORD
  5
2EB
100
AcDbSymbolTableRecord
100
AcDbBlockTableRecord
  2
$PAPER_SPACE
  0
BLOCK_RECORD
  5
2ED
100
AcDbSymbolTableRecord
100
AcDbBlockTableRecord
  2
_DOTBLANK
  0
BLOCK_RECORD
  5
2F0
100
AcDbSymbolTableRecord
100
AcDbBlockTableRecord
  2
A$C0A914B3C
  0
ENDTAB
  0
ENDSEC
  0
SECTION
  2
BLOCKS
  0
BLOCK
  5
2D1
100
AcDbEntity
  8
0
100
AcDbBlockBegin
  2
*MODEL_SPACE
 70
     0
 10
0.0
 20
0.0
 30
0.0
  3
*MODEL_SPACE
  1

  0
ENDBLK
  5
2D2
100
AcDbEntity
  8
0
100
AcDbBlockEnd
  0
BLOCK
  5
2CE
100
AcDbEntity
 67
     1
  8
0
100
AcDbBlockBegin
  2
*PAPER_SPACE
 70
     0
 10
0.0
 20
0.0
 30
0.0
  3
*PAPER_SPACE
  1

  0
ENDBLK
  5
2CF
100
AcDbEntity
 67
     1
  8
0
100
AcDbBlockEnd
  0
BLOCK
  5
2EA
100
AcDbEntity
  8
0
100
AcDbBlockBegin
  2
$MODEL_SPACE
 70
     0
 10
0.0
 20
0.0
 30
0.0
  3
$MODEL_SPACE
  1

  0
ENDBLK
  5
29B
100
AcDbEntity
  8
0
100
AcDbBlockEnd
  0
BLOCK
  5
2EC
100
AcDbEntity
  8
0
100
AcDbBlockBegin
  2
$PAPER_SPACE
 70
     0
 10
0.0
 20
0.0
 30
0.0
  3
$PAPER_SPACE
  1

  0
ENDBLK
  5
298
100
AcDbEntity
  8
0
100
AcDbBlockEnd
  0
BLOCK
  5
2EE
100
AcDbEntity
  8
0
100
AcDbBlockBegin
  2
_DOTBLANK
 70
     0
 10
0.0
 20
0.0
 30
0.0
  3
_DOTBLANK
  1

  0
CIRCLE
  5
32
100
AcDbEntity
  8
0
  6
CONTINUOUS
 62
     7
100
AcDbCircle
 10
0.0
 20
0.0
 30
0.0
 40
0.5
  0
LINE
  5
33
100
AcDbEntity
  8
0
  6
CONTINUOUS
 62
     7
100
AcDbLine
 10
-0.5
 20
0.0
 30
0.0
 11
-1.0
 21
0.0
 31
0.0
  0
ENDBLK
  5
34
100
AcDbEntity
  8
0
100
AcDbBlockEnd
  0
BLOCK
  5
53A
100
AcDbEntity
  8
0
 62
     7
100
AcDbBlockBegin
  2
A$C0A914B3C
 70
     0
 10
0.0
 20
0.0
 30
0.0
  3
A$C0A914B3C
  1

  0
LINE
  5
2F1
100
AcDbEntity
  8
DETAIL
  6
CONTINUOUS
 62
     5
100
AcDbLine
 10
471.164681
 20
731.35908
 30
0.0
 11
1831.164681
 21
731.35908
 31
0.0
  0
POLYLINE
  5
2F2
100
AcDbEntity
  8
OUTLINE
  6
CONTINUOUS
 62
     3
100
AcDb2dPolyline
 66
     1
 10
0.0
 20
0.0
 30
0.0
 70
     1
  0
VERTEX
  5
2F3
100
AcDbEntity
  8
OUTLINE
  6
CONTINUOUS
 62
     3
100
AcDbVertex
100
AcDb2dVertex
 10
763.164681
 20
785.358576
 30
0.0
  0
VERTEX
  5
2F4
100
AcDbEntity
  8
OUTLINE
  6
CONTINUOUS
 62
     3
100
AcDbVertex
100
AcDb2dVertex
 10
1539.164681
 20
785.358576
 30
0.0
  0
VERTEX
  5
2F5
100
AcDbEntity
  8
OUTLINE
  6
CONTINUOUS
 62
     3
100
AcDbVertex
100
AcDb2dVertex
 10
1539.164681
 20
776.35908
 30
0.0
  0
VERTEX
  5
2F6
100
AcDbEntity
  8
OUTLINE
  6
CONTINUOUS
 62
     3
100
AcDbVertex
100
AcDb2dVertex
 10
763.164681
 20
776.35908
 30
0.0
  0
SEQEND
  5
2F7
100
AcDbEntity
  8
OUTLINE
  6
CONTINUOUS
 62
     3
  0
TEXT
  5
2F8
100
AcDbEntity
  8
ETC
  6
CONTINUOUS
 62
    61
100
AcDbText
 10
180.728988
 20
1661.093263
 30
0.0
 40
80.0
  1
MPL-RP40_56LA(ﾘﾌﾟﾚｽﾊﾟﾈﾙ)_4
 50
359.999997
 41
0.8
100
AcDbText
  0
LINE
  5
2F9
100
AcDbEntity
  8
NOTE
  6
CONTINUOUS
 62
     4
100
AcDbLine
 10
1021.982808
 20
586.213196
 30
0.0
 11
739.16394
 21
885.360092
 31
0.0
  0
LINE
  5
2FA
100
AcDbEntity
  8
SIZE
  6
CONTINUOUS
 62
    30
100
AcDbLine
 10
1821.164681
 20
30.000002
 30
0.0
 11
481.164681
 21
30.000002
 31
0.0
  0
LINE
  5
2FB
100
AcDbEntity
  8
SIZE
  6
CONTINUOUS
 62
    30
100
AcDbLine
 10
749.164681
 20
177.818039
 30
0.0
 11
1553.164681
 21
177.818039
 31
0.0
  0
LINE
  5
2FC
100
AcDbEntity
  8
SIZE
  6
CONTINUOUS
 62
    30
100
AcDbLine
 10
501.164681
 20
306.012201
 30
0.0
 11
1801.164681
 21
306.012201
 31
0.0
  0
LINE
  5
2FD
100
AcDbEntity
  8
SIZE
  6
CONTINUOUS
 62
    30
100
AcDbLine
 10
1529.164681
 20
1404.32082
 30
0.0
 11
773.164681
 21
1404.32082
 31
0.0
  0
TEXT
  5
2FE
100
AcDbEntity
  8
SIZE
  6
CONTINUOUS
 62
    30
100
AcDbText
 10
820.628966
 20
1327.520185
 30
0.0
 40
55.0
  1
221
 41
0.9
 72
     1
 11
873.664681
 21
1327.520185
 31
0.0
100
AcDbText
  0
LINE
  5
2FF
100
AcDbEntity
  8
SIZE
  6
CONTINUOUS
 62
    30
100
AcDbLine
 10
773.164681
 20
1312.520185
 30
0.0
 11
974.164681
 21
1312.520185
 31
0.0
  0
TEXT
  5
300
100
AcDbEntity
  8
SIZE
  6
CONTINUOUS
 62
    30
100
AcDbText
 10
821.30094
 20
1215.690288
 30
0.0
 40
55.0
  1
388
 41
0.9
 72
     1
 11
884.943797
 21
1215.690288
 31
0.0
100
AcDbText
  0
LINE
  5
301
100
AcDbEntity
  8
SIZE
  6
CONTINUOUS
 62
    30
100
AcDbLine
 10
1141.164681
 20
1200.690288
 30
0.0
 11
773.164681
 21
1200.690288
 31
0.0
  0
LINE
  5
302
100
AcDbEntity
  8
DETAIL
  6
CONTINUOUS
 62
     5
100
AcDbLine
 10
763.164681
 20
785.358576
 30
0.0
 11
1539.164681
 21
785.358576
 31
0.0
  0
LINE
  5
303
100
AcDbEntity
  8
OUTLINE
  6
CONTINUOUS
 62
     3
100
AcDbLine
 10
1539.164681
 20
1075.35908
 30
0.0
 11
763.164681
 21
1075.35908
 31
0.0
  0
LINE
  5
304
100
AcDbEntity
  8
OUTLINE
  6
CONTINUOUS
 62
     3
100
AcDbLine
 10
576.164681
 20
711.35908
 30
0.0
 11
1726.164681
 21
711.35908
 31
0.0
  0
LINE
  5
305
100
AcDbEntity
  8
NOTE
  6
CONTINUOUS
 62
     4
100
AcDbLine
 10
1729.383617
 20
1121.35908
 30
0.0
 11
719.824561
 21
1121.35908
 31
0.0
  0
LINE
  5
306
100
AcDbEntity
  8
NOTE
  6
CONTINUOUS
 62
     4
100
AcDbLine
 10
896.722578
 20
505.126086
 30
0.0
 11
703.164146
 21
809.357867
 31
0.0
  0
LINE
  5
307
100
AcDbEntity
  8
DETAIL
  6
CONTINUOUS
 62
     5
100
AcDbLine
 10
1539.164681
 20
1075.35908
 30
0.0
 11
763.164681
 21
1075.35908
 31
0.0
  0
LINE
  5
308
100
AcDbEntity
  8
DETAIL
  6
CONTINUOUS
 62
     5
100
AcDbLine
 10
576.164681
 20
711.35908
 30
0.0
 11
1726.164681
 21
711.35908
 31
0.0
  0
LINE
  5
309
100
AcDbEntity
  8
DETAIL
  6
CONTINUOUS
 62
     5
100
AcDbLine
 10
491.164681
 20
776.35908
 30
0.0
 11
1151.164681
 21
776.35908
 31
0.0
  0
LINE
  5
30A
100
AcDbEntity
  8
SIZE
  6
CONTINUOUS
 62
    30
100
AcDbLine
 10
739.164681
 20
847.35908
 30
0.0
 11
739.164681
 21
147.818039
 31
0.0
  0
LINE
  5
30B
100
AcDbEntity
  8
SIZE
  6
CONTINUOUS
 62
    30
100
AcDbLine
 10
739.164681
 20
847.35908
 30
0.0
 11
739.164681
 21
147.818039
 31
0.0
  0
LINE
  5
30C
100
AcDbEntity
  8
SIZE
  6
CONTINUOUS
 62
    30
100
AcDbLine
 10
763.164681
 20
756.35908
 30
0.0
 11
763.164681
 21
342.181331
 31
0.0
  0
LINE
  5
30D
100
AcDbEntity
  8
SIZE
  6
CONTINUOUS
 62
    30
100
AcDbLine
 10
685.164681
 20
908.166268
 30
0.0
 11
685.164681
 21
342.181331
 31
0.0
  0
LINE
  5
30E
100
AcDbEntity
  8
SIZE
  6
CONTINUOUS
 62
    30
100
AcDbLine
 10
696.164681
 20
908.166268
 30
0.0
 11
696.164681
 21
458.102508
 31
0.0
  0
LINE
  5
30F
100
AcDbEntity
  8
SIZE
  6
CONTINUOUS
 62
    30
100
AcDbLine
 10
763.164681
 20
756.35908
 30
0.0
 11
763.164681
 21
458.102508
 31
0.0
  0
LINE
  5
310
100
AcDbEntity
  8
SIZE
  6
CONTINUOUS
 62
    30
100
AcDbLine
 10
763.164681
 20
756.35908
 30
0.0
 11
763.164681
 21
569.883637
 31
0.0
  0
LINE
  5
311
100
AcDbEntity
  8
SIZE
  6
CONTINUOUS
 62
    30
100
AcDbLine
 10
703.164681
 20
970.166268
 30
0.0
 11
703.164681
 21
569.883637
 31
0.0
  0
LINE
  5
312
100
AcDbEntity
  8
OUTLINE
  6
CONTINUOUS
 62
     3
100
AcDbLine
 10
471.164681
 20
731.35908
 30
0.0
 11
471.164681
 21
728.35908
 31
0.0
  0
LINE
  5
313
100
AcDbEntity
  8
NOTE
  6
CONTINUOUS
 62
     4
100
AcDbLine
 10
400.53608
 20
590.686603
 30
0.0
 11
685.163987
 21
953.358047
 31
0.0
  0
LINE
  5
314
100
AcDbEntity
  8
DETAIL
  6
CONTINUOUS
 62
     5
100
AcDbLine
 10
471.164681
 20
731.35908
 30
0.0
 11
471.164681
 21
728.35908
 31
0.0
  0
LINE
  5
315
100
AcDbEntity
  8
SIZE
  6
CONTINUOUS
 62
    30
100
AcDbLine
 10
471.164681
 20
708.35908
 30
0.0
 11
471.164681
 21
0.000002
 31
0.0
  0
POINT
  5
316
100
AcDbEntity
  8
DEFPOINTS
  6
CONTINUOUS
 62
     7
100
AcDbPoint
 10
471.164681
 20
30.000002
 30
0.0
  0
LINE
  5
317
100
AcDbEntity
  8
SIZE
  6
CONTINUOUS
 62
    30
100
AcDbLine
 10
476.164681
 20
30.000002
 30
0.0
 11
481.164681
 21
30.000002
 31
0.0
  0
CIRCLE
  5
318
100
AcDbEntity
  8
SIZE
  6
CONTINUOUS
 62
    30
100
AcDbCircle
 10
471.164681
 20
30.000002
 30
0.0
 40
5.0
  0
LINE
  5
319
100
AcDbEntity
  8
NOTE
  6
CONTINUOUS
 62
     4
100
AcDbLine
 10
400.53608
 20
590.686603
 30
0.0
 11
-0.000004
 21
590.686603
 31
0.0
  0
TEXT
  5
31A
100
AcDbEntity
  8
NOTE
  6
CONTINUOUS
 62
     4
100
AcDbText
 10
17.855489
 20
610.557191
 30
0.0
 40
64.0
  1
RG %%C12.7
 41
0.9
100
AcDbText
  0
TEXT
  5
31B
100
AcDbEntity
  8
SIZE
  6
CONTINUOUS
 62
    30
100
AcDbText
 10
356.021823
 20
321.012201
 30
0.0
 40
55.0
  1
20
 41
0.9
 72
     1
 11
396.093252
 21
321.012201
 31
0.0
100
AcDbText
  0
LINE
  5
31C
100
AcDbEntity
  8
SIZE
  6
CONTINUOUS
 62
    30
100
AcDbLine
 10
461.164681
 20
306.012201
 30
0.0
 11
341.021824
 21
306.012201
 31
0.0
  0
LINE
  5
31D
100
AcDbEntity
  8
SIZE
  6
CONTINUOUS
 62
    30
100
AcDbLine
 10
471.164681
 20
708.35908
 30
0.0
 11
471.164681
 21
147.818039
 31
0.0
  0
LINE
  5
31E
100
AcDbEntity
  8
SIZE
  6
CONTINUOUS
 62
    30
100
AcDbLine
 10
491.164681
 20
711.35908
 30
0.0
 11
491.164681
 21
276.012201
 31
0.0
  0
LINE
  5
31F
100
AcDbEntity
  8
SIZE
  6
CONTINUOUS
 62
    30
100
AcDbLine
 10
491.164681
 20
711.35908
 30
0.0
 11
491.164681
 21
276.012201
 31
0.0
  0
LINE
  5
320
100
AcDbEntity
  8
SIZE
  6
CONTINUOUS
 62
    30
100
AcDbLine
 10
471.164681
 20
708.35908
 30
0.0
 11
471.164681
 21
276.012201
 31
0.0
  0
TEXT
  5
321
100
AcDbEntity
  8
SIZE
  6
CONTINUOUS
 62
    30
100
AcDbText
 10
580.021823
 20
387.181331
 30
0.0
 40
55.0
  1
78
 41
0.9
 72
     1
 11
620.093252
 21
387.181331
 31
0.0
100
AcDbText
  0
TEXT
  5
322
100
AcDbEntity
  8
SIZE
  6
CONTINUOUS
 62
    30
100
AcDbText
 10
541.521824
 20
192.818039
 30
0.0
 40
55.0
  1
268
 41
0.9
 72
     1
 11
605.164681
 21
192.818039
 31
0.0
100
AcDbText
  0
LINE
  5
323
100
AcDbEntity
  8
SIZE
  6
CONTINUOUS
 62
    30
100
AcDbLine
 10
481.164681
 20
177.818039
 30
0.0
 11
729.164681
 21
177.818039
 31
0.0
  0
LINE
  5
324
100
AcDbEntity
  8
SIZE
  6
CONTINUOUS
 62
    30
100
AcDbLine
 10
685.164681
 20
372.181331
 30
0.0
 11
565.021824
 21
372.181331
 31
0.0
  0
LINE
  5
325
100
AcDbEntity
  8
SIZE
  6
CONTINUOUS
 62
    30
100
AcDbLine
 10
476.164681
 20
177.818039
 30
0.0
 11
481.164681
 21
177.818039
 31
0.0
  0
CIRCLE
  5
326
100
AcDbEntity
  8
SIZE
  6
CONTINUOUS
 62
    30
100
AcDbCircle
 10
471.164681
 20
177.818039
 30
0.0
 40
5.0
  0
CIRCLE
  5
327
100
AcDbEntity
  8
SIZE
  6
CONTINUOUS
 62
    30
100
AcDbCircle
 10
491.164681
 20
306.012201
 30
0.0
 40
5.0
  0
CIRCLE
  5
328
100
AcDbEntity
  8
SIZE
  6
CONTINUOUS
 62
    30
100
AcDbCircle
 10
491.164681
 20
306.012201
 30
0.0
 40
5.0
  0
LINE
  5
329
100
AcDbEntity
  8
SIZE
  6
CONTINUOUS
 62
    30
100
AcDbLine
 10
491.164681
 20
306.012201
 30
0.0
 11
471.164681
 21
306.012201
 31
0.0
  0
LINE
  5
32A
100
AcDbEntity
  8
SIZE
  6
CONTINUOUS
 62
    30
100
AcDbLine
 10
466.164681
 20
306.012201
 30
0.0
 11
461.164681
 21
306.012201
 31
0.0
  0
CIRCLE
  5
32B
100
AcDbEntity
  8
SIZE
  6
CONTINUOUS
 62
    30
100
AcDbCircle
 10
471.164681
 20
306.012201
 30
0.0
 40
5.0
  0
LINE
  5
32C
100
AcDbEntity
  8
SIZE
  6
CONTINUOUS
 62
    30
100
AcDbLine
 10
496.164681
 20
306.012201
 30
0.0
 11
501.164681
 21
306.012201
 31
0.0
  0
POINT
  5
32D
100
AcDbEntity
  8
DEFPOINTS
  6
CONTINUOUS
 62
     7
100
AcDbPoint
 10
491.164681
 20
306.012201
 30
0.0
  0
LINE
  5
32E
100
AcDbEntity
  8
SIZE
  6
CONTINUOUS
 62
    30
100
AcDbLine
 10
496.164681
 20
306.012201
 30
0.0
 11
501.164681
 21
306.012201
 31
0.0
  0
LINE
  5
32F
100
AcDbEntity
  8
SIZE
  6
CONTINUOUS
 62
    30
100
AcDbLine
 10
501.164681
 20
306.012201
 30
0.0
 11
511.164681
 21
306.012201
 31
0.0
  0
LINE
  5
330
100
AcDbEntity
  8
SIZE
  6
CONTINUOUS
 62
    30
100
AcDbLine
 10
744.164681
 20
177.818039
 30
0.0
 11
749.164681
 21
177.818039
 31
0.0
  0
CIRCLE
  5
331
100
AcDbEntity
  8
SIZE
  6
CONTINUOUS
 62
    30
100
AcDbCircle
 10
739.164681
 20
177.818039
 30
0.0
 40
5.0
  0
POINT
  5
332
100
AcDbEntity
  8
DEFPOINTS
  6
CONTINUOUS
 62
     7
100
AcDbPoint
 10
739.164681
 20
177.818039
 30
0.0
  0
LINE
  5
333
100
AcDbEntity
  8
SIZE
  6
CONTINUOUS
 62
    30
100
AcDbLine
 10
734.164681
 20
177.818039
 30
0.0
 11
729.164681
 21
177.818039
 31
0.0
  0
CIRCLE
  5
334
100
AcDbEntity
  8
SIZE
  6
CONTINUOUS
 62
    30
100
AcDbCircle
 10
739.164681
 20
177.818039
 30
0.0
 40
5.0
  0
LINE
  5
335
100
AcDbEntity
  8
SIZE
  6
CONTINUOUS
 62
    30
100
AcDbLine
 10
753.164681
 20
372.181331
 30
0.0
 11
695.164681
 21
372.181331
 31
0.0
  0
LINE
  5
336
100
AcDbEntity
  8
SIZE
  6
CONTINUOUS
 62
    30
100
AcDbLine
 10
690.164681
 20
372.181331
 30
0.0
 11
695.164681
 21
372.181331
 31
0.0
  0
CIRCLE
  5
337
100
AcDbEntity
  8
SIZE
  6
CONTINUOUS
 62
    30
100
AcDbCircle
 10
685.164681
 20
372.181331
 30
0.0
 40
5.0
  0
POINT
  5
338
100
AcDbEntity
  8
DEFPOINTS
  6
CONTINUOUS
 62
     7
100
AcDbPoint
 10
763.164681
 20
372.181331
 30
0.0
  0
LINE
  5
339
100
AcDbEntity
  8
SIZE
  6
CONTINUOUS
 62
    30
100
AcDbLine
 10
758.164681
 20
372.181331
 30
0.0
 11
753.164681
 21
372.181331
 31
0.0
  0
CIRCLE
  5
33A
100
AcDbEntity
  8
SIZE
  6
CONTINUOUS
 62
    30
100
AcDbCircle
 10
763.164681
 20
372.181331
 30
0.0
 40
5.0
  0
TEXT
  5
33B
100
AcDbEntity
  8
SIZE
  6
CONTINUOUS
 62
    30
100
AcDbText
 10
591.021823
 20
503.102508
 30
0.0
 40
55.0
  1
67
 41
0.9
 72
     1
 11
631.093252
 21
503.102508
 31
0.0
100
AcDbText
  0
LINE
  5
33C
100
AcDbEntity
  8
SIZE
  6
CONTINUOUS
 62
    30
100
AcDbLine
 10
696.164681
 20
488.102508
 30
0.0
 11
576.021824
 21
488.102508
 31
0.0
  0
TEXT
  5
33D
100
AcDbEntity
  8
SIZE
  6
CONTINUOUS
 62
    30
100
AcDbText
 10
598.021823
 20
614.883637
 30
0.0
 40
55.0
  1
60
 41
0.9
 72
     1
 11
638.093252
 21
614.883637
 31
0.0
100
AcDbText
  0
LINE
  5
33E
100
AcDbEntity
  8
SIZE
  6
CONTINUOUS
 62
    30
100
AcDbLine
 10
703.164681
 20
599.883637
 30
0.0
 11
583.021824
 21
599.883637
 31
0.0
  0
ARC
  5
33F
100
AcDbEntity
  8
OUTLINE
  6
CONTINUOUS
 62
     3
100
AcDbCircle
 10
576.164681
 20
1044.123786
 30
0.0
 40
332.764706
100
AcDbArc
 50
251.606688
 51
270.0
  0
ARC
  5
340
100
AcDbEntity
  8
DETAIL
  6
CONTINUOUS
 62
     5
100
AcDbCircle
 10
576.164681
 20
1044.123786
 30
0.0
 40
332.764706
100
AcDbArc
 50
251.606688
 51
270.0
  0
POINT
  5
341
100
AcDbEntity
  8
DEFPOINTS
  6
CONTINUOUS
 62
     7
100
AcDbPoint
 10
471.164681
 20
728.35908
 30
0.0
  0
POINT
  5
342
100
AcDbEntity
  8
DEFPOINTS
  6
CONTINUOUS
 62
     7
100
AcDbPoint
 10
471.164681
 20
728.35908
 30
0.0
  0
POINT
  5
343
100
AcDbEntity
  8
DEFPOINTS
  6
CONTINUOUS
 62
     7
100
AcDbPoint
 10
471.164681
 20
728.35908
 30
0.0
  0
LINE
  5
344
100
AcDbEntity
  8
SIZE
  6
CONTINUOUS
 62
    30
100
AcDbLine
 10
753.164681
 20
488.102508
 30
0.0
 11
706.164681
 21
488.102508
 31
0.0
  0
POINT
  5
345
100
AcDbEntity
  8
DEFPOINTS
  6
CONTINUOUS
 62
     7
100
AcDbPoint
 10
696.164681
 20
488.102508
 30
0.0
  0
LINE
  5
346
100
AcDbEntity
  8
SIZE
  6
CONTINUOUS
 62
    30
100
AcDbLine
 10
701.164681
 20
488.102508
 30
0.0
 11
706.164681
 21
488.102508
 31
0.0
  0
CIRCLE
  5
347
100
AcDbEntity
  8
SIZE
  6
CONTINUOUS
 62
    30
100
AcDbCircle
 10
696.164681
 20
488.102508
 30
0.0
 40
5.0
  0
LINE
  5
348
100
AcDbEntity
  8
SIZE
  6
CONTINUOUS
 62
    30
100
AcDbLine
 10
758.164681
 20
488.102508
 30
0.0
 11
753.164681
 21
488.102508
 31
0.0
  0
CIRCLE
  5
349
100
AcDbEntity
  8
SIZE
  6
CONTINUOUS
 62
    30
100
AcDbCircle
 10
763.164681
 20
488.102508
 30
0.0
 40
5.0
  0
LINE
  5
34A
100
AcDbEntity
  8
SIZE
  6
CONTINUOUS
 62
    30
100
AcDbLine
 10
708.164681
 20
599.883637
 30
0.0
 11
713.164681
 21
599.883637
 31
0.0
  0
CIRCLE
  5
34B
100
AcDbEntity
  8
SIZE
  6
CONTINUOUS
 62
    30
100
AcDbCircle
 10
703.164681
 20
599.883637
 30
0.0
 40
5.0
  0
POINT
  5
34C
100
AcDbEntity
  8
DEFPOINTS
  6
CONTINUOUS
 62
     7
100
AcDbPoint
 10
763.164681
 20
599.883637
 30
0.0
  0
LINE
  5
34D
100
AcDbEntity
  8
SIZE
  6
CONTINUOUS
 62
    30
100
AcDbLine
 10
758.164681
 20
599.883637
 30
0.0
 11
753.164681
 21
599.883637
 31
0.0
  0
CIRCLE
  5
34E
100
AcDbEntity
  8
SIZE
  6
CONTINUOUS
 62
    30
100
AcDbCircle
 10
763.164681
 20
599.883637
 30
0.0
 40
5.0
  0
LINE
  5
34F
100
AcDbEntity
  8
SIZE
  6
CONTINUOUS
 62
    30
100
AcDbLine
 10
753.164681
 20
599.883637
 30
0.0
 11
713.164681
 21
599.883637
 31
0.0
  0
TEXT
  5
350
100
AcDbEntity
  8
NOTE
  6
CONTINUOUS
 62
     4
100
AcDbText
 10
165.812953
 20
1308.185659
 30
0.0
 40
64.0
  1
RL %%C6.35
 41
0.9
100
AcDbText
  0
LINE
  5
351
100
AcDbEntity
  8
SIZE
  6
CONTINUOUS
 62
    30
100
AcDbLine
 10
763.164681
 20
1093.75908
 30
0.0
 11
763.164681
 21
1434.32082
 31
0.0
  0
LINE
  5
352
100
AcDbEntity
  8
SIZE
  6
CONTINUOUS
 62
    30
100
AcDbLine
 10
763.164681
 20
1093.75908
 30
0.0
 11
763.164681
 21
1342.520185
 31
0.0
  0
LINE
  5
353
100
AcDbEntity
  8
NOTE
  6
CONTINUOUS
 62
     4
100
AcDbLine
 10
645.646815
 20
1472.780166
 30
0.0
 11
703.16463
 21
1015.357689
 31
0.0
  0
LINE
  5
354
100
AcDbEntity
  8
NOTE
  6
CONTINUOUS
 62
     4
100
AcDbLine
 10
552.865712
 20
1288.315071
 30
0.0
 11
147.957461
 21
1288.315071
 31
0.0
  0
LINE
  5
355
100
AcDbEntity
  8
SIZE
  6
CONTINUOUS
 62
    30
100
AcDbLine
 10
701.164681
 20
885.35908
 30
0.0
 11
189.921717
 21
885.35908
 31
0.0
  0
LINE
  5
356
100
AcDbEntity
  8
SIZE
  6
CONTINUOUS
 62
    30
100
AcDbLine
 10
743.164681
 20
1075.35908
 30
0.0
 11
189.921717
 21
1075.35908
 31
0.0
  0
LINE
  5
357
100
AcDbEntity
  8
SIZE
  6
CONTINUOUS
 62
    30
100
AcDbLine
 10
657.972373
 20
809.358576
 30
0.0
 11
67.336382
 21
809.358576
 31
0.0
  0
LINE
  5
358
100
AcDbEntity
  8
SIZE
  6
CONTINUOUS
 62
    30
100
AcDbLine
 10
743.164681
 20
1075.35908
 30
0.0
 11
67.336382
 21
1075.35908
 31
0.0
  0
LINE
  5
359
100
AcDbEntity
  8
SIZE
  6
CONTINUOUS
 62
    30
100
AcDbLine
 10
639.972373
 20
953.358576
 30
0.0
 11
304.815938
 21
953.358576
 31
0.0
  0
LINE
  5
35A
100
AcDbEntity
  8
SIZE
  6
CONTINUOUS
 62
    30
100
AcDbLine
 10
743.164681
 20
1075.35908
 30
0.0
 11
304.815938
 21
1075.35908
 31
0.0
  0
TEXT
  5
35B
100
AcDbEntity
  8
SIZE
  6
CONTINUOUS
 62
    30
100
AcDbText
 10
204.921717
 20
918.877562
 30
0.0
 40
55.0
  1
190
 50
90.0
 41
0.9
 72
     1
 11
204.921717
 21
977.806133
 31
0.0
100
AcDbText
  0
LINE
  5
35C
100
AcDbEntity
  8
SIZE
  6
CONTINUOUS
 62
    30
100
AcDbLine
 10
219.921717
 20
1065.35908
 30
0.0
 11
219.921717
 21
895.35908
 31
0.0
  0
LINE
  5
35D
100
AcDbEntity
  8
SIZE
  6
CONTINUOUS
 62
    30
100
AcDbLine
 10
97.336382
 20
1065.35908
 30
0.0
 11
97.336382
 21
819.358576
 31
0.0
  0
TEXT
  5
35E
100
AcDbEntity
  8
SIZE
  6
CONTINUOUS
 62
    30
100
AcDbText
 10
319.815938
 20
955.430257
 30
0.0
 40
55.0
  1
122
 50
90.0
 41
0.9
 72
     1
 11
319.815938
 21
1014.358828
 31
0.0
100
AcDbText
  0
LINE
  5
35F
100
AcDbEntity
  8
SIZE
  6
CONTINUOUS
 62
    30
100
AcDbLine
 10
334.815938
 20
1065.35908
 30
0.0
 11
334.815938
 21
963.358576
 31
0.0
  0
TEXT
  5
360
100
AcDbEntity
  8
SIZE
  6
CONTINUOUS
 62
    30
100
AcDbText
 10
82.336382
 20
865.219154
 30
0.0
 40
55.0
  1
266
 50
90.0
 41
0.9
 72
     1
 11
82.336382
 21
927.683439
 31
0.0
100
AcDbText
  0
POINT
  5
361
100
AcDbEntity
  8
DEFPOINTS
  6
CONTINUOUS
 62
     7
100
AcDbPoint
 10
97.336382
 20
809.358576
 30
0.0
  0
LINE
  5
362
100
AcDbEntity
  8
SIZE
  6
CONTINUOUS
 62
    30
100
AcDbLine
 10
97.336382
 20
814.358576
 30
0.0
 11
97.336382
 21
819.358576
 31
0.0
  0
CIRCLE
  5
363
100
AcDbEntity
  8
SIZE
  6
CONTINUOUS
 62
    30
100
AcDbCircle
 10
97.336382
 20
809.358576
 30
0.0
 40
5.0
  0
CIRCLE
  5
364
100
AcDbEntity
  8
SIZE
  6
CONTINUOUS
 62
    30
100
AcDbCircle
 10
219.921717
 20
885.35908
 30
0.0
 40
5.0
  0
POINT
  5
365
100
AcDbEntity
  8
DEFPOINTS
  6
CONTINUOUS
 62
     7
100
AcDbPoint
 10
219.921717
 20
885.35908
 30
0.0
  0
LINE
  5
366
100
AcDbEntity
  8
SIZE
  6
CONTINUOUS
 62
    30
100
AcDbLine
 10
219.921717
 20
890.35908
 30
0.0
 11
219.921717
 21
895.35908
 31
0.0
  0
POINT
  5
367
100
AcDbEntity
  8
DEFPOINTS
  6
CONTINUOUS
 62
     7
100
AcDbPoint
 10
334.815938
 20
953.358576
 30
0.0
  0
LINE
  5
368
100
AcDbEntity
  8
SIZE
  6
CONTINUOUS
 62
    30
100
AcDbLine
 10
334.815938
 20
958.358576
 30
0.0
 11
334.815938
 21
963.358576
 31
0.0
  0
CIRCLE
  5
369
100
AcDbEntity
  8
SIZE
  6
CONTINUOUS
 62
    30
100
AcDbCircle
 10
334.815938
 20
953.358576
 30
0.0
 40
5.0
  0
LINE
  5
36A
100
AcDbEntity
  8
SIZE
  6
CONTINUOUS
 62
    30
100
AcDbLine
 10
97.336382
 20
1070.35908
 30
0.0
 11
97.336382
 21
1065.35908
 31
0.0
  0
CIRCLE
  5
36B
100
AcDbEntity
  8
SIZE
  6
CONTINUOUS
 62
    30
100
AcDbCircle
 10
97.336382
 20
1075.35908
 30
0.0
 40
5.0
  0
LINE
  5
36C
100
AcDbEntity
  8
SIZE
  6
CONTINUOUS
 62
    30
100
AcDbLine
 10
219.921717
 20
1070.35908
 30
0.0
 11
219.921717
 21
1065.35908
 31
0.0
  0
CIRCLE
  5
36D
100
AcDbEntity
  8
SIZE
  6
CONTINUOUS
 62
    30
100
AcDbCircle
 10
219.921717
 20
1075.35908
 30
0.0
 40
5.0
  0
LINE
  5
36E
100
AcDbEntity
  8
SIZE
  6
CONTINUOUS
 62
    30
100
AcDbLine
 10
334.815938
 20
1070.35908
 30
0.0
 11
334.815938
 21
1065.35908
 31
0.0
  0
CIRCLE
  5
36F
100
AcDbEntity
  8
SIZE
  6
CONTINUOUS
 62
    30
100
AcDbCircle
 10
334.815938
 20
1075.35908
 30
0.0
 40
5.0
  0
LINE
  5
370
100
AcDbEntity
  8
SIZE
  6
CONTINUOUS
 62
    30
100
AcDbLine
 10
459.520295
 20
1025.358576
 30
0.0
 11
459.520295
 21
1065.35908
 31
0.0
  0
LINE
  5
371
100
AcDbEntity
  8
OUTLINE
  6
CONTINUOUS
 62
     3
100
AcDbLine
 10
763.164681
 20
776.35908
 30
0.0
 11
763.164681
 21
1075.35908
 31
0.0
  0
LINE
  5
372
100
AcDbEntity
  8
NOTE
  6
CONTINUOUS
 62
     4
100
AcDbLine
 10
552.865712
 20
1288.315071
 30
0.0
 11
696.165806
 21
953.358141
 31
0.0
  0
LINE
  5
373
100
AcDbEntity
  8
NOTE
  6
CONTINUOUS
 62
     4
100
AcDbLine
 10
703.164537
 20
1015.358272
 30
0.0
 11
707.92358
 21
1049.412657
 31
0.0
  0
LINE
  5
374
100
AcDbEntity
  8
NOTE
  6
CONTINUOUS
 62
     4
100
AcDbLine
 10
703.164537
 20
1015.358272
 30
0.0
 11
690.258796
 21
1047.229756
 31
0.0
  0
LINE
  5
375
100
AcDbEntity
  8
NOTE
  6
CONTINUOUS
 62
     4
100
AcDbLine
 10
703.164681
 20
1040.550884
 30
0.0
 11
703.164681
 21
990.166268
 31
0.0
  0
LINE
  5
376
100
AcDbEntity
  8
DETAIL
  6
CONTINUOUS
 62
     5
100
AcDbLine
 10
763.164681
 20
776.35908
 30
0.0
 11
763.164681
 21
1075.35908
 31
0.0
  0
LINE
  5
377
100
AcDbEntity
  8
DETAIL
  6
CONTINUOUS
 62
     5
100
AcDbLine
 10
763.164681
 20
1073.75908
 30
0.0
 11
763.164681
 21
783.75908
 31
0.0
  0
LINE
  5
378
100
AcDbEntity
  8
SIZE
  6
CONTINUOUS
 62
    30
100
AcDbLine
 10
657.972373
 20
1015.358576
 30
0.0
 11
429.520295
 21
1015.358576
 31
0.0
  0
LINE
  5
379
100
AcDbEntity
  8
OUTLINE
  6
CONTINUOUS
 62
     3
100
AcDbLine
 10
491.164681
 20
776.35908
 30
0.0
 11
763.164681
 21
776.35908
 31
0.0
  0
LINE
  5
37A
100
AcDbEntity
  8
OUTLINE
  6
CONTINUOUS
 62
     3
100
AcDbLine
 10
471.164681
 20
731.35908
 30
0.0
 11
491.164681
 21
731.35908
 31
0.0
  0
LINE
  5
37B
100
AcDbEntity
  8
NOTE
  6
CONTINUOUS
 62
     4
100
AcDbLine
 10
476.017495
 20
731.35908
 30
0.0
 11
491.017495
 21
746.35908
 31
0.0
  0
LINE
  5
37C
100
AcDbEntity
  8
NOTE
  6
CONTINUOUS
 62
     4
100
AcDbLine
 10
391.164681
 20
731.35908
 30
0.0
 11
491.164681
 21
731.35908
 31
0.0
  0
LINE
  5
37D
100
AcDbEntity
  8
NOTE
  6
CONTINUOUS
 62
     4
100
AcDbLine
 10
391.164681
 20
746.35908
 30
0.0
 11
491.164681
 21
746.35908
 31
0.0
  0
LINE
  5
37E
100
AcDbEntity
  8
NOTE
  6
CONTINUOUS
 62
     4
100
AcDbLine
 10
461.875359
 20
731.35908
 30
0.0
 11
476.875359
 21
746.35908
 31
0.0
  0
LINE
  5
37F
100
AcDbEntity
  8
NOTE
  6
CONTINUOUS
 62
     4
100
AcDbLine
 10
419.448952
 20
731.35908
 30
0.0
 11
434.448952
 21
746.35908
 31
0.0
  0
LINE
  5
380
100
AcDbEntity
  8
NOTE
  6
CONTINUOUS
 62
     4
100
AcDbLine
 10
405.306817
 20
731.35908
 30
0.0
 11
420.306817
 21
746.35908
 31
0.0
  0
LINE
  5
381
100
AcDbEntity
  8
NOTE
  6
CONTINUOUS
 62
     4
100
AcDbLine
 10
391.164681
 20
731.35908
 30
0.0
 11
406.164681
 21
746.35908
 31
0.0
  0
POINT
  5
382
100
AcDbEntity
  8
DEFPOINTS
  6
CONTINUOUS
 62
     7
100
AcDbPoint
 10
491.164681
 20
731.35908
 30
0.0
  0
POINT
  5
383
100
AcDbEntity
  8
DEFPOINTS
  6
CONTINUOUS
 62
     7
100
AcDbPoint
 10
491.164681
 20
731.35908
 30
0.0
  0
LINE
  5
384
100
AcDbEntity
  8
OUTLINE
  6
CONTINUOUS
 62
     3
100
AcDbLine
 10
490.15963
 20
731.35908
 30
0.0
 11
491.164681
 21
732.364131
 31
0.0
  0
LINE
  5
385
100
AcDbEntity
  8
OUTLINE
  6
CONTINUOUS
 62
     3
100
AcDbLine
 10
491.164681
 20
731.35908
 30
0.0
 11
491.164681
 21
776.35908
 31
0.0
  0
LINE
  5
386
100
AcDbEntity
  8
NOTE
  6
CONTINUOUS
 62
     4
100
AcDbLine
 10
490.15963
 20
731.35908
 30
0.0
 11
491.164681
 21
732.364131
 31
0.0
  0
LINE
  5
387
100
AcDbEntity
  8
NOTE
  6
CONTINUOUS
 62
     4
100
AcDbLine
 10
491.164681
 20
731.35908
 30
0.0
 11
491.164681
 21
746.35908
 31
0.0
  0
LINE
  5
388
100
AcDbEntity
  8
DETAIL
  6
CONTINUOUS
 62
     5
100
AcDbLine
 10
491.164681
 20
731.35908
 30
0.0
 11
491.164681
 21
776.35908
 31
0.0
  0
POINT
  5
389
100
AcDbEntity
  8
DEFPOINTS
  6
CONTINUOUS
 62
     7
100
AcDbPoint
 10
459.520295
 20
1015.358576
 30
0.0
  0
LINE
  5
38A
100
AcDbEntity
  8
SIZE
  6
CONTINUOUS
 62
    30
100
AcDbLine
 10
459.520295
 20
1020.358576
 30
0.0
 11
459.520295
 21
1025.358576
 31
0.0
  0
CIRCLE
  5
38B
100
AcDbEntity
  8
SIZE
  6
CONTINUOUS
 62
    30
100
AcDbCircle
 10
459.520295
 20
1015.358576
 30
0.0
 40
5.0
  0
LINE
  5
38C
100
AcDbEntity
  8
NOTE
  6
CONTINUOUS
 62
     4
100
AcDbLine
 10
739.16436
 20
885.359677
 30
0.0
 11
755.45043
 21
855.075794
 31
0.0
  0
LINE
  5
38D
100
AcDbEntity
  8
NOTE
  6
CONTINUOUS
 62
     4
100
AcDbLine
 10
739.16436
 20
885.359677
 30
0.0
 11
768.410452
 21
867.2761
 31
0.0
  0
CIRCLE
  5
38E
100
AcDbEntity
  8
FIX
  6
CONTINUOUS
 62
    11
100
AcDbCircle
 10
739.164681
 20
885.35908
 30
0.0
 40
14.940051
  0
LINE
  5
38F
100
AcDbEntity
  8
NOTE
  6
CONTINUOUS
 62
     4
100
AcDbLine
 10
739.164681
 20
903.35908
 30
0.0
 11
739.164681
 21
867.35908
 31
0.0
  0
LINE
  5
390
100
AcDbEntity
  8
DETAIL
  6
CONTINUOUS
 62
     5
100
AcDbLine
 10
713.164681
 20
873.35908
 30
0.0
 11
713.164681
 21
883.05908
 31
0.0
  0
LINE
  5
391
100
AcDbEntity
  8
DETAIL
  6
CONTINUOUS
 62
     5
100
AcDbLine
 10
763.164681
 20
883.05908
 30
0.0
 11
763.164681
 21
844.65908
 31
0.0
  0
LINE
  5
392
100
AcDbEntity
  8
DETAIL
  6
CONTINUOUS
 62
     5
100
AcDbLine
 10
760.864681
 20
883.05908
 30
0.0
 11
760.864681
 21
844.65908
 31
0.0
  0
LINE
  5
393
100
AcDbEntity
  8
DETAIL
  6
CONTINUOUS
 62
     5
100
AcDbLine
 10
715.464681
 20
873.35908
 30
0.0
 11
715.464681
 21
883.05908
 31
0.0
  0
LINE
  5
394
100
AcDbEntity
  8
NOTE
  6
CONTINUOUS
 62
     4
100
AcDbLine
 10
703.164479
 20
809.357381
 30
0.0
 11
713.414404
 21
776.535304
 31
0.0
  0
LINE
  5
395
100
AcDbEntity
  8
NOTE
  6
CONTINUOUS
 62
     4
100
AcDbLine
 10
703.164479
 20
809.357381
 30
0.0
 11
728.452213
 21
786.057592
 31
0.0
  0
LINE
  5
396
100
AcDbEntity
  8
NOTE
  6
CONTINUOUS
 62
     4
100
AcDbLine
 10
677.972373
 20
809.358576
 30
0.0
 11
728.356989
 21
809.358576
 31
0.0
  0
LINE
  5
397
100
AcDbEntity
  8
DETAIL
  6
CONTINUOUS
 62
     5
100
AcDbLine
 10
703.164681
 20
795.358576
 30
0.0
 11
763.164681
 21
795.358576
 31
0.0
  0
LINE
  5
398
100
AcDbEntity
  8
DETAIL
  6
CONTINUOUS
 62
     5
100
AcDbLine
 10
703.164681
 20
823.358576
 30
0.0
 11
763.164681
 21
823.358576
 31
0.0
  0
POINT
  5
399
100
AcDbEntity
  8
DEFPOINTS
  6
CONTINUOUS
 62
     7
100
AcDbPoint
 10
677.972373
 20
809.358576
 30
0.0
  0
LINE
  5
39A
100
AcDbEntity
  8
NOTE
  6
CONTINUOUS
 62
     4
100
AcDbLine
 10
703.164681
 20
834.550884
 30
0.0
 11
703.164681
 21
784.166268
 31
0.0
  0
LINE
  5
39B
100
AcDbEntity
  8
DETAIL
  6
CONTINUOUS
 62
     5
100
AcDbLine
 10
703.164681
 20
795.358576
 30
0.0
 11
703.164681
 21
823.358576
 31
0.0
  0
POINT
  5
39C
100
AcDbEntity
  8
DEFPOINTS
  6
CONTINUOUS
 62
     7
100
AcDbPoint
 10
739.164681
 20
867.35908
 30
0.0
  0
POINT
  5
39D
100
AcDbEntity
  8
DEFPOINTS
  6
CONTINUOUS
 62
     7
100
AcDbPoint
 10
739.164681
 20
867.35908
 30
0.0
  0
POINT
  5
39E
100
AcDbEntity
  8
DEFPOINTS
  6
CONTINUOUS
 62
     7
100
AcDbPoint
 10
763.164681
 20
776.35908
 30
0.0
  0
POINT
  5
39F
100
AcDbEntity
  8
DEFPOINTS
  6
CONTINUOUS
 62
     7
100
AcDbPoint
 10
763.164681
 20
776.35908
 30
0.0
  0
POINT
  5
3A0
100
AcDbEntity
  8
DEFPOINTS
  6
CONTINUOUS
 62
     7
100
AcDbPoint
 10
763.164681
 20
776.35908
 30
0.0
  0
LINE
  5
3A1
100
AcDbEntity
  8
DETAIL
  6
CONTINUOUS
 62
     5
100
AcDbLine
 10
760.864681
 20
844.65908
 30
0.0
 11
763.164681
 21
844.65908
 31
0.0
  0
LINE
  5
3A2
100
AcDbEntity
  8
DETAIL
  6
CONTINUOUS
 62
     5
100
AcDbLine
 10
713.164681
 20
873.35908
 30
0.0
 11
715.464681
 21
873.35908
 31
0.0
  0
LINE
  5
3A3
100
AcDbEntity
  8
NOTE
  6
CONTINUOUS
 62
     4
100
AcDbLine
 10
670.972373
 20
953.358576
 30
0.0
 11
721.356989
 21
953.358576
 31
0.0
  0
LINE
  5
3A4
100
AcDbEntity
  8
NOTE
  6
CONTINUOUS
 62
     4
100
AcDbLine
 10
677.972373
 20
1015.358576
 30
0.0
 11
728.356989
 21
1015.358576
 31
0.0
  0
LINE
  5
3A5
100
AcDbEntity
  8
DETAIL
  6
CONTINUOUS
 62
     5
100
AcDbLine
 10
763.164681
 20
975.85908
 30
0.0
 11
649.964681
 21
975.85908
 31
0.0
  0
LINE
  5
3A6
100
AcDbEntity
  8
DETAIL
  6
CONTINUOUS
 62
     5
100
AcDbLine
 10
703.164681
 20
1001.358576
 30
0.0
 11
763.164681
 21
1001.358576
 31
0.0
  0
LINE
  5
3A7
100
AcDbEntity
  8
DETAIL
  6
CONTINUOUS
 62
     5
100
AcDbLine
 10
703.164681
 20
1029.358576
 30
0.0
 11
763.164681
 21
1029.358576
 31
0.0
  0
LINE
  5
3A8
100
AcDbEntity
  8
DETAIL
  6
CONTINUOUS
 62
     5
100
AcDbLine
 10
763.164681
 20
901.25054
 30
0.0
 11
648.022336
 21
925.280247
 31
0.0
  0
LINE
  5
3A9
100
AcDbEntity
  8
DETAIL
  6
CONTINUOUS
 62
     5
100
AcDbLine
 10
651.980536
 20
929.561912
 30
0.0
 11
763.164681
 21
906.358264
 31
0.0
  0
POINT
  5
3AA
100
AcDbEntity
  8
DEFPOINTS
  6
CONTINUOUS
 62
     7
100
AcDbPoint
 10
659.972373
 20
953.358576
 30
0.0
  0
POINT
  5
3AB
100
AcDbEntity
  8
DEFPOINTS
  6
CONTINUOUS
 62
     7
100
AcDbPoint
 10
677.972373
 20
1015.358576
 30
0.0
  0
POINT
  5
3AC
100
AcDbEntity
  8
DEFPOINTS
  6
CONTINUOUS
 62
     7
100
AcDbPoint
 10
685.164681
 20
928.166268
 30
0.0
  0
POINT
  5
3AD
100
AcDbEntity
  8
DEFPOINTS
  6
CONTINUOUS
 62
     7
100
AcDbPoint
 10
696.164681
 20
928.166268
 30
0.0
  0
POINT
  5
3AE
100
AcDbEntity
  8
DEFPOINTS
  6
CONTINUOUS
 62
     7
100
AcDbPoint
 10
703.164681
 20
990.166268
 30
0.0
  0
LINE
  5
3AF
100
AcDbEntity
  8
NOTE
  6
CONTINUOUS
 62
     4
100
AcDbLine
 10
685.163639
 20
953.357571
 30
0.0
 11
657.613151
 21
932.782821
 31
0.0
  0
LINE
  5
3B0
100
AcDbEntity
  8
NOTE
  6
CONTINUOUS
 62
     4
100
AcDbLine
 10
685.163639
 20
953.357571
 30
0.0
 11
671.591592
 21
921.764071
 31
0.0
  0
LINE
  5
3B1
100
AcDbEntity
  8
NOTE
  6
CONTINUOUS
 62
     4
100
AcDbLine
 10
685.164681
 20
978.550884
 30
0.0
 11
685.164681
 21
928.166268
 31
0.0
  0
LINE
  5
3B2
100
AcDbEntity
  8
NOTE
  6
CONTINUOUS
 62
     4
100
AcDbLine
 10
659.972373
 20
953.358576
 30
0.0
 11
710.356989
 21
953.358576
 31
0.0
  0
LINE
  5
3B3
100
AcDbEntity
  8
NOTE
  6
CONTINUOUS
 62
     4
100
AcDbLine
 10
696.165556
 20
953.358675
 30
0.0
 11
691.356498
 21
987.406034
 31
0.0
  0
LINE
  5
3B4
100
AcDbEntity
  8
NOTE
  6
CONTINUOUS
 62
     4
100
AcDbLine
 10
696.165556
 20
953.358675
 30
0.0
 11
674.97711
 21
980.440023
 31
0.0
  0
LINE
  5
3B5
100
AcDbEntity
  8
NOTE
  6
CONTINUOUS
 62
     4
100
AcDbLine
 10
696.164681
 20
978.550884
 30
0.0
 11
696.164681
 21
928.166268
 31
0.0
  0
LINE
  5
3B6
100
AcDbEntity
  8
DETAIL
  6
CONTINUOUS
 62
     5
100
AcDbLine
 10
703.164681
 20
1001.358576
 30
0.0
 11
703.164681
 21
1029.358576
 31
0.0
  0
ARC
  5
3B7
100
AcDbEntity
  8
DETAIL
  6
CONTINUOUS
 62
     5
100
AcDbCircle
 10
656.97723
 20
929.029896
 30
0.0
 40
7.5
100
AcDbArc
 50
221.341919
 51
295.081714
  0
LINE
  5
3B8
100
AcDbEntity
  8
DETAIL
  6
CONTINUOUS
 62
     5
100
AcDbLine
 10
660.156558
 20
922.237115
 30
0.0
 11
660.258705
 21
922.726569
 31
0.0
  0
LINE
  5
3B9
100
AcDbEntity
  8
DETAIL
  6
CONTINUOUS
 62
     5
100
AcDbLine
 10
651.346372
 20
924.075762
 30
0.0
 11
651.44852
 21
924.565217
 31
0.0
  0
LINE
  5
3BA
100
AcDbEntity
  8
DETAIL
  6
CONTINUOUS
 62
     5
100
AcDbLine
 10
660.156558
 20
922.237115
 30
0.0
 11
651.346372
 21
924.075762
 31
0.0
  0
LINE
  5
3BB
100
AcDbEntity
  8
DETAIL
  6
CONTINUOUS
 62
     5
100
AcDbLine
 10
660.258705
 20
922.726569
 30
0.0
 11
651.44852
 21
924.565217
 31
0.0
  0
LINE
  5
3BC
100
AcDbEntity
  8
DETAIL
  6
CONTINUOUS
 62
     5
100
AcDbLine
 10
649.164681
 20
928.66158
 30
0.0
 11
649.164681
 21
975.05908
 31
0.0
  0
LINE
  5
3BD
100
AcDbEntity
  8
DETAIL
  6
CONTINUOUS
 62
     5
100
AcDbLine
 10
649.964681
 20
929.276913
 30
0.0
 11
649.964681
 21
975.85908
 31
0.0
  0
ARC
  5
3BE
100
AcDbEntity
  8
DETAIL
  6
CONTINUOUS
 62
     5
100
AcDbCircle
 10
649.964681
 20
975.05908
 30
0.0
 40
0.8
100
AcDbArc
 50
90.0
 51
180.0
  0
LINE
  5
3BF
100
AcDbEntity
  8
DETAIL
  6
CONTINUOUS
 62
     5
100
AcDbLine
 10
648.022336
 20
925.280247
 30
0.0
 11
648.430924
 21
927.238066
 31
0.0
  0
ARC
  5
3C0
100
AcDbEntity
  8
DETAIL
  6
CONTINUOUS
 62
     5
100
AcDbCircle
 10
651.367653
 20
926.625183
 30
0.0
 40
3.0
100
AcDbArc
 50
78.211817
 51
168.211817
  0
LINE
  5
3C1
100
AcDbEntity
  8
DETAIL
  6
CONTINUOUS
 62
     5
100
AcDbLine
 10
649.164681
 20
932.85908
 30
0.0
 11
647.164681
 21
932.85908
 31
0.0
  0
LINE
  5
3C2
100
AcDbEntity
  8
DETAIL
  6
CONTINUOUS
 62
     5
100
AcDbLine
 10
649.164681
 20
966.85908
 30
0.0
 11
647.164681
 21
966.85908
 31
0.0
  0
LINE
  5
3C3
100
AcDbEntity
  8
DETAIL
  6
CONTINUOUS
 62
     5
100
AcDbLine
 10
644.164681
 20
963.85908
 30
0.0
 11
644.164681
 21
935.85908
 31
0.0
  0
ARC
  5
3C4
100
AcDbEntity
  8
DETAIL
  6
CONTINUOUS
 62
     5
100
AcDbCircle
 10
647.164681
 20
935.85908
 30
0.0
 40
3.0
100
AcDbArc
 50
180.0
 51
270.0
  0
ARC
  5
3C5
100
AcDbEntity
  8
DETAIL
  6
CONTINUOUS
 62
     5
100
AcDbCircle
 10
647.164681
 20
963.85908
 30
0.0
 40
3.0
100
AcDbArc
 50
90.0
 51
180.0
  0
LINE
  5
3C6
100
AcDbEntity
  8
DETAIL
  6
CONTINUOUS
 62
     5
100
AcDbLine
 10
649.164681
 20
966.85908
 30
0.0
 11
649.164681
 21
932.85908
 31
0.0
  0
POINT
  5
3C7
100
AcDbEntity
  8
DEFPOINTS
  6
CONTINUOUS
 62
     7
100
AcDbPoint
 10
721.164681
 20
885.35908
 30
0.0
  0
LINE
  5
3C8
100
AcDbEntity
  8
NOTE
  6
CONTINUOUS
 62
     4
100
AcDbLine
 10
721.164681
 20
885.35908
 30
0.0
 11
757.164681
 21
885.35908
 31
0.0
  0
POLYLINE
  5
3C9
100
AcDbEntity
  8
DETAIL
  6
CONTINUOUS
 62
     5
100
AcDb2dPolyline
 66
     1
 10
0.0
 20
0.0
 30
0.0
  0
VERTEX
  5
3CA
100
AcDbEntity
  8
DETAIL
  6
CONTINUOUS
 62
     5
100
AcDbVertex
100
AcDb2dVertex
 10
752.364681
 20
978.859081
 30
0.0
  0
VERTEX
  5
3CB
100
AcDbEntity
  8
DETAIL
  6
CONTINUOUS
 62
     5
100
AcDbVertex
100
AcDb2dVertex
 10
752.395424
 20
979.054171
 30
0.0
  0
VERTEX
  5
3CC
100
AcDbEntity
  8
DETAIL
  6
CONTINUOUS
 62
     5
100
AcDbVertex
100
AcDb2dVertex
 10
752.486474
 20
979.241764
 30
0.0
  0
VERTEX
  5
3CD
100
AcDbEntity
  8
DETAIL
  6
CONTINUOUS
 62
     5
100
AcDbVertex
100
AcDb2dVertex
 10
752.63433
 20
979.41465
 30
0.0
  0
VERTEX
  5
3CE
100
AcDbEntity
  8
DETAIL
  6
CONTINUOUS
 62
     5
100
AcDbVertex
100
AcDb2dVertex
 10
752.83331
 20
979.566187
 30
0.0
  0
VERTEX
  5
3CF
100
AcDbEntity
  8
DETAIL
  6
CONTINUOUS
 62
     5
100
AcDbVertex
100
AcDb2dVertex
 10
753.075769
 20
979.69055
 30
0.0
  0
VERTEX
  5
3D0
100
AcDbEntity
  8
DETAIL
  6
CONTINUOUS
 62
     5
100
AcDbVertex
100
AcDb2dVertex
 10
753.352387
 20
979.78296
 30
0.0
  0
VERTEX
  5
3D1
100
AcDbEntity
  8
DETAIL
  6
CONTINUOUS
 62
     5
100
AcDbVertex
100
AcDb2dVertex
 10
753.652536
 20
979.839865
 30
0.0
  0
VERTEX
  5
3D2
100
AcDbEntity
  8
DETAIL
  6
CONTINUOUS
 62
     5
100
AcDbVertex
100
AcDb2dVertex
 10
753.96468
 20
979.85908
 30
0.0
  0
VERTEX
  5
3D3
100
AcDbEntity
  8
DETAIL
  6
CONTINUOUS
 62
     5
100
AcDbVertex
100
AcDb2dVertex
 10
754.276825
 20
979.839865
 30
0.0
  0
VERTEX
  5
3D4
100
AcDbEntity
  8
DETAIL
  6
CONTINUOUS
 62
     5
100
AcDbVertex
100
AcDb2dVertex
 10
754.576974
 20
979.78296
 30
0.0
  0
VERTEX
  5
3D5
100
AcDbEntity
  8
DETAIL
  6
CONTINUOUS
 62
     5
100
AcDbVertex
100
AcDb2dVertex
 10
754.853592
 20
979.69055
 30
0.0
  0
VERTEX
  5
3D6
100
AcDbEntity
  8
DETAIL
  6
CONTINUOUS
 62
     5
100
AcDbVertex
100
AcDb2dVertex
 10
755.096051
 20
979.566187
 30
0.0
  0
VERTEX
  5
3D7
100
AcDbEntity
  8
DETAIL
  6
CONTINUOUS
 62
     5
100
AcDbVertex
100
AcDb2dVertex
 10
755.295031
 20
979.414651
 30
0.0
  0
VERTEX
  5
3D8
100
AcDbEntity
  8
DETAIL
  6
CONTINUOUS
 62
     5
100
AcDbVertex
100
AcDb2dVertex
 10
755.442887
 20
979.241764
 30
0.0
  0
VERTEX
  5
3D9
100
AcDbEntity
  8
DETAIL
  6
CONTINUOUS
 62
     5
100
AcDbVertex
100
AcDb2dVertex
 10
755.533936
 20
979.054171
 30
0.0
  0
VERTEX
  5
3DA
100
AcDbEntity
  8
DETAIL
  6
CONTINUOUS
 62
     5
100
AcDbVertex
100
AcDb2dVertex
 10
755.56468
 20
978.859081
 30
0.0
  0
SEQEND
  5
3DB
100
AcDbEntity
  8
DETAIL
  6
CONTINUOUS
 62
     5
  0
POLYLINE
  5
3DC
100
AcDbEntity
  8
DETAIL
  6
CONTINUOUS
 62
     5
100
AcDb2dPolyline
 66
     1
 10
0.0
 20
0.0
 30
0.0
  0
VERTEX
  5
3DD
100
AcDbEntity
  8
DETAIL
  6
CONTINUOUS
 62
     5
100
AcDbVertex
100
AcDb2dVertex
 10
742.764683
 20
978.859081
 30
0.0
  0
VERTEX
  5
3DE
100
AcDbEntity
  8
DETAIL
  6
CONTINUOUS
 62
     5
100
AcDbVertex
100
AcDb2dVertex
 10
742.795427
 20
979.054171
 30
0.0
  0
VERTEX
  5
3DF
100
AcDbEntity
  8
DETAIL
  6
CONTINUOUS
 62
     5
100
AcDbVertex
100
AcDb2dVertex
 10
742.886476
 20
979.241764
 30
0.0
  0
VERTEX
  5
3E0
100
AcDbEntity
  8
DETAIL
  6
CONTINUOUS
 62
     5
100
AcDbVertex
100
AcDb2dVertex
 10
743.034332
 20
979.414651
 30
0.0
  0
VERTEX
  5
3E1
100
AcDbEntity
  8
DETAIL
  6
CONTINUOUS
 62
     5
100
AcDbVertex
100
AcDb2dVertex
 10
743.233313
 20
979.566187
 30
0.0
  0
VERTEX
  5
3E2
100
AcDbEntity
  8
DETAIL
  6
CONTINUOUS
 62
     5
100
AcDbVertex
100
AcDb2dVertex
 10
743.475771
 20
979.69055
 30
0.0
  0
VERTEX
  5
3E3
100
AcDbEntity
  8
DETAIL
  6
CONTINUOUS
 62
     5
100
AcDbVertex
100
AcDb2dVertex
 10
743.75239
 20
979.78296
 30
0.0
  0
VERTEX
  5
3E4
100
AcDbEntity
  8
DETAIL
  6
CONTINUOUS
 62
     5
100
AcDbVertex
100
AcDb2dVertex
 10
744.052539
 20
979.839865
 30
0.0
  0
VERTEX
  5
3E5
100
AcDbEntity
  8
DETAIL
  6
CONTINUOUS
 62
     5
100
AcDbVertex
100
AcDb2dVertex
 10
744.364683
 20
979.85908
 30
0.0
  0
VERTEX
  5
3E6
100
AcDbEntity
  8
DETAIL
  6
CONTINUOUS
 62
     5
100
AcDbVertex
100
AcDb2dVertex
 10
744.676827
 20
979.839865
 30
0.0
  0
VERTEX
  5
3E7
100
AcDbEntity
  8
DETAIL
  6
CONTINUOUS
 62
     5
100
AcDbVertex
100
AcDb2dVertex
 10
744.976976
 20
979.782959
 30
0.0
  0
VERTEX
  5
3E8
100
AcDbEntity
  8
DETAIL
  6
CONTINUOUS
 62
     5
100
AcDbVertex
100
AcDb2dVertex
 10
745.253594
 20
979.690549
 30
0.0
  0
VERTEX
  5
3E9
100
AcDbEntity
  8
DETAIL
  6
CONTINUOUS
 62
     5
100
AcDbVertex
100
AcDb2dVertex
 10
745.496053
 20
979.566187
 30
0.0
  0
VERTEX
  5
3EA
100
AcDbEntity
  8
DETAIL
  6
CONTINUOUS
 62
     5
100
AcDbVertex
100
AcDb2dVertex
 10
745.695033
 20
979.41465
 30
0.0
  0
VERTEX
  5
3EB
100
AcDbEntity
  8
DETAIL
  6
CONTINUOUS
 62
     5
100
AcDbVertex
100
AcDb2dVertex
 10
745.842889
 20
979.241763
 30
0.0
  0
VERTEX
  5
3EC
100
AcDbEntity
  8
DETAIL
  6
CONTINUOUS
 62
     5
100
AcDbVertex
100
AcDb2dVertex
 10
745.933938
 20
979.05417
 30
0.0
  0
VERTEX
  5
3ED
100
AcDbEntity
  8
DETAIL
  6
CONTINUOUS
 62
     5
100
AcDbVertex
100
AcDb2dVertex
 10
745.964681
 20
978.85908
 30
0.0
  0
SEQEND
  5
3EE
100
AcDbEntity
  8
DETAIL
  6
CONTINUOUS
 62
     5
  0
POLYLINE
  5
3EF
100
AcDbEntity
  8
DETAIL
  6
CONTINUOUS
 62
     5
100
AcDb2dPolyline
 66
     1
 10
0.0
 20
0.0
 30
0.0
  0
VERTEX
  5
3F0
100
AcDbEntity
  8
DETAIL
  6
CONTINUOUS
 62
     5
100
AcDbVertex
100
AcDb2dVertex
 10
745.964681
 20
978.85908
 30
0.0
  0
VERTEX
  5
3F1
100
AcDbEntity
  8
DETAIL
  6
CONTINUOUS
 62
     5
100
AcDbVertex
100
AcDb2dVertex
 10
746.026168
 20
979.05417
 30
0.0
  0
VERTEX
  5
3F2
100
AcDbEntity
  8
DETAIL
  6
CONTINUOUS
 62
     5
100
AcDbVertex
100
AcDb2dVertex
 10
746.208267
 20
979.241763
 30
0.0
  0
VERTEX
  5
3F3
100
AcDbEntity
  8
DETAIL
  6
CONTINUOUS
 62
     5
100
AcDbVertex
100
AcDb2dVertex
 10
746.503978
 20
979.41465
 30
0.0
  0
VERTEX
  5
3F4
100
AcDbEntity
  8
DETAIL
  6
CONTINUOUS
 62
     5
100
AcDbVertex
100
AcDb2dVertex
 10
746.901939
 20
979.566187
 30
0.0
  0
VERTEX
  5
3F5
100
AcDbEntity
  8
DETAIL
  6
CONTINUOUS
 62
     5
100
AcDbVertex
100
AcDb2dVertex
 10
747.386856
 20
979.69055
 30
0.0
  0
VERTEX
  5
3F6
100
AcDbEntity
  8
DETAIL
  6
CONTINUOUS
 62
     5
100
AcDbVertex
100
AcDb2dVertex
 10
747.940094
 20
979.78296
 30
0.0
  0
VERTEX
  5
3F7
100
AcDbEntity
  8
DETAIL
  6
CONTINUOUS
 62
     5
100
AcDbVertex
100
AcDb2dVertex
 10
748.540392
 20
979.839865
 30
0.0
  0
VERTEX
  5
3F8
100
AcDbEntity
  8
DETAIL
  6
CONTINUOUS
 62
     5
100
AcDbVertex
100
AcDb2dVertex
 10
749.164681
 20
979.85908
 30
0.0
  0
VERTEX
  5
3F9
100
AcDbEntity
  8
DETAIL
  6
CONTINUOUS
 62
     5
100
AcDbVertex
100
AcDb2dVertex
 10
749.78897
 20
979.839865
 30
0.0
  0
VERTEX
  5
3FA
100
AcDbEntity
  8
DETAIL
  6
CONTINUOUS
 62
     5
100
AcDbVertex
100
AcDb2dVertex
 10
750.389268
 20
979.78296
 30
0.0
  0
VERTEX
  5
3FB
100
AcDbEntity
  8
DETAIL
  6
CONTINUOUS
 62
     5
100
AcDbVertex
100
AcDb2dVertex
 10
750.942505
 20
979.69055
 30
0.0
  0
VERTEX
  5
3FC
100
AcDbEntity
  8
DETAIL
  6
CONTINUOUS
 62
     5
100
AcDbVertex
100
AcDb2dVertex
 10
751.427422
 20
979.566187
 30
0.0
  0
VERTEX
  5
3FD
100
AcDbEntity
  8
DETAIL
  6
CONTINUOUS
 62
     5
100
AcDbVertex
100
AcDb2dVertex
 10
751.825383
 20
979.41465
 30
0.0
  0
VERTEX
  5
3FE
100
AcDbEntity
  8
DETAIL
  6
CONTINUOUS
 62
     5
100
AcDbVertex
100
AcDb2dVertex
 10
752.121095
 20
979.241764
 30
0.0
  0
VERTEX
  5
3FF
100
AcDbEntity
  8
DETAIL
  6
CONTINUOUS
 62
     5
100
AcDbVertex
100
AcDb2dVertex
 10
752.303194
 20
979.05417
 30
0.0
  0
VERTEX
  5
400
100
AcDbEntity
  8
DETAIL
  6
CONTINUOUS
 62
     5
100
AcDbVertex
100
AcDb2dVertex
 10
752.364681
 20
978.85908
 30
0.0
  0
SEQEND
  5
401
100
AcDbEntity
  8
DETAIL
  6
CONTINUOUS
 62
     5
  0
LINE
  5
402
100
AcDbEntity
  8
DETAIL
  6
CONTINUOUS
 62
     5
100
AcDbLine
 10
755.56468
 20
975.85908
 30
0.0
 11
755.56468
 21
978.85908
 31
0.0
  0
LINE
  5
403
100
AcDbEntity
  8
DETAIL
  6
CONTINUOUS
 62
     5
100
AcDbLine
 10
752.364681
 20
975.85908
 30
0.0
 11
752.364681
 21
978.85908
 31
0.0
  0
LINE
  5
404
100
AcDbEntity
  8
DETAIL
  6
CONTINUOUS
 62
     5
100
AcDbLine
 10
745.964681
 20
975.85908
 30
0.0
 11
745.964681
 21
978.85908
 31
0.0
  0
LINE
  5
405
100
AcDbEntity
  8
DETAIL
  6
CONTINUOUS
 62
     5
100
AcDbLine
 10
742.764683
 20
975.85908
 30
0.0
 11
742.764683
 21
978.85908
 31
0.0
  0
LINE
  5
406
100
AcDbEntity
  8
DETAIL
  6
CONTINUOUS
 62
     5
100
AcDbLine
 10
744.364682
 20
979.85908
 30
0.0
 11
753.96468
 21
979.85908
 31
0.0
  0
LINE
  5
407
100
AcDbEntity
  8
DETAIL
  6
CONTINUOUS
 62
     5
100
AcDbLine
 10
715.464681
 20
885.35908
 30
0.0
 11
760.864681
 21
885.35908
 31
0.0
  0
ARC
  5
408
100
AcDbEntity
  8
DETAIL
  6
CONTINUOUS
 62
     5
100
AcDbCircle
 10
715.464681
 20
883.05908
 30
0.0
 40
2.3
100
AcDbArc
 50
90.0
 51
180.0
  0
ARC
  5
409
100
AcDbEntity
  8
DETAIL
  6
CONTINUOUS
 62
     5
100
AcDbCircle
 10
760.864681
 20
883.05908
 30
0.0
 40
2.3
100
AcDbArc
 50
0.0
 51
90.0
  0
LINE
  5
40A
100
AcDbEntity
  8
DETAIL
  6
CONTINUOUS
 62
     5
100
AcDbLine
 10
715.464681
 20
883.05908
 30
0.0
 11
760.864681
 21
883.05908
 31
0.0
  0
ARC
  5
40B
100
AcDbEntity
  8
DETAIL
  6
CONTINUOUS
 62
     5
100
AcDbCircle
 10
762.364681
 20
883.978457
 30
0.0
 40
0.8
100
AcDbArc
 50
335.031248
 51
0.0
  0
LINE
  5
40C
100
AcDbEntity
  8
DETAIL
  6
CONTINUOUS
 62
     5
100
AcDbLine
 10
763.164681
 20
957.378457
 30
0.0
 11
763.164681
 21
883.978457
 31
0.0
  0
LINE
  5
40D
100
AcDbEntity
  8
SIZE
  6
CONTINUOUS
 62
    30
100
AcDbLine
 10
743.164681
 20
1075.35908
 30
0.0
 11
429.520295
 21
1075.35908
 31
0.0
  0
LINE
  5
40E
100
AcDbEntity
  8
SIZE
  6
CONTINUOUS
 62
    30
100
AcDbLine
 10
459.520295
 20
1075.35908
 30
0.0
 11
459.520295
 21
1195.501937
 31
0.0
  0
TEXT
  5
40F
100
AcDbEntity
  8
SIZE
  6
CONTINUOUS
 62
    30
100
AcDbText
 10
444.520295
 20
1100.359081
 30
0.0
 40
55.0
  1
60
 50
90.0
 41
0.9
 72
     1
 11
444.520295
 21
1140.430509
 31
0.0
100
AcDbText
  0
LINE
  5
410
100
AcDbEntity
  8
SIZE
  6
CONTINUOUS
 62
    30
100
AcDbLine
 10
459.520295
 20
1070.35908
 30
0.0
 11
459.520295
 21
1065.35908
 31
0.0
  0
CIRCLE
  5
411
100
AcDbEntity
  8
SIZE
  6
CONTINUOUS
 62
    30
100
AcDbCircle
 10
459.520295
 20
1075.35908
 30
0.0
 40
5.0
  0
LINE
  5
412
100
AcDbEntity
  8
SIZE
  6
CONTINUOUS
 62
    30
100
AcDbLine
 10
763.164681
 20
1093.75908
 30
0.0
 11
763.164681
 21
1230.690288
 31
0.0
  0
POINT
  5
413
100
AcDbEntity
  8
DEFPOINTS
  6
CONTINUOUS
 62
     7
100
AcDbPoint
 10
763.164681
 20
1075.35908
 30
0.0
  0
POINT
  5
414
100
AcDbEntity
  8
DEFPOINTS
  6
CONTINUOUS
 62
     7
100
AcDbPoint
 10
763.164681
 20
1075.35908
 30
0.0
  0
POINT
  5
415
100
AcDbEntity
  8
DEFPOINTS
  6
CONTINUOUS
 62
     7
100
AcDbPoint
 10
763.164681
 20
1075.35908
 30
0.0
  0
POINT
  5
416
100
AcDbEntity
  8
DEFPOINTS
  6
CONTINUOUS
 62
     7
100
AcDbPoint
 10
763.164681
 20
1075.35908
 30
0.0
  0
POINT
  5
417
100
AcDbEntity
  8
DEFPOINTS
  6
CONTINUOUS
 62
     7
100
AcDbPoint
 10
763.164681
 20
1073.75908
 30
0.0
  0
POINT
  5
418
100
AcDbEntity
  8
DEFPOINTS
  6
CONTINUOUS
 62
     7
100
AcDbPoint
 10
763.164681
 20
1073.75908
 30
0.0
  0
POINT
  5
419
100
AcDbEntity
  8
DEFPOINTS
  6
CONTINUOUS
 62
     7
100
AcDbPoint
 10
763.164681
 20
1073.75908
 30
0.0
  0
LINE
  5
41A
100
AcDbEntity
  8
NOTE
  6
CONTINUOUS
 62
     4
100
AcDbLine
 10
809.596139
 20
1121.35908
 30
0.0
 11
779.596139
 21
1151.35908
 31
0.0
  0
LINE
  5
41B
100
AcDbEntity
  8
NOTE
  6
CONTINUOUS
 62
     4
100
AcDbLine
 10
783.027596
 20
1121.35908
 30
0.0
 11
753.027596
 21
1151.35908
 31
0.0
  0
LINE
  5
41C
100
AcDbEntity
  8
NOTE
  6
CONTINUOUS
 62
     4
100
AcDbLine
 10
756.459054
 20
1121.35908
 30
0.0
 11
726.459054
 21
1151.35908
 31
0.0
  0
LINE
  5
41D
100
AcDbEntity
  8
SIZE
  6
CONTINUOUS
 62
    30
100
AcDbLine
 10
768.164681
 20
1312.520185
 30
0.0
 11
773.164681
 21
1312.520185
 31
0.0
  0
CIRCLE
  5
41E
100
AcDbEntity
  8
SIZE
  6
CONTINUOUS
 62
    30
100
AcDbCircle
 10
763.164681
 20
1312.520185
 30
0.0
 40
5.0
  0
POINT
  5
41F
100
AcDbEntity
  8
DEFPOINTS
  6
CONTINUOUS
 62
     7
100
AcDbPoint
 10
763.164681
 20
1200.690288
 30
0.0
  0
LINE
  5
420
100
AcDbEntity
  8
SIZE
  6
CONTINUOUS
 62
    30
100
AcDbLine
 10
768.164681
 20
1200.690288
 30
0.0
 11
773.164681
 21
1200.690288
 31
0.0
  0
CIRCLE
  5
421
100
AcDbEntity
  8
SIZE
  6
CONTINUOUS
 62
    30
100
AcDbCircle
 10
763.164681
 20
1200.690288
 30
0.0
 40
5.0
  0
LINE
  5
422
100
AcDbEntity
  8
NOTE
  6
CONTINUOUS
 62
     4
100
AcDbLine
 10
645.646815
 20
1472.780166
 30
0.0
 11
225.233703
 21
1472.780166
 31
0.0
  0
TEXT
  5
423
100
AcDbEntity
  8
NOTE
  6
CONTINUOUS
 62
     4
100
AcDbText
 10
260.223367
 20
1492.650754
 30
0.0
 40
64.0
  1
D VP-25
 41
0.9
100
AcDbText
  0
POINT
  5
424
100
AcDbEntity
  8
DEFPOINTS
  6
CONTINUOUS
 62
     7
100
AcDbPoint
 10
763.164681
 20
1404.32082
 30
0.0
  0
LINE
  5
425
100
AcDbEntity
  8
SIZE
  6
CONTINUOUS
 62
    30
100
AcDbLine
 10
768.164681
 20
1404.32082
 30
0.0
 11
773.164681
 21
1404.32082
 31
0.0
  0
CIRCLE
  5
426
100
AcDbEntity
  8
SIZE
  6
CONTINUOUS
 62
    30
100
AcDbCircle
 10
763.164681
 20
1404.32082
 30
0.0
 40
5.0
  0
CIRCLE
  5
427
100
AcDbEntity
  8
ARRANGE
  6
CONTINUOUS
 62
     1
100
AcDbCircle
 10
1151.164681
 20
731.35908
 30
0.0
 40
42.5
  0
LINE
  5
428
100
AcDbEntity
  8
BASIS
  6
DASHDOT
 62
     6
100
AcDbLine
 10
1151.164681
 20
1101.51673
 30
0.0
 11
1151.164681
 21
689.750835
 31
0.0
  0
LINE
  5
429
100
AcDbEntity
  8
SIZE
  6
CONTINUOUS
 62
    30
100
AcDbLine
 10
1563.164681
 20
847.35908
 30
0.0
 11
1563.164681
 21
147.818039
 31
0.0
  0
LINE
  5
42A
100
AcDbEntity
  8
SIZE
  6
CONTINUOUS
 62
    30
100
AcDbLine
 10
1563.164681
 20
847.35908
 30
0.0
 11
1563.164681
 21
147.818039
 31
0.0
  0
CIRCLE
  5
42B
100
AcDbEntity
  8
SIZE
  6
CONTINUOUS
 62
    30
100
AcDbCircle
 10
2097.313106
 20
731.35908
 30
0.0
 40
5.0
  0
CIRCLE
  5
42C
100
AcDbEntity
  8
SIZE
  6
CONTINUOUS
 62
    30
100
AcDbCircle
 10
2097.313106
 20
731.35908
 30
0.0
 40
5.0
  0
LINE
  5
42D
100
AcDbEntity
  8
SIZE
  6
CONTINUOUS
 62
    30
100
AcDbLine
 10
2097.313106
 20
731.35908
 30
0.0
 11
2097.313106
 21
711.35908
 31
0.0
  0
CIRCLE
  5
42E
100
AcDbEntity
  8
SIZE
  6
CONTINUOUS
 62
    30
100
AcDbCircle
 10
1976.218691
 20
731.35908
 30
0.0
 40
5.0
  0
LINE
  5
42F
100
AcDbEntity
  8
OUTLINE
  6
CONTINUOUS
 62
     3
100
AcDbLine
 10
1831.164681
 20
731.35908
 30
0.0
 11
1831.164681
 21
728.35908
 31
0.0
  0
LINE
  5
430
100
AcDbEntity
  8
DETAIL
  6
CONTINUOUS
 62
     5
100
AcDbLine
 10
1831.164681
 20
731.35908
 30
0.0
 11
1831.164681
 21
728.35908
 31
0.0
  0
LINE
  5
431
100
AcDbEntity
  8
ARRANGE
  6
CONTINUOUS
 62
     1
100
AcDbLine
 10
1108.695482
 20
773.516186
 30
0.0
 11
1193.63388
 21
689.201974
 31
0.0
  0
LINE
  5
432
100
AcDbEntity
  8
ARRANGE
  6
CONTINUOUS
 62
     1
100
AcDbLine
 10
1108.632933
 20
689.26508
 30
0.0
 11
1193.696429
 21
773.45308
 31
0.0
  0
TEXT
  5
433
100
AcDbEntity
  8
SIZE
  6
CONTINUOUS
 62
    30
100
AcDbText
 10
1633.521824
 20
192.818039
 30
0.0
 40
55.0
  1
268
 41
0.9
 72
     1
 11
1697.164681
 21
192.818039
 31
0.0
100
AcDbText
  0
LINE
  5
434
100
AcDbEntity
  8
SIZE
  6
CONTINUOUS
 62
    30
100
AcDbLine
 10
1573.164681
 20
177.818039
 30
0.0
 11
1821.164681
 21
177.818039
 31
0.0
  0
TEXT
  5
435
100
AcDbEntity
  8
SIZE
  6
CONTINUOUS
 62
    30
100
AcDbText
 10
1068.664681
 20
45.000002
 30
0.0
 40
55.0
  1
1360
 41
0.9
 72
     1
 11
1151.164681
 21
45.000002
 31
0.0
100
AcDbText
  0
LINE
  5
436
100
AcDbEntity
  8
NOTE
  6
CONTINUOUS
 62
     4
100
AcDbLine
 10
1695.847991
 20
586.213196
 30
0.0
 11
1021.982808
 21
586.213196
 31
0.0
  0
TEXT
  5
437
100
AcDbEntity
  8
NOTE
  6
CONTINUOUS
 62
     4
100
AcDbText
 10
1048.139382
 20
606.083784
 30
0.0
 40
64.0
  1
AH4-14×30長穴
 41
0.9
100
AcDbText
  0
TEXT
  5
438
100
AcDbEntity
  8
NOTE
  6
CONTINUOUS
 62
     4
100
AcDbText
 10
948.429766
 20
430.398602
 30
0.0
 40
64.0
  1
（自然排水口）
 41
0.9
100
AcDbText
  0
LINE
  5
439
100
AcDbEntity
  8
NOTE
  6
CONTINUOUS
 62
     4
100
AcDbLine
 10
1384.14889
 20
505.126086
 30
0.0
 11
896.722578
 21
505.126086
 31
0.0
  0
TEXT
  5
43A
100
AcDbEntity
  8
SIZE
  6
CONTINUOUS
 62
    30
100
AcDbText
 10
892.350395
 20
197.222801
 30
0.0
 40
55.0
  1
824(吊りﾎﾞﾙﾄﾋﾟｯﾁ)
 41
0.9
 72
     1
 11
1151.164681
 21
197.222801
 31
0.0
100
AcDbText
  0
TEXT
  5
43B
100
AcDbEntity
  8
SIZE
  6
CONTINUOUS
 62
    30
100
AcDbText
 10
858.643252
 20
325.416963
 30
0.0
 40
55.0
  1
1320(天井開口寸法)
 41
0.9
 72
     1
 11
1151.164681
 21
325.416963
 31
0.0
100
AcDbText
  0
TEXT
  5
43C
100
AcDbEntity
  8
NOTE
  6
CONTINUOUS
 62
     4
100
AcDbText
 10
914.330978
 20
510.540129
 30
0.0
 40
64.0
  1
D抜き
 41
0.9
100
AcDbText
  0
LINE
  5
43D
100
AcDbEntity
  8
SIZE
  6
CONTINUOUS
 62
    30
100
AcDbLine
 10
1568.164681
 20
177.818039
 30
0.0
 11
1573.164681
 21
177.818039
 31
0.0
  0
CIRCLE
  5
43E
100
AcDbEntity
  8
SIZE
  6
CONTINUOUS
 62
    30
100
AcDbCircle
 10
1563.164681
 20
177.818039
 30
0.0
 40
5.0
  0
POINT
  5
43F
100
AcDbEntity
  8
DEFPOINTS
  6
CONTINUOUS
 62
     7
100
AcDbPoint
 10
1563.164681
 20
177.818039
 30
0.0
  0
LINE
  5
440
100
AcDbEntity
  8
SIZE
  6
CONTINUOUS
 62
    30
100
AcDbLine
 10
1558.164681
 20
177.818039
 30
0.0
 11
1553.164681
 21
177.818039
 31
0.0
  0
CIRCLE
  5
441
100
AcDbEntity
  8
SIZE
  6
CONTINUOUS
 62
    30
100
AcDbCircle
 10
1563.164681
 20
177.818039
 30
0.0
 40
5.0
  0
LINE
  5
442
100
AcDbEntity
  8
SIZE
  6
CONTINUOUS
 62
    30
100
AcDbLine
 10
1831.164681
 20
708.35908
 30
0.0
 11
1831.164681
 21
0.000002
 31
0.0
  0
CIRCLE
  5
443
100
AcDbEntity
  8
SIZE
  6
CONTINUOUS
 62
    30
100
AcDbCircle
 10
1831.164681
 20
30.000002
 30
0.0
 40
5.0
  0
LINE
  5
444
100
AcDbEntity
  8
SIZE
  6
CONTINUOUS
 62
    30
100
AcDbLine
 10
1826.164681
 20
30.000002
 30
0.0
 11
1821.164681
 21
30.000002
 31
0.0
  0
LINE
  5
445
100
AcDbEntity
  8
SIZE
  6
CONTINUOUS
 62
    30
100
AcDbLine
 10
1831.164681
 20
708.35908
 30
0.0
 11
1831.164681
 21
147.818039
 31
0.0
  0
LINE
  5
446
100
AcDbEntity
  8
SIZE
  6
CONTINUOUS
 62
    30
100
AcDbLine
 10
1831.164681
 20
708.35908
 30
0.0
 11
1831.164681
 21
276.012201
 31
0.0
  0
LINE
  5
447
100
AcDbEntity
  8
SIZE
  6
CONTINUOUS
 62
    30
100
AcDbLine
 10
1811.164681
 20
711.35908
 30
0.0
 11
1811.164681
 21
276.012201
 31
0.0
  0
LINE
  5
448
100
AcDbEntity
  8
SIZE
  6
CONTINUOUS
 62
    30
100
AcDbLine
 10
1811.164681
 20
711.35908
 30
0.0
 11
1811.164681
 21
276.012201
 31
0.0
  0
TEXT
  5
449
100
AcDbEntity
  8
SIZE
  6
CONTINUOUS
 62
    30
100
AcDbText
 10
1869.741896
 20
321.012201
 30
0.0
 40
55.0
  1
20
 41
0.9
 72
     1
 11
1909.813325
 21
321.012201
 31
0.0
100
AcDbText
  0
LINE
  5
44A
100
AcDbEntity
  8
SIZE
  6
CONTINUOUS
 62
    30
100
AcDbLine
 10
1964.884754
 20
306.012201
 30
0.0
 11
1831.164681
 21
306.012201
 31
0.0
  0
CIRCLE
  5
44B
100
AcDbEntity
  8
SIZE
  6
CONTINUOUS
 62
    30
100
AcDbCircle
 10
1831.164681
 20
177.818039
 30
0.0
 40
5.0
  0
LINE
  5
44C
100
AcDbEntity
  8
SIZE
  6
CONTINUOUS
 62
    30
100
AcDbLine
 10
1826.164681
 20
177.818039
 30
0.0
 11
1821.164681
 21
177.818039
 31
0.0
  0
POINT
  5
44D
100
AcDbEntity
  8
DEFPOINTS
  6
CONTINUOUS
 62
     7
100
AcDbPoint
 10
1831.164681
 20
177.818039
 30
0.0
  0
CIRCLE
  5
44E
100
AcDbEntity
  8
SIZE
  6
CONTINUOUS
 62
    30
100
AcDbCircle
 10
1831.164681
 20
306.012201
 30
0.0
 40
5.0
  0
LINE
  5
44F
100
AcDbEntity
  8
SIZE
  6
CONTINUOUS
 62
    30
100
AcDbLine
 10
1811.164681
 20
306.012201
 30
0.0
 11
1831.164681
 21
306.012201
 31
0.0
  0
LINE
  5
450
100
AcDbEntity
  8
SIZE
  6
CONTINUOUS
 62
    30
100
AcDbLine
 10
1811.164681
 20
306.012201
 30
0.0
 11
1831.164681
 21
306.012201
 31
0.0
  0
LINE
  5
451
100
AcDbEntity
  8
SIZE
  6
CONTINUOUS
 62
    30
100
AcDbLine
 10
1806.164681
 20
306.012201
 30
0.0
 11
1801.164681
 21
306.012201
 31
0.0
  0
CIRCLE
  5
452
100
AcDbEntity
  8
SIZE
  6
CONTINUOUS
 62
    30
100
AcDbCircle
 10
1811.164681
 20
306.012201
 30
0.0
 40
5.0
  0
LINE
  5
453
100
AcDbEntity
  8
SIZE
  6
CONTINUOUS
 62
    30
100
AcDbLine
 10
1801.164681
 20
306.012201
 30
0.0
 11
1791.164681
 21
306.012201
 31
0.0
  0
POINT
  5
454
100
AcDbEntity
  8
DEFPOINTS
  6
CONTINUOUS
 62
     7
100
AcDbPoint
 10
1811.164681
 20
306.012201
 30
0.0
  0
LINE
  5
455
100
AcDbEntity
  8
SIZE
  6
CONTINUOUS
 62
    30
100
AcDbLine
 10
1806.164681
 20
306.012201
 30
0.0
 11
1801.164681
 21
306.012201
 31
0.0
  0
CIRCLE
  5
456
100
AcDbEntity
  8
SIZE
  6
CONTINUOUS
 62
    30
100
AcDbCircle
 10
1811.164681
 20
306.012201
 30
0.0
 40
5.0
  0
POINT
  5
457
100
AcDbEntity
  8
DEFPOINTS
  6
CONTINUOUS
 62
     7
100
AcDbPoint
 10
1831.164681
 20
306.012201
 30
0.0
  0
LINE
  5
458
100
AcDbEntity
  8
SIZE
  6
CONTINUOUS
 62
    30
100
AcDbLine
 10
1836.164681
 20
306.012201
 30
0.0
 11
1841.164681
 21
306.012201
 31
0.0
  0
LINE
  5
459
100
AcDbEntity
  8
SIZE
  6
CONTINUOUS
 62
    30
100
AcDbLine
 10
1841.164681
 20
306.012201
 30
0.0
 11
1851.164681
 21
306.012201
 31
0.0
  0
LINE
  5
45A
100
AcDbEntity
  8
SIZE
  6
CONTINUOUS
 62
    30
100
AcDbLine
 10
1746.164681
 20
711.35908
 30
0.0
 11
2127.313106
 21
711.35908
 31
0.0
  0
TEXT
  5
45B
100
AcDbEntity
  8
SIZE
  6
CONTINUOUS
 62
    30
100
AcDbText
 10
1961.218691
 20
616.216223
 30
0.0
 40
55.0
  1
45
 50
90.0
 41
0.9
 72
     1
 11
1961.218691
 21
656.287651
 31
0.0
100
AcDbText
  0
ARC
  5
45C
100
AcDbEntity
  8
OUTLINE
  6
CONTINUOUS
 62
     3
100
AcDbCircle
 10
1726.164681
 20
1044.123786
 30
0.0
 40
332.764706
100
AcDbArc
 50
270.0
 51
288.393312
  0
ARC
  5
45D
100
AcDbEntity
  8
DETAIL
  6
CONTINUOUS
 62
     5
100
AcDbCircle
 10
1726.164681
 20
1044.123786
 30
0.0
 40
332.764706
100
AcDbArc
 50
270.0
 51
288.393312
  0
POINT
  5
45E
100
AcDbEntity
  8
DEFPOINTS
  6
CONTINUOUS
 62
     7
100
AcDbPoint
 10
1726.164681
 20
711.35908
 30
0.0
  0
POINT
  5
45F
100
AcDbEntity
  8
DEFPOINTS
  6
CONTINUOUS
 62
     7
100
AcDbPoint
 10
1831.164681
 20
728.35908
 30
0.0
  0
POINT
  5
460
100
AcDbEntity
  8
DEFPOINTS
  6
CONTINUOUS
 62
     7
100
AcDbPoint
 10
1831.164681
 20
728.35908
 30
0.0
  0
POINT
  5
461
100
AcDbEntity
  8
DEFPOINTS
  6
CONTINUOUS
 62
     7
100
AcDbPoint
 10
1831.164681
 20
728.35908
 30
0.0
  0
TEXT
  5
462
100
AcDbEntity
  8
SIZE
  6
CONTINUOUS
 62
    30
100
AcDbText
 10
2082.313106
 20
596.216223
 30
0.0
 40
55.0
  1
20
 50
90.0
 41
0.9
 72
     1
 11
2082.313106
 21
636.287651
 31
0.0
100
AcDbText
  0
LINE
  5
463
100
AcDbEntity
  8
SIZE
  6
CONTINUOUS
 62
    30
100
AcDbLine
 10
1976.218691
 20
726.35908
 30
0.0
 11
1976.218691
 21
721.35908
 31
0.0
  0
LINE
  5
464
100
AcDbEntity
  8
SIZE
  6
CONTINUOUS
 62
    30
100
AcDbLine
 10
1976.218691
 20
721.35908
 30
0.0
 11
1976.218691
 21
601.216223
 31
0.0
  0
LINE
  5
465
100
AcDbEntity
  8
SIZE
  6
CONTINUOUS
 62
    30
100
AcDbLine
 10
2097.313106
 20
706.35908
 30
0.0
 11
2097.313106
 21
701.35908
 31
0.0
  0
CIRCLE
  5
466
100
AcDbEntity
  8
SIZE
  6
CONTINUOUS
 62
    30
100
AcDbCircle
 10
2097.313106
 20
711.35908
 30
0.0
 40
5.0
  0
LINE
  5
467
100
AcDbEntity
  8
SIZE
  6
CONTINUOUS
 62
    30
100
AcDbLine
 10
2097.313106
 20
701.35908
 30
0.0
 11
2097.313106
 21
581.216223
 31
0.0
  0
TEXT
  5
468
100
AcDbEntity
  8
NOTE
  6
CONTINUOUS
 62
     4
100
AcDbText
 10
1709.858212
 20
799.283437
 30
0.0
 40
55.0
  1
外気吸込
 41
0.9
100
AcDbText
  0
LINE
  5
469
100
AcDbEntity
  8
NOTE
  6
CONTINUOUS
 62
     4
100
AcDbLine
 10
1958.837759
 20
1426.186467
 30
0.0
 11
1612.121304
 21
1426.186467
 31
0.0
  0
TEXT
  5
46A
100
AcDbEntity
  8
NOTE
  6
CONTINUOUS
 62
     4
100
AcDbText
 10
1646.37431
 20
1446.057055
 30
0.0
 40
64.0
  1
6-%%C2.9
 41
0.9
100
AcDbText
  0
LINE
  5
46B
100
AcDbEntity
  8
NOTE
  6
CONTINUOUS
 62
     4
100
AcDbLine
 10
1385.948017
 20
972.499423
 30
0.0
 11
1750.414018
 21
1290.016195
 31
0.0
  0
LINE
  5
46C
100
AcDbEntity
  8
SIZE
  6
CONTINUOUS
 62
    30
100
AcDbLine
 10
1559.164681
 20
1075.35908
 30
0.0
 11
2006.47684
 21
1075.35908
 31
0.0
  0
LINE
  5
46D
100
AcDbEntity
  8
SIZE
  6
CONTINUOUS
 62
    30
100
AcDbLine
 10
1559.164681
 20
785.358576
 30
0.0
 11
2006.47684
 21
785.358576
 31
0.0
  0
LINE
  5
46E
100
AcDbEntity
  8
SIZE
  6
CONTINUOUS
 62
    30
100
AcDbLine
 10
1450.614681
 20
882.35908
 30
0.0
 11
1876.239471
 21
882.35908
 31
0.0
  0
LINE
  5
46F
100
AcDbEntity
  8
SIZE
  6
CONTINUOUS
 62
    30
100
AcDbLine
 10
1450.614681
 20
1041.35908
 30
0.0
 11
1876.239471
 21
1041.35908
 31
0.0
  0
LINE
  5
470
100
AcDbEntity
  8
SIZE
  6
CONTINUOUS
 62
    30
100
AcDbLine
 10
1450.614681
 20
1041.35908
 30
0.0
 11
1876.239471
 21
1041.35908
 31
0.0
  0
LINE
  5
471
100
AcDbEntity
  8
SIZE
  6
CONTINUOUS
 62
    30
100
AcDbLine
 10
1559.164681
 20
1075.35908
 30
0.0
 11
1876.239471
 21
1075.35908
 31
0.0
  0
TEXT
  5
472
100
AcDbEntity
  8
SIZE
  6
CONTINUOUS
 62
    30
100
AcDbText
 10
1737.906763
 20
914.144795
 30
0.0
 40
55.0
  1
110
 50
90.0
 41
0.9
 72
     1
 11
1737.906763
 21
968.35908
 31
0.0
100
AcDbText
  0
LINE
  5
473
100
AcDbEntity
  8
SIZE
  6
CONTINUOUS
 62
    30
100
AcDbLine
 10
1439.164681
 20
913.35908
 30
0.0
 11
1782.906763
 21
913.35908
 31
0.0
  0
LINE
  5
474
100
AcDbEntity
  8
SIZE
  6
CONTINUOUS
 62
    30
100
AcDbLine
 10
1439.164681
 20
1023.35908
 30
0.0
 11
1782.906763
 21
1023.35908
 31
0.0
  0
TEXT
  5
475
100
AcDbEntity
  8
SIZE
  6
CONTINUOUS
 62
    30
100
AcDbText
 10
1737.906763
 20
1141.153358
 30
0.0
 40
55.0
  1
52
 50
90.0
 41
0.9
 72
     1
 11
1737.906763
 21
1181.224786
 31
0.0
100
AcDbText
  0
LINE
  5
476
100
AcDbEntity
  8
SIZE
  6
CONTINUOUS
 62
    30
100
AcDbLine
 10
1439.164681
 20
1023.35908
 30
0.0
 11
1782.906763
 21
1023.35908
 31
0.0
  0
LINE
  5
477
100
AcDbEntity
  8
SIZE
  6
CONTINUOUS
 62
    30
100
AcDbLine
 10
1559.164681
 20
1075.35908
 30
0.0
 11
1782.906763
 21
1075.35908
 31
0.0
  0
LINE
  5
478
100
AcDbEntity
  8
OUTLINE
  6
CONTINUOUS
 62
     3
100
AcDbLine
 10
1539.164681
 20
776.35908
 30
0.0
 11
1811.164681
 21
776.35908
 31
0.0
  0
LINE
  5
479
100
AcDbEntity
  8
DETAIL
  6
CONTINUOUS
 62
     5
100
AcDbLine
 10
1151.164681
 20
776.35908
 30
0.0
 11
1811.164681
 21
776.35908
 31
0.0
  0
LINE
  5
47A
100
AcDbEntity
  8
NOTE
  6
CONTINUOUS
 62
     4
100
AcDbLine
 10
1612.121304
 20
1426.186467
 30
0.0
 11
1419.164681
 21
1041.35908
 31
0.0
  0
LINE
  5
47B
100
AcDbEntity
  8
SIZE
  6
CONTINUOUS
 62
    30
100
AcDbLine
 10
1539.164681
 20
1095.35908
 30
0.0
 11
1539.164681
 21
1434.32082
 31
0.0
  0
TEXT
  5
47C
100
AcDbEntity
  8
SIZE
  6
CONTINUOUS
 62
    30
100
AcDbText
 10
993.045692
 20
1325.791175
 30
0.0
 40
55.0
  1
217.5×2=435
 41
0.9
 72
     1
 11
1241.959978
 21
1325.791175
 31
0.0
100
AcDbText
  0
LINE
  5
47D
100
AcDbEntity
  8
SIZE
  6
CONTINUOUS
 62
    30
100
AcDbLine
 10
1419.164681
 20
1072.80908
 30
0.0
 11
1419.164681
 21
1342.520185
 31
0.0
  0
LINE
  5
47E
100
AcDbEntity
  8
SIZE
  6
CONTINUOUS
 62
    30
100
AcDbLine
 10
984.164681
 20
1072.80908
 30
0.0
 11
984.164681
 21
1342.520185
 31
0.0
  0
LINE
  5
47F
100
AcDbEntity
  8
SIZE
  6
CONTINUOUS
 62
    30
100
AcDbLine
 10
984.164681
 20
1072.80908
 30
0.0
 11
984.164681
 21
1342.520185
 31
0.0
  0
LINE
  5
480
100
AcDbEntity
  8
SIZE
  6
CONTINUOUS
 62
    30
100
AcDbLine
 10
994.164681
 20
1312.520185
 30
0.0
 11
1409.164681
 21
1312.520185
 31
0.0
  0
LINE
  5
481
100
AcDbEntity
  8
NOTE
  6
CONTINUOUS
 62
     4
100
AcDbLine
 10
1293.027596
 20
1121.35908
 30
0.0
 11
1263.027596
 21
1151.35908
 31
0.0
  0
LINE
  5
482
100
AcDbEntity
  8
DETAIL
  6
CONTINUOUS
 62
     5
100
AcDbLine
 10
1419.164681
 20
1023.35908
 30
0.0
 11
984.164681
 21
1023.35908
 31
0.0
  0
LINE
  5
483
100
AcDbEntity
  8
DETAIL
  6
CONTINUOUS
 62
     5
100
AcDbLine
 10
984.164681
 20
913.35908
 30
0.0
 11
1419.164681
 21
913.35908
 31
0.0
  0
LINE
  5
484
100
AcDbEntity
  8
NOTE
  6
CONTINUOUS
 62
     4
100
AcDbLine
 10
1201.664681
 20
1052.80908
 30
0.0
 11
1201.664681
 21
1029.90908
 31
0.0
  0
LINE
  5
485
100
AcDbEntity
  8
NOTE
  6
CONTINUOUS
 62
     4
100
AcDbLine
 10
984.164681
 20
1052.80908
 30
0.0
 11
984.164681
 21
1029.90908
 31
0.0
  0
LINE
  5
486
100
AcDbEntity
  8
NOTE
  6
CONTINUOUS
 62
     4
100
AcDbLine
 10
984.164681
 20
893.80908
 30
0.0
 11
984.164681
 21
870.90908
 31
0.0
  0
CIRCLE
  5
487
100
AcDbEntity
  8
DETAIL
  6
CONTINUOUS
 62
     5
100
AcDbCircle
 10
984.164681
 20
882.35908
 30
0.0
 40
1.45
  0
LINE
  5
488
100
AcDbEntity
  8
NOTE
  6
CONTINUOUS
 62
     4
100
AcDbLine
 10
995.614681
 20
882.35908
 30
0.0
 11
972.714681
 21
882.35908
 31
0.0
  0
LINE
  5
489
100
AcDbEntity
  8
DETAIL
  6
CONTINUOUS
 62
     5
100
AcDbLine
 10
984.164681
 20
1023.35908
 30
0.0
 11
984.164681
 21
913.35908
 31
0.0
  0
LINE
  5
48A
100
AcDbEntity
  8
NOTE
  6
CONTINUOUS
 62
     4
100
AcDbLine
 10
1201.664681
 20
893.80908
 30
0.0
 11
1201.664681
 21
870.90908
 31
0.0
  0
CIRCLE
  5
48B
100
AcDbEntity
  8
DETAIL
  6
CONTINUOUS
 62
     5
100
AcDbCircle
 10
1201.664681
 20
882.35908
 30
0.0
 40
1.45
  0
LINE
  5
48C
100
AcDbEntity
  8
NOTE
  6
CONTINUOUS
 62
     4
100
AcDbLine
 10
1213.114681
 20
882.35908
 30
0.0
 11
1190.214681
 21
882.35908
 31
0.0
  0
LINE
  5
48D
100
AcDbEntity
  8
NOTE
  6
CONTINUOUS
 62
     4
100
AcDbLine
 10
943.027596
 20
1121.35908
 30
0.0
 11
913.027596
 21
1151.35908
 31
0.0
  0
LINE
  5
48E
100
AcDbEntity
  8
NOTE
  6
CONTINUOUS
 62
     4
100
AcDbLine
 10
916.459054
 20
1121.35908
 30
0.0
 11
886.459054
 21
1151.35908
 31
0.0
  0
POINT
  5
48F
100
AcDbEntity
  8
DEFPOINTS
  6
CONTINUOUS
 62
     7
100
AcDbPoint
 10
984.164681
 20
1052.80908
 30
0.0
  0
POINT
  5
490
100
AcDbEntity
  8
DEFPOINTS
  6
CONTINUOUS
 62
     7
100
AcDbPoint
 10
984.164681
 20
1052.80908
 30
0.0
  0
LINE
  5
491
100
AcDbEntity
  8
NOTE
  6
CONTINUOUS
 62
     4
100
AcDbLine
 10
969.596139
 20
1121.35908
 30
0.0
 11
939.596139
 21
1151.35908
 31
0.0
  0
LINE
  5
492
100
AcDbEntity
  8
NOTE
  6
CONTINUOUS
 62
     4
100
AcDbLine
 10
995.614681
 20
1041.35908
 30
0.0
 11
972.714681
 21
1041.35908
 31
0.0
  0
CIRCLE
  5
493
100
AcDbEntity
  8
DETAIL
  6
CONTINUOUS
 62
     5
100
AcDbCircle
 10
984.164681
 20
1041.35908
 30
0.0
 40
1.45
  0
LINE
  5
494
100
AcDbEntity
  8
SIZE
  6
CONTINUOUS
 62
    30
100
AcDbLine
 10
989.164681
 20
1312.520185
 30
0.0
 11
994.164681
 21
1312.520185
 31
0.0
  0
CIRCLE
  5
495
100
AcDbEntity
  8
SIZE
  6
CONTINUOUS
 62
    30
100
AcDbCircle
 10
984.164681
 20
1312.520185
 30
0.0
 40
5.0
  0
POINT
  5
496
100
AcDbEntity
  8
DEFPOINTS
  6
CONTINUOUS
 62
     7
100
AcDbPoint
 10
984.164681
 20
1312.520185
 30
0.0
  0
LINE
  5
497
100
AcDbEntity
  8
SIZE
  6
CONTINUOUS
 62
    30
100
AcDbLine
 10
979.164681
 20
1312.520185
 30
0.0
 11
974.164681
 21
1312.520185
 31
0.0
  0
CIRCLE
  5
498
100
AcDbEntity
  8
SIZE
  6
CONTINUOUS
 62
    30
100
AcDbCircle
 10
984.164681
 20
1312.520185
 30
0.0
 40
5.0
  0
LINE
  5
499
100
AcDbEntity
  8
SIZE
  6
CONTINUOUS
 62
    30
100
AcDbLine
 10
1151.164681
 20
1121.51673
 30
0.0
 11
1151.164681
 21
1230.690288
 31
0.0
  0
POINT
  5
49A
100
AcDbEntity
  8
DEFPOINTS
  6
CONTINUOUS
 62
     7
100
AcDbPoint
 10
1151.164681
 20
1101.51673
 30
0.0
  0
LINE
  5
49B
100
AcDbEntity
  8
NOTE
  6
CONTINUOUS
 62
     4
100
AcDbLine
 10
1149.596139
 20
1121.35908
 30
0.0
 11
1119.596139
 21
1151.35908
 31
0.0
  0
LINE
  5
49C
100
AcDbEntity
  8
NOTE
  6
CONTINUOUS
 62
     4
100
AcDbLine
 10
1123.027596
 20
1121.35908
 30
0.0
 11
1093.027596
 21
1151.35908
 31
0.0
  0
LINE
  5
49D
100
AcDbEntity
  8
NOTE
  6
CONTINUOUS
 62
     4
100
AcDbLine
 10
1096.459054
 20
1121.35908
 30
0.0
 11
1066.459054
 21
1151.35908
 31
0.0
  0
LINE
  5
49E
100
AcDbEntity
  8
NOTE
  6
CONTINUOUS
 62
     4
100
AcDbLine
 10
1213.114681
 20
1041.35908
 30
0.0
 11
1190.214681
 21
1041.35908
 31
0.0
  0
CIRCLE
  5
49F
100
AcDbEntity
  8
DETAIL
  6
CONTINUOUS
 62
     5
100
AcDbCircle
 10
1201.664681
 20
1041.35908
 30
0.0
 40
1.45
  0
LINE
  5
4A0
100
AcDbEntity
  8
NOTE
  6
CONTINUOUS
 62
     4
100
AcDbLine
 10
1266.459054
 20
1121.35908
 30
0.0
 11
1236.459054
 21
1151.35908
 31
0.0
  0
LINE
  5
4A1
100
AcDbEntity
  8
SIZE
  6
CONTINUOUS
 62
    30
100
AcDbLine
 10
1146.164681
 20
1200.690288
 30
0.0
 11
1141.164681
 21
1200.690288
 31
0.0
  0
CIRCLE
  5
4A2
100
AcDbEntity
  8
SIZE
  6
CONTINUOUS
 62
    30
100
AcDbCircle
 10
1151.164681
 20
1200.690288
 30
0.0
 40
5.0
  0
LINE
  5
4A3
100
AcDbEntity
  8
OUTLINE
  6
CONTINUOUS
 62
     3
100
AcDbLine
 10
1539.164681
 20
776.35908
 30
0.0
 11
1539.164681
 21
1075.35908
 31
0.0
  0
LINE
  5
4A4
100
AcDbEntity
  8
NOTE
  6
CONTINUOUS
 62
     4
100
AcDbLine
 10
1419.164681
 20
1052.80908
 30
0.0
 11
1419.164681
 21
1029.90908
 31
0.0
  0
LINE
  5
4A5
100
AcDbEntity
  8
DETAIL
  6
CONTINUOUS
 62
     5
100
AcDbLine
 10
1539.164681
 20
776.35908
 30
0.0
 11
1539.164681
 21
1075.35908
 31
0.0
  0
LINE
  5
4A6
100
AcDbEntity
  8
NOTE
  6
CONTINUOUS
 62
     4
100
AcDbLine
 10
1419.164681
 20
893.80908
 30
0.0
 11
1419.164681
 21
870.90908
 31
0.0
  0
CIRCLE
  5
4A7
100
AcDbEntity
  8
DETAIL
  6
CONTINUOUS
 62
     5
100
AcDbCircle
 10
1419.164681
 20
882.35908
 30
0.0
 40
1.45
  0
CIRCLE
  5
4A8
100
AcDbEntity
  8
NOTE
  6
CONTINUOUS
 62
     4
100
AcDbCircle
 10
1419.164681
 20
882.35908
 30
0.0
 40
1.45
  0
POINT
  5
4A9
100
AcDbEntity
  8
DEFPOINTS
  6
CONTINUOUS
 62
     7
100
AcDbPoint
 10
1430.614681
 20
882.35908
 30
0.0
  0
LINE
  5
4AA
100
AcDbEntity
  8
NOTE
  6
CONTINUOUS
 62
     4
100
AcDbLine
 10
1430.614681
 20
882.35908
 30
0.0
 11
1407.714681
 21
882.35908
 31
0.0
  0
SOLID
  5
4AB
100
AcDbEntity
  8
NOTE
  6
CONTINUOUS
 62
     4
100
AcDbTrace
 10
1385.948017
 20
962.304
 30
0.0
 11
1378.738764
 21
979.708675
 31
0.0
 12
1378.738764
 22
965.29017
 32
0.0
 13
1378.738764
 23
965.29017
 33
0.0
  0
SOLID
  5
4AC
100
AcDbEntity
  8
NOTE
  6
CONTINUOUS
 62
     4
100
AcDbTrace
 10
1378.738764
 20
979.708675
 30
0.0
 11
1385.948017
 21
962.304
 31
0.0
 12
1385.948017
 22
982.694845
 32
0.0
 13
1385.948017
 23
982.694845
 33
0.0
  0
CIRCLE
  5
4AD
100
AcDbEntity
  8
NOTE
  6
CONTINUOUS
 62
     4
100
AcDbCircle
 10
1385.948017
 20
972.499423
 30
0.0
 40
10.195423
  0
SOLID
  5
4AE
100
AcDbEntity
  8
NOTE
  6
CONTINUOUS
 62
     4
100
AcDbTrace
 10
1375.752594
 20
972.499423
 30
0.0
 11
1378.738764
 21
965.29017
 31
0.0
 12
1378.738764
 22
979.708675
 32
0.0
 13
1378.738764
 23
979.708675
 33
0.0
  0
SOLID
  5
4AF
100
AcDbEntity
  8
NOTE
  6
CONTINUOUS
 62
     4
100
AcDbTrace
 10
1393.157269
 20
965.29017
 30
0.0
 11
1385.948017
 21
982.694845
 31
0.0
 12
1385.948017
 22
962.304
 32
0.0
 13
1385.948017
 23
962.304
 33
0.0
  0
SOLID
  5
4B0
100
AcDbEntity
  8
NOTE
  6
CONTINUOUS
 62
     4
100
AcDbTrace
 10
1385.948017
 20
982.694845
 30
0.0
 11
1393.157269
 21
965.29017
 31
0.0
 12
1393.157269
 22
979.708675
 32
0.0
 13
1393.157269
 23
979.708675
 33
0.0
  0
SOLID
  5
4B1
100
AcDbEntity
  8
NOTE
  6
CONTINUOUS
 62
     4
100
AcDbTrace
 10
1396.143439
 20
972.499423
 30
0.0
 11
1393.157269
 21
979.708675
 31
0.0
 12
1393.157269
 22
965.29017
 32
0.0
 13
1393.157269
 23
965.29017
 33
0.0
  0
POINT
  5
4B2
100
AcDbEntity
  8
DEFPOINTS
  6
CONTINUOUS
 62
     7
100
AcDbPoint
 10
1419.164681
 20
913.35908
 30
0.0
  0
POINT
  5
4B3
100
AcDbEntity
  8
DEFPOINTS
  6
CONTINUOUS
 62
     7
100
AcDbPoint
 10
1419.164681
 20
1023.35908
 30
0.0
  0
POINT
  5
4B4
100
AcDbEntity
  8
DEFPOINTS
  6
CONTINUOUS
 62
     7
100
AcDbPoint
 10
1419.164681
 20
1023.35908
 30
0.0
  0
LINE
  5
4B5
100
AcDbEntity
  8
DETAIL
  6
CONTINUOUS
 62
     5
100
AcDbLine
 10
1419.164681
 20
1023.35908
 30
0.0
 11
1419.164681
 21
913.35908
 31
0.0
  0
CIRCLE
  5
4B6
100
AcDbEntity
  8
FIX
  6
CONTINUOUS
 62
    11
100
AcDbCircle
 10
1563.164681
 20
885.35908
 30
0.0
 40
14.940051
  0
LINE
  5
4B7
100
AcDbEntity
  8
NOTE
  6
CONTINUOUS
 62
     4
100
AcDbLine
 10
1563.164681
 20
903.35908
 30
0.0
 11
1563.164681
 21
867.35908
 31
0.0
  0
LINE
  5
4B8
100
AcDbEntity
  8
DETAIL
  6
CONTINUOUS
 62
     5
100
AcDbLine
 10
1589.164681
 20
873.35908
 30
0.0
 11
1589.164681
 21
883.05908
 31
0.0
  0
LINE
  5
4B9
100
AcDbEntity
  8
DETAIL
  6
CONTINUOUS
 62
     5
100
AcDbLine
 10
1539.164681
 20
883.05908
 30
0.0
 11
1539.164681
 21
844.65908
 31
0.0
  0
LINE
  5
4BA
100
AcDbEntity
  8
DETAIL
  6
CONTINUOUS
 62
     5
100
AcDbLine
 10
1541.464681
 20
883.05908
 30
0.0
 11
1541.464681
 21
844.65908
 31
0.0
  0
LINE
  5
4BB
100
AcDbEntity
  8
DETAIL
  6
CONTINUOUS
 62
     5
100
AcDbLine
 10
1586.864681
 20
873.35908
 30
0.0
 11
1586.864681
 21
883.05908
 31
0.0
  0
POINT
  5
4BC
100
AcDbEntity
  8
DEFPOINTS
  6
CONTINUOUS
 62
     7
100
AcDbPoint
 10
1563.164681
 20
867.35908
 30
0.0
  0
POINT
  5
4BD
100
AcDbEntity
  8
DEFPOINTS
  6
CONTINUOUS
 62
     7
100
AcDbPoint
 10
1563.164681
 20
867.35908
 30
0.0
  0
POINT
  5
4BE
100
AcDbEntity
  8
DEFPOINTS
  6
CONTINUOUS
 62
     7
100
AcDbPoint
 10
1539.164681
 20
785.358576
 30
0.0
  0
LINE
  5
4BF
100
AcDbEntity
  8
DETAIL
  6
CONTINUOUS
 62
     5
100
AcDbLine
 10
1541.464681
 20
844.65908
 30
0.0
 11
1539.164681
 21
844.65908
 31
0.0
  0
LINE
  5
4C0
100
AcDbEntity
  8
DETAIL
  6
CONTINUOUS
 62
     5
100
AcDbLine
 10
1589.164681
 20
873.35908
 30
0.0
 11
1586.864681
 21
873.35908
 31
0.0
  0
ARC
  5
4C1
100
AcDbEntity
  8
NOTE
  6
CONTINUOUS
 62
     4
100
AcDbCircle
 10
1686.443761
 20
859.322018
 30
0.0
 40
2.236779
100
AcDbArc
 50
49.904575
 51
130.095425
  0
ARC
  5
4C2
100
AcDbEntity
  8
NOTE
  6
CONTINUOUS
 62
     4
100
AcDbCircle
 10
1676.443761
 20
859.069551
 30
0.0
 40
2.428163
100
AcDbArc
 50
48.67406
 51
131.32594
  0
ARC
  5
4C3
100
AcDbEntity
  8
NOTE
  6
CONTINUOUS
 62
     4
100
AcDbCircle
 10
1666.443761
 20
859.765451
 30
0.0
 40
1.892533
100
AcDbArc
 50
51.923328
 51
128.076672
  0
ARC
  5
4C4
100
AcDbEntity
  8
NOTE
  6
CONTINUOUS
 62
     4
100
AcDbCircle
 10
1681.443761
 20
853.383365
 30
0.0
 40
10.0
100
AcDbArc
 50
131.32594
 51
240.0
  0
ARC
  5
4C5
100
AcDbEntity
  8
NOTE
  6
CONTINUOUS
 62
     4
100
AcDbCircle
 10
1681.443761
 20
853.383365
 30
0.0
 40
10.0
100
AcDbArc
 50
240.0
 51
300.0
  0
ARC
  5
4C6
100
AcDbEntity
  8
NOTE
  6
CONTINUOUS
 62
     4
100
AcDbCircle
 10
1681.443761
 20
853.383365
 30
0.0
 40
10.0
100
AcDbArc
 50
300.0
 51
49.904575
  0
ARC
  5
4C7
100
AcDbEntity
  8
NOTE
  6
CONTINUOUS
 62
     4
100
AcDbCircle
 10
1671.443761
 20
853.383365
 30
0.0
 40
10.0
100
AcDbArc
 50
240.0
 51
300.0
  0
ARC
  5
4C8
100
AcDbEntity
  8
NOTE
  6
CONTINUOUS
 62
     4
100
AcDbCircle
 10
1671.443761
 20
853.383365
 30
0.0
 40
10.0
100
AcDbArc
 50
128.076672
 51
240.0
  0
ARC
  5
4C9
100
AcDbEntity
  8
NOTE
  6
CONTINUOUS
 62
     4
100
AcDbCircle
 10
1671.443761
 20
853.383365
 30
0.0
 40
10.0
100
AcDbArc
 50
300.0
 51
48.67406
  0
ARC
  5
4CA
100
AcDbEntity
  8
NOTE
  6
CONTINUOUS
 62
     4
100
AcDbCircle
 10
1661.443761
 20
853.383365
 30
0.0
 40
10.0
100
AcDbArc
 50
180.0
 51
51.923328
  0
ARC
  5
4CB
100
AcDbEntity
  8
NOTE
  6
CONTINUOUS
 62
     4
100
AcDbCircle
 10
1691.443761
 20
853.383365
 30
0.0
 40
10.0
100
AcDbArc
 50
130.095425
 51
0.0
  0
LINE
  5
4CC
100
AcDbEntity
  8
NOTE
  6
CONTINUOUS
 62
     4
100
AcDbLine
 10
1645.997285
 20
838.096946
 30
0.0
 11
1613.215454
 21
853.383365
 31
0.0
  0
LINE
  5
4CD
100
AcDbEntity
  8
NOTE
  6
CONTINUOUS
 62
     4
100
AcDbLine
 10
1645.997285
 20
868.669784
 30
0.0
 11
1613.215454
 21
853.383365
 31
0.0
  0
LINE
  5
4CE
100
AcDbEntity
  8
NOTE
  6
CONTINUOUS
 62
     4
100
AcDbLine
 10
1712.968825
 20
853.383365
 30
0.0
 11
1613.215454
 21
853.383365
 31
0.0
  0
LINE
  5
4CF
100
AcDbEntity
  8
NOTE
  6
CONTINUOUS
 62
     4
100
AcDbLine
 10
1545.164681
 20
885.35908
 30
0.0
 11
1581.164681
 21
885.35908
 31
0.0
  0
LINE
  5
4D0
100
AcDbEntity
  8
DETAIL
  6
CONTINUOUS
 62
     5
100
AcDbLine
 10
1586.864681
 20
885.35908
 30
0.0
 11
1541.464681
 21
885.35908
 31
0.0
  0
ARC
  5
4D1
100
AcDbEntity
  8
DETAIL
  6
CONTINUOUS
 62
     5
100
AcDbCircle
 10
1586.864681
 20
883.05908
 30
0.0
 40
2.3
100
AcDbArc
 50
0.0
 51
90.0
  0
ARC
  5
4D2
100
AcDbEntity
  8
DETAIL
  6
CONTINUOUS
 62
     5
100
AcDbCircle
 10
1541.464681
 20
883.05908
 30
0.0
 40
2.3
100
AcDbArc
 50
90.0
 51
180.0
  0
LINE
  5
4D3
100
AcDbEntity
  8
DETAIL
  6
CONTINUOUS
 62
     5
100
AcDbLine
 10
1586.864681
 20
883.05908
 30
0.0
 11
1541.464681
 21
883.05908
 31
0.0
  0
LINE
  5
4D4
100
AcDbEntity
  8
NOTE
  6
CONTINUOUS
 62
     4
100
AcDbLine
 10
1509.596139
 20
1121.35908
 30
0.0
 11
1479.596139
 21
1151.35908
 31
0.0
  0
LINE
  5
4D5
100
AcDbEntity
  8
NOTE
  6
CONTINUOUS
 62
     4
100
AcDbLine
 10
1319.596139
 20
1121.35908
 30
0.0
 11
1289.596139
 21
1151.35908
 31
0.0
  0
LINE
  5
4D6
100
AcDbEntity
  8
NOTE
  6
CONTINUOUS
 62
     4
100
AcDbLine
 10
1419.164927
 20
1041.359616
 30
0.0
 11
1442.062414
 21
1067.012194
 31
0.0
  0
LINE
  5
4D7
100
AcDbEntity
  8
NOTE
  6
CONTINUOUS
 62
     4
100
AcDbLine
 10
1419.164927
 20
1041.359616
 30
0.0
 11
1426.168443
 21
1075.024144
 31
0.0
  0
POINT
  5
4D8
100
AcDbEntity
  8
DEFPOINTS
  6
CONTINUOUS
 62
     7
100
AcDbPoint
 10
1419.164681
 20
1052.80908
 30
0.0
  0
POINT
  5
4D9
100
AcDbEntity
  8
DEFPOINTS
  6
CONTINUOUS
 62
     7
100
AcDbPoint
 10
1430.614681
 20
1041.35908
 30
0.0
  0
POINT
  5
4DA
100
AcDbEntity
  8
DEFPOINTS
  6
CONTINUOUS
 62
     7
100
AcDbPoint
 10
1430.614681
 20
1041.35908
 30
0.0
  0
LINE
  5
4DB
100
AcDbEntity
  8
NOTE
  6
CONTINUOUS
 62
     4
100
AcDbLine
 10
1483.027596
 20
1121.35908
 30
0.0
 11
1453.027596
 21
1151.35908
 31
0.0
  0
LINE
  5
4DC
100
AcDbEntity
  8
NOTE
  6
CONTINUOUS
 62
     4
100
AcDbLine
 10
1456.459054
 20
1121.35908
 30
0.0
 11
1426.459054
 21
1151.35908
 31
0.0
  0
LINE
  5
4DD
100
AcDbEntity
  8
NOTE
  6
CONTINUOUS
 62
     4
100
AcDbLine
 10
1430.614681
 20
1041.35908
 30
0.0
 11
1407.714681
 21
1041.35908
 31
0.0
  0
CIRCLE
  5
4DE
100
AcDbEntity
  8
DETAIL
  6
CONTINUOUS
 62
     5
100
AcDbCircle
 10
1419.164681
 20
1041.35908
 30
0.0
 40
1.45
  0
CIRCLE
  5
4DF
100
AcDbEntity
  8
NOTE
  6
CONTINUOUS
 62
     4
100
AcDbCircle
 10
1419.164681
 20
1041.35908
 30
0.0
 40
1.45
  0
POINT
  5
4E0
100
AcDbEntity
  8
DEFPOINTS
  6
CONTINUOUS
 62
     7
100
AcDbPoint
 10
1419.164681
 20
1312.520185
 30
0.0
  0
LINE
  5
4E1
100
AcDbEntity
  8
SIZE
  6
CONTINUOUS
 62
    30
100
AcDbLine
 10
1414.164681
 20
1312.520185
 30
0.0
 11
1409.164681
 21
1312.520185
 31
0.0
  0
CIRCLE
  5
4E2
100
AcDbEntity
  8
SIZE
  6
CONTINUOUS
 62
    30
100
AcDbCircle
 10
1419.164681
 20
1312.520185
 30
0.0
 40
5.0
  0
POINT
  5
4E3
100
AcDbEntity
  8
DEFPOINTS
  6
CONTINUOUS
 62
     7
100
AcDbPoint
 10
1539.164681
 20
1075.35908
 30
0.0
  0
POINT
  5
4E4
100
AcDbEntity
  8
DEFPOINTS
  6
CONTINUOUS
 62
     7
100
AcDbPoint
 10
1539.164681
 20
1075.35908
 30
0.0
  0
POINT
  5
4E5
100
AcDbEntity
  8
DEFPOINTS
  6
CONTINUOUS
 62
     7
100
AcDbPoint
 10
1539.164681
 20
1075.35908
 30
0.0
  0
POINT
  5
4E6
100
AcDbEntity
  8
DEFPOINTS
  6
CONTINUOUS
 62
     7
100
AcDbPoint
 10
1539.164681
 20
1075.35908
 30
0.0
  0
LINE
  5
4E7
100
AcDbEntity
  8
NOTE
  6
CONTINUOUS
 62
     4
100
AcDbLine
 10
1673.027596
 20
1121.35908
 30
0.0
 11
1643.027596
 21
1151.35908
 31
0.0
  0
LINE
  5
4E8
100
AcDbEntity
  8
NOTE
  6
CONTINUOUS
 62
     4
100
AcDbLine
 10
1646.459054
 20
1121.35908
 30
0.0
 11
1616.459054
 21
1151.35908
 31
0.0
  0
TEXT
  5
4E9
100
AcDbEntity
  8
SIZE
  6
CONTINUOUS
 62
    30
100
AcDbText
 10
1088.700395
 20
1419.32082
 30
0.0
 40
55.0
  1
776
 41
0.9
 72
     1
 11
1151.164681
 21
1419.32082
 31
0.0
100
AcDbText
  0
LINE
  5
4EA
100
AcDbEntity
  8
SIZE
  6
CONTINUOUS
 62
    30
100
AcDbLine
 10
1534.164681
 20
1404.32082
 30
0.0
 11
1529.164681
 21
1404.32082
 31
0.0
  0
CIRCLE
  5
4EB
100
AcDbEntity
  8
SIZE
  6
CONTINUOUS
 62
    30
100
AcDbCircle
 10
1539.164681
 20
1404.32082
 30
0.0
 40
5.0
  0
TEXT
  5
4EC
100
AcDbEntity
  8
NOTE
  6
CONTINUOUS
 62
     4
100
AcDbText
 10
1770.021751
 20
1299.639173
 30
0.0
 40
55.0
  1
分ﾀﾞｸﾄ接続口､別売加湿器接続口
 41
0.9
100
AcDbText
  0
LINE
  5
4ED
100
AcDbEntity
  8
NOTE
  6
CONTINUOUS
 62
     4
100
AcDbLine
 10
1750.414018
 20
1290.016195
 30
0.0
 11
2603.880506
 21
1290.016195
 31
0.0
  0
TEXT
  5
4EE
100
AcDbEntity
  8
SIZE
  6
CONTINUOUS
 62
    30
100
AcDbText
 10
2082.313106
 20
802.844795
 30
0.0
 40
55.0
  1
350以上
 50
90.0
 41
0.9
 72
     1
 11
2082.313106
 21
926.35908
 31
0.0
100
AcDbText
  0
LINE
  5
4EF
100
AcDbEntity
  8
SIZE
  6
CONTINUOUS
 62
    30
100
AcDbLine
 10
2097.313106
 20
741.35908
 30
0.0
 11
2097.313106
 21
1111.35908
 31
0.0
  0
LINE
  5
4F0
100
AcDbEntity
  8
SIZE
  6
CONTINUOUS
 62
    30
100
AcDbLine
 10
1976.47684
 20
795.358576
 30
0.0
 11
1976.47684
 21
1065.35908
 31
0.0
  0
LINE
  5
4F1
100
AcDbEntity
  8
SIZE
  6
CONTINUOUS
 62
    30
100
AcDbLine
 10
1846.239471
 20
1036.35908
 30
0.0
 11
1846.239471
 21
1031.35908
 31
0.0
  0
LINE
  5
4F2
100
AcDbEntity
  8
SIZE
  6
CONTINUOUS
 62
    30
100
AcDbLine
 10
1846.239471
 20
1036.35908
 30
0.0
 11
1846.239471
 21
1031.35908
 31
0.0
  0
LINE
  5
4F3
100
AcDbEntity
  8
SIZE
  6
CONTINUOUS
 62
    30
100
AcDbLine
 10
1752.906763
 20
1033.35908
 30
0.0
 11
1752.906763
 21
1043.35908
 31
0.0
  0
LINE
  5
4F4
100
AcDbEntity
  8
SIZE
  6
CONTINUOUS
 62
    30
100
AcDbLine
 10
1752.906763
 20
1033.35908
 30
0.0
 11
1752.906763
 21
1065.35908
 31
0.0
  0
LINE
  5
4F5
100
AcDbEntity
  8
SIZE
  6
CONTINUOUS
 62
    30
100
AcDbLine
 10
1851.164681
 20
731.35908
 30
0.0
 11
2127.313106
 21
731.35908
 31
0.0
  0
LINE
  5
4F6
100
AcDbEntity
  8
SIZE
  6
CONTINUOUS
 62
    30
100
AcDbLine
 10
1851.164681
 20
731.35908
 30
0.0
 11
2127.313106
 21
731.35908
 31
0.0
  0
TEXT
  5
4F7
100
AcDbEntity
  8
SIZE
  6
CONTINUOUS
 62
    30
100
AcDbText
 10
1961.47684
 20
866.715971
 30
0.0
 40
55.0
  1
290
 50
90.0
 41
0.9
 72
     1
 11
1961.47684
 21
930.358828
 31
0.0
100
AcDbText
  0
LINE
  5
4F8
100
AcDbEntity
  8
SIZE
  6
CONTINUOUS
 62
    30
100
AcDbLine
 10
1851.164681
 20
731.35908
 30
0.0
 11
2006.218691
 21
731.35908
 31
0.0
  0
LINE
  5
4F9
100
AcDbEntity
  8
SIZE
  6
CONTINUOUS
 62
    30
100
AcDbLine
 10
1831.164681
 20
776.35908
 30
0.0
 11
2006.218691
 21
776.35908
 31
0.0
  0
CIRCLE
  5
4FA
100
AcDbEntity
  8
SIZE
  6
CONTINUOUS
 62
    30
100
AcDbCircle
 10
1846.239471
 20
882.35908
 30
0.0
 40
5.0
  0
LINE
  5
4FB
100
AcDbEntity
  8
OUTLINE
  6
CONTINUOUS
 62
     3
100
AcDbLine
 10
1811.164681
 20
731.35908
 30
0.0
 11
1831.164681
 21
731.35908
 31
0.0
  0
LINE
  5
4FC
100
AcDbEntity
  8
NOTE
  6
CONTINUOUS
 62
     4
100
AcDbLine
 10
1821.843464
 20
731.35908
 30
0.0
 11
1836.843464
 21
746.35908
 31
0.0
  0
LINE
  5
4FD
100
AcDbEntity
  8
NOTE
  6
CONTINUOUS
 62
     4
100
AcDbLine
 10
1811.164681
 20
731.35908
 30
0.0
 11
1911.164681
 21
731.35908
 31
0.0
  0
LINE
  5
4FE
100
AcDbEntity
  8
NOTE
  6
CONTINUOUS
 62
     4
100
AcDbLine
 10
1811.164681
 20
746.35908
 30
0.0
 11
1911.164681
 21
746.35908
 31
0.0
  0
POINT
  5
4FF
100
AcDbEntity
  8
DEFPOINTS
  6
CONTINUOUS
 62
     7
100
AcDbPoint
 10
1811.164681
 20
731.35908
 30
0.0
  0
POINT
  5
500
100
AcDbEntity
  8
DEFPOINTS
  6
CONTINUOUS
 62
     7
100
AcDbPoint
 10
1811.164681
 20
731.35908
 30
0.0
  0
POINT
  5
501
100
AcDbEntity
  8
DEFPOINTS
  6
CONTINUOUS
 62
     7
100
AcDbPoint
 10
1811.164681
 20
776.35908
 30
0.0
  0
LINE
  5
502
100
AcDbEntity
  8
OUTLINE
  6
CONTINUOUS
 62
     3
100
AcDbLine
 10
1811.164681
 20
731.35908
 30
0.0
 11
1811.164681
 21
776.35908
 31
0.0
  0
LINE
  5
503
100
AcDbEntity
  8
NOTE
  6
CONTINUOUS
 62
     4
100
AcDbLine
 10
1811.164681
 20
734.822433
 30
0.0
 11
1822.701328
 21
746.35908
 31
0.0
  0
LINE
  5
504
100
AcDbEntity
  8
NOTE
  6
CONTINUOUS
 62
     4
100
AcDbLine
 10
1811.164681
 20
731.35908
 30
0.0
 11
1811.164681
 21
746.35908
 31
0.0
  0
LINE
  5
505
100
AcDbEntity
  8
DETAIL
  6
CONTINUOUS
 62
     5
100
AcDbLine
 10
1811.164681
 20
731.35908
 30
0.0
 11
1811.164681
 21
776.35908
 31
0.0
  0
POINT
  5
506
100
AcDbEntity
  8
DEFPOINTS
  6
CONTINUOUS
 62
     7
100
AcDbPoint
 10
1831.164681
 20
731.35908
 30
0.0
  0
POINT
  5
507
100
AcDbEntity
  8
DEFPOINTS
  6
CONTINUOUS
 62
     7
100
AcDbPoint
 10
1831.164681
 20
731.35908
 30
0.0
  0
POINT
  5
508
100
AcDbEntity
  8
DEFPOINTS
  6
CONTINUOUS
 62
     7
100
AcDbPoint
 10
1831.164681
 20
731.35908
 30
0.0
  0
POINT
  5
509
100
AcDbEntity
  8
DEFPOINTS
  6
CONTINUOUS
 62
     7
100
AcDbPoint
 10
1846.239471
 20
882.35908
 30
0.0
  0
LINE
  5
50A
100
AcDbEntity
  8
NOTE
  6
CONTINUOUS
 62
     4
100
AcDbLine
 10
1835.985599
 20
731.35908
 30
0.0
 11
1850.985599
 21
746.35908
 31
0.0
  0
LINE
  5
50B
100
AcDbEntity
  8
NOTE
  6
CONTINUOUS
 62
     4
100
AcDbLine
 10
1878.412006
 20
731.35908
 30
0.0
 11
1893.412006
 21
746.35908
 31
0.0
  0
LINE
  5
50C
100
AcDbEntity
  8
NOTE
  6
CONTINUOUS
 62
     4
100
AcDbLine
 10
1892.554142
 20
731.35908
 30
0.0
 11
1907.554142
 21
746.35908
 31
0.0
  0
LINE
  5
50D
100
AcDbEntity
  8
NOTE
  6
CONTINUOUS
 62
     4
100
AcDbLine
 10
1906.696277
 20
731.35908
 30
0.0
 11
1921.696277
 21
746.35908
 31
0.0
  0
TEXT
  5
50E
100
AcDbEntity
  8
SIZE
  6
CONTINUOUS
 62
    30
100
AcDbText
 10
1831.239471
 20
904.10908
 30
0.0
 40
55.0
  1
159
 50
90.0
 41
0.9
 72
     1
 11
1831.239471
 21
961.85908
 31
0.0
100
AcDbText
  0
POINT
  5
50F
100
AcDbEntity
  8
DEFPOINTS
  6
CONTINUOUS
 62
     7
100
AcDbPoint
 10
1752.906763
 20
913.35908
 30
0.0
  0
LINE
  5
510
100
AcDbEntity
  8
SIZE
  6
CONTINUOUS
 62
    30
100
AcDbLine
 10
1752.906763
 20
908.35908
 30
0.0
 11
1752.906763
 21
903.35908
 31
0.0
  0
CIRCLE
  5
511
100
AcDbEntity
  8
SIZE
  6
CONTINUOUS
 62
    30
100
AcDbCircle
 10
1752.906763
 20
913.35908
 30
0.0
 40
5.0
  0
LINE
  5
512
100
AcDbEntity
  8
SIZE
  6
CONTINUOUS
 62
    30
100
AcDbLine
 10
1752.906763
 20
1028.35908
 30
0.0
 11
1752.906763
 21
1033.35908
 31
0.0
  0
CIRCLE
  5
513
100
AcDbEntity
  8
SIZE
  6
CONTINUOUS
 62
    30
100
AcDbCircle
 10
1752.906763
 20
1023.35908
 30
0.0
 40
5.0
  0
LINE
  5
514
100
AcDbEntity
  8
SIZE
  6
CONTINUOUS
 62
    30
100
AcDbLine
 10
1752.906763
 20
1023.35908
 30
0.0
 11
1752.906763
 21
913.35908
 31
0.0
  0
LINE
  5
515
100
AcDbEntity
  8
SIZE
  6
CONTINUOUS
 62
    30
100
AcDbLine
 10
1752.906763
 20
903.35908
 30
0.0
 11
1752.906763
 21
893.35908
 31
0.0
  0
POINT
  5
516
100
AcDbEntity
  8
DEFPOINTS
  6
CONTINUOUS
 62
     7
100
AcDbPoint
 10
1752.906763
 20
1023.35908
 30
0.0
  0
LINE
  5
517
100
AcDbEntity
  8
SIZE
  6
CONTINUOUS
 62
    30
100
AcDbLine
 10
1752.906763
 20
1028.35908
 30
0.0
 11
1752.906763
 21
1033.35908
 31
0.0
  0
CIRCLE
  5
518
100
AcDbEntity
  8
SIZE
  6
CONTINUOUS
 62
    30
100
AcDbCircle
 10
1752.906763
 20
1023.35908
 30
0.0
 40
5.0
  0
LINE
  5
519
100
AcDbEntity
  8
SIZE
  6
CONTINUOUS
 62
    30
100
AcDbLine
 10
1846.239471
 20
887.35908
 30
0.0
 11
1846.239471
 21
892.35908
 31
0.0
  0
LINE
  5
51A
100
AcDbEntity
  8
SIZE
  6
CONTINUOUS
 62
    30
100
AcDbLine
 10
1846.239471
 20
1031.35908
 30
0.0
 11
1846.239471
 21
892.35908
 31
0.0
  0
LINE
  5
51B
100
AcDbEntity
  8
SIZE
  6
CONTINUOUS
 62
    30
100
AcDbLine
 10
1846.239471
 20
1031.35908
 30
0.0
 11
1846.239471
 21
1021.35908
 31
0.0
  0
LINE
  5
51C
100
AcDbEntity
  8
SIZE
  6
CONTINUOUS
 62
    30
100
AcDbLine
 10
1976.47684
 20
790.358576
 30
0.0
 11
1976.47684
 21
795.358576
 31
0.0
  0
CIRCLE
  5
51D
100
AcDbEntity
  8
SIZE
  6
CONTINUOUS
 62
    30
100
AcDbCircle
 10
1976.47684
 20
785.358576
 30
0.0
 40
5.0
  0
POINT
  5
51E
100
AcDbEntity
  8
DEFPOINTS
  6
CONTINUOUS
 62
     7
100
AcDbPoint
 10
1976.218691
 20
731.35908
 30
0.0
  0
LINE
  5
51F
100
AcDbEntity
  8
SIZE
  6
CONTINUOUS
 62
    30
100
AcDbLine
 10
1976.218691
 20
781.35908
 30
0.0
 11
1976.218691
 21
786.35908
 31
0.0
  0
CIRCLE
  5
520
100
AcDbEntity
  8
SIZE
  6
CONTINUOUS
 62
    30
100
AcDbCircle
 10
1976.218691
 20
776.35908
 30
0.0
 40
5.0
  0
LINE
  5
521
100
AcDbEntity
  8
SIZE
  6
CONTINUOUS
 62
    30
100
AcDbLine
 10
1976.218691
 20
776.35908
 30
0.0
 11
1976.218691
 21
731.35908
 31
0.0
  0
LINE
  5
522
100
AcDbEntity
  8
SIZE
  6
CONTINUOUS
 62
    30
100
AcDbLine
 10
1976.218691
 20
786.35908
 30
0.0
 11
1976.218691
 21
796.35908
 31
0.0
  0
LINE
  5
523
100
AcDbEntity
  8
SIZE
  6
CONTINUOUS
 62
    30
100
AcDbLine
 10
2097.313106
 20
736.35908
 30
0.0
 11
2097.313106
 21
741.35908
 31
0.0
  0
POINT
  5
524
100
AcDbEntity
  8
DEFPOINTS
  6
CONTINUOUS
 62
     7
100
AcDbPoint
 10
2097.313106
 20
731.35908
 30
0.0
  0
LINE
  5
525
100
AcDbEntity
  8
SIZE
  6
CONTINUOUS
 62
    30
100
AcDbLine
 10
2097.313106
 20
736.35908
 30
0.0
 11
2097.313106
 21
741.35908
 31
0.0
  0
LINE
  5
526
100
AcDbEntity
  8
SIZE
  6
CONTINUOUS
 62
    30
100
AcDbLine
 10
2097.313106
 20
741.35908
 30
0.0
 11
2097.313106
 21
751.35908
 31
0.0
  0
LINE
  5
527
100
AcDbEntity
  8
SIZE
  6
CONTINUOUS
 62
    30
100
AcDbLine
 10
1749.383617
 20
1121.35908
 30
0.0
 11
2127.313106
 21
1121.35908
 31
0.0
  0
TEXT
  5
528
100
AcDbEntity
  8
SIZE
  6
CONTINUOUS
 62
    30
100
AcDbText
 10
1831.239471
 20
1132.431975
 30
0.0
 40
55.0
  1
34
 50
90.0
 41
0.9
 72
     1
 11
1831.239471
 21
1173.681975
 31
0.0
100
AcDbText
  0
LINE
  5
529
100
AcDbEntity
  8
SIZE
  6
CONTINUOUS
 62
    30
100
AcDbLine
 10
1846.239471
 20
1085.35908
 30
0.0
 11
1846.239471
 21
1229.931975
 31
0.0
  0
LINE
  5
52A
100
AcDbEntity
  8
SIZE
  6
CONTINUOUS
 62
    30
100
AcDbLine
 10
1752.906763
 20
1075.35908
 30
0.0
 11
1752.906763
 21
1236.296214
 31
0.0
  0
POINT
  5
52B
100
AcDbEntity
  8
DEFPOINTS
  6
CONTINUOUS
 62
     7
100
AcDbPoint
 10
1729.383617
 20
1121.35908
 30
0.0
  0
LINE
  5
52C
100
AcDbEntity
  8
SIZE
  6
CONTINUOUS
 62
    30
100
AcDbLine
 10
1752.906763
 20
1070.35908
 30
0.0
 11
1752.906763
 21
1065.35908
 31
0.0
  0
CIRCLE
  5
52D
100
AcDbEntity
  8
SIZE
  6
CONTINUOUS
 62
    30
100
AcDbCircle
 10
1752.906763
 20
1075.35908
 30
0.0
 40
5.0
  0
CIRCLE
  5
52E
100
AcDbEntity
  8
SIZE
  6
CONTINUOUS
 62
    30
100
AcDbCircle
 10
1846.239471
 20
1041.35908
 30
0.0
 40
5.0
  0
POINT
  5
52F
100
AcDbEntity
  8
DEFPOINTS
  6
CONTINUOUS
 62
     7
100
AcDbPoint
 10
1846.239471
 20
1041.35908
 30
0.0
  0
LINE
  5
530
100
AcDbEntity
  8
SIZE
  6
CONTINUOUS
 62
    30
100
AcDbLine
 10
1846.239471
 20
1080.35908
 30
0.0
 11
1846.239471
 21
1085.35908
 31
0.0
  0
CIRCLE
  5
531
100
AcDbEntity
  8
SIZE
  6
CONTINUOUS
 62
    30
100
AcDbCircle
 10
1846.239471
 20
1075.35908
 30
0.0
 40
5.0
  0
CIRCLE
  5
532
100
AcDbEntity
  8
SIZE
  6
CONTINUOUS
 62
    30
100
AcDbCircle
 10
1846.239471
 20
1041.35908
 30
0.0
 40
5.0
  0
LINE
  5
533
100
AcDbEntity
  8
SIZE
  6
CONTINUOUS
 62
    30
100
AcDbLine
 10
1846.239471
 20
1041.35908
 30
0.0
 11
1846.239471
 21
1075.35908
 31
0.0
  0
POINT
  5
534
100
AcDbEntity
  8
DEFPOINTS
  6
CONTINUOUS
 62
     7
100
AcDbPoint
 10
1976.47684
 20
1075.35908
 30
0.0
  0
LINE
  5
535
100
AcDbEntity
  8
SIZE
  6
CONTINUOUS
 62
    30
100
AcDbLine
 10
1976.47684
 20
1070.35908
 30
0.0
 11
1976.47684
 21
1065.35908
 31
0.0
  0
CIRCLE
  5
536
100
AcDbEntity
  8
SIZE
  6
CONTINUOUS
 62
    30
100
AcDbCircle
 10
1976.47684
 20
1075.35908
 30
0.0
 40
5.0
  0
POINT
  5
537
100
AcDbEntity
  8
DEFPOINTS
  6
CONTINUOUS
 62
     7
100
AcDbPoint
 10
2097.313106
 20
1121.35908
 30
0.0
  0
LINE
  5
538
100
AcDbEntity
  8
SIZE
  6
CONTINUOUS
 62
    30
100
AcDbLine
 10
2097.313106
 20
1116.35908
 30
0.0
 11
2097.313106
 21
1111.35908
 31
0.0
  0
CIRCLE
  5
539
100
AcDbEntity
  8
SIZE
  6
CONTINUOUS
 62
    30
100
AcDbCircle
 10
2097.313106
 20
1121.35908
 30
0.0
 40
5.0
  0
ENDBLK
  5
53B
100
AcDbEntity
  8
0
 62
     7
100
AcDbBlockEnd
  0
ENDSEC
  0
SECTION
  2
ENTITIES
  0
LINE
  5
53D
100
AcDbEntity
  8
DETAIL
  6
CONTINUOUS
 62
     5
100
AcDbLine
 10
-680.0
 20
0.0
 30
0.0
 11
680.0
 21
0.0
 31
0.0
  0
POLYLINE
  5
53E
100
AcDbEntity
  8
OUTLINE
  6
CONTINUOUS
 62
     3
100
AcDb2dPolyline
 66
     1
 10
0.0
 20
0.0
 30
0.0
 70
     1
  0
VERTEX
  5
53F
100
AcDbEntity
  8
OUTLINE
  6
CONTINUOUS
 62
     3
100
AcDbVertex
100
AcDb2dVertex
 10
-388.0
 20
53.999496
 30
0.0
  0
VERTEX
  5
540
100
AcDbEntity
  8
OUTLINE
  6
CONTINUOUS
 62
     3
100
AcDbVertex
100
AcDb2dVertex
 10
388.0
 20
53.999496
 30
0.0
  0
VERTEX
  5
541
100
AcDbEntity
  8
OUTLINE
  6
CONTINUOUS
 62
     3
100
AcDbVertex
100
AcDb2dVertex
 10
388.0
 20
45.0
 30
0.0
  0
VERTEX
  5
542
100
AcDbEntity
  8
OUTLINE
  6
CONTINUOUS
 62
     3
100
AcDbVertex
100
AcDb2dVertex
 10
-388.0
 20
45.0
 30
0.0
  0
SEQEND
  5
543
100
AcDbEntity
  8
OUTLINE
  6
CONTINUOUS
 62
     3
  0
TEXT
  5
544
100
AcDbEntity
  8
ETC
  6
CONTINUOUS
 62
    61
100
AcDbText
 10
-970.435693
 20
929.734183
 30
0.0
 40
80.0
  1
MPL-RP40_56LA(ﾘﾌﾟﾚｽﾊﾟﾈﾙ)_4
 50
359.999997
 41
0.8
100
AcDbText
  0
LINE
  5
545
100
AcDbEntity
  8
NOTE
  6
CONTINUOUS
 62
     4
100
AcDbLine
 10
-129.181873
 20
-145.145884
 30
0.0
 11
-412.000741
 21
154.001012
 31
0.0
  0
LINE
  5
546
100
AcDbEntity
  8
SIZE
  6
CONTINUOUS
 62
    30
100
AcDbLine
 10
670.0
 20
-701.359078
 30
0.0
 11
-670.0
 21
-701.359078
 31
0.0
  0
LINE
  5
547
100
AcDbEntity
  8
SIZE
  6
CONTINUOUS
 62
    30
100
AcDbLine
 10
-402.0
 20
-553.541041
 30
0.0
 11
402.0
 21
-553.541041
 31
0.0
  0
LINE
  5
548
100
AcDbEntity
  8
SIZE
  6
CONTINUOUS
 62
    30
100
AcDbLine
 10
-650.0
 20
-425.346879
 30
0.0
 11
650.0
 21
-425.346879
 31
0.0
  0
LINE
  5
549
100
AcDbEntity
  8
SIZE
  6
CONTINUOUS
 62
    30
100
AcDbLine
 10
378.0
 20
672.96174
 30
0.0
 11
-378.0
 21
672.96174
 31
0.0
  0
TEXT
  5
54A
100
AcDbEntity
  8
SIZE
  6
CONTINUOUS
 62
    30
100
AcDbText
 10
-330.535714
 20
596.161105
 30
0.0
 40
55.0
  1
221
 41
0.9
 72
     1
 11
-277.5
 21
596.161105
 31
0.0
100
AcDbText
  0
LINE
  5
54B
100
AcDbEntity
  8
SIZE
  6
CONTINUOUS
 62
    30
100
AcDbLine
 10
-378.0
 20
581.161105
 30
0.0
 11
-177.0
 21
581.161105
 31
0.0
  0
TEXT
  5
54C
100
AcDbEntity
  8
SIZE
  6
CONTINUOUS
 62
    30
100
AcDbText
 10
-329.863741
 20
484.331208
 30
0.0
 40
55.0
  1
388
 41
0.9
 72
     1
 11
-266.220884
 21
484.331208
 31
0.0
100
AcDbText
  0
LINE
  5
54D
100
AcDbEntity
  8
SIZE
  6
CONTINUOUS
 62
    30
100
AcDbLine
 10
-10.0
 20
469.331208
 30
0.0
 11
-378.0
 21
469.331208
 31
0.0
  0
LINE
  5
54E
100
AcDbEntity
  8
DETAIL
  6
CONTINUOUS
 62
     5
100
AcDbLine
 10
-388.0
 20
53.999496
 30
0.0
 11
388.0
 21
53.999496
 31
0.0
  0
LINE
  5
54F
100
AcDbEntity
  8
OUTLINE
  6
CONTINUOUS
 62
     3
100
AcDbLine
 10
388.0
 20
344.0
 30
0.0
 11
-388.0
 21
344.0
 31
0.0
  0
LINE
  5
550
100
AcDbEntity
  8
OUTLINE
  6
CONTINUOUS
 62
     3
100
AcDbLine
 10
-575.0
 20
-20.0
 30
0.0
 11
575.0
 21
-20.0
 31
0.0
  0
LINE
  5
551
100
AcDbEntity
  8
NOTE
  6
CONTINUOUS
 62
     4
100
AcDbLine
 10
578.218936
 20
390.0
 30
0.0
 11
-431.34012
 21
390.0
 31
0.0
  0
LINE
  5
552
100
AcDbEntity
  8
NOTE
  6
CONTINUOUS
 62
     4
100
AcDbLine
 10
-254.442103
 20
-226.232994
 30
0.0
 11
-448.000535
 21
77.998787
 31
0.0
  0
LINE
  5
553
100
AcDbEntity
  8
DETAIL
  6
CONTINUOUS
 62
     5
100
AcDbLine
 10
388.0
 20
344.0
 30
0.0
 11
-388.0
 21
344.0
 31
0.0
  0
LINE
  5
554
100
AcDbEntity
  8
DETAIL
  6
CONTINUOUS
 62
     5
100
AcDbLine
 10
-575.0
 20
-20.0
 30
0.0
 11
575.0
 21
-20.0
 31
0.0
  0
LINE
  5
555
100
AcDbEntity
  8
DETAIL
  6
CONTINUOUS
 62
     5
100
AcDbLine
 10
-660.0
 20
45.0
 30
0.0
 11
0.0
 21
45.0
 31
0.0
  0
LINE
  5
557
100
AcDbEntity
  8
SIZE
  6
CONTINUOUS
 62
    30
100
AcDbLine
 10
-412.0
 20
116.0
 30
0.0
 11
-412.0
 21
-583.541041
 31
0.0
  0
LINE
  5
558
100
AcDbEntity
  8
SIZE
  6
CONTINUOUS
 62
    30
100
AcDbLine
 10
-388.0
 20
25.0
 30
0.0
 11
-388.0
 21
-389.177749
 31
0.0
  0
LINE
  5
559
100
AcDbEntity
  8
SIZE
  6
CONTINUOUS
 62
    30
100
AcDbLine
 10
-466.0
 20
176.807188
 30
0.0
 11
-466.0
 21
-389.177749
 31
0.0
  0
LINE
  5
55A
100
AcDbEntity
  8
SIZE
  6
CONTINUOUS
 62
    30
100
AcDbLine
 10
-455.0
 20
176.807188
 30
0.0
 11
-455.0
 21
-273.256572
 31
0.0
  0
LINE
  5
55B
100
AcDbEntity
  8
SIZE
  6
CONTINUOUS
 62
    30
100
AcDbLine
 10
-388.0
 20
25.0
 30
0.0
 11
-388.0
 21
-273.256572
 31
0.0
  0
LINE
  5
55C
100
AcDbEntity
  8
SIZE
  6
CONTINUOUS
 62
    30
100
AcDbLine
 10
-388.0
 20
25.0
 30
0.0
 11
-388.0
 21
-161.475443
 31
0.0
  0
LINE
  5
55D
100
AcDbEntity
  8
SIZE
  6
CONTINUOUS
 62
    30
100
AcDbLine
 10
-448.0
 20
238.807188
 30
0.0
 11
-448.0
 21
-161.475443
 31
0.0
  0
LINE
  5
55E
100
AcDbEntity
  8
OUTLINE
  6
CONTINUOUS
 62
     3
100
AcDbLine
 10
-680.0
 20
0.0
 30
0.0
 11
-680.0
 21
-3.0
 31
0.0
  0
LINE
  5
55F
100
AcDbEntity
  8
NOTE
  6
CONTINUOUS
 62
     4
100
AcDbLine
 10
-750.628601
 20
-140.672477
 30
0.0
 11
-466.000694
 21
221.998967
 31
0.0
  0
LINE
  5
560
100
AcDbEntity
  8
DETAIL
  6
CONTINUOUS
 62
     5
100
AcDbLine
 10
-680.0
 20
0.0
 30
0.0
 11
-680.0
 21
-3.0
 31
0.0
  0
LINE
  5
561
100
AcDbEntity
  8
SIZE
  6
CONTINUOUS
 62
    30
100
AcDbLine
 10
-680.0
 20
-23.0
 30
0.0
 11
-680.0
 21
-731.359078
 31
0.0
  0
POINT
  5
562
100
AcDbEntity
  8
DEFPOINTS
  6
CONTINUOUS
 62
     7
100
AcDbPoint
 10
-680.0
 20
-701.359078
 30
0.0
  0
LINE
  5
563
100
AcDbEntity
  8
SIZE
  6
CONTINUOUS
 62
    30
100
AcDbLine
 10
-675.0
 20
-701.359078
 30
0.0
 11
-670.0
 21
-701.359078
 31
0.0
  0
CIRCLE
  5
564
100
AcDbEntity
  8
SIZE
  6
CONTINUOUS
 62
    30
100
AcDbCircle
 10
-680.0
 20
-701.359078
 30
0.0
 40
5.0
  0
LINE
  5
565
100
AcDbEntity
  8
NOTE
  6
CONTINUOUS
 62
     4
100
AcDbLine
 10
-750.628601
 20
-140.672477
 30
0.0
 11
-1151.164685
 21
-140.672477
 31
0.0
  0
TEXT
  5
566
100
AcDbEntity
  8
NOTE
  6
CONTINUOUS
 62
     4
100
AcDbText
 10
-1133.309192
 20
-120.801889
 30
0.0
 40
64.0
  1
RG %%C12.7
 41
0.9
100
AcDbText
  0
TEXT
  5
567
100
AcDbEntity
  8
SIZE
  6
CONTINUOUS
 62
    30
100
AcDbText
 10
-795.142858
 20
-410.346879
 30
0.0
 40
55.0
  1
20
 41
0.9
 72
     1
 11
-755.071429
 21
-410.346879
 31
0.0
100
AcDbText
  0
LINE
  5
568
100
AcDbEntity
  8
SIZE
  6
CONTINUOUS
 62
    30
100
AcDbLine
 10
-690.0
 20
-425.346879
 30
0.0
 11
-810.142857
 21
-425.346879
 31
0.0
  0
LINE
  5
569
100
AcDbEntity
  8
SIZE
  6
CONTINUOUS
 62
    30
100
AcDbLine
 10
-680.0
 20
-23.0
 30
0.0
 11
-680.0
 21
-583.541041
 31
0.0
  0
LINE
  5
56A
100
AcDbEntity
  8
SIZE
  6
CONTINUOUS
 62
    30
100
AcDbLine
 10
-660.0
 20
-20.0
 30
0.0
 11
-660.0
 21
-455.346879
 31
0.0
  0
LINE
  5
56B
100
AcDbEntity
  8
SIZE
  6
CONTINUOUS
 62
    30
100
AcDbLine
 10
-660.0
 20
-20.0
 30
0.0
 11
-660.0
 21
-455.346879
 31
0.0
  0
LINE
  5
56C
100
AcDbEntity
  8
SIZE
  6
CONTINUOUS
 62
    30
100
AcDbLine
 10
-680.0
 20
-23.0
 30
0.0
 11
-680.0
 21
-455.346879
 31
0.0
  0
TEXT
  5
56D
100
AcDbEntity
  8
SIZE
  6
CONTINUOUS
 62
    30
100
AcDbText
 10
-571.142858
 20
-344.177749
 30
0.0
 40
55.0
  1
78
 41
0.9
 72
     1
 11
-531.071429
 21
-344.177749
 31
0.0
100
AcDbText
  0
TEXT
  5
56E
100
AcDbEntity
  8
SIZE
  6
CONTINUOUS
 62
    30
100
AcDbText
 10
-609.642857
 20
-538.541041
 30
0.0
 40
55.0
  1
268
 41
0.9
 72
     1
 11
-546.0
 21
-538.541041
 31
0.0
100
AcDbText
  0
LINE
  5
56F
100
AcDbEntity
  8
SIZE
  6
CONTINUOUS
 62
    30
100
AcDbLine
 10
-670.0
 20
-553.541041
 30
0.0
 11
-422.0
 21
-553.541041
 31
0.0
  0
LINE
  5
570
100
AcDbEntity
  8
SIZE
  6
CONTINUOUS
 62
    30
100
AcDbLine
 10
-466.0
 20
-359.177749
 30
0.0
 11
-586.142857
 21
-359.177749
 31
0.0
  0
LINE
  5
571
100
AcDbEntity
  8
SIZE
  6
CONTINUOUS
 62
    30
100
AcDbLine
 10
-675.0
 20
-553.541041
 30
0.0
 11
-670.0
 21
-553.541041
 31
0.0
  0
CIRCLE
  5
572
100
AcDbEntity
  8
SIZE
  6
CONTINUOUS
 62
    30
100
AcDbCircle
 10
-680.0
 20
-553.541041
 30
0.0
 40
5.0
  0
CIRCLE
  5
573
100
AcDbEntity
  8
SIZE
  6
CONTINUOUS
 62
    30
100
AcDbCircle
 10
-660.0
 20
-425.346879
 30
0.0
 40
5.0
  0
CIRCLE
  5
574
100
AcDbEntity
  8
SIZE
  6
CONTINUOUS
 62
    30
100
AcDbCircle
 10
-660.0
 20
-425.346879
 30
0.0
 40
5.0
  0
LINE
  5
575
100
AcDbEntity
  8
SIZE
  6
CONTINUOUS
 62
    30
100
AcDbLine
 10
-660.0
 20
-425.346879
 30
0.0
 11
-680.0
 21
-425.346879
 31
0.0
  0
LINE
  5
576
100
AcDbEntity
  8
SIZE
  6
CONTINUOUS
 62
    30
100
AcDbLine
 10
-685.0
 20
-425.346879
 30
0.0
 11
-690.0
 21
-425.346879
 31
0.0
  0
CIRCLE
  5
577
100
AcDbEntity
  8
SIZE
  6
CONTINUOUS
 62
    30
100
AcDbCircle
 10
-680.0
 20
-425.346879
 30
0.0
 40
5.0
  0
LINE
  5
578
100
AcDbEntity
  8
SIZE
  6
CONTINUOUS
 62
    30
100
AcDbLine
 10
-655.0
 20
-425.346879
 30
0.0
 11
-650.0
 21
-425.346879
 31
0.0
  0
POINT
  5
579
100
AcDbEntity
  8
DEFPOINTS
  6
CONTINUOUS
 62
     7
100
AcDbPoint
 10
-660.0
 20
-425.346879
 30
0.0
  0
LINE
  5
57A
100
AcDbEntity
  8
SIZE
  6
CONTINUOUS
 62
    30
100
AcDbLine
 10
-655.0
 20
-425.346879
 30
0.0
 11
-650.0
 21
-425.346879
 31
0.0
  0
LINE
  5
57B
100
AcDbEntity
  8
SIZE
  6
CONTINUOUS
 62
    30
100
AcDbLine
 10
-650.0
 20
-425.346879
 30
0.0
 11
-640.0
 21
-425.346879
 31
0.0
  0
LINE
  5
57C
100
AcDbEntity
  8
SIZE
  6
CONTINUOUS
 62
    30
100
AcDbLine
 10
-407.0
 20
-553.541041
 30
0.0
 11
-402.0
 21
-553.541041
 31
0.0
  0
CIRCLE
  5
57D
100
AcDbEntity
  8
SIZE
  6
CONTINUOUS
 62
    30
100
AcDbCircle
 10
-412.0
 20
-553.541041
 30
0.0
 40
5.0
  0
POINT
  5
57E
100
AcDbEntity
  8
DEFPOINTS
  6
CONTINUOUS
 62
     7
100
AcDbPoint
 10
-412.0
 20
-553.541041
 30
0.0
  0
LINE
  5
57F
100
AcDbEntity
  8
SIZE
  6
CONTINUOUS
 62
    30
100
AcDbLine
 10
-417.0
 20
-553.541041
 30
0.0
 11
-422.0
 21
-553.541041
 31
0.0
  0
CIRCLE
  5
580
100
AcDbEntity
  8
SIZE
  6
CONTINUOUS
 62
    30
100
AcDbCircle
 10
-412.0
 20
-553.541041
 30
0.0
 40
5.0
  0
LINE
  5
581
100
AcDbEntity
  8
SIZE
  6
CONTINUOUS
 62
    30
100
AcDbLine
 10
-398.0
 20
-359.177749
 30
0.0
 11
-456.0
 21
-359.177749
 31
0.0
  0
LINE
  5
582
100
AcDbEntity
  8
SIZE
  6
CONTINUOUS
 62
    30
100
AcDbLine
 10
-461.0
 20
-359.177749
 30
0.0
 11
-456.0
 21
-359.177749
 31
0.0
  0
CIRCLE
  5
583
100
AcDbEntity
  8
SIZE
  6
CONTINUOUS
 62
    30
100
AcDbCircle
 10
-466.0
 20
-359.177749
 30
0.0
 40
5.0
  0
POINT
  5
584
100
AcDbEntity
  8
DEFPOINTS
  6
CONTINUOUS
 62
     7
100
AcDbPoint
 10
-388.0
 20
-359.177749
 30
0.0
  0
LINE
  5
585
100
AcDbEntity
  8
SIZE
  6
CONTINUOUS
 62
    30
100
AcDbLine
 10
-393.0
 20
-359.177749
 30
0.0
 11
-398.0
 21
-359.177749
 31
0.0
  0
CIRCLE
  5
586
100
AcDbEntity
  8
SIZE
  6
CONTINUOUS
 62
    30
100
AcDbCircle
 10
-388.0
 20
-359.177749
 30
0.0
 40
5.0
  0
TEXT
  5
587
100
AcDbEntity
  8
SIZE
  6
CONTINUOUS
 62
    30
100
AcDbText
 10
-560.142858
 20
-228.256572
 30
0.0
 40
55.0
  1
67
 41
0.9
 72
     1
 11
-520.071429
 21
-228.256572
 31
0.0
100
AcDbText
  0
LINE
  5
588
100
AcDbEntity
  8
SIZE
  6
CONTINUOUS
 62
    30
100
AcDbLine
 10
-455.0
 20
-243.256572
 30
0.0
 11
-575.142857
 21
-243.256572
 31
0.0
  0
TEXT
  5
589
100
AcDbEntity
  8
SIZE
  6
CONTINUOUS
 62
    30
100
AcDbText
 10
-553.142858
 20
-116.475443
 30
0.0
 40
55.0
  1
60
 41
0.9
 72
     1
 11
-513.071429
 21
-116.475443
 31
0.0
100
AcDbText
  0
LINE
  5
58A
100
AcDbEntity
  8
SIZE
  6
CONTINUOUS
 62
    30
100
AcDbLine
 10
-448.0
 20
-131.475443
 30
0.0
 11
-568.142857
 21
-131.475443
 31
0.0
  0
ARC
  5
58B
100
AcDbEntity
  8
OUTLINE
  6
CONTINUOUS
 62
     3
100
AcDbCircle
 10
-575.0
 20
312.764706
 30
0.0
 40
332.764706
100
AcDbArc
 50
251.606688
 51
270.0
  0
ARC
  5
58C
100
AcDbEntity
  8
DETAIL
  6
CONTINUOUS
 62
     5
100
AcDbCircle
 10
-575.0
 20
312.764706
 30
0.0
 40
332.764706
100
AcDbArc
 50
251.606688
 51
270.0
  0
POINT
  5
58D
100
AcDbEntity
  8
DEFPOINTS
  6
CONTINUOUS
 62
     7
100
AcDbPoint
 10
-680.0
 20
-3.0
 30
0.0
  0
POINT
  5
58E
100
AcDbEntity
  8
DEFPOINTS
  6
CONTINUOUS
 62
     7
100
AcDbPoint
 10
-680.0
 20
-3.0
 30
0.0
  0
POINT
  5
58F
100
AcDbEntity
  8
DEFPOINTS
  6
CONTINUOUS
 62
     7
100
AcDbPoint
 10
-680.0
 20
-3.0
 30
0.0
  0
LINE
  5
590
100
AcDbEntity
  8
SIZE
  6
CONTINUOUS
 62
    30
100
AcDbLine
 10
-398.0
 20
-243.256572
 30
0.0
 11
-445.0
 21
-243.256572
 31
0.0
  0
POINT
  5
591
100
AcDbEntity
  8
DEFPOINTS
  6
CONTINUOUS
 62
     7
100
AcDbPoint
 10
-455.0
 20
-243.256572
 30
0.0
  0
LINE
  5
592
100
AcDbEntity
  8
SIZE
  6
CONTINUOUS
 62
    30
100
AcDbLine
 10
-450.0
 20
-243.256572
 30
0.0
 11
-445.0
 21
-243.256572
 31
0.0
  0
CIRCLE
  5
593
100
AcDbEntity
  8
SIZE
  6
CONTINUOUS
 62
    30
100
AcDbCircle
 10
-455.0
 20
-243.256572
 30
0.0
 40
5.0
  0
LINE
  5
594
100
AcDbEntity
  8
SIZE
  6
CONTINUOUS
 62
    30
100
AcDbLine
 10
-393.0
 20
-243.256572
 30
0.0
 11
-398.0
 21
-243.256572
 31
0.0
  0
CIRCLE
  5
595
100
AcDbEntity
  8
SIZE
  6
CONTINUOUS
 62
    30
100
AcDbCircle
 10
-388.0
 20
-243.256572
 30
0.0
 40
5.0
  0
LINE
  5
596
100
AcDbEntity
  8
SIZE
  6
CONTINUOUS
 62
    30
100
AcDbLine
 10
-443.0
 20
-131.475443
 30
0.0
 11
-438.0
 21
-131.475443
 31
0.0
  0
CIRCLE
  5
597
100
AcDbEntity
  8
SIZE
  6
CONTINUOUS
 62
    30
100
AcDbCircle
 10
-448.0
 20
-131.475443
 30
0.0
 40
5.0
  0
POINT
  5
598
100
AcDbEntity
  8
DEFPOINTS
  6
CONTINUOUS
 62
     7
100
AcDbPoint
 10
-388.0
 20
-131.475443
 30
0.0
  0
LINE
  5
599
100
AcDbEntity
  8
SIZE
  6
CONTINUOUS
 62
    30
100
AcDbLine
 10
-393.0
 20
-131.475443
 30
0.0
 11
-398.0
 21
-131.475443
 31
0.0
  0
CIRCLE
  5
59A
100
AcDbEntity
  8
SIZE
  6
CONTINUOUS
 62
    30
100
AcDbCircle
 10
-388.0
 20
-131.475443
 30
0.0
 40
5.0
  0
LINE
  5
59B
100
AcDbEntity
  8
SIZE
  6
CONTINUOUS
 62
    30
100
AcDbLine
 10
-398.0
 20
-131.475443
 30
0.0
 11
-438.0
 21
-131.475443
 31
0.0
  0
TEXT
  5
59C
100
AcDbEntity
  8
NOTE
  6
CONTINUOUS
 62
     4
100
AcDbText
 10
-985.351728
 20
576.826579
 30
0.0
 40
64.0
  1
RL %%C6.35
 41
0.9
100
AcDbText
  0
LINE
  5
59D
100
AcDbEntity
  8
SIZE
  6
CONTINUOUS
 62
    30
100
AcDbLine
 10
-388.0
 20
362.4
 30
0.0
 11
-388.0
 21
702.96174
 31
0.0
  0
LINE
  5
59E
100
AcDbEntity
  8
SIZE
  6
CONTINUOUS
 62
    30
100
AcDbLine
 10
-388.0
 20
362.4
 30
0.0
 11
-388.0
 21
611.161105
 31
0.0
  0
LINE
  5
59F
100
AcDbEntity
  8
NOTE
  6
CONTINUOUS
 62
     4
100
AcDbLine
 10
-505.517866
 20
741.421086
 30
0.0
 11
-448.000051
 21
283.998609
 31
0.0
  0
LINE
  5
5A0
100
AcDbEntity
  8
NOTE
  6
CONTINUOUS
 62
     4
100
AcDbLine
 10
-598.298969
 20
556.955991
 30
0.0
 11
-1003.20722
 21
556.955991
 31
0.0
  0
LINE
  5
5A1
100
AcDbEntity
  8
SIZE
  6
CONTINUOUS
 62
    30
100
AcDbLine
 10
-450.0
 20
154.0
 30
0.0
 11
-961.242964
 21
154.0
 31
0.0
  0
LINE
  5
5A2
100
AcDbEntity
  8
SIZE
  6
CONTINUOUS
 62
    30
100
AcDbLine
 10
-408.0
 20
344.0
 30
0.0
 11
-961.242964
 21
344.0
 31
0.0
  0
LINE
  5
5A3
100
AcDbEntity
  8
SIZE
  6
CONTINUOUS
 62
    30
100
AcDbLine
 10
-493.192308
 20
77.999496
 30
0.0
 11
-1083.828299
 21
77.999496
 31
0.0
  0
LINE
  5
5A4
100
AcDbEntity
  8
SIZE
  6
CONTINUOUS
 62
    30
100
AcDbLine
 10
-408.0
 20
344.0
 30
0.0
 11
-1083.828299
 21
344.0
 31
0.0
  0
LINE
  5
5A5
100
AcDbEntity
  8
SIZE
  6
CONTINUOUS
 62
    30
100
AcDbLine
 10
-511.192308
 20
221.999496
 30
0.0
 11
-846.348743
 21
221.999496
 31
0.0
  0
LINE
  5
5A6
100
AcDbEntity
  8
SIZE
  6
CONTINUOUS
 62
    30
100
AcDbLine
 10
-408.0
 20
344.0
 30
0.0
 11
-846.348743
 21
344.0
 31
0.0
  0
TEXT
  5
5A7
100
AcDbEntity
  8
SIZE
  6
CONTINUOUS
 62
    30
100
AcDbText
 10
-946.242964
 20
187.518482
 30
0.0
 40
55.0
  1
190
 50
90.0
 41
0.9
 72
     1
 11
-946.242964
 21
246.447053
 31
0.0
100
AcDbText
  0
LINE
  5
5A8
100
AcDbEntity
  8
SIZE
  6
CONTINUOUS
 62
    30
100
AcDbLine
 10
-931.242964
 20
334.0
 30
0.0
 11
-931.242964
 21
164.0
 31
0.0
  0
LINE
  5
5A9
100
AcDbEntity
  8
SIZE
  6
CONTINUOUS
 62
    30
100
AcDbLine
 10
-1053.828299
 20
334.0
 30
0.0
 11
-1053.828299
 21
87.999496
 31
0.0
  0
TEXT
  5
5AA
100
AcDbEntity
  8
SIZE
  6
CONTINUOUS
 62
    30
100
AcDbText
 10
-831.348743
 20
224.071177
 30
0.0
 40
55.0
  1
122
 50
90.0
 41
0.9
 72
     1
 11
-831.348743
 21
282.999748
 31
0.0
100
AcDbText
  0
LINE
  5
5AB
100
AcDbEntity
  8
SIZE
  6
CONTINUOUS
 62
    30
100
AcDbLine
 10
-816.348743
 20
334.0
 30
0.0
 11
-816.348743
 21
231.999496
 31
0.0
  0
TEXT
  5
5AC
100
AcDbEntity
  8
SIZE
  6
CONTINUOUS
 62
    30
100
AcDbText
 10
-1068.828299
 20
133.860073
 30
0.0
 40
55.0
  1
266
 50
90.0
 41
0.9
 72
     1
 11
-1068.828299
 21
196.324359
 31
0.0
100
AcDbText
  0
POINT
  5
5AD
100
AcDbEntity
  8
DEFPOINTS
  6
CONTINUOUS
 62
     7
100
AcDbPoint
 10
-1053.828299
 20
77.999496
 30
0.0
  0
LINE
  5
5AE
100
AcDbEntity
  8
SIZE
  6
CONTINUOUS
 62
    30
100
AcDbLine
 10
-1053.828299
 20
82.999496
 30
0.0
 11
-1053.828299
 21
87.999496
 31
0.0
  0
CIRCLE
  5
5AF
100
AcDbEntity
  8
SIZE
  6
CONTINUOUS
 62
    30
100
AcDbCircle
 10
-1053.828299
 20
77.999496
 30
0.0
 40
5.0
  0
CIRCLE
  5
5B0
100
AcDbEntity
  8
SIZE
  6
CONTINUOUS
 62
    30
100
AcDbCircle
 10
-931.242964
 20
154.0
 30
0.0
 40
5.0
  0
POINT
  5
5B1
100
AcDbEntity
  8
DEFPOINTS
  6
CONTINUOUS
 62
     7
100
AcDbPoint
 10
-931.242964
 20
154.0
 30
0.0
  0
LINE
  5
5B2
100
AcDbEntity
  8
SIZE
  6
CONTINUOUS
 62
    30
100
AcDbLine
 10
-931.242964
 20
159.0
 30
0.0
 11
-931.242964
 21
164.0
 31
0.0
  0
POINT
  5
5B3
100
AcDbEntity
  8
DEFPOINTS
  6
CONTINUOUS
 62
     7
100
AcDbPoint
 10
-816.348743
 20
221.999496
 30
0.0
  0
LINE
  5
5B4
100
AcDbEntity
  8
SIZE
  6
CONTINUOUS
 62
    30
100
AcDbLine
 10
-816.348743
 20
226.999496
 30
0.0
 11
-816.348743
 21
231.999496
 31
0.0
  0
CIRCLE
  5
5B5
100
AcDbEntity
  8
SIZE
  6
CONTINUOUS
 62
    30
100
AcDbCircle
 10
-816.348743
 20
221.999496
 30
0.0
 40
5.0
  0
LINE
  5
5B6
100
AcDbEntity
  8
SIZE
  6
CONTINUOUS
 62
    30
100
AcDbLine
 10
-1053.828299
 20
339.0
 30
0.0
 11
-1053.828299
 21
334.0
 31
0.0
  0
CIRCLE
  5
5B7
100
AcDbEntity
  8
SIZE
  6
CONTINUOUS
 62
    30
100
AcDbCircle
 10
-1053.828299
 20
344.0
 30
0.0
 40
5.0
  0
LINE
  5
5B8
100
AcDbEntity
  8
SIZE
  6
CONTINUOUS
 62
    30
100
AcDbLine
 10
-931.242964
 20
339.0
 30
0.0
 11
-931.242964
 21
334.0
 31
0.0
  0
CIRCLE
  5
5B9
100
AcDbEntity
  8
SIZE
  6
CONTINUOUS
 62
    30
100
AcDbCircle
 10
-931.242964
 20
344.0
 30
0.0
 40
5.0
  0
LINE
  5
5BA
100
AcDbEntity
  8
SIZE
  6
CONTINUOUS
 62
    30
100
AcDbLine
 10
-816.348743
 20
339.0
 30
0.0
 11
-816.348743
 21
334.0
 31
0.0
  0
CIRCLE
  5
5BB
100
AcDbEntity
  8
SIZE
  6
CONTINUOUS
 62
    30
100
AcDbCircle
 10
-816.348743
 20
344.0
 30
0.0
 40
5.0
  0
LINE
  5
5BC
100
AcDbEntity
  8
SIZE
  6
CONTINUOUS
 62
    30
100
AcDbLine
 10
-691.644386
 20
293.999496
 30
0.0
 11
-691.644386
 21
334.0
 31
0.0
  0
LINE
  5
5BD
100
AcDbEntity
  8
OUTLINE
  6
CONTINUOUS
 62
     3
100
AcDbLine
 10
-388.0
 20
45.0
 30
0.0
 11
-388.0
 21
344.0
 31
0.0
  0
LINE
  5
5BE
100
AcDbEntity
  8
NOTE
  6
CONTINUOUS
 62
     4
100
AcDbLine
 10
-598.298969
 20
556.955991
 30
0.0
 11
-454.998875
 21
221.999061
 31
0.0
  0
LINE
  5
5BF
100
AcDbEntity
  8
NOTE
  6
CONTINUOUS
 62
     4
100
AcDbLine
 10
-448.000144
 20
283.999192
 30
0.0
 11
-443.241101
 21
318.053577
 31
0.0
  0
LINE
  5
5C0
100
AcDbEntity
  8
NOTE
  6
CONTINUOUS
 62
     4
100
AcDbLine
 10
-448.000144
 20
283.999192
 30
0.0
 11
-460.905885
 21
315.870676
 31
0.0
  0
LINE
  5
5C1
100
AcDbEntity
  8
NOTE
  6
CONTINUOUS
 62
     4
100
AcDbLine
 10
-448.0
 20
309.191804
 30
0.0
 11
-448.0
 21
258.807188
 31
0.0
  0
LINE
  5
5C2
100
AcDbEntity
  8
DETAIL
  6
CONTINUOUS
 62
     5
100
AcDbLine
 10
-388.0
 20
45.0
 30
0.0
 11
-388.0
 21
344.0
 31
0.0
  0
LINE
  5
5C3
100
AcDbEntity
  8
DETAIL
  6
CONTINUOUS
 62
     5
100
AcDbLine
 10
-388.0
 20
342.4
 30
0.0
 11
-388.0
 21
52.4
 31
0.0
  0
LINE
  5
5C4
100
AcDbEntity
  8
SIZE
  6
CONTINUOUS
 62
    30
100
AcDbLine
 10
-493.192308
 20
283.999496
 30
0.0
 11
-721.644386
 21
283.999496
 31
0.0
  0
LINE
  5
5C5
100
AcDbEntity
  8
OUTLINE
  6
CONTINUOUS
 62
     3
100
AcDbLine
 10
-660.0
 20
45.0
 30
0.0
 11
-388.0
 21
45.0
 31
0.0
  0
LINE
  5
5C6
100
AcDbEntity
  8
OUTLINE
  6
CONTINUOUS
 62
     3
100
AcDbLine
 10
-680.0
 20
0.0
 30
0.0
 11
-660.0
 21
0.0
 31
0.0
  0
LINE
  5
5C7
100
AcDbEntity
  8
NOTE
  6
CONTINUOUS
 62
     4
100
AcDbLine
 10
-675.147186
 20
0.0
 30
0.0
 11
-660.147186
 21
15.0
 31
0.0
  0
LINE
  5
5C8
100
AcDbEntity
  8
NOTE
  6
CONTINUOUS
 62
     4
100
AcDbLine
 10
-760.0
 20
0.0
 30
0.0
 11
-660.0
 21
0.0
 31
0.0
  0
LINE
  5
5C9
100
AcDbEntity
  8
NOTE
  6
CONTINUOUS
 62
     4
100
AcDbLine
 10
-760.0
 20
15.0
 30
0.0
 11
-660.0
 21
15.0
 31
0.0
  0
LINE
  5
5CA
100
AcDbEntity
  8
NOTE
  6
CONTINUOUS
 62
     4
100
AcDbLine
 10
-689.289322
 20
0.0
 30
0.0
 11
-674.289322
 21
15.0
 31
0.0
  0
LINE
  5
5CB
100
AcDbEntity
  8
NOTE
  6
CONTINUOUS
 62
     4
100
AcDbLine
 10
-731.715729
 20
0.0
 30
0.0
 11
-716.715729
 21
15.0
 31
0.0
  0
LINE
  5
5CC
100
AcDbEntity
  8
NOTE
  6
CONTINUOUS
 62
     4
100
AcDbLine
 10
-745.857864
 20
0.0
 30
0.0
 11
-730.857864
 21
15.0
 31
0.0
  0
LINE
  5
5CD
100
AcDbEntity
  8
NOTE
  6
CONTINUOUS
 62
     4
100
AcDbLine
 10
-760.0
 20
0.0
 30
0.0
 11
-745.0
 21
15.0
 31
0.0
  0
POINT
  5
5CE
100
AcDbEntity
  8
DEFPOINTS
  6
CONTINUOUS
 62
     7
100
AcDbPoint
 10
-660.0
 20
0.0
 30
0.0
  0
POINT
  5
5CF
100
AcDbEntity
  8
DEFPOINTS
  6
CONTINUOUS
 62
     7
100
AcDbPoint
 10
-660.0
 20
0.0
 30
0.0
  0
LINE
  5
5D0
100
AcDbEntity
  8
OUTLINE
  6
CONTINUOUS
 62
     3
100
AcDbLine
 10
-661.005051
 20
0.0
 30
0.0
 11
-660.0
 21
1.005051
 31
0.0
  0
LINE
  5
5D1
100
AcDbEntity
  8
OUTLINE
  6
CONTINUOUS
 62
     3
100
AcDbLine
 10
-660.0
 20
0.0
 30
0.0
 11
-660.0
 21
45.0
 31
0.0
  0
LINE
  5
5D2
100
AcDbEntity
  8
NOTE
  6
CONTINUOUS
 62
     4
100
AcDbLine
 10
-661.005051
 20
0.0
 30
0.0
 11
-660.0
 21
1.005051
 31
0.0
  0
LINE
  5
5D3
100
AcDbEntity
  8
NOTE
  6
CONTINUOUS
 62
     4
100
AcDbLine
 10
-660.0
 20
0.0
 30
0.0
 11
-660.0
 21
15.0
 31
0.0
  0
LINE
  5
5D4
100
AcDbEntity
  8
DETAIL
  6
CONTINUOUS
 62
     5
100
AcDbLine
 10
-660.0
 20
0.0
 30
0.0
 11
-660.0
 21
45.0
 31
0.0
  0
POINT
  5
5D5
100
AcDbEntity
  8
DEFPOINTS
  6
CONTINUOUS
 62
     7
100
AcDbPoint
 10
-691.644386
 20
283.999496
 30
0.0
  0
LINE
  5
5D6
100
AcDbEntity
  8
SIZE
  6
CONTINUOUS
 62
    30
100
AcDbLine
 10
-691.644386
 20
288.999496
 30
0.0
 11
-691.644386
 21
293.999496
 31
0.0
  0
CIRCLE
  5
5D7
100
AcDbEntity
  8
SIZE
  6
CONTINUOUS
 62
    30
100
AcDbCircle
 10
-691.644386
 20
283.999496
 30
0.0
 40
5.0
  0
LINE
  5
5D8
100
AcDbEntity
  8
NOTE
  6
CONTINUOUS
 62
     4
100
AcDbLine
 10
-412.000321
 20
154.000597
 30
0.0
 11
-395.714251
 21
123.716714
 31
0.0
  0
LINE
  5
5D9
100
AcDbEntity
  8
NOTE
  6
CONTINUOUS
 62
     4
100
AcDbLine
 10
-412.000321
 20
154.000597
 30
0.0
 11
-382.754229
 21
135.91702
 31
0.0
  0
CIRCLE
  5
5DA
100
AcDbEntity
  8
FIX
  6
CONTINUOUS
 62
    11
100
AcDbCircle
 10
-412.0
 20
154.0
 30
0.0
 40
14.940051
  0
LINE
  5
5DB
100
AcDbEntity
  8
NOTE
  6
CONTINUOUS
 62
     4
100
AcDbLine
 10
-412.0
 20
172.0
 30
0.0
 11
-412.0
 21
136.0
 31
0.0
  0
LINE
  5
5DC
100
AcDbEntity
  8
DETAIL
  6
CONTINUOUS
 62
     5
100
AcDbLine
 10
-438.0
 20
142.0
 30
0.0
 11
-438.0
 21
151.7
 31
0.0
  0
LINE
  5
5DD
100
AcDbEntity
  8
DETAIL
  6
CONTINUOUS
 62
     5
100
AcDbLine
 10
-388.0
 20
151.7
 30
0.0
 11
-388.0
 21
113.3
 31
0.0
  0
LINE
  5
5DE
100
AcDbEntity
  8
DETAIL
  6
CONTINUOUS
 62
     5
100
AcDbLine
 10
-390.3
 20
151.7
 30
0.0
 11
-390.3
 21
113.3
 31
0.0
  0
LINE
  5
5DF
100
AcDbEntity
  8
DETAIL
  6
CONTINUOUS
 62
     5
100
AcDbLine
 10
-435.7
 20
142.0
 30
0.0
 11
-435.7
 21
151.7
 31
0.0
  0
LINE
  5
5E0
100
AcDbEntity
  8
NOTE
  6
CONTINUOUS
 62
     4
100
AcDbLine
 10
-448.000202
 20
77.998301
 30
0.0
 11
-437.750277
 21
45.176224
 31
0.0
  0
LINE
  5
5E1
100
AcDbEntity
  8
NOTE
  6
CONTINUOUS
 62
     4
100
AcDbLine
 10
-448.000202
 20
77.998301
 30
0.0
 11
-422.712468
 21
54.698512
 31
0.0
  0
LINE
  5
5E2
100
AcDbEntity
  8
NOTE
  6
CONTINUOUS
 62
     4
100
AcDbLine
 10
-473.192308
 20
77.999496
 30
0.0
 11
-422.807692
 21
77.999496
 31
0.0
  0
LINE
  5
5E3
100
AcDbEntity
  8
DETAIL
  6
CONTINUOUS
 62
     5
100
AcDbLine
 10
-448.0
 20
63.999496
 30
0.0
 11
-388.0
 21
63.999496
 31
0.0
  0
LINE
  5
5E4
100
AcDbEntity
  8
DETAIL
  6
CONTINUOUS
 62
     5
100
AcDbLine
 10
-448.0
 20
91.999496
 30
0.0
 11
-388.0
 21
91.999496
 31
0.0
  0
POINT
  5
5E5
100
AcDbEntity
  8
DEFPOINTS
  6
CONTINUOUS
 62
     7
100
AcDbPoint
 10
-473.192308
 20
77.999496
 30
0.0
  0
LINE
  5
5E6
100
AcDbEntity
  8
NOTE
  6
CONTINUOUS
 62
     4
100
AcDbLine
 10
-448.0
 20
103.191804
 30
0.0
 11
-448.0
 21
52.807188
 31
0.0
  0
LINE
  5
5E7
100
AcDbEntity
  8
DETAIL
  6
CONTINUOUS
 62
     5
100
AcDbLine
 10
-448.0
 20
63.999496
 30
0.0
 11
-448.0
 21
91.999496
 31
0.0
  0
POINT
  5
5E8
100
AcDbEntity
  8
DEFPOINTS
  6
CONTINUOUS
 62
     7
100
AcDbPoint
 10
-412.0
 20
136.0
 30
0.0
  0
POINT
  5
5E9
100
AcDbEntity
  8
DEFPOINTS
  6
CONTINUOUS
 62
     7
100
AcDbPoint
 10
-412.0
 20
136.0
 30
0.0
  0
POINT
  5
5EA
100
AcDbEntity
  8
DEFPOINTS
  6
CONTINUOUS
 62
     7
100
AcDbPoint
 10
-388.0
 20
45.0
 30
0.0
  0
POINT
  5
5EB
100
AcDbEntity
  8
DEFPOINTS
  6
CONTINUOUS
 62
     7
100
AcDbPoint
 10
-388.0
 20
45.0
 30
0.0
  0
POINT
  5
5EC
100
AcDbEntity
  8
DEFPOINTS
  6
CONTINUOUS
 62
     7
100
AcDbPoint
 10
-388.0
 20
45.0
 30
0.0
  0
LINE
  5
5ED
100
AcDbEntity
  8
DETAIL
  6
CONTINUOUS
 62
     5
100
AcDbLine
 10
-390.3
 20
113.3
 30
0.0
 11
-388.0
 21
113.3
 31
0.0
  0
LINE
  5
5EE
100
AcDbEntity
  8
DETAIL
  6
CONTINUOUS
 62
     5
100
AcDbLine
 10
-438.0
 20
142.0
 30
0.0
 11
-435.7
 21
142.0
 31
0.0
  0
LINE
  5
5EF
100
AcDbEntity
  8
NOTE
  6
CONTINUOUS
 62
     4
100
AcDbLine
 10
-480.192308
 20
221.999496
 30
0.0
 11
-429.807692
 21
221.999496
 31
0.0
  0
LINE
  5
5F0
100
AcDbEntity
  8
NOTE
  6
CONTINUOUS
 62
     4
100
AcDbLine
 10
-473.192308
 20
283.999496
 30
0.0
 11
-422.807692
 21
283.999496
 31
0.0
  0
LINE
  5
5F1
100
AcDbEntity
  8
DETAIL
  6
CONTINUOUS
 62
     5
100
AcDbLine
 10
-388.0
 20
244.5
 30
0.0
 11
-501.2
 21
244.5
 31
0.0
  0
LINE
  5
5F2
100
AcDbEntity
  8
DETAIL
  6
CONTINUOUS
 62
     5
100
AcDbLine
 10
-448.0
 20
269.999496
 30
0.0
 11
-388.0
 21
269.999496
 31
0.0
  0
LINE
  5
5F3
100
AcDbEntity
  8
DETAIL
  6
CONTINUOUS
 62
     5
100
AcDbLine
 10
-448.0
 20
297.999496
 30
0.0
 11
-388.0
 21
297.999496
 31
0.0
  0
LINE
  5
5F4
100
AcDbEntity
  8
DETAIL
  6
CONTINUOUS
 62
     5
100
AcDbLine
 10
-388.0
 20
169.89146
 30
0.0
 11
-503.142345
 21
193.921167
 31
0.0
  0
LINE
  5
5F5
100
AcDbEntity
  8
DETAIL
  6
CONTINUOUS
 62
     5
100
AcDbLine
 10
-499.184145
 20
198.202832
 30
0.0
 11
-388.0
 21
174.999184
 31
0.0
  0
POINT
  5
5F6
100
AcDbEntity
  8
DEFPOINTS
  6
CONTINUOUS
 62
     7
100
AcDbPoint
 10
-491.192308
 20
221.999496
 30
0.0
  0
POINT
  5
5F7
100
AcDbEntity
  8
DEFPOINTS
  6
CONTINUOUS
 62
     7
100
AcDbPoint
 10
-473.192308
 20
283.999496
 30
0.0
  0
POINT
  5
5F8
100
AcDbEntity
  8
DEFPOINTS
  6
CONTINUOUS
 62
     7
100
AcDbPoint
 10
-466.0
 20
196.807188
 30
0.0
  0
POINT
  5
5F9
100
AcDbEntity
  8
DEFPOINTS
  6
CONTINUOUS
 62
     7
100
AcDbPoint
 10
-455.0
 20
196.807188
 30
0.0
  0
POINT
  5
5FA
100
AcDbEntity
  8
DEFPOINTS
  6
CONTINUOUS
 62
     7
100
AcDbPoint
 10
-448.0
 20
258.807188
 30
0.0
  0
LINE
  5
5FB
100
AcDbEntity
  8
NOTE
  6
CONTINUOUS
 62
     4
100
AcDbLine
 10
-466.001042
 20
221.998491
 30
0.0
 11
-493.55153
 21
201.423741
 31
0.0
  0
LINE
  5
5FC
100
AcDbEntity
  8
NOTE
  6
CONTINUOUS
 62
     4
100
AcDbLine
 10
-466.001042
 20
221.998491
 30
0.0
 11
-479.573089
 21
190.404991
 31
0.0
  0
LINE
  5
5FD
100
AcDbEntity
  8
NOTE
  6
CONTINUOUS
 62
     4
100
AcDbLine
 10
-466.0
 20
247.191804
 30
0.0
 11
-466.0
 21
196.807188
 31
0.0
  0
LINE
  5
5FE
100
AcDbEntity
  8
NOTE
  6
CONTINUOUS
 62
     4
100
AcDbLine
 10
-491.192308
 20
221.999496
 30
0.0
 11
-440.807692
 21
221.999496
 31
0.0
  0
LINE
  5
5FF
100
AcDbEntity
  8
NOTE
  6
CONTINUOUS
 62
     4
100
AcDbLine
 10
-454.999125
 20
221.999595
 30
0.0
 11
-459.808183
 21
256.046954
 31
0.0
  0
LINE
  5
600
100
AcDbEntity
  8
NOTE
  6
CONTINUOUS
 62
     4
100
AcDbLine
 10
-454.999125
 20
221.999595
 30
0.0
 11
-476.187571
 21
249.080943
 31
0.0
  0
LINE
  5
601
100
AcDbEntity
  8
NOTE
  6
CONTINUOUS
 62
     4
100
AcDbLine
 10
-455.0
 20
247.191804
 30
0.0
 11
-455.0
 21
196.807188
 31
0.0
  0
LINE
  5
602
100
AcDbEntity
  8
DETAIL
  6
CONTINUOUS
 62
     5
100
AcDbLine
 10
-448.0
 20
269.999496
 30
0.0
 11
-448.0
 21
297.999496
 31
0.0
  0
LINE
  5
607
100
AcDbEntity
  8
DETAIL
  6
CONTINUOUS
 62
     5
100
AcDbLine
 10
-490.905976
 20
191.367489
 30
0.0
 11
-499.716161
 21
193.206137
 31
0.0
  0
LINE
  5
608
100
AcDbEntity
  8
DETAIL
  6
CONTINUOUS
 62
     5
100
AcDbLine
 10
-502.0
 20
197.3025
 30
0.0
 11
-502.0
 21
243.7
 31
0.0
  0
ARC
  5
60A
100
AcDbEntity
  8
DETAIL
  6
CONTINUOUS
 62
     5
100
AcDbCircle
 10
-501.2
 20
243.7
 30
0.0
 40
0.8
100
AcDbArc
 50
90.0
 51
180.0
  0
LINE
  5
60B
100
AcDbEntity
  8
DETAIL
  6
CONTINUOUS
 62
     5
100
AcDbLine
 10
-503.142345
 20
193.921167
 30
0.0
 11
-502.733757
 21
195.878986
 31
0.0
  0
ARC
  5
60C
100
AcDbEntity
  8
DETAIL
  6
CONTINUOUS
 62
     5
100
AcDbCircle
 10
-499.797028
 20
195.266103
 30
0.0
 40
3.0
100
AcDbArc
 50
78.211817
 51
168.211817
  0
LINE
  5
612
100
AcDbEntity
  8
DETAIL
  6
CONTINUOUS
 62
     5
100
AcDbLine
 10
-502.0
 20
235.5
 30
0.0
 11
-502.0
 21
201.5
 31
0.0
  0
POINT
  5
613
100
AcDbEntity
  8
DEFPOINTS
  6
CONTINUOUS
 62
     7
100
AcDbPoint
 10
-430.0
 20
154.0
 30
0.0
  0
LINE
  5
614
100
AcDbEntity
  8
NOTE
  6
CONTINUOUS
 62
     4
100
AcDbLine
 10
-430.0
 20
154.0
 30
0.0
 11
-394.0
 21
154.0
 31
0.0
  0
LINE
  5
653
100
AcDbEntity
  8
DETAIL
  6
CONTINUOUS
 62
     5
100
AcDbLine
 10
-435.7
 20
154.0
 30
0.0
 11
-390.3
 21
154.0
 31
0.0
  0
ARC
  5
654
100
AcDbEntity
  8
DETAIL
  6
CONTINUOUS
 62
     5
100
AcDbCircle
 10
-435.7
 20
151.7
 30
0.0
 40
2.3
100
AcDbArc
 50
90.0
 51
180.0
  0
ARC
  5
655
100
AcDbEntity
  8
DETAIL
  6
CONTINUOUS
 62
     5
100
AcDbCircle
 10
-390.3
 20
151.7
 30
0.0
 40
2.3
100
AcDbArc
 50
0.0
 51
90.0
  0
LINE
  5
656
100
AcDbEntity
  8
DETAIL
  6
CONTINUOUS
 62
     5
100
AcDbLine
 10
-435.7
 20
151.7
 30
0.0
 11
-390.3
 21
151.7
 31
0.0
  0
ARC
  5
657
100
AcDbEntity
  8
DETAIL
  6
CONTINUOUS
 62
     5
100
AcDbCircle
 10
-388.8
 20
152.619377
 30
0.0
 40
0.8
100
AcDbArc
 50
335.031248
 51
0.0
  0
LINE
  5
658
100
AcDbEntity
  8
DETAIL
  6
CONTINUOUS
 62
     5
100
AcDbLine
 10
-388.0
 20
226.019377
 30
0.0
 11
-388.0
 21
152.619377
 31
0.0
  0
LINE
  5
659
100
AcDbEntity
  8
SIZE
  6
CONTINUOUS
 62
    30
100
AcDbLine
 10
-408.0
 20
344.0
 30
0.0
 11
-721.644386
 21
344.0
 31
0.0
  0
LINE
  5
65A
100
AcDbEntity
  8
SIZE
  6
CONTINUOUS
 62
    30
100
AcDbLine
 10
-691.644386
 20
344.0
 30
0.0
 11
-691.644386
 21
464.142857
 31
0.0
  0
TEXT
  5
65B
100
AcDbEntity
  8
SIZE
  6
CONTINUOUS
 62
    30
100
AcDbText
 10
-706.644386
 20
369.0
 30
0.0
 40
55.0
  1
60
 50
90.0
 41
0.9
 72
     1
 11
-706.644386
 21
409.071429
 31
0.0
100
AcDbText
  0
LINE
  5
65C
100
AcDbEntity
  8
SIZE
  6
CONTINUOUS
 62
    30
100
AcDbLine
 10
-691.644386
 20
339.0
 30
0.0
 11
-691.644386
 21
334.0
 31
0.0
  0
CIRCLE
  5
65D
100
AcDbEntity
  8
SIZE
  6
CONTINUOUS
 62
    30
100
AcDbCircle
 10
-691.644386
 20
344.0
 30
0.0
 40
5.0
  0
LINE
  5
65E
100
AcDbEntity
  8
SIZE
  6
CONTINUOUS
 62
    30
100
AcDbLine
 10
-388.0
 20
362.4
 30
0.0
 11
-388.0
 21
499.331208
 31
0.0
  0
POINT
  5
65F
100
AcDbEntity
  8
DEFPOINTS
  6
CONTINUOUS
 62
     7
100
AcDbPoint
 10
-388.0
 20
344.0
 30
0.0
  0
POINT
  5
660
100
AcDbEntity
  8
DEFPOINTS
  6
CONTINUOUS
 62
     7
100
AcDbPoint
 10
-388.0
 20
344.0
 30
0.0
  0
POINT
  5
661
100
AcDbEntity
  8
DEFPOINTS
  6
CONTINUOUS
 62
     7
100
AcDbPoint
 10
-388.0
 20
344.0
 30
0.0
  0
POINT
  5
662
100
AcDbEntity
  8
DEFPOINTS
  6
CONTINUOUS
 62
     7
100
AcDbPoint
 10
-388.0
 20
344.0
 30
0.0
  0
POINT
  5
663
100
AcDbEntity
  8
DEFPOINTS
  6
CONTINUOUS
 62
     7
100
AcDbPoint
 10
-388.0
 20
342.4
 30
0.0
  0
POINT
  5
664
100
AcDbEntity
  8
DEFPOINTS
  6
CONTINUOUS
 62
     7
100
AcDbPoint
 10
-388.0
 20
342.4
 30
0.0
  0
POINT
  5
665
100
AcDbEntity
  8
DEFPOINTS
  6
CONTINUOUS
 62
     7
100
AcDbPoint
 10
-388.0
 20
342.4
 30
0.0
  0
LINE
  5
666
100
AcDbEntity
  8
NOTE
  6
CONTINUOUS
 62
     4
100
AcDbLine
 10
-341.568542
 20
390.0
 30
0.0
 11
-371.568542
 21
420.0
 31
0.0
  0
LINE
  5
667
100
AcDbEntity
  8
NOTE
  6
CONTINUOUS
 62
     4
100
AcDbLine
 10
-368.137085
 20
390.0
 30
0.0
 11
-398.137085
 21
420.0
 31
0.0
  0
LINE
  5
668
100
AcDbEntity
  8
NOTE
  6
CONTINUOUS
 62
     4
100
AcDbLine
 10
-394.705627
 20
390.0
 30
0.0
 11
-424.705627
 21
420.0
 31
0.0
  0
LINE
  5
669
100
AcDbEntity
  8
SIZE
  6
CONTINUOUS
 62
    30
100
AcDbLine
 10
-383.0
 20
581.161105
 30
0.0
 11
-378.0
 21
581.161105
 31
0.0
  0
CIRCLE
  5
66A
100
AcDbEntity
  8
SIZE
  6
CONTINUOUS
 62
    30
100
AcDbCircle
 10
-388.0
 20
581.161105
 30
0.0
 40
5.0
  0
POINT
  5
66B
100
AcDbEntity
  8
DEFPOINTS
  6
CONTINUOUS
 62
     7
100
AcDbPoint
 10
-388.0
 20
469.331208
 30
0.0
  0
LINE
  5
66C
100
AcDbEntity
  8
SIZE
  6
CONTINUOUS
 62
    30
100
AcDbLine
 10
-383.0
 20
469.331208
 30
0.0
 11
-378.0
 21
469.331208
 31
0.0
  0
CIRCLE
  5
66D
100
AcDbEntity
  8
SIZE
  6
CONTINUOUS
 62
    30
100
AcDbCircle
 10
-388.0
 20
469.331208
 30
0.0
 40
5.0
  0
LINE
  5
66E
100
AcDbEntity
  8
NOTE
  6
CONTINUOUS
 62
     4
100
AcDbLine
 10
-505.517866
 20
741.421086
 30
0.0
 11
-925.930978
 21
741.421086
 31
0.0
  0
TEXT
  5
66F
100
AcDbEntity
  8
NOTE
  6
CONTINUOUS
 62
     4
100
AcDbText
 10
-890.941314
 20
761.291674
 30
0.0
 40
64.0
  1
D VP-25
 41
0.9
100
AcDbText
  0
POINT
  5
670
100
AcDbEntity
  8
DEFPOINTS
  6
CONTINUOUS
 62
     7
100
AcDbPoint
 10
-388.0
 20
672.96174
 30
0.0
  0
LINE
  5
671
100
AcDbEntity
  8
SIZE
  6
CONTINUOUS
 62
    30
100
AcDbLine
 10
-383.0
 20
672.96174
 30
0.0
 11
-378.0
 21
672.96174
 31
0.0
  0
CIRCLE
  5
672
100
AcDbEntity
  8
SIZE
  6
CONTINUOUS
 62
    30
100
AcDbCircle
 10
-388.0
 20
672.96174
 30
0.0
 40
5.0
  0
CIRCLE
  5
673
100
AcDbEntity
  8
ARRANGE
  6
CONTINUOUS
 62
     1
100
AcDbCircle
 10
0.0
 20
0.0
 30
0.0
 40
42.5
  0
LINE
  5
674
100
AcDbEntity
  8
BASIS
  6
DASHDOT
 62
     6
100
AcDbLine
 10
0.0
 20
370.15765
 30
0.0
 11
0.0
 21
-41.608245
 31
0.0
  0
LINE
  5
676
100
AcDbEntity
  8
SIZE
  6
CONTINUOUS
 62
    30
100
AcDbLine
 10
412.0
 20
116.0
 30
0.0
 11
412.0
 21
-583.541041
 31
0.0
  0
CIRCLE
  5
677
100
AcDbEntity
  8
SIZE
  6
CONTINUOUS
 62
    30
100
AcDbCircle
 10
946.148425
 20
0.0
 30
0.0
 40
5.0
  0
CIRCLE
  5
678
100
AcDbEntity
  8
SIZE
  6
CONTINUOUS
 62
    30
100
AcDbCircle
 10
946.148425
 20
0.0
 30
0.0
 40
5.0
  0
LINE
  5
679
100
AcDbEntity
  8
SIZE
  6
CONTINUOUS
 62
    30
100
AcDbLine
 10
946.148425
 20
0.0
 30
0.0
 11
946.148425
 21
-20.0
 31
0.0
  0
CIRCLE
  5
67A
100
AcDbEntity
  8
SIZE
  6
CONTINUOUS
 62
    30
100
AcDbCircle
 10
825.05401
 20
0.0
 30
0.0
 40
5.0
  0
LINE
  5
67B
100
AcDbEntity
  8
OUTLINE
  6
CONTINUOUS
 62
     3
100
AcDbLine
 10
680.0
 20
0.0
 30
0.0
 11
680.0
 21
-3.0
 31
0.0
  0
LINE
  5
67C
100
AcDbEntity
  8
DETAIL
  6
CONTINUOUS
 62
     5
100
AcDbLine
 10
680.0
 20
0.0
 30
0.0
 11
680.0
 21
-3.0
 31
0.0
  0
LINE
  5
67D
100
AcDbEntity
  8
ARRANGE
  6
CONTINUOUS
 62
     1
100
AcDbLine
 10
-42.469199
 20
42.157106
 30
0.0
 11
42.469199
 21
-42.157106
 31
0.0
  0
LINE
  5
67E
100
AcDbEntity
  8
ARRANGE
  6
CONTINUOUS
 62
     1
100
AcDbLine
 10
-42.531748
 20
-42.094
 30
0.0
 11
42.531748
 21
42.094
 31
0.0
  0
TEXT
  5
67F
100
AcDbEntity
  8
SIZE
  6
CONTINUOUS
 62
    30
100
AcDbText
 10
482.357143
 20
-538.541041
 30
0.0
 40
55.0
  1
268
 41
0.9
 72
     1
 11
546.0
 21
-538.541041
 31
0.0
100
AcDbText
  0
LINE
  5
680
100
AcDbEntity
  8
SIZE
  6
CONTINUOUS
 62
    30
100
AcDbLine
 10
422.0
 20
-553.541041
 30
0.0
 11
670.0
 21
-553.541041
 31
0.0
  0
TEXT
  5
681
100
AcDbEntity
  8
SIZE
  6
CONTINUOUS
 62
    30
100
AcDbText
 10
-82.5
 20
-686.359078
 30
0.0
 40
55.0
  1
1360
 41
0.9
 72
     1
 11
0.0
 21
-686.359078
 31
0.0
100
AcDbText
  0
LINE
  5
682
100
AcDbEntity
  8
NOTE
  6
CONTINUOUS
 62
     4
100
AcDbLine
 10
544.68331
 20
-145.145884
 30
0.0
 11
-129.181873
 21
-145.145884
 31
0.0
  0
TEXT
  5
683
100
AcDbEntity
  8
NOTE
  6
CONTINUOUS
 62
     4
100
AcDbText
 10
-103.025299
 20
-125.275296
 30
0.0
 40
64.0
  1
AH4-14×30長穴
 41
0.9
100
AcDbText
  0
TEXT
  5
684
100
AcDbEntity
  8
NOTE
  6
CONTINUOUS
 62
     4
100
AcDbText
 10
-202.734915
 20
-300.960478
 30
0.0
 40
64.0
  1
（自然排水口）
 41
0.9
100
AcDbText
  0
LINE
  5
685
100
AcDbEntity
  8
NOTE
  6
CONTINUOUS
 62
     4
100
AcDbLine
 10
232.984209
 20
-226.232994
 30
0.0
 11
-254.442103
 21
-226.232994
 31
0.0
  0
TEXT
  5
686
100
AcDbEntity
  8
SIZE
  6
CONTINUOUS
 62
    30
100
AcDbText
 10
-258.814286
 20
-534.136279
 30
0.0
 40
55.0
  1
824(吊りﾎﾞﾙﾄﾋﾟｯﾁ)
 41
0.9
 72
     1
 11
0.0
 21
-534.136279
 31
0.0
100
AcDbText
  0
TEXT
  5
687
100
AcDbEntity
  8
SIZE
  6
CONTINUOUS
 62
    30
100
AcDbText
 10
-292.521429
 20
-405.942117
 30
0.0
 40
55.0
  1
1320(天井開口寸法)
 41
0.9
 72
     1
 11
0.0
 21
-405.942117
 31
0.0
100
AcDbText
  0
TEXT
  5
688
100
AcDbEntity
  8
NOTE
  6
CONTINUOUS
 62
     4
100
AcDbText
 10
-236.833703
 20
-220.818951
 30
0.0
 40
64.0
  1
D抜き
 41
0.9
100
AcDbText
  0
LINE
  5
689
100
AcDbEntity
  8
SIZE
  6
CONTINUOUS
 62
    30
100
AcDbLine
 10
417.0
 20
-553.541041
 30
0.0
 11
422.0
 21
-553.541041
 31
0.0
  0
CIRCLE
  5
68A
100
AcDbEntity
  8
SIZE
  6
CONTINUOUS
 62
    30
100
AcDbCircle
 10
412.0
 20
-553.541041
 30
0.0
 40
5.0
  0
POINT
  5
68B
100
AcDbEntity
  8
DEFPOINTS
  6
CONTINUOUS
 62
     7
100
AcDbPoint
 10
412.0
 20
-553.541041
 30
0.0
  0
LINE
  5
68C
100
AcDbEntity
  8
SIZE
  6
CONTINUOUS
 62
    30
100
AcDbLine
 10
407.0
 20
-553.541041
 30
0.0
 11
402.0
 21
-553.541041
 31
0.0
  0
CIRCLE
  5
68D
100
AcDbEntity
  8
SIZE
  6
CONTINUOUS
 62
    30
100
AcDbCircle
 10
412.0
 20
-553.541041
 30
0.0
 40
5.0
  0
LINE
  5
68E
100
AcDbEntity
  8
SIZE
  6
CONTINUOUS
 62
    30
100
AcDbLine
 10
680.0
 20
-23.0
 30
0.0
 11
680.0
 21
-731.359078
 31
0.0
  0
CIRCLE
  5
68F
100
AcDbEntity
  8
SIZE
  6
CONTINUOUS
 62
    30
100
AcDbCircle
 10
680.0
 20
-701.359078
 30
0.0
 40
5.0
  0
LINE
  5
690
100
AcDbEntity
  8
SIZE
  6
CONTINUOUS
 62
    30
100
AcDbLine
 10
675.0
 20
-701.359078
 30
0.0
 11
670.0
 21
-701.359078
 31
0.0
  0
LINE
  5
691
100
AcDbEntity
  8
SIZE
  6
CONTINUOUS
 62
    30
100
AcDbLine
 10
680.0
 20
-23.0
 30
0.0
 11
680.0
 21
-583.541041
 31
0.0
  0
LINE
  5
692
100
AcDbEntity
  8
SIZE
  6
CONTINUOUS
 62
    30
100
AcDbLine
 10
680.0
 20
-23.0
 30
0.0
 11
680.0
 21
-455.346879
 31
0.0
  0
LINE
  5
693
100
AcDbEntity
  8
SIZE
  6
CONTINUOUS
 62
    30
100
AcDbLine
 10
660.0
 20
-20.0
 30
0.0
 11
660.0
 21
-455.346879
 31
0.0
  0
LINE
  5
694
100
AcDbEntity
  8
SIZE
  6
CONTINUOUS
 62
    30
100
AcDbLine
 10
660.0
 20
-20.0
 30
0.0
 11
660.0
 21
-455.346879
 31
0.0
  0
TEXT
  5
695
100
AcDbEntity
  8
SIZE
  6
CONTINUOUS
 62
    30
100
AcDbText
 10
718.577215
 20
-410.346879
 30
0.0
 40
55.0
  1
20
 41
0.9
 72
     1
 11
758.648644
 21
-410.346879
 31
0.0
100
AcDbText
  0
LINE
  5
696
100
AcDbEntity
  8
SIZE
  6
CONTINUOUS
 62
    30
100
AcDbLine
 10
813.720073
 20
-425.346879
 30
0.0
 11
680.0
 21
-425.346879
 31
0.0
  0
CIRCLE
  5
697
100
AcDbEntity
  8
SIZE
  6
CONTINUOUS
 62
    30
100
AcDbCircle
 10
680.0
 20
-553.541041
 30
0.0
 40
5.0
  0
LINE
  5
698
100
AcDbEntity
  8
SIZE
  6
CONTINUOUS
 62
    30
100
AcDbLine
 10
675.0
 20
-553.541041
 30
0.0
 11
670.0
 21
-553.541041
 31
0.0
  0
POINT
  5
699
100
AcDbEntity
  8
DEFPOINTS
  6
CONTINUOUS
 62
     7
100
AcDbPoint
 10
680.0
 20
-553.541041
 30
0.0
  0
CIRCLE
  5
69A
100
AcDbEntity
  8
SIZE
  6
CONTINUOUS
 62
    30
100
AcDbCircle
 10
680.0
 20
-425.346879
 30
0.0
 40
5.0
  0
LINE
  5
69B
100
AcDbEntity
  8
SIZE
  6
CONTINUOUS
 62
    30
100
AcDbLine
 10
660.0
 20
-425.346879
 30
0.0
 11
680.0
 21
-425.346879
 31
0.0
  0
LINE
  5
69C
100
AcDbEntity
  8
SIZE
  6
CONTINUOUS
 62
    30
100
AcDbLine
 10
660.0
 20
-425.346879
 30
0.0
 11
680.0
 21
-425.346879
 31
0.0
  0
LINE
  5
69D
100
AcDbEntity
  8
SIZE
  6
CONTINUOUS
 62
    30
100
AcDbLine
 10
655.0
 20
-425.346879
 30
0.0
 11
650.0
 21
-425.346879
 31
0.0
  0
CIRCLE
  5
69E
100
AcDbEntity
  8
SIZE
  6
CONTINUOUS
 62
    30
100
AcDbCircle
 10
660.0
 20
-425.346879
 30
0.0
 40
5.0
  0
LINE
  5
69F
100
AcDbEntity
  8
SIZE
  6
CONTINUOUS
 62
    30
100
AcDbLine
 10
650.0
 20
-425.346879
 30
0.0
 11
640.0
 21
-425.346879
 31
0.0
  0
POINT
  5
6A0
100
AcDbEntity
  8
DEFPOINTS
  6
CONTINUOUS
 62
     7
100
AcDbPoint
 10
660.0
 20
-425.346879
 30
0.0
  0
LINE
  5
6A1
100
AcDbEntity
  8
SIZE
  6
CONTINUOUS
 62
    30
100
AcDbLine
 10
655.0
 20
-425.346879
 30
0.0
 11
650.0
 21
-425.346879
 31
0.0
  0
CIRCLE
  5
6A2
100
AcDbEntity
  8
SIZE
  6
CONTINUOUS
 62
    30
100
AcDbCircle
 10
660.0
 20
-425.346879
 30
0.0
 40
5.0
  0
POINT
  5
6A3
100
AcDbEntity
  8
DEFPOINTS
  6
CONTINUOUS
 62
     7
100
AcDbPoint
 10
680.0
 20
-425.346879
 30
0.0
  0
LINE
  5
6A4
100
AcDbEntity
  8
SIZE
  6
CONTINUOUS
 62
    30
100
AcDbLine
 10
685.0
 20
-425.346879
 30
0.0
 11
690.0
 21
-425.346879
 31
0.0
  0
LINE
  5
6A5
100
AcDbEntity
  8
SIZE
  6
CONTINUOUS
 62
    30
100
AcDbLine
 10
690.0
 20
-425.346879
 30
0.0
 11
700.0
 21
-425.346879
 31
0.0
  0
LINE
  5
6A6
100
AcDbEntity
  8
SIZE
  6
CONTINUOUS
 62
    30
100
AcDbLine
 10
595.0
 20
-20.0
 30
0.0
 11
976.148425
 21
-20.0
 31
0.0
  0
TEXT
  5
6A7
100
AcDbEntity
  8
SIZE
  6
CONTINUOUS
 62
    30
100
AcDbText
 10
810.05401
 20
-115.142858
 30
0.0
 40
55.0
  1
45
 50
90.0
 41
0.9
 72
     1
 11
810.05401
 21
-75.071429
 31
0.0
100
AcDbText
  0
ARC
  5
6A8
100
AcDbEntity
  8
OUTLINE
  6
CONTINUOUS
 62
     3
100
AcDbCircle
 10
575.0
 20
312.764706
 30
0.0
 40
332.764706
100
AcDbArc
 50
270.0
 51
288.393312
  0
ARC
  5
6A9
100
AcDbEntity
  8
DETAIL
  6
CONTINUOUS
 62
     5
100
AcDbCircle
 10
575.0
 20
312.764706
 30
0.0
 40
332.764706
100
AcDbArc
 50
270.0
 51
288.393312
  0
POINT
  5
6AA
100
AcDbEntity
  8
DEFPOINTS
  6
CONTINUOUS
 62
     7
100
AcDbPoint
 10
575.0
 20
-20.0
 30
0.0
  0
POINT
  5
6AB
100
AcDbEntity
  8
DEFPOINTS
  6
CONTINUOUS
 62
     7
100
AcDbPoint
 10
680.0
 20
-3.0
 30
0.0
  0
POINT
  5
6AC
100
AcDbEntity
  8
DEFPOINTS
  6
CONTINUOUS
 62
     7
100
AcDbPoint
 10
680.0
 20
-3.0
 30
0.0
  0
POINT
  5
6AD
100
AcDbEntity
  8
DEFPOINTS
  6
CONTINUOUS
 62
     7
100
AcDbPoint
 10
680.0
 20
-3.0
 30
0.0
  0
TEXT
  5
6AE
100
AcDbEntity
  8
SIZE
  6
CONTINUOUS
 62
    30
100
AcDbText
 10
931.148425
 20
-135.142858
 30
0.0
 40
55.0
  1
20
 50
90.0
 41
0.9
 72
     1
 11
931.148425
 21
-95.071429
 31
0.0
100
AcDbText
  0
LINE
  5
6AF
100
AcDbEntity
  8
SIZE
  6
CONTINUOUS
 62
    30
100
AcDbLine
 10
825.05401
 20
-5.0
 30
0.0
 11
825.05401
 21
-10.0
 31
0.0
  0
LINE
  5
6B0
100
AcDbEntity
  8
SIZE
  6
CONTINUOUS
 62
    30
100
AcDbLine
 10
825.05401
 20
-10.0
 30
0.0
 11
825.05401
 21
-130.142857
 31
0.0
  0
LINE
  5
6B1
100
AcDbEntity
  8
SIZE
  6
CONTINUOUS
 62
    30
100
AcDbLine
 10
946.148425
 20
-25.0
 30
0.0
 11
946.148425
 21
-30.0
 31
0.0
  0
CIRCLE
  5
6B2
100
AcDbEntity
  8
SIZE
  6
CONTINUOUS
 62
    30
100
AcDbCircle
 10
946.148425
 20
-20.0
 30
0.0
 40
5.0
  0
LINE
  5
6B3
100
AcDbEntity
  8
SIZE
  6
CONTINUOUS
 62
    30
100
AcDbLine
 10
946.148425
 20
-30.0
 30
0.0
 11
946.148425
 21
-150.142857
 31
0.0
  0
TEXT
  5
6B4
100
AcDbEntity
  8
NOTE
  6
CONTINUOUS
 62
     4
100
AcDbText
 10
558.693531
 20
67.924357
 30
0.0
 40
55.0
  1
外気吸込
 41
0.9
100
AcDbText
  0
LINE
  5
6B5
100
AcDbEntity
  8
NOTE
  6
CONTINUOUS
 62
     4
100
AcDbLine
 10
807.673078
 20
694.827387
 30
0.0
 11
460.956623
 21
694.827387
 31
0.0
  0
TEXT
  5
6B6
100
AcDbEntity
  8
NOTE
  6
CONTINUOUS
 62
     4
100
AcDbText
 10
495.209629
 20
714.697975
 30
0.0
 40
64.0
  1
6-%%C2.9
 41
0.9
100
AcDbText
  0
LINE
  5
6B8
100
AcDbEntity
  8
SIZE
  6
CONTINUOUS
 62
    30
100
AcDbLine
 10
408.0
 20
344.0
 30
0.0
 11
855.312159
 21
344.0
 31
0.0
  0
LINE
  5
6B9
100
AcDbEntity
  8
SIZE
  6
CONTINUOUS
 62
    30
100
AcDbLine
 10
408.0
 20
53.999496
 30
0.0
 11
855.312159
 21
53.999496
 31
0.0
  0
LINE
  5
6BA
100
AcDbEntity
  8
SIZE
  6
CONTINUOUS
 62
    30
100
AcDbLine
 10
299.45
 20
151.0
 30
0.0
 11
725.07479
 21
151.0
 31
0.0
  0
LINE
  5
6BC
100
AcDbEntity
  8
SIZE
  6
CONTINUOUS
 62
    30
100
AcDbLine
 10
299.45
 20
310.0
 30
0.0
 11
725.07479
 21
310.0
 31
0.0
  0
LINE
  5
6BD
100
AcDbEntity
  8
SIZE
  6
CONTINUOUS
 62
    30
100
AcDbLine
 10
408.0
 20
344.0
 30
0.0
 11
725.07479
 21
344.0
 31
0.0
  0
TEXT
  5
6BE
100
AcDbEntity
  8
SIZE
  6
CONTINUOUS
 62
    30
100
AcDbText
 10
586.742082
 20
182.785714
 30
0.0
 40
55.0
  1
110
 50
90.0
 41
0.9
 72
     1
 11
586.742082
 21
237.0
 31
0.0
100
AcDbText
  0
LINE
  5
6BF
100
AcDbEntity
  8
SIZE
  6
CONTINUOUS
 62
    30
100
AcDbLine
 10
288.0
 20
182.0
 30
0.0
 11
631.742082
 21
182.0
 31
0.0
  0
LINE
  5
6C0
100
AcDbEntity
  8
SIZE
  6
CONTINUOUS
 62
    30
100
AcDbLine
 10
288.0
 20
292.0
 30
0.0
 11
631.742082
 21
292.0
 31
0.0
  0
TEXT
  5
6C1
100
AcDbEntity
  8
SIZE
  6
CONTINUOUS
 62
    30
100
AcDbText
 10
586.742082
 20
409.794277
 30
0.0
 40
55.0
  1
52
 50
90.0
 41
0.9
 72
     1
 11
586.742082
 21
449.865706
 31
0.0
100
AcDbText
  0
LINE
  5
6C2
100
AcDbEntity
  8
SIZE
  6
CONTINUOUS
 62
    30
100
AcDbLine
 10
288.0
 20
292.0
 30
0.0
 11
631.742082
 21
292.0
 31
0.0
  0
LINE
  5
6C3
100
AcDbEntity
  8
SIZE
  6
CONTINUOUS
 62
    30
100
AcDbLine
 10
408.0
 20
344.0
 30
0.0
 11
631.742082
 21
344.0
 31
0.0
  0
LINE
  5
6C4
100
AcDbEntity
  8
OUTLINE
  6
CONTINUOUS
 62
     3
100
AcDbLine
 10
388.0
 20
45.0
 30
0.0
 11
660.0
 21
45.0
 31
0.0
  0
LINE
  5
6C5
100
AcDbEntity
  8
DETAIL
  6
CONTINUOUS
 62
     5
100
AcDbLine
 10
0.0
 20
45.0
 30
0.0
 11
660.0
 21
45.0
 31
0.0
  0
LINE
  5
6C6
100
AcDbEntity
  8
NOTE
  6
CONTINUOUS
 62
     4
100
AcDbLine
 10
460.956623
 20
694.827387
 30
0.0
 11
268.0
 21
310.0
 31
0.0
  0
LINE
  5
6C7
100
AcDbEntity
  8
SIZE
  6
CONTINUOUS
 62
    30
100
AcDbLine
 10
388.0
 20
364.0
 30
0.0
 11
388.0
 21
702.96174
 31
0.0
  0
TEXT
  5
6C8
100
AcDbEntity
  8
SIZE
  6
CONTINUOUS
 62
    30
100
AcDbText
 10
-158.118989
 20
594.432095
 30
0.0
 40
55.0
  1
217.5×2=435
 41
0.9
 72
     1
 11
90.795297
 21
594.432095
 31
0.0
100
AcDbText
  0
LINE
  5
6C9
100
AcDbEntity
  8
SIZE
  6
CONTINUOUS
 62
    30
100
AcDbLine
 10
268.0
 20
341.45
 30
0.0
 11
268.0
 21
611.161105
 31
0.0
  0
LINE
  5
6CB
100
AcDbEntity
  8
SIZE
  6
CONTINUOUS
 62
    30
100
AcDbLine
 10
-167.0
 20
341.45
 30
0.0
 11
-167.0
 21
611.161105
 31
0.0
  0
LINE
  5
6CC
100
AcDbEntity
  8
SIZE
  6
CONTINUOUS
 62
    30
100
AcDbLine
 10
-157.0
 20
581.161105
 30
0.0
 11
258.0
 21
581.161105
 31
0.0
  0
LINE
  5
6CE
100
AcDbEntity
  8
DETAIL
  6
CONTINUOUS
 62
     5
100
AcDbLine
 10
268.0
 20
292.0
 30
0.0
 11
-167.0
 21
292.0
 31
0.0
  0
LINE
  5
6CF
100
AcDbEntity
  8
DETAIL
  6
CONTINUOUS
 62
     5
100
AcDbLine
 10
-167.0
 20
182.0
 30
0.0
 11
268.0
 21
182.0
 31
0.0
  0
LINE
  5
6D0
100
AcDbEntity
  8
NOTE
  6
CONTINUOUS
 62
     4
100
AcDbLine
 10
50.5
 20
321.45
 30
0.0
 11
50.5
 21
298.55
 31
0.0
  0
LINE
  5
6D1
100
AcDbEntity
  8
NOTE
  6
CONTINUOUS
 62
     4
100
AcDbLine
 10
-167.0
 20
321.45
 30
0.0
 11
-167.0
 21
298.55
 31
0.0
  0
LINE
  5
6D2
100
AcDbEntity
  8
NOTE
  6
CONTINUOUS
 62
     4
100
AcDbLine
 10
-167.0
 20
162.45
 30
0.0
 11
-167.0
 21
139.55
 31
0.0
  0
CIRCLE
  5
6D3
100
AcDbEntity
  8
DETAIL
  6
CONTINUOUS
 62
     5
100
AcDbCircle
 10
-167.0
 20
151.0
 30
0.0
 40
1.45
  0
LINE
  5
6D4
100
AcDbEntity
  8
NOTE
  6
CONTINUOUS
 62
     4
100
AcDbLine
 10
-155.55
 20
151.0
 30
0.0
 11
-178.45
 21
151.0
 31
0.0
  0
LINE
  5
6D5
100
AcDbEntity
  8
DETAIL
  6
CONTINUOUS
 62
     5
100
AcDbLine
 10
-167.0
 20
292.0
 30
0.0
 11
-167.0
 21
182.0
 31
0.0
  0
LINE
  5
6D6
100
AcDbEntity
  8
NOTE
  6
CONTINUOUS
 62
     4
100
AcDbLine
 10
50.5
 20
162.45
 30
0.0
 11
50.5
 21
139.55
 31
0.0
  0
CIRCLE
  5
6D7
100
AcDbEntity
  8
DETAIL
  6
CONTINUOUS
 62
     5
100
AcDbCircle
 10
50.5
 20
151.0
 30
0.0
 40
1.45
  0
LINE
  5
6D8
100
AcDbEntity
  8
NOTE
  6
CONTINUOUS
 62
     4
100
AcDbLine
 10
61.95
 20
151.0
 30
0.0
 11
39.05
 21
151.0
 31
0.0
  0
POINT
  5
6DB
100
AcDbEntity
  8
DEFPOINTS
  6
CONTINUOUS
 62
     7
100
AcDbPoint
 10
-167.0
 20
321.45
 30
0.0
  0
POINT
  5
6DC
100
AcDbEntity
  8
DEFPOINTS
  6
CONTINUOUS
 62
     7
100
AcDbPoint
 10
-167.0
 20
321.45
 30
0.0
  0
LINE
  5
6DE
100
AcDbEntity
  8
NOTE
  6
CONTINUOUS
 62
     4
100
AcDbLine
 10
-155.55
 20
310.0
 30
0.0
 11
-178.45
 21
310.0
 31
0.0
  0
CIRCLE
  5
6DF
100
AcDbEntity
  8
DETAIL
  6
CONTINUOUS
 62
     5
100
AcDbCircle
 10
-167.0
 20
310.0
 30
0.0
 40
1.45
  0
LINE
  5
6E0
100
AcDbEntity
  8
SIZE
  6
CONTINUOUS
 62
    30
100
AcDbLine
 10
-162.0
 20
581.161105
 30
0.0
 11
-157.0
 21
581.161105
 31
0.0
  0
CIRCLE
  5
6E1
100
AcDbEntity
  8
SIZE
  6
CONTINUOUS
 62
    30
100
AcDbCircle
 10
-167.0
 20
581.161105
 30
0.0
 40
5.0
  0
POINT
  5
6E2
100
AcDbEntity
  8
DEFPOINTS
  6
CONTINUOUS
 62
     7
100
AcDbPoint
 10
-167.0
 20
581.161105
 30
0.0
  0
LINE
  5
6E3
100
AcDbEntity
  8
SIZE
  6
CONTINUOUS
 62
    30
100
AcDbLine
 10
-172.0
 20
581.161105
 30
0.0
 11
-177.0
 21
581.161105
 31
0.0
  0
CIRCLE
  5
6E4
100
AcDbEntity
  8
SIZE
  6
CONTINUOUS
 62
    30
100
AcDbCircle
 10
-167.0
 20
581.161105
 30
0.0
 40
5.0
  0
LINE
  5
6E5
100
AcDbEntity
  8
SIZE
  6
CONTINUOUS
 62
    30
100
AcDbLine
 10
0.0
 20
390.15765
 30
0.0
 11
0.0
 21
499.331208
 31
0.0
  0
POINT
  5
6E6
100
AcDbEntity
  8
DEFPOINTS
  6
CONTINUOUS
 62
     7
100
AcDbPoint
 10
0.0
 20
370.15765
 30
0.0
  0
LINE
  5
6E7
100
AcDbEntity
  8
NOTE
  6
CONTINUOUS
 62
     4
100
AcDbLine
 10
-1.568542
 20
390.0
 30
0.0
 11
-31.568542
 21
420.0
 31
0.0
  0
LINE
  5
6E8
100
AcDbEntity
  8
NOTE
  6
CONTINUOUS
 62
     4
100
AcDbLine
 10
-28.137085
 20
390.0
 30
0.0
 11
-58.137085
 21
420.0
 31
0.0
  0
LINE
  5
6E9
100
AcDbEntity
  8
NOTE
  6
CONTINUOUS
 62
     4
100
AcDbLine
 10
-54.705627
 20
390.0
 30
0.0
 11
-84.705627
 21
420.0
 31
0.0
  0
LINE
  5
6EA
100
AcDbEntity
  8
NOTE
  6
CONTINUOUS
 62
     4
100
AcDbLine
 10
61.95
 20
310.0
 30
0.0
 11
39.05
 21
310.0
 31
0.0
  0
CIRCLE
  5
6EB
100
AcDbEntity
  8
DETAIL
  6
CONTINUOUS
 62
     5
100
AcDbCircle
 10
50.5
 20
310.0
 30
0.0
 40
1.45
  0
LINE
  5
6ED
100
AcDbEntity
  8
SIZE
  6
CONTINUOUS
 62
    30
100
AcDbLine
 10
-5.0
 20
469.331208
 30
0.0
 11
-10.0
 21
469.331208
 31
0.0
  0
CIRCLE
  5
6EE
100
AcDbEntity
  8
SIZE
  6
CONTINUOUS
 62
    30
100
AcDbCircle
 10
0.0
 20
469.331208
 30
0.0
 40
5.0
  0
LINE
  5
6EF
100
AcDbEntity
  8
OUTLINE
  6
CONTINUOUS
 62
     3
100
AcDbLine
 10
388.0
 20
45.0
 30
0.0
 11
388.0
 21
344.0
 31
0.0
  0
LINE
  5
6F0
100
AcDbEntity
  8
NOTE
  6
CONTINUOUS
 62
     4
100
AcDbLine
 10
268.0
 20
321.45
 30
0.0
 11
268.0
 21
298.55
 31
0.0
  0
LINE
  5
6F1
100
AcDbEntity
  8
DETAIL
  6
CONTINUOUS
 62
     5
100
AcDbLine
 10
388.0
 20
45.0
 30
0.0
 11
388.0
 21
344.0
 31
0.0
  0
LINE
  5
6F2
100
AcDbEntity
  8
NOTE
  6
CONTINUOUS
 62
     4
100
AcDbLine
 10
268.0
 20
162.45
 30
0.0
 11
268.0
 21
139.55
 31
0.0
  0
CIRCLE
  5
6F3
100
AcDbEntity
  8
DETAIL
  6
CONTINUOUS
 62
     5
100
AcDbCircle
 10
268.0
 20
151.0
 30
0.0
 40
1.45
  0
CIRCLE
  5
6F4
100
AcDbEntity
  8
NOTE
  6
CONTINUOUS
 62
     4
100
AcDbCircle
 10
268.0
 20
151.0
 30
0.0
 40
1.45
  0
POINT
  5
6F5
100
AcDbEntity
  8
DEFPOINTS
  6
CONTINUOUS
 62
     7
100
AcDbPoint
 10
279.45
 20
151.0
 30
0.0
  0
LINE
  5
6F6
100
AcDbEntity
  8
NOTE
  6
CONTINUOUS
 62
     4
100
AcDbLine
 10
279.45
 20
151.0
 30
0.0
 11
256.55
 21
151.0
 31
0.0
  0
POINT
  5
6FE
100
AcDbEntity
  8
DEFPOINTS
  6
CONTINUOUS
 62
     7
100
AcDbPoint
 10
268.0
 20
182.0
 30
0.0
  0
POINT
  5
6FF
100
AcDbEntity
  8
DEFPOINTS
  6
CONTINUOUS
 62
     7
100
AcDbPoint
 10
268.0
 20
292.0
 30
0.0
  0
POINT
  5
700
100
AcDbEntity
  8
DEFPOINTS
  6
CONTINUOUS
 62
     7
100
AcDbPoint
 10
268.0
 20
292.0
 30
0.0
  0
LINE
  5
701
100
AcDbEntity
  8
DETAIL
  6
CONTINUOUS
 62
     5
100
AcDbLine
 10
268.0
 20
292.0
 30
0.0
 11
268.0
 21
182.0
 31
0.0
  0
CIRCLE
  5
702
100
AcDbEntity
  8
FIX
  6
CONTINUOUS
 62
    11
100
AcDbCircle
 10
412.0
 20
154.0
 30
0.0
 40
14.940051
  0
LINE
  5
703
100
AcDbEntity
  8
NOTE
  6
CONTINUOUS
 62
     4
100
AcDbLine
 10
412.0
 20
172.0
 30
0.0
 11
412.0
 21
136.0
 31
0.0
  0
LINE
  5
704
100
AcDbEntity
  8
DETAIL
  6
CONTINUOUS
 62
     5
100
AcDbLine
 10
438.0
 20
142.0
 30
0.0
 11
438.0
 21
151.7
 31
0.0
  0
LINE
  5
705
100
AcDbEntity
  8
DETAIL
  6
CONTINUOUS
 62
     5
100
AcDbLine
 10
388.0
 20
151.7
 30
0.0
 11
388.0
 21
113.3
 31
0.0
  0
LINE
  5
706
100
AcDbEntity
  8
DETAIL
  6
CONTINUOUS
 62
     5
100
AcDbLine
 10
390.3
 20
151.7
 30
0.0
 11
390.3
 21
113.3
 31
0.0
  0
LINE
  5
707
100
AcDbEntity
  8
DETAIL
  6
CONTINUOUS
 62
     5
100
AcDbLine
 10
435.7
 20
142.0
 30
0.0
 11
435.7
 21
151.7
 31
0.0
  0
POINT
  5
708
100
AcDbEntity
  8
DEFPOINTS
  6
CONTINUOUS
 62
     7
100
AcDbPoint
 10
412.0
 20
136.0
 30
0.0
  0
POINT
  5
709
100
AcDbEntity
  8
DEFPOINTS
  6
CONTINUOUS
 62
     7
100
AcDbPoint
 10
412.0
 20
136.0
 30
0.0
  0
POINT
  5
70A
100
AcDbEntity
  8
DEFPOINTS
  6
CONTINUOUS
 62
     7
100
AcDbPoint
 10
388.0
 20
53.999496
 30
0.0
  0
LINE
  5
70B
100
AcDbEntity
  8
DETAIL
  6
CONTINUOUS
 62
     5
100
AcDbLine
 10
390.3
 20
113.3
 30
0.0
 11
388.0
 21
113.3
 31
0.0
  0
LINE
  5
70C
100
AcDbEntity
  8
DETAIL
  6
CONTINUOUS
 62
     5
100
AcDbLine
 10
438.0
 20
142.0
 30
0.0
 11
435.7
 21
142.0
 31
0.0
  0
LINE
  5
718
100
AcDbEntity
  8
NOTE
  6
CONTINUOUS
 62
     4
100
AcDbLine
 10
494.832604
 20
106.737866
 30
0.0
 11
462.050773
 21
122.024285
 31
0.0
  0
LINE
  5
719
100
AcDbEntity
  8
NOTE
  6
CONTINUOUS
 62
     4
100
AcDbLine
 10
494.832604
 20
137.310704
 30
0.0
 11
462.050773
 21
122.024285
 31
0.0
  0
LINE
  5
71A
100
AcDbEntity
  8
NOTE
  6
CONTINUOUS
 62
     4
100
AcDbLine
 10
561.804144
 20
122.024285
 30
0.0
 11
462.050773
 21
122.024285
 31
0.0
  0
LINE
  5
71B
100
AcDbEntity
  8
NOTE
  6
CONTINUOUS
 62
     4
100
AcDbLine
 10
394.0
 20
154.0
 30
0.0
 11
430.0
 21
154.0
 31
0.0
  0
LINE
  5
71C
100
AcDbEntity
  8
DETAIL
  6
CONTINUOUS
 62
     5
100
AcDbLine
 10
435.7
 20
154.0
 30
0.0
 11
390.3
 21
154.0
 31
0.0
  0
ARC
  5
71D
100
AcDbEntity
  8
DETAIL
  6
CONTINUOUS
 62
     5
100
AcDbCircle
 10
435.7
 20
151.7
 30
0.0
 40
2.3
100
AcDbArc
 50
0.0
 51
90.0
  0
ARC
  5
71E
100
AcDbEntity
  8
DETAIL
  6
CONTINUOUS
 62
     5
100
AcDbCircle
 10
390.3
 20
151.7
 30
0.0
 40
2.3
100
AcDbArc
 50
90.0
 51
180.0
  0
LINE
  5
71F
100
AcDbEntity
  8
DETAIL
  6
CONTINUOUS
 62
     5
100
AcDbLine
 10
435.7
 20
151.7
 30
0.0
 11
390.3
 21
151.7
 31
0.0
  0
LINE
  5
720
100
AcDbEntity
  8
NOTE
  6
CONTINUOUS
 62
     4
100
AcDbLine
 10
358.431458
 20
390.0
 30
0.0
 11
328.431458
 21
420.0
 31
0.0
  0
LINE
  5
722
100
AcDbEntity
  8
NOTE
  6
CONTINUOUS
 62
     4
100
AcDbLine
 10
268.000246
 20
310.000536
 30
0.0
 11
290.897733
 21
335.653114
 31
0.0
  0
LINE
  5
723
100
AcDbEntity
  8
NOTE
  6
CONTINUOUS
 62
     4
100
AcDbLine
 10
268.000246
 20
310.000536
 30
0.0
 11
275.003762
 21
343.665064
 31
0.0
  0
POINT
  5
724
100
AcDbEntity
  8
DEFPOINTS
  6
CONTINUOUS
 62
     7
100
AcDbPoint
 10
268.0
 20
321.45
 30
0.0
  0
POINT
  5
725
100
AcDbEntity
  8
DEFPOINTS
  6
CONTINUOUS
 62
     7
100
AcDbPoint
 10
279.45
 20
310.0
 30
0.0
  0
POINT
  5
726
100
AcDbEntity
  8
DEFPOINTS
  6
CONTINUOUS
 62
     7
100
AcDbPoint
 10
279.45
 20
310.0
 30
0.0
  0
LINE
  5
727
100
AcDbEntity
  8
NOTE
  6
CONTINUOUS
 62
     4
100
AcDbLine
 10
331.862915
 20
390.0
 30
0.0
 11
301.862915
 21
420.0
 31
0.0
  0
LINE
  5
728
100
AcDbEntity
  8
NOTE
  6
CONTINUOUS
 62
     4
100
AcDbLine
 10
305.294373
 20
390.0
 30
0.0
 11
275.294373
 21
420.0
 31
0.0
  0
LINE
  5
729
100
AcDbEntity
  8
NOTE
  6
CONTINUOUS
 62
     4
100
AcDbLine
 10
279.45
 20
310.0
 30
0.0
 11
256.55
 21
310.0
 31
0.0
  0
CIRCLE
  5
72A
100
AcDbEntity
  8
DETAIL
  6
CONTINUOUS
 62
     5
100
AcDbCircle
 10
268.0
 20
310.0
 30
0.0
 40
1.45
  0
CIRCLE
  5
72B
100
AcDbEntity
  8
NOTE
  6
CONTINUOUS
 62
     4
100
AcDbCircle
 10
268.0
 20
310.0
 30
0.0
 40
1.45
  0
POINT
  5
72C
100
AcDbEntity
  8
DEFPOINTS
  6
CONTINUOUS
 62
     7
100
AcDbPoint
 10
268.0
 20
581.161105
 30
0.0
  0
LINE
  5
72D
100
AcDbEntity
  8
SIZE
  6
CONTINUOUS
 62
    30
100
AcDbLine
 10
263.0
 20
581.161105
 30
0.0
 11
258.0
 21
581.161105
 31
0.0
  0
CIRCLE
  5
72E
100
AcDbEntity
  8
SIZE
  6
CONTINUOUS
 62
    30
100
AcDbCircle
 10
268.0
 20
581.161105
 30
0.0
 40
5.0
  0
POINT
  5
72F
100
AcDbEntity
  8
DEFPOINTS
  6
CONTINUOUS
 62
     7
100
AcDbPoint
 10
388.0
 20
344.0
 30
0.0
  0
POINT
  5
730
100
AcDbEntity
  8
DEFPOINTS
  6
CONTINUOUS
 62
     7
100
AcDbPoint
 10
388.0
 20
344.0
 30
0.0
  0
POINT
  5
731
100
AcDbEntity
  8
DEFPOINTS
  6
CONTINUOUS
 62
     7
100
AcDbPoint
 10
388.0
 20
344.0
 30
0.0
  0
POINT
  5
732
100
AcDbEntity
  8
DEFPOINTS
  6
CONTINUOUS
 62
     7
100
AcDbPoint
 10
388.0
 20
344.0
 30
0.0
  0
TEXT
  5
735
100
AcDbEntity
  8
SIZE
  6
CONTINUOUS
 62
    30
100
AcDbText
 10
-62.464286
 20
687.96174
 30
0.0
 40
55.0
  1
776
 41
0.9
 72
     1
 11
0.0
 21
687.96174
 31
0.0
100
AcDbText
  0
LINE
  5
736
100
AcDbEntity
  8
SIZE
  6
CONTINUOUS
 62
    30
100
AcDbLine
 10
383.0
 20
672.96174
 30
0.0
 11
378.0
 21
672.96174
 31
0.0
  0
CIRCLE
  5
737
100
AcDbEntity
  8
SIZE
  6
CONTINUOUS
 62
    30
100
AcDbCircle
 10
388.0
 20
672.96174
 30
0.0
 40
5.0
  0
TEXT
  5
73A
100
AcDbEntity
  8
SIZE
  6
CONTINUOUS
 62
    30
100
AcDbText
 10
931.148425
 20
71.485714
 30
0.0
 40
55.0
  1
350以上
 50
90.0
 41
0.9
 72
     1
 11
931.148425
 21
195.0
 31
0.0
100
AcDbText
  0
LINE
  5
73B
100
AcDbEntity
  8
SIZE
  6
CONTINUOUS
 62
    30
100
AcDbLine
 10
946.148425
 20
10.0
 30
0.0
 11
946.148425
 21
380.0
 31
0.0
  0
LINE
  5
73C
100
AcDbEntity
  8
SIZE
  6
CONTINUOUS
 62
    30
100
AcDbLine
 10
825.312159
 20
63.999496
 30
0.0
 11
825.312159
 21
334.0
 31
0.0
  0
LINE
  5
73D
100
AcDbEntity
  8
SIZE
  6
CONTINUOUS
 62
    30
100
AcDbLine
 10
695.07479
 20
305.0
 30
0.0
 11
695.07479
 21
300.0
 31
0.0
  0
LINE
  5
73E
100
AcDbEntity
  8
SIZE
  6
CONTINUOUS
 62
    30
100
AcDbLine
 10
695.07479
 20
305.0
 30
0.0
 11
695.07479
 21
300.0
 31
0.0
  0
LINE
  5
73F
100
AcDbEntity
  8
SIZE
  6
CONTINUOUS
 62
    30
100
AcDbLine
 10
601.742082
 20
302.0
 30
0.0
 11
601.742082
 21
312.0
 31
0.0
  0
LINE
  5
740
100
AcDbEntity
  8
SIZE
  6
CONTINUOUS
 62
    30
100
AcDbLine
 10
601.742082
 20
302.0
 30
0.0
 11
601.742082
 21
334.0
 31
0.0
  0
LINE
  5
741
100
AcDbEntity
  8
SIZE
  6
CONTINUOUS
 62
    30
100
AcDbLine
 10
700.0
 20
0.0
 30
0.0
 11
976.148425
 21
0.0
 31
0.0
  0
LINE
  5
742
100
AcDbEntity
  8
SIZE
  6
CONTINUOUS
 62
    30
100
AcDbLine
 10
700.0
 20
0.0
 30
0.0
 11
976.148425
 21
0.0
 31
0.0
  0
TEXT
  5
743
100
AcDbEntity
  8
SIZE
  6
CONTINUOUS
 62
    30
100
AcDbText
 10
810.312159
 20
135.356891
 30
0.0
 40
55.0
  1
290
 50
90.0
 41
0.9
 72
     1
 11
810.312159
 21
198.999748
 31
0.0
100
AcDbText
  0
LINE
  5
745
100
AcDbEntity
  8
SIZE
  6
CONTINUOUS
 62
    30
100
AcDbLine
 10
680.0
 20
45.0
 30
0.0
 11
855.05401
 21
45.0
 31
0.0
  0
CIRCLE
  5
746
100
AcDbEntity
  8
SIZE
  6
CONTINUOUS
 62
    30
100
AcDbCircle
 10
695.07479
 20
151.0
 30
0.0
 40
5.0
  0
LINE
  5
747
100
AcDbEntity
  8
OUTLINE
  6
CONTINUOUS
 62
     3
100
AcDbLine
 10
660.0
 20
0.0
 30
0.0
 11
680.0
 21
0.0
 31
0.0
  0
LINE
  5
748
100
AcDbEntity
  8
NOTE
  6
CONTINUOUS
 62
     4
100
AcDbLine
 10
670.678783
 20
0.0
 30
0.0
 11
685.678783
 21
15.0
 31
0.0
  0
LINE
  5
749
100
AcDbEntity
  8
NOTE
  6
CONTINUOUS
 62
     4
100
AcDbLine
 10
660.0
 20
0.0
 30
0.0
 11
760.0
 21
0.0
 31
0.0
  0
LINE
  5
74A
100
AcDbEntity
  8
NOTE
  6
CONTINUOUS
 62
     4
100
AcDbLine
 10
660.0
 20
15.0
 30
0.0
 11
760.0
 21
15.0
 31
0.0
  0
POINT
  5
74B
100
AcDbEntity
  8
DEFPOINTS
  6
CONTINUOUS
 62
     7
100
AcDbPoint
 10
660.0
 20
0.0
 30
0.0
  0
POINT
  5
74C
100
AcDbEntity
  8
DEFPOINTS
  6
CONTINUOUS
 62
     7
100
AcDbPoint
 10
660.0
 20
0.0
 30
0.0
  0
POINT
  5
74D
100
AcDbEntity
  8
DEFPOINTS
  6
CONTINUOUS
 62
     7
100
AcDbPoint
 10
660.0
 20
45.0
 30
0.0
  0
LINE
  5
74E
100
AcDbEntity
  8
OUTLINE
  6
CONTINUOUS
 62
     3
100
AcDbLine
 10
660.0
 20
0.0
 30
0.0
 11
660.0
 21
45.0
 31
0.0
  0
LINE
  5
74F
100
AcDbEntity
  8
NOTE
  6
CONTINUOUS
 62
     4
100
AcDbLine
 10
660.0
 20
3.463353
 30
0.0
 11
671.536647
 21
15.0
 31
0.0
  0
LINE
  5
750
100
AcDbEntity
  8
NOTE
  6
CONTINUOUS
 62
     4
100
AcDbLine
 10
660.0
 20
0.0
 30
0.0
 11
660.0
 21
15.0
 31
0.0
  0
LINE
  5
751
100
AcDbEntity
  8
DETAIL
  6
CONTINUOUS
 62
     5
100
AcDbLine
 10
660.0
 20
0.0
 30
0.0
 11
660.0
 21
45.0
 31
0.0
  0
POINT
  5
752
100
AcDbEntity
  8
DEFPOINTS
  6
CONTINUOUS
 62
     7
100
AcDbPoint
 10
680.0
 20
0.0
 30
0.0
  0
POINT
  5
753
100
AcDbEntity
  8
DEFPOINTS
  6
CONTINUOUS
 62
     7
100
AcDbPoint
 10
680.0
 20
0.0
 30
0.0
  0
POINT
  5
754
100
AcDbEntity
  8
DEFPOINTS
  6
CONTINUOUS
 62
     7
100
AcDbPoint
 10
680.0
 20
0.0
 30
0.0
  0
POINT
  5
755
100
AcDbEntity
  8
DEFPOINTS
  6
CONTINUOUS
 62
     7
100
AcDbPoint
 10
695.07479
 20
151.0
 30
0.0
  0
LINE
  5
756
100
AcDbEntity
  8
NOTE
  6
CONTINUOUS
 62
     4
100
AcDbLine
 10
684.820918
 20
0.0
 30
0.0
 11
699.820918
 21
15.0
 31
0.0
  0
LINE
  5
757
100
AcDbEntity
  8
NOTE
  6
CONTINUOUS
 62
     4
100
AcDbLine
 10
727.247325
 20
0.0
 30
0.0
 11
742.247325
 21
15.0
 31
0.0
  0
LINE
  5
758
100
AcDbEntity
  8
NOTE
  6
CONTINUOUS
 62
     4
100
AcDbLine
 10
741.389461
 20
0.0
 30
0.0
 11
756.389461
 21
15.0
 31
0.0
  0
LINE
  5
759
100
AcDbEntity
  8
NOTE
  6
CONTINUOUS
 62
     4
100
AcDbLine
 10
755.531596
 20
0.0
 30
0.0
 11
770.531596
 21
15.0
 31
0.0
  0
TEXT
  5
75A
100
AcDbEntity
  8
SIZE
  6
CONTINUOUS
 62
    30
100
AcDbText
 10
680.07479
 20
172.75
 30
0.0
 40
55.0
  1
159
 50
90.0
 41
0.9
 72
     1
 11
680.07479
 21
230.5
 31
0.0
100
AcDbText
  0
POINT
  5
75B
100
AcDbEntity
  8
DEFPOINTS
  6
CONTINUOUS
 62
     7
100
AcDbPoint
 10
601.742082
 20
182.0
 30
0.0
  0
LINE
  5
75C
100
AcDbEntity
  8
SIZE
  6
CONTINUOUS
 62
    30
100
AcDbLine
 10
601.742082
 20
177.0
 30
0.0
 11
601.742082
 21
172.0
 31
0.0
  0
CIRCLE
  5
75D
100
AcDbEntity
  8
SIZE
  6
CONTINUOUS
 62
    30
100
AcDbCircle
 10
601.742082
 20
182.0
 30
0.0
 40
5.0
  0
LINE
  5
75E
100
AcDbEntity
  8
SIZE
  6
CONTINUOUS
 62
    30
100
AcDbLine
 10
601.742082
 20
297.0
 30
0.0
 11
601.742082
 21
302.0
 31
0.0
  0
CIRCLE
  5
75F
100
AcDbEntity
  8
SIZE
  6
CONTINUOUS
 62
    30
100
AcDbCircle
 10
601.742082
 20
292.0
 30
0.0
 40
5.0
  0
LINE
  5
760
100
AcDbEntity
  8
SIZE
  6
CONTINUOUS
 62
    30
100
AcDbLine
 10
601.742082
 20
292.0
 30
0.0
 11
601.742082
 21
182.0
 31
0.0
  0
LINE
  5
761
100
AcDbEntity
  8
SIZE
  6
CONTINUOUS
 62
    30
100
AcDbLine
 10
601.742082
 20
172.0
 30
0.0
 11
601.742082
 21
162.0
 31
0.0
  0
POINT
  5
762
100
AcDbEntity
  8
DEFPOINTS
  6
CONTINUOUS
 62
     7
100
AcDbPoint
 10
601.742082
 20
292.0
 30
0.0
  0
LINE
  5
763
100
AcDbEntity
  8
SIZE
  6
CONTINUOUS
 62
    30
100
AcDbLine
 10
601.742082
 20
297.0
 30
0.0
 11
601.742082
 21
302.0
 31
0.0
  0
CIRCLE
  5
764
100
AcDbEntity
  8
SIZE
  6
CONTINUOUS
 62
    30
100
AcDbCircle
 10
601.742082
 20
292.0
 30
0.0
 40
5.0
  0
LINE
  5
765
100
AcDbEntity
  8
SIZE
  6
CONTINUOUS
 62
    30
100
AcDbLine
 10
695.07479
 20
156.0
 30
0.0
 11
695.07479
 21
161.0
 31
0.0
  0
LINE
  5
766
100
AcDbEntity
  8
SIZE
  6
CONTINUOUS
 62
    30
100
AcDbLine
 10
695.07479
 20
300.0
 30
0.0
 11
695.07479
 21
161.0
 31
0.0
  0
LINE
  5
767
100
AcDbEntity
  8
SIZE
  6
CONTINUOUS
 62
    30
100
AcDbLine
 10
695.07479
 20
300.0
 30
0.0
 11
695.07479
 21
290.0
 31
0.0
  0
LINE
  5
768
100
AcDbEntity
  8
SIZE
  6
CONTINUOUS
 62
    30
100
AcDbLine
 10
825.312159
 20
58.999496
 30
0.0
 11
825.312159
 21
63.999496
 31
0.0
  0
CIRCLE
  5
769
100
AcDbEntity
  8
SIZE
  6
CONTINUOUS
 62
    30
100
AcDbCircle
 10
825.312159
 20
53.999496
 30
0.0
 40
5.0
  0
POINT
  5
76A
100
AcDbEntity
  8
DEFPOINTS
  6
CONTINUOUS
 62
     7
100
AcDbPoint
 10
825.05401
 20
0.0
 30
0.0
  0
LINE
  5
76B
100
AcDbEntity
  8
SIZE
  6
CONTINUOUS
 62
    30
100
AcDbLine
 10
825.05401
 20
50.0
 30
0.0
 11
825.05401
 21
55.0
 31
0.0
  0
CIRCLE
  5
76C
100
AcDbEntity
  8
SIZE
  6
CONTINUOUS
 62
    30
100
AcDbCircle
 10
825.05401
 20
45.0
 30
0.0
 40
5.0
  0
LINE
  5
76D
100
AcDbEntity
  8
SIZE
  6
CONTINUOUS
 62
    30
100
AcDbLine
 10
825.05401
 20
45.0
 30
0.0
 11
825.05401
 21
0.0
 31
0.0
  0
LINE
  5
76E
100
AcDbEntity
  8
SIZE
  6
CONTINUOUS
 62
    30
100
AcDbLine
 10
825.05401
 20
55.0
 30
0.0
 11
825.05401
 21
65.0
 31
0.0
  0
LINE
  5
76F
100
AcDbEntity
  8
SIZE
  6
CONTINUOUS
 62
    30
100
AcDbLine
 10
946.148425
 20
5.0
 30
0.0
 11
946.148425
 21
10.0
 31
0.0
  0
POINT
  5
770
100
AcDbEntity
  8
DEFPOINTS
  6
CONTINUOUS
 62
     7
100
AcDbPoint
 10
946.148425
 20
0.0
 30
0.0
  0
LINE
  5
771
100
AcDbEntity
  8
SIZE
  6
CONTINUOUS
 62
    30
100
AcDbLine
 10
946.148425
 20
5.0
 30
0.0
 11
946.148425
 21
10.0
 31
0.0
  0
LINE
  5
772
100
AcDbEntity
  8
SIZE
  6
CONTINUOUS
 62
    30
100
AcDbLine
 10
946.148425
 20
10.0
 30
0.0
 11
946.148425
 21
20.0
 31
0.0
  0
LINE
  5
773
100
AcDbEntity
  8
SIZE
  6
CONTINUOUS
 62
    30
100
AcDbLine
 10
598.218936
 20
390.0
 30
0.0
 11
976.148425
 21
390.0
 31
0.0
  0
TEXT
  5
774
100
AcDbEntity
  8
SIZE
  6
CONTINUOUS
 62
    30
100
AcDbText
 10
680.07479
 20
401.072895
 30
0.0
 40
55.0
  1
34
 50
90.0
 41
0.9
 72
     1
 11
680.07479
 21
442.322895
 31
0.0
100
AcDbText
  0
LINE
  5
775
100
AcDbEntity
  8
SIZE
  6
CONTINUOUS
 62
    30
100
AcDbLine
 10
695.07479
 20
354.0
 30
0.0
 11
695.07479
 21
498.572895
 31
0.0
  0
LINE
  5
776
100
AcDbEntity
  8
SIZE
  6
CONTINUOUS
 62
    30
100
AcDbLine
 10
601.742082
 20
344.0
 30
0.0
 11
601.742082
 21
504.937134
 31
0.0
  0
POINT
  5
777
100
AcDbEntity
  8
DEFPOINTS
  6
CONTINUOUS
 62
     7
100
AcDbPoint
 10
578.218936
 20
390.0
 30
0.0
  0
LINE
  5
778
100
AcDbEntity
  8
SIZE
  6
CONTINUOUS
 62
    30
100
AcDbLine
 10
601.742082
 20
339.0
 30
0.0
 11
601.742082
 21
334.0
 31
0.0
  0
CIRCLE
  5
779
100
AcDbEntity
  8
SIZE
  6
CONTINUOUS
 62
    30
100
AcDbCircle
 10
601.742082
 20
344.0
 30
0.0
 40
5.0
  0
CIRCLE
  5
77A
100
AcDbEntity
  8
SIZE
  6
CONTINUOUS
 62
    30
100
AcDbCircle
 10
695.07479
 20
310.0
 30
0.0
 40
5.0
  0
POINT
  5
77B
100
AcDbEntity
  8
DEFPOINTS
  6
CONTINUOUS
 62
     7
100
AcDbPoint
 10
695.07479
 20
310.0
 30
0.0
  0
LINE
  5
77C
100
AcDbEntity
  8
SIZE
  6
CONTINUOUS
 62
    30
100
AcDbLine
 10
695.07479
 20
349.0
 30
0.0
 11
695.07479
 21
354.0
 31
0.0
  0
CIRCLE
  5
77D
100
AcDbEntity
  8
SIZE
  6
CONTINUOUS
 62
    30
100
AcDbCircle
 10
695.07479
 20
344.0
 30
0.0
 40
5.0
  0
CIRCLE
  5
77E
100
AcDbEntity
  8
SIZE
  6
CONTINUOUS
 62
    30
100
AcDbCircle
 10
695.07479
 20
310.0
 30
0.0
 40
5.0
  0
LINE
  5
77F
100
AcDbEntity
  8
SIZE
  6
CONTINUOUS
 62
    30
100
AcDbLine
 10
695.07479
 20
310.0
 30
0.0
 11
695.07479
 21
344.0
 31
0.0
  0
POINT
  5
780
100
AcDbEntity
  8
DEFPOINTS
  6
CONTINUOUS
 62
     7
100
AcDbPoint
 10
825.312159
 20
344.0
 30
0.0
  0
LINE
  5
781
100
AcDbEntity
  8
SIZE
  6
CONTINUOUS
 62
    30
100
AcDbLine
 10
825.312159
 20
339.0
 30
0.0
 11
825.312159
 21
334.0
 31
0.0
  0
CIRCLE
  5
782
100
AcDbEntity
  8
SIZE
  6
CONTINUOUS
 62
    30
100
AcDbCircle
 10
825.312159
 20
344.0
 30
0.0
 40
5.0
  0
POINT
  5
783
100
AcDbEntity
  8
DEFPOINTS
  6
CONTINUOUS
 62
     7
100
AcDbPoint
 10
946.148425
 20
390.0
 30
0.0
  0
LINE
  5
784
100
AcDbEntity
  8
SIZE
  6
CONTINUOUS
 62
    30
100
AcDbLine
 10
946.148425
 20
385.0
 30
0.0
 11
946.148425
 21
380.0
 31
0.0
  0
CIRCLE
  5
785
100
AcDbEntity
  8
SIZE
  6
CONTINUOUS
 62
    30
100
AcDbCircle
 10
946.148425
 20
390.0
 30
0.0
 40
5.0
  0
ENDSEC
  0
SECTION
  2
OBJECTS
  0
DICTIONARY
  5
2C4
100
AcDbDictionary
  3
ACAD_GROUP
350
2C5
  3
ACAD_MLINESTYLE
350
2D3
  0
DICTIONARY
  5
2C5
102
{ACAD_REACTORS
330
2C4
102
}
100
AcDbDictionary
  0
DICTIONARY
  5
2D3
102
{ACAD_REACTORS
330
2C4
102
}
100
AcDbDictionary
  3
STANDARD
350
2D4
  0
MLINESTYLE
  5
2D4
102
{ACAD_REACTORS
330
2D3
102
}
100
AcDbMlineStyle
  2
STANDARD
 70
     0
  3

 62
   256
 51
90.0
 52
90.0
 71
     2
 49
0.5
 62
   256
  6
BYLAYER
 49
-0.5
 62
   256
  6
BYLAYER
  0
ENDSEC
  0
EOF
