  0
SECTION
  2
HEADER
  9
$ACADVER
  1
AC1009
  9
$INSBASE
 10
0.0
 20
0.0
 30
0.0
  9
$EXTMIN
 10
-914.61178254640265
 20
-1297.7599850829679
 30
-0.0015258207003583
  9
$EXTMAX
 10
1458.435081246349
 20
1159.0576342528909
 30
0.0000000349246037
  9
$LIMMIN
 10
-6000.0
 20
-4500.0
  9
$LIMMAX
 10
6000.0
 20
4500.0
  9
$ORTHOMODE
 70
     0
  9
$REGENMODE
 70
     1
  9
$FILLMODE
 70
     1
  9
$QTEXTMODE
 70
     0
  9
$MIRRTEXT
 70
     0
  9
$DRAGMODE
 70
     2
  9
$LTSCALE
 40
20.0
  9
$OSMODE
 70
   959
  9
$ATTMODE
 70
     1
  9
$TEXTSIZE
 40
64.0
  9
$TRACEWID
 40
0.05
  9
$TEXTSTYLE
  7
STANDARD
  9
$CLAYER
  8
SYMBOLLINE
  9
$CELTYPE
  6
CONTINUOUS
  9
$CECOLOR
 62
     7
  9
$DIMSCALE
 40
1.0
  9
$DIMASZ
 40
10.0
  9
$DIMEXO
 40
20.0
  9
$DIMDLI
 40
200.0
  9
$DIMRND
 40
0.0
  9
$DIMDLE
 40
0.0
  9
$DIMEXE
 40
30.0
  9
$DIMTP
 40
0.0
  9
$DIMTM
 40
0.0
  9
$DIMTXT
 40
64.0
  9
$DIMCEN
 40
0.0
  9
$DIMTSZ
 40
0.0
  9
$DIMTOL
 70
     0
  9
$DIMLIM
 70
     0
  9
$DIMTIH
 70
     0
  9
$DIMTOH
 70
     0
  9
$DIMSE1
 70
     0
  9
$DIMSE2
 70
     0
  9
$DIMTAD
 70
     1
  9
$DIMZIN
 70
     8
  9
$DIMBLK
  1

  9
$DIMASO
 70
     1
  9
$DIMSHO
 70
     0
  9
$DIMPOST
  1

  9
$DIMAPOST
  1

  9
$DIMALT
 70
     0
  9
$DIMALTD
 70
     2
  9
$DIMALTF
 40
25.399999999999999
  9
$DIMLFAC
 40
1.0
  9
$DIMTOFL
 70
     1
  9
$DIMTVP
 40
0.0
  9
$DIMTIX
 70
     1
  9
$DIMSOXD
 70
     0
  9
$DIMSAH
 70
     1
  9
$DIMBLK1
  1
DOTBLANK
  9
$DIMBLK2
  1
DOTBLANK
  9
$DIMSTYLE
  2
STANDARD
  9
$DIMCLRD
 70
     0
  9
$DIMCLRE
 70
     0
  9
$DIMCLRT
 70
     0
  9
$DIMTFAC
 40
1.0
  9
$DIMGAP
 40
0.09
  9
$LUNITS
 70
     2
  9
$LUPREC
 70
     4
  9
$SKETCHINC
 40
0.1
  9
$FILLETRAD
 40
20.0
  9
$AUNITS
 70
     1
  9
$AUPREC
 70
     3
  9
$MENU
  1
ACAD
  9
$ELEVATION
 40
0.0
  9
$PELEVATION
 40
0.0
  9
$THICKNESS
 40
0.0
  9
$LIMCHECK
 70
     0
  9
$BLIPMODE
 70
     0
  9
$CHAMFERA
 40
0.0
  9
$CHAMFERB
 40
0.0
  9
$SKPOLY
 70
     0
  9
$TDCREATE
 40
2450330.4399309959
  9
$TDUPDATE
 40
2455574.4868500228
  9
$TDINDWG
 40
1.4284113079
  9
$TDUSRTIMER
 40
1.4284111227
  9
$USRTIMER
 70
     1
  9
$ANGBASE
 50
0.0
  9
$ANGDIR
 70
     0
  9
$PDMODE
 70
     3
  9
$PDSIZE
 40
-2.0
  9
$PLINEWID
 40
0.0
  9
$COORDS
 70
     0
  9
$SPLFRAME
 70
     0
  9
$SPLINETYPE
 70
     6
  9
$SPLINESEGS
 70
     8
  9
$ATTDIA
 70
     0
  9
$ATTREQ
 70
     1
  9
$HANDLING
 70
     1
  9
$HANDSEED
  5
3E5
  9
$SURFTAB1
 70
     6
  9
$SURFTAB2
 70
     6
  9
$SURFTYPE
 70
     6
  9
$SURFU
 70
     6
  9
$SURFV
 70
     6
  9
$UCSNAME
  2

  9
$UCSORG
 10
0.0
 20
0.0
 30
0.0
  9
$UCSXDIR
 10
1.0
 20
0.0
 30
0.0
  9
$UCSYDIR
 10
0.0
 20
1.0
 30
0.0
  9
$PUCSNAME
  2

  9
$PUCSORG
 10
0.0
 20
0.0
 30
0.0
  9
$PUCSXDIR
 10
1.0
 20
0.0
 30
0.0
  9
$PUCSYDIR
 10
0.0
 20
1.0
 30
0.0
  9
$USERI1
 70
     0
  9
$USERI2
 70
     0
  9
$USERI3
 70
     0
  9
$USERI4
 70
     0
  9
$USERI5
 70
     0
  9
$USERR1
 40
20.0
  9
$USERR2
 40
0.0
  9
$USERR3
 40
0.0
  9
$USERR4
 40
0.0
  9
$USERR5
 40
0.0
  9
$WORLDVIEW
 70
     1
  9
$SHADEDGE
 70
     3
  9
$SHADEDIF
 70
    70
  9
$TILEMODE
 70
     1
  9
$MAXACTVP
 70
    48
  9
$PLIMCHECK
 70
     0
  9
$PEXTMIN
 10
1.0000000000000000E+020
 20
1.0000000000000000E+020
 30
1.0000000000000000E+020
  9
$PEXTMAX
 10
-1.0000000000000000E+020
 20
-1.0000000000000000E+020
 30
-1.0000000000000000E+020
  9
$PLIMMIN
 10
0.0
 20
0.0
  9
$PLIMMAX
 10
12.0
 20
9.0
  9
$UNITMODE
 70
     0
  9
$VISRETAIN
 70
     1
  9
$PLINEGEN
 70
     0
  9
$PSLTSCALE
 70
     1
  0
ENDSEC
  0
SECTION
  2
TABLES
  0
TABLE
  2
VPORT
 70
     1
  0
VPORT
  2
*ACTIVE
 70
     0
 10
0.0
 20
0.0
 11
1.0
 21
1.0
 12
0.0000000000002274
 22
0.0
 13
0.0
 23
0.0
 14
50.0
 24
50.0
 15
100.0
 25
100.0
 16
0.0
 26
0.0
 36
1.0
 17
0.0
 27
0.0
 37
0.0
 40
9370.7682998308082
 41
1.5639386189258311
 42
50.0
 43
0.0
 44
0.0
 50
0.0
 51
0.0
 71
     0
 72
  1000
 73
     1
 74
     0
 75
     0
 76
     0
 77
     0
 78
     0
  0
ENDTAB
  0
TABLE
  2
LTYPE
 70
     3
  0
LTYPE
  2
CONTINUOUS
 70
     0
  3
実線
 72
    65
 73
     0
 40
0.0
  0
LTYPE
  2
DASHDOT
 70
     0
  3
____ _ ____ _ ____ _ ____ _ ____ _ ____ _ ____
 72
    65
 73
     4
 40
5.5
 49
4.0
 49
-0.6
 49
0.3
 49
-0.6
  0
ENDTAB
  0
TABLE
  2
LAYER
 70
    12
  0
LAYER
  2
0
 70
     0
 62
     7
  6
CONTINUOUS
  0
LAYER
  2
SIZE
 70
     0
 62
    30
  6
CONTINUOUS
  0
LAYER
  2
OUTLINE
 70
     0
 62
     3
  6
CONTINUOUS
  0
LAYER
  2
DETAIL
 70
     0
 62
     5
  6
CONTINUOUS
  0
LAYER
  2
BASIS
 70
     0
 62
     6
  6
DASHDOT
  0
LAYER
  2
NOTE
 70
     0
 62
     4
  6
CONTINUOUS
  0
LAYER
  2
ARRANGE
 70
     0
 62
     1
  6
CONTINUOUS
  0
LAYER
  2
FIX
 70
     0
 62
    11
  6
CONTINUOUS
  0
LAYER
  2
SERVICESPACE
 70
     0
 62
     2
  6
DASHDOT
  0
LAYER
  2
ETC
 70
     0
 62
    61
  6
CONTINUOUS
  0
LAYER
  2
SYMBOLLINE
 70
     0
 62
    15
  6
CONTINUOUS
  0
LAYER
  2
DEFPOINTS
 70
     0
 62
     7
  6
CONTINUOUS
  0
ENDTAB
  0
TABLE
  2
STYLE
 70
     2
  0
STYLE
  2
STANDARD
 70
     0
 40
0.0
 41
0.9
 50
0.0
 71
     0
 42
64.0
  3
SIMPLEX
  4
BIGFONT
  0
STYLE
  2
ANNOTATIVE
 70
     0
 40
0.0
 41
1.0
 50
0.0
 71
     0
 42
0.2
  3
txt
  4

  0
ENDTAB
  0
TABLE
  2
VIEW
 70
     5
  0
VIEW
  2
ALL
 70
     0
 40
9000.0
 10
241.50664699999999
 20
0.0
 41
12483.01
 11
0.0
 21
0.0
 31
1.0
 12
0.0
 22
0.0
 32
0.0
 42
50.0
 43
0.0
 44
0.0
 50
0.0
 71
     0
  0
ENDTAB
  0
TABLE
  2
UCS
 70
     0
  0
ENDTAB
  0
TABLE
  2
APPID
 70
     4
  0
APPID
  2
ACAD
 70
     0
  0
APPID
  2
ACADANNOTATIVE
 70
     0
  0
APPID
  2
ACAD_MLEADERVER
 70
     0
  0
APPID
  2
ACAD_EXEMPT_FROM_CAD_STANDARDS
 70
     0
  0
ENDTAB
  0
TABLE
  2
DIMSTYLE
 70
     3
  0
DIMSTYLE
  2
STANDARD
 70
     0
  3

  4

  5

  6

  7

 40
1.0
 41
0.18
 42
0.0625
 43
0.38
 44
0.18
 45
0.0
 46
0.0
 47
0.0
 48
0.0
140
0.18
141
0.09
142
0.0
143
25.399999999999999
144
1.0
145
0.0
146
1.0
147
0.09
 71
     0
 72
     0
 73
     1
 74
     1
 75
     0
 76
     0
 77
     0
 78
     0
170
     0
171
     2
172
     0
173
     0
174
     0
175
     0
176
     0
177
     0
178
     0
  0
DIMSTYLE
  2
ANNOTATIVE
 70
     0
  3

  4

  5

  6

  7

 40
1.0
 41
0.18
 42
0.0625
 43
0.38
 44
0.18
 45
0.0
 46
0.0
 47
0.0
 48
0.0
140
0.18
141
0.09
142
0.0
143
25.399999999999999
144
1.0
145
0.0
146
1.0
147
0.09
 71
     0
 72
     0
 73
     1
 74
     1
 75
     0
 76
     0
 77
     0
 78
     0
170
     0
171
     2
172
     0
173
     0
174
     0
175
     0
176
     0
177
     0
178
     0
  0
ENDTAB
  0
ENDSEC
  0
SECTION
  2
BLOCKS
  0
BLOCK
  8
0
  2
$MODEL_SPACE
 70
     0
 10
0.0
 20
0.0
 30
0.0
  3
$MODEL_SPACE
  1

  0
ENDBLK
  5
282
  8
0
  0
BLOCK
 67
     1
  8
0
  2
$PAPER_SPACE
 70
     0
 10
0.0
 20
0.0
 30
0.0
  3
$PAPER_SPACE
  1

  0
ENDBLK
  5
27E
 67
     1
  8
0
  0
BLOCK
  8
0
  2
_DOTBLANK
 70
     0
 10
0.0
 20
0.0
 30
0.0
  3
_DOTBLANK
  1

  0
CIRCLE
  5
30
  8
0
  6
CONTINUOUS
 62
     7
 10
0.0
 20
0.0
 30
0.0
 40
0.5
  0
LINE
  5
31
  8
0
  6
CONTINUOUS
 62
     7
 10
-0.5
 20
0.0
 30
0.0
 11
-1.0
 21
0.0
 31
0.0
  0
ENDBLK
  5
32
  8
0
  0
BLOCK
  8
0
 62
     7
  2
*D4
 70
     1
 10
0.0
 20
0.0
 30
0.0
  3
*D4
  1

  0
LINE
  5
355
  8
SIZE
  6
CONTINUOUS
 62
     0
 10
337.0
 20
-388.0
 30
0.0
 11
510.21389140230542
 21
-388.00000000000011
 31
0.0
  0
LINE
  5
356
  8
SIZE
  6
CONTINUOUS
 62
     0
 10
197.34999999999999
 20
-466.0
 30
0.0
 11
510.21389140230542
 21
-466.00000000000011
 31
0.0
  0
LINE
  5
357
  8
SIZE
  6
CONTINUOUS
 62
     0
 10
480.21389140230531
 20
-456.0
 30
0.0
 11
480.21389140230531
 21
-398.00000000000011
 31
0.0
  0
LINE
  5
358
  8
SIZE
  6
CONTINUOUS
 62
     0
 10
480.21389140230531
 20
-388.00000000000011
 30
0.0
 11
480.21389140230542
 21
-277.89110515493502
 31
0.0
  0
INSERT
  5
359
  8
SIZE
  6
CONTINUOUS
 62
     0
  2
_DOTBLANK
 10
480.21389140230531
 20
-466.00000000000011
 30
0.0
 41
10.0
 42
10.0
 43
10.0
 50
270.0
  0
INSERT
  5
35A
  8
SIZE
  6
CONTINUOUS
 62
     0
  2
_DOTBLANK
 10
480.21389140230531
 20
-388.00000000000011
 30
0.0
 41
10.0
 42
10.0
 43
10.0
 50
90.0
  0
INSERT
  5
35B
  8
SYMBOLLINE
  6
CONTINUOUS
 62
     7
  2
*U8
 10
0.0
 20
0.0
 30
0.0
  0
POINT
  5
35C
  8
DEFPOINTS
  6
CONTINUOUS
 62
     0
 10
317.0
 20
-388.0
 30
0.0
  0
POINT
  5
35D
  8
DEFPOINTS
  6
CONTINUOUS
 62
     0
 10
177.34999999999999
 20
-466.0
 30
0.0
  0
POINT
  5
35E
  8
DEFPOINTS
  6
CONTINUOUS
 62
     0
 10
480.21389140230531
 20
-466.00000000000011
 30
0.0
  0
ENDBLK
  5
2AA
  8
0
 62
     7
  0
BLOCK
  8
0
 62
     7
  2
*D5
 70
     1
 10
0.0
 20
0.0
 30
0.0
  3
*D5
  1

  0
LINE
  5
34B
  8
SIZE
  6
CONTINUOUS
 62
     0
 10
297.0
 20
-388.0
 30
0.0
 11
40.634723960320031
 21
-387.99999999999989
 31
0.0
  0
LINE
  5
34C
  8
SIZE
  6
CONTINUOUS
 62
     0
 10
84.174999999999997
 20
-455.0
 30
0.0
 11
40.634723960320031
 21
-455.0
 31
0.0
  0
LINE
  5
34D
  8
SIZE
  6
CONTINUOUS
 62
     0
 10
70.634723960320031
 20
-445.0
 30
0.0
 11
70.634723960320045
 21
-398.0
 31
0.0
  0
LINE
  5
34E
  8
SIZE
  6
CONTINUOUS
 62
     0
 10
70.634723960320045
 20
-387.99999999999989
 30
0.0
 11
70.634723960320073
 21
-247.12031431146349
 31
0.0
  0
INSERT
  5
34F
  8
SIZE
  6
CONTINUOUS
 62
     0
  2
_DOTBLANK
 10
70.634723960320031
 20
-455.0
 30
0.0
 41
10.0
 42
10.0
 43
10.0
 50
270.0
  0
INSERT
  5
350
  8
SIZE
  6
CONTINUOUS
 62
     0
  2
_DOTBLANK
 10
70.634723960320045
 20
-387.99999999999989
 30
0.0
 41
10.0
 42
10.0
 43
10.0
 50
90.0
  0
INSERT
  5
351
  8
SYMBOLLINE
  6
CONTINUOUS
 62
     7
  2
*U7
 10
0.0
 20
0.0
 30
0.0
  0
POINT
  5
352
  8
DEFPOINTS
  6
CONTINUOUS
 62
     0
 10
317.0
 20
-388.0
 30
0.0
  0
POINT
  5
353
  8
DEFPOINTS
  6
CONTINUOUS
 62
     0
 10
104.175
 20
-455.0
 30
0.0
  0
POINT
  5
354
  8
DEFPOINTS
  6
CONTINUOUS
 62
     0
 10
70.634723960320031
 20
-455.0
 30
0.0
  0
ENDBLK
  5
2B9
  8
0
 62
     7
  0
BLOCK
  8
0
 62
     7
  2
*D6
 70
     1
 10
0.0
 20
0.0
 30
0.0
  3
*D6
  1

  0
LINE
  5
35F
  8
SIZE
  6
CONTINUOUS
 62
     0
 10
-337.0
 20
-388.0
 30
0.0
 11
-467.06061194503468
 21
-387.99999999999989
 31
0.0
  0
LINE
  5
360
  8
SIZE
  6
CONTINUOUS
 62
     0
 10
-216.0
 20
-448.0
 30
0.0
 11
-467.06061194503468
 21
-447.99999999999989
 31
0.0
  0
LINE
  5
361
  8
SIZE
  6
CONTINUOUS
 62
     0
 10
-437.06061194503468
 20
-437.99999999999989
 30
0.0
 11
-437.06061194503468
 21
-398.0
 31
0.0
  0
LINE
  5
362
  8
SIZE
  6
CONTINUOUS
 62
     0
 10
-437.06061194503468
 20
-387.99999999999989
 30
0.0
 11
-437.06061194503468
 21
-240.2823744654288
 31
0.0
  0
INSERT
  5
363
  8
SIZE
  6
CONTINUOUS
 62
     0
  2
_DOTBLANK
 10
-437.06061194503468
 20
-447.99999999999989
 30
0.0
 41
10.0
 42
10.0
 43
10.0
 50
270.0
  0
INSERT
  5
364
  8
SIZE
  6
CONTINUOUS
 62
     0
  2
_DOTBLANK
 10
-437.06061194503468
 20
-387.99999999999989
 30
0.0
 41
10.0
 42
10.0
 43
10.0
 50
90.0
  0
INSERT
  5
365
  8
SYMBOLLINE
  6
CONTINUOUS
 62
     7
  2
*U9
 10
0.0
 20
0.0
 30
0.0
  0
POINT
  5
366
  8
DEFPOINTS
  6
CONTINUOUS
 62
     0
 10
-317.0
 20
-388.0
 30
0.0
  0
POINT
  5
367
  8
DEFPOINTS
  6
CONTINUOUS
 62
     0
 10
-196.0
 20
-448.0
 30
0.0
  0
POINT
  5
368
  8
DEFPOINTS
  6
CONTINUOUS
 62
     0
 10
-437.06061194503468
 20
-447.99999999999989
 30
0.0
  0
ENDBLK
  5
2D1
  8
0
 62
     7
  0
BLOCK
  8
0
 62
     7
  2
*U7
 70
     1
 10
0.0
 20
0.0
 30
0.0
  3
*U7
  1

  0
TEXT
  5
3DA
  8
SIZE
  6
CONTINUOUS
 62
     0
 10
70.544723960320098
 20
-340.46745716860642
 30
0.0
 40
64.0
  1
67
 50
90.0
 41
0.9
  0
ENDBLK
  5
3DC
  8
0
 62
     7
  0
BLOCK
  8
0
 62
     7
  2
*U8
 70
     1
 10
0.0
 20
0.0
 30
0.0
  3
*U8
  1

  0
TEXT
  5
3DE
  8
SIZE
  6
CONTINUOUS
 62
     0
 10
480.1238914023055
 20
-371.2382480120778
 30
0.0
 40
64.0
  1
78
 50
90.0
 41
0.9
  0
ENDBLK
  5
3E0
  8
0
 62
     7
  0
BLOCK
  8
0
 62
     7
  2
*U9
 70
     1
 10
0.0
 20
0.0
 30
0.0
  3
*U9
  1

  0
TEXT
  5
3E2
  8
SIZE
  6
CONTINUOUS
 62
     0
 10
-437.15061194503471
 20
-333.6295173225717
 30
0.0
 40
64.0
  1
60
 50
90.0
 41
0.9
  0
ENDBLK
  5
3E4
  8
0
 62
     7
  0
ENDSEC
  0
SECTION
  2
ENTITIES
  0
TEXT
  5
34
  8
NOTE
  6
CONTINUOUS
 62
     4
 10
455.50266499999998
 20
692.63588600000003
 30
0.0
 40
64.0
  1
AH
 41
0.9
  0
LINE
  5
35
  8
DETAIL
  6
CONTINUOUS
 62
     5
 10
30.0
 20
-488.0
 30
0.0
 11
-100.0
 21
-488.0
 31
0.0
  0
LINE
  5
36
  8
DETAIL
  6
CONTINUOUS
 62
     5
 10
317.0
 20
-388.0
 30
0.0
 11
-317.0
 21
-388.0
 31
0.0
  0
LINE
  5
37
  8
DETAIL
  6
CONTINUOUS
 62
     5
 10
317.0
 20
388.0
 30
0.0
 11
-317.0
 21
388.0
 31
0.0
  0
LINE
  5
38
  8
DETAIL
  6
CONTINUOUS
 62
     5
 10
335.0
 20
-540.0
 30
0.0
 11
-335.0
 21
-540.0
 31
0.0
  0
LINE
  5
39
  8
DETAIL
  6
CONTINUOUS
 62
     5
 10
335.0
 20
540.0
 30
0.0
 11
-335.0
 21
540.0
 31
0.0
  0
LINE
  5
3A
  8
BASIS
  6
DASHDOT
 62
     6
 10
-400.0
 20
0.0
 30
0.0
 11
400.0
 21
0.0
 31
0.0
  0
LINE
  5
3B
  8
DETAIL
  6
CONTINUOUS
 62
     5
 10
-355.0
 20
-520.0
 30
0.0
 11
-355.0
 21
520.0
 31
0.0
  0
LINE
  5
3C
  8
DETAIL
  6
CONTINUOUS
 62
     5
 10
-317.0
 20
-500.0
 30
0.0
 11
-317.0
 21
500.0
 31
0.0
  0
LINE
  5
3D
  8
NOTE
  6
CONTINUOUS
 62
     4
 10
-180.0
 20
-448.0
 30
0.0
 11
-425.37980099999987
 21
-796.39861100000007
 31
0.0
  0
LINE
  5
40
  8
DETAIL
  6
CONTINUOUS
 62
     5
 10
-100.0
 20
-488.0
 30
0.0
 11
-100.0
 21
-388.0
 31
0.0
  0
LINE
  5
41
  8
DETAIL
  6
CONTINUOUS
 62
     5
 10
-262.0
 20
-437.0
 30
0.0
 11
-282.0
 21
-437.0
 31
0.0
  0
LINE
  5
42
  8
NOTE
  6
CONTINUOUS
 62
     4
 10
-307.0
 20
-412.0
 30
0.0
 11
-267.0
 21
-412.0
 31
0.0
  0
LINE
  5
43
  8
NOTE
  6
CONTINUOUS
 62
     4
 10
-287.0
 20
-432.0
 30
0.0
 11
-287.0
 21
-392.0
 31
0.0
  0
LINE
  5
4A
  8
DETAIL
  6
CONTINUOUS
 62
     5
 10
-292.0
 20
-437.0
 30
0.0
 11
-312.0
 21
-437.0
 31
0.0
  0
ARC
  5
4B
  8
DETAIL
  6
CONTINUOUS
 62
     5
 10
-283.0
 20
-412.0
 30
0.0
 40
8.0
 50
277.18075599999997
 51
90.490927999999997
  0
LINE
  5
4C
  8
DETAIL
  6
CONTINUOUS
 62
     5
 10
-282.0
 20
-437.0
 30
0.0
 11
-282.0
 21
-419.93725399999988
 31
0.0
  0
LINE
  5
4D
  8
DETAIL
  6
CONTINUOUS
 62
     5
 10
-292.0
 20
-437.0
 30
0.0
 11
-292.0
 21
-419.93725399999988
 31
0.0
  0
ARC
  5
4E
  8
DETAIL
  6
CONTINUOUS
 62
     5
 10
-291.0
 20
-412.0
 30
0.0
 40
8.0
 50
90.589170999999993
 51
262.81924400000003
  0
LINE
  5
4F
  8
DETAIL
  6
CONTINUOUS
 62
     5
 10
-291.08226200000001
 20
-404.0
 30
0.0
 11
-283.0
 21
-404.0
 31
0.0
  0
CIRCLE
  5
50
  8
FIX
  6
CONTINUOUS
 62
    11
 10
-287.0
 20
-412.0
 30
0.0
 40
5.0
  0
LINE
  5
51
  8
DETAIL
  6
CONTINUOUS
 62
     5
 10
-312.0
 20
-388.0
 30
0.0
 11
-312.0
 21
-437.0
 31
0.0
  0
LINE
  5
52
  8
NOTE
  6
CONTINUOUS
 62
     4
 10
-180.0
 20
-468.0
 30
0.0
 11
-180.0
 21
-428.0
 31
0.0
  0
LINE
  5
53
  8
NOTE
  6
CONTINUOUS
 62
     4
 10
-164.0
 20
-448.0
 30
0.0
 11
-196.0
 21
-448.0
 31
0.0
  0
POLYLINE
  5
54
  8
NOTE
  6
CONTINUOUS
 62
     4
 66
     1
 10
0.0
 20
0.0
 30
0.0
  0
VERTEX
  5
3BB
  8
NOTE
  6
CONTINUOUS
 62
     4
 10
-192.348816
 20
-486.04611299999999
 30
0.0
  0
VERTEX
  5
3BC
  8
NOTE
  6
CONTINUOUS
 62
     4
 10
-180.0
 20
-448.0
 30
0.0
  0
VERTEX
  5
3BD
  8
NOTE
  6
CONTINUOUS
 62
     4
 10
-209.717445
 20
-474.77449299999989
 30
0.0
  0
SEQEND
  5
3BE
  8
NOTE
  6
CONTINUOUS
 62
     4
  0
LINE
  5
59
  8
DETAIL
  6
CONTINUOUS
 62
     5
 10
-164.0
 20
-448.0
 30
0.0
 11
-196.0
 21
-448.0
 31
0.0
  0
LINE
  5
5A
  8
DETAIL
  6
CONTINUOUS
 62
     5
 10
-164.0
 20
-448.0
 30
0.0
 11
-164.0
 21
-388.0
 31
0.0
  0
LINE
  5
5B
  8
DETAIL
  6
CONTINUOUS
 62
     5
 10
-196.0
 20
-448.0
 30
0.0
 11
-196.0
 21
-388.0
 31
0.0
  0
LINE
  5
5C
  8
DETAIL
  6
CONTINUOUS
 62
     5
 10
-262.0
 20
-388.0
 30
0.0
 11
-262.0
 21
-437.0
 31
0.0
  0
LINE
  5
5F
  8
DETAIL
  6
CONTINUOUS
 62
     5
 10
-262.0
 20
437.0
 30
0.0
 11
-282.0
 21
437.0
 31
0.0
  0
LINE
  5
60
  8
NOTE
  6
CONTINUOUS
 62
     4
 10
-307.0
 20
412.0
 30
0.0
 11
-267.0
 21
412.0
 31
0.0
  0
LINE
  5
61
  8
NOTE
  6
CONTINUOUS
 62
     4
 10
-287.0
 20
392.0
 30
0.0
 11
-287.0
 21
432.0
 31
0.0
  0
CIRCLE
  5
67
  8
FIX
  6
CONTINUOUS
 62
    11
 10
-287.0
 20
412.0
 30
0.0
 40
5.0
  0
LINE
  5
68
  8
DETAIL
  6
CONTINUOUS
 62
     5
 10
-282.91773799999999
 20
404.0
 30
0.0
 11
-291.0
 21
404.0
 31
0.0
  0
ARC
  5
69
  8
DETAIL
  6
CONTINUOUS
 62
     5
 10
-283.0
 20
412.0
 30
0.0
 40
8.0
 50
270.58917100000002
 51
82.819243999999983
  0
LINE
  5
6A
  8
DETAIL
  6
CONTINUOUS
 62
     5
 10
-282.0
 20
437.0
 30
0.0
 11
-282.0
 21
419.93725399999988
 31
0.0
  0
LINE
  5
6B
  8
DETAIL
  6
CONTINUOUS
 62
     5
 10
-292.0
 20
437.0
 30
0.0
 11
-292.0
 21
419.93725399999988
 31
0.0
  0
ARC
  5
6C
  8
DETAIL
  6
CONTINUOUS
 62
     5
 10
-291.0
 20
412.0
 30
0.0
 40
8.0
 50
97.180756000000002
 51
270.490928
  0
LINE
  5
6D
  8
DETAIL
  6
CONTINUOUS
 62
     5
 10
-292.0
 20
437.0
 30
0.0
 11
-312.0
 21
437.0
 31
0.0
  0
LINE
  5
6E
  8
DETAIL
  6
CONTINUOUS
 62
     5
 10
-312.0
 20
388.0
 30
0.0
 11
-312.0
 21
437.0
 31
0.0
  0
LINE
  5
6F
  8
DETAIL
  6
CONTINUOUS
 62
     5
 10
-262.0
 20
388.0
 30
0.0
 11
-262.0
 21
437.0
 31
0.0
  0
LINE
  5
71
  8
DETAIL
  6
CONTINUOUS
 62
     5
 10
355.0
 20
-520.0
 30
0.0
 11
355.0
 21
520.0
 31
0.0
  0
LINE
  5
72
  8
DETAIL
  6
CONTINUOUS
 62
     5
 10
317.0
 20
-500.0
 30
0.0
 11
317.0
 21
500.0
 31
0.0
  0
LINE
  5
73
  8
BASIS
  6
DASHDOT
 62
     6
 10
0.0
 20
-620.0
 30
0.0
 11
0.0
 21
620.0
 31
0.0
  0
TEXT
  5
75
  8
NOTE
  6
CONTINUOUS
 62
     4
 10
517.64578300000005
 20
-918.71231199999977
 30
0.0
 40
64.0
  1
RL φ6.35
 41
0.9
  0
LINE
  5
76
  8
NOTE
  6
CONTINUOUS
 62
     4
 10
530.94006899999999
 20
-823.54875800000002
 30
0.0
 11
935.77950199999987
 21
-823.54875800000002
 31
0.0
  0
TEXT
  5
77
  8
NOTE
  6
CONTINUOUS
 62
     4
 10
556.60473799999988
 20
-799.66692
 30
0.0
 40
64.0
  1
RG φ12.7
 41
0.9
  0
LINE
  5
78
  8
NOTE
  6
CONTINUOUS
 62
     4
 10
497.65217899999988
 20
-939.05659900000001
 30
0.0
 11
899.71383300000002
 21
-939.05659900000001
 31
0.0
  0
LINE
  5
79
  8
NOTE
  6
CONTINUOUS
 62
     4
 10
101.0
 20
-455.0
 30
0.0
 11
497.65217899999988
 21
-939.05659900000001
 31
0.0
  0
LINE
  5
7A
  8
NOTE
  6
CONTINUOUS
 62
     4
 10
171.0
 20
-466.0
 30
0.0
 11
530.94006899999999
 21
-823.54875800000002
 31
0.0
  0
LINE
  5
7B
  8
DETAIL
  6
CONTINUOUS
 62
     5
 10
30.0
 20
-488.0
 30
0.0
 11
30.0
 21
-388.0
 31
0.0
  0
LINE
  5
7D
  8
NOTE
  6
CONTINUOUS
 62
     4
 10
267.0
 20
-412.0
 30
0.0
 11
307.0
 21
-412.0
 31
0.0
  0
LINE
  5
7E
  8
NOTE
  6
CONTINUOUS
 62
     4
 10
287.0
 20
-432.0
 30
0.0
 11
287.0
 21
-392.0
 31
0.0
  0
LINE
  5
84
  8
DETAIL
  6
CONTINUOUS
 62
     5
 10
282.0
 20
-437.0
 30
0.0
 11
262.0
 21
-437.0
 31
0.0
  0
CIRCLE
  5
85
  8
FIX
  6
CONTINUOUS
 62
    11
 10
287.0
 20
-412.0
 30
0.0
 40
5.0
  0
LINE
  5
86
  8
DETAIL
  6
CONTINUOUS
 62
     5
 10
282.91773799999999
 20
-404.0
 30
0.0
 11
291.0
 21
-404.0
 31
0.0
  0
ARC
  5
87
  8
DETAIL
  6
CONTINUOUS
 62
     5
 10
283.0
 20
-412.0
 30
0.0
 40
8.0
 50
90.589170999999993
 51
262.81924400000003
  0
LINE
  5
88
  8
DETAIL
  6
CONTINUOUS
 62
     5
 10
282.0
 20
-437.0
 30
0.0
 11
282.0
 21
-419.93725399999988
 31
0.0
  0
LINE
  5
89
  8
DETAIL
  6
CONTINUOUS
 62
     5
 10
292.0
 20
-437.0
 30
0.0
 11
292.0
 21
-419.93725399999988
 31
0.0
  0
ARC
  5
8A
  8
DETAIL
  6
CONTINUOUS
 62
     5
 10
291.0
 20
-412.0
 30
0.0
 40
8.0
 50
277.18075599999997
 51
90.490927999999997
  0
LINE
  5
8B
  8
DETAIL
  6
CONTINUOUS
 62
     5
 10
312.0
 20
-437.0
 30
0.0
 11
292.0
 21
-437.0
 31
0.0
  0
LINE
  5
8C
  8
DETAIL
  6
CONTINUOUS
 62
     5
 10
312.0
 20
-388.0
 30
0.0
 11
312.0
 21
-437.0
 31
0.0
  0
LINE
  5
8D
  8
DETAIL
  6
CONTINUOUS
 62
     5
 10
262.0
 20
-388.0
 30
0.0
 11
262.0
 21
-437.0
 31
0.0
  0
LINE
  5
8E
  8
NOTE
  6
CONTINUOUS
 62
     4
 10
442.20453499999991
 20
674.01318200000003
 30
0.0
 11
566.32041200000003
 21
674.01318200000003
 31
0.0
  0
CIRCLE
  5
8F
  8
ARRANGE
  6
CONTINUOUS
 62
     1
 10
0.0
 20
0.0
 30
0.0
 40
40.0
  0
POINT
  5
90
  8
ARRANGE
  6
CONTINUOUS
 62
     1
 10
0.0
 20
0.0
 30
0.0
  0
LINE
  5
91
  8
NOTE
  6
CONTINUOUS
 62
     4
 10
287.0
 20
412.0
 30
0.0
 11
442.20453499999991
 21
674.01318200000003
 31
0.0
  0
LINE
  5
92
  8
NOTE
  6
CONTINUOUS
 62
     4
 10
267.0
 20
412.0
 30
0.0
 11
307.0
 21
412.0
 31
0.0
  0
LINE
  5
93
  8
NOTE
  6
CONTINUOUS
 62
     4
 10
287.0
 20
392.0
 30
0.0
 11
287.0
 21
432.0
 31
0.0
  0
POLYLINE
  5
94
  8
NOTE
  6
CONTINUOUS
 62
     4
 66
     1
 10
0.0
 20
0.0
 30
0.0
  0
VERTEX
  5
3BF
  8
NOTE
  6
CONTINUOUS
 62
     4
 10
297.88487199999997
 20
450.49051300000002
 30
0.0
  0
VERTEX
  5
3C0
  8
NOTE
  6
CONTINUOUS
 62
     4
 10
287.0
 20
412.0
 30
0.0
  0
VERTEX
  5
3C1
  8
NOTE
  6
CONTINUOUS
 62
     4
 10
315.67183199999999
 20
439.89132499999988
 30
0.0
  0
SEQEND
  5
3C2
  8
NOTE
  6
CONTINUOUS
 62
     4
  0
LINE
  5
99
  8
DETAIL
  6
CONTINUOUS
 62
     5
 10
282.0
 20
437.0
 30
0.0
 11
262.0
 21
437.0
 31
0.0
  0
ARC
  5
9A
  8
DETAIL
  6
CONTINUOUS
 62
     5
 10
283.0
 20
412.0
 30
0.0
 40
8.0
 50
97.180756000000002
 51
270.490928
  0
LINE
  5
9B
  8
DETAIL
  6
CONTINUOUS
 62
     5
 10
282.0
 20
437.0
 30
0.0
 11
282.0
 21
419.93725399999988
 31
0.0
  0
LINE
  5
9C
  8
DETAIL
  6
CONTINUOUS
 62
     5
 10
292.0
 20
437.0
 30
0.0
 11
292.0
 21
419.93725399999988
 31
0.0
  0
ARC
  5
9D
  8
DETAIL
  6
CONTINUOUS
 62
     5
 10
291.0
 20
412.0
 30
0.0
 40
8.0
 50
270.58917100000002
 51
82.819243999999983
  0
LINE
  5
9E
  8
DETAIL
  6
CONTINUOUS
 62
     5
 10
291.08226200000001
 20
404.0
 30
0.0
 11
283.0
 21
404.0
 31
0.0
  0
CIRCLE
  5
9F
  8
FIX
  6
CONTINUOUS
 62
    11
 10
287.0
 20
412.0
 30
0.0
 40
5.0
  0
LINE
  5
A0
  8
DETAIL
  6
CONTINUOUS
 62
     5
 10
312.0
 20
437.0
 30
0.0
 11
292.0
 21
437.0
 31
0.0
  0
LINE
  5
A1
  8
DETAIL
  6
CONTINUOUS
 62
     5
 10
262.0
 20
388.0
 30
0.0
 11
262.0
 21
437.0
 31
0.0
  0
LINE
  5
A2
  8
DETAIL
  6
CONTINUOUS
 62
     5
 10
312.0
 20
388.0
 30
0.0
 11
312.0
 21
437.0
 31
0.0
  0
TEXT
  5
A4
  8
ETC
  6
CONTINUOUS
 62
    61
 10
629.72119499999985
 20
1095.0481309884599
 30
0.0
 40
64.0
  1
MPL-RP40_56LA_1
 41
0.9
  0
LINE
  5
A5
  8
DETAIL
  6
CONTINUOUS
 62
     5
 10
317.0
 20
-500.0
 30
0.0
 11
-317.0
 21
-500.0
 31
0.0
  0
LINE
  5
A6
  8
DETAIL
  6
CONTINUOUS
 62
     5
 10
317.0
 20
500.0
 30
0.0
 11
-317.0
 21
500.0
 31
0.0
  0
ARC
  5
A7
  8
DETAIL
  6
CONTINUOUS
 62
     5
 10
-335.0
 20
520.0
 30
0.0
 40
20.0
 50
90.0
 51
180.0
  0
ARC
  5
A8
  8
DETAIL
  6
CONTINUOUS
 62
     5
 10
-335.0
 20
-520.0
 30
0.0
 40
20.0
 50
180.0
 51
270.0
  0
ARC
  5
A9
  8
DETAIL
  6
CONTINUOUS
 62
     5
 10
335.0
 20
-520.0
 30
0.0
 40
20.0
 50
270.0
 51
0.0
  0
ARC
  5
AA
  8
DETAIL
  6
CONTINUOUS
 62
     5
 10
335.0
 20
520.0
 30
0.0
 40
20.0
 50
0.0
 51
90.0
  0
TEXT
  5
AB
  8
NOTE
  6
CONTINUOUS
 62
     4
 10
-677.89830999999992
 20
-775.97474599999987
 30
0.0
 40
64.0
  1
D φ32
 41
0.9
  0
LINE
  5
AC
  8
NOTE
  6
CONTINUOUS
 62
     4
 10
-425.37980099999987
 20
-796.39861100000007
 30
0.0
 11
-706.123243
 21
-796.39861100000007
 31
0.0
  0
LINE
  5
AD
  8
OUTLINE
  6
CONTINUOUS
 62
     3
 10
335.0
 20
-540.0
 30
0.0
 11
-335.0
 21
-540.0
 31
0.0
  0
LINE
  5
AE
  8
OUTLINE
  6
CONTINUOUS
 62
     3
 10
335.0
 20
540.0
 30
0.0
 11
-335.0
 21
540.0
 31
0.0
  0
LINE
  5
AF
  8
OUTLINE
  6
CONTINUOUS
 62
     3
 10
-355.0
 20
-520.0
 30
0.0
 11
-355.0
 21
520.0
 31
0.0
  0
LINE
  5
B0
  8
OUTLINE
  6
CONTINUOUS
 62
     3
 10
355.0
 20
-520.0
 30
0.0
 11
355.0
 21
520.0
 31
0.0
  0
ARC
  5
B1
  8
OUTLINE
  6
CONTINUOUS
 62
     3
 10
-335.0
 20
520.0
 30
0.0
 40
20.0
 50
90.0
 51
180.0
  0
ARC
  5
B2
  8
OUTLINE
  6
CONTINUOUS
 62
     3
 10
-335.0
 20
-520.0
 30
0.0
 40
20.0
 50
180.0
 51
270.0
  0
ARC
  5
B3
  8
OUTLINE
  6
CONTINUOUS
 62
     3
 10
335.0
 20
-520.0
 30
0.0
 40
20.0
 50
270.0
 51
0.0
  0
ARC
  5
B4
  8
OUTLINE
  6
CONTINUOUS
 62
     3
 10
335.0
 20
520.0
 30
0.0
 40
20.0
 50
0.0
 51
90.0
  0
LINE
  5
B5
  8
NOTE
  6
CONTINUOUS
 62
     4
 10
177.34999999999999
 20
-466.0
 30
0.0
 11
164.65000000000001
 21
-466.0
 31
0.0
  0
LINE
  5
B6
  8
NOTE
  6
CONTINUOUS
 62
     4
 10
104.175
 20
-455.0
 30
0.0
 11
97.825000000000003
 21
-455.0
 31
0.0
  0
POLYLINE
  5
B7
  8
NOTE
  6
CONTINUOUS
 62
     4
 66
     1
 10
0.0
 20
0.0
 30
0.0
  0
VERTEX
  5
3C3
  8
NOTE
  6
CONTINUOUS
 62
     4
 10
135.040885
 20
-476.00519299999991
 30
0.0
  0
VERTEX
  5
3C4
  8
NOTE
  6
CONTINUOUS
 62
     4
 10
101.0
 20
-455.0
 30
0.0
  0
VERTEX
  5
3C5
  8
NOTE
  6
CONTINUOUS
 62
     4
 10
119.977675
 20
-490.21147300000001
 30
0.0
  0
SEQEND
  5
3C6
  8
NOTE
  6
CONTINUOUS
 62
     4
  0
POLYLINE
  5
BC
  8
NOTE
  6
CONTINUOUS
 62
     4
 66
     1
 10
0.0
 20
0.0
 30
0.0
  0
VERTEX
  5
3C7
  8
NOTE
  6
CONTINUOUS
 62
     4
 10
203.19329300000001
 20
-489.74009000000001
 30
0.0
  0
VERTEX
  5
3C8
  8
NOTE
  6
CONTINUOUS
 62
     4
 10
171.0
 20
-466.0
 30
0.0
  0
VERTEX
  5
3C9
  8
NOTE
  6
CONTINUOUS
 62
     4
 10
187.010164
 20
-502.65616799999992
 30
0.0
  0
SEQEND
  5
3CA
  8
NOTE
  6
CONTINUOUS
 62
     4
  0
LINE
  5
C1
  8
DETAIL
  6
CONTINUOUS
 62
     5
 10
177.34999999999999
 20
-466.0
 30
0.0
 11
164.65000000000001
 21
-466.0
 31
0.0
  0
LINE
  5
C2
  8
NOTE
  6
CONTINUOUS
 62
     4
 10
171.0
 20
-486.0
 30
0.0
 11
171.0
 21
-446.0
 31
0.0
  0
LINE
  5
C3
  8
DETAIL
  6
CONTINUOUS
 62
     5
 10
164.65000000000001
 20
-466.0
 30
0.0
 11
164.65000000000001
 21
-388.0
 31
0.0
  0
LINE
  5
C4
  8
DETAIL
  6
CONTINUOUS
 62
     5
 10
174.17500000000001
 20
-466.0
 30
0.0
 11
167.82499999999999
 21
-466.0
 31
0.0
  0
LINE
  5
C5
  8
NOTE
  6
CONTINUOUS
 62
     4
 10
101.0
 20
-475.0
 30
0.0
 11
101.0
 21
-435.0
 31
0.0
  0
LINE
  5
C6
  8
DETAIL
  6
CONTINUOUS
 62
     5
 10
177.34999999999999
 20
-466.0
 30
0.0
 11
177.34999999999999
 21
-388.0
 31
0.0
  0
LINE
  5
C7
  8
DETAIL
  6
CONTINUOUS
 62
     5
 10
104.175
 20
-455.0
 30
0.0
 11
97.825000000000003
 21
-455.0
 31
0.0
  0
LINE
  5
C8
  8
DETAIL
  6
CONTINUOUS
 62
     5
 10
97.825000000000003
 20
-455.0
 30
0.0
 11
97.825000000000003
 21
-388.0
 31
0.0
  0
LINE
  5
C9
  8
DETAIL
  6
CONTINUOUS
 62
     5
 10
104.175
 20
-455.0
 30
0.0
 11
104.175
 21
-388.0
 31
0.0
  0
LINE
  5
CA
  8
SIZE
  6
CONTINUOUS
 62
    30
 10
-355.0
 20
-540.0
 30
0.0
 11
-355.0
 21
-1297.3349909999999
 31
0.0
  0
LINE
  5
CB
  8
SIZE
  6
CONTINUOUS
 62
    30
 10
355.0
 20
-540.0
 30
0.0
 11
355.0
 21
-1297.3349909999999
 31
0.0
  0
LINE
  5
CC
  8
SIZE
  6
CONTINUOUS
 62
    30
 10
-345.0
 20
-1267.3349909999999
 30
0.0
 11
345.0
 21
-1267.3349909999999
 31
0.0
  0
CIRCLE
  5
CD
  8
SIZE
  6
CONTINUOUS
 62
    30
 10
-355.0
 20
-1267.3349909999999
 30
0.0
 40
5.0
  0
LINE
  5
CE
  8
SIZE
  6
CONTINUOUS
 62
    30
 10
-350.0
 20
-1267.3349909999999
 30
0.0
 11
-345.0
 21
-1267.3349909999999
 31
0.0
  0
CIRCLE
  5
CF
  8
SIZE
  6
CONTINUOUS
 62
    30
 10
355.0
 20
-1267.3349909999999
 30
0.0
 40
5.0
  0
LINE
  5
D0
  8
SIZE
  6
CONTINUOUS
 62
    30
 10
350.0
 20
-1267.3349909999999
 30
0.0
 11
345.0
 21
-1267.3349909999999
 31
0.0
  0
TEXT
  5
D1
  8
SIZE
  6
CONTINUOUS
 62
    30
 10
-68.571428571428569
 20
-1247.3349909999999
 30
0.0
 40
64.0
  1
710
 41
0.9
 72
     1
 11
0.0
 21
-1247.3349909999999
 31
0.0
  0
LINE
  5
D2
  8
SIZE
  6
CONTINUOUS
 62
    30
 10
355.0
 20
540.0
 30
0.0
 11
699.58380599999987
 21
540.0
 31
0.0
  0
LINE
  5
D3
  8
SIZE
  6
CONTINUOUS
 62
    30
 10
355.0
 20
-540.0
 30
0.0
 11
699.58380599999987
 21
-540.0
 31
0.0
  0
LINE
  5
D4
  8
SIZE
  6
CONTINUOUS
 62
    30
 10
669.58380599999987
 20
530.0
 30
0.0
 11
669.58380599999987
 21
-530.0
 31
0.0
  0
CIRCLE
  5
D5
  8
SIZE
  6
CONTINUOUS
 62
    30
 10
669.58380599999987
 20
540.0
 30
0.0
 40
5.0
  0
LINE
  5
D6
  8
SIZE
  6
CONTINUOUS
 62
    30
 10
669.58380599999987
 20
535.0
 30
0.0
 11
669.58380599999987
 21
530.0
 31
0.0
  0
CIRCLE
  5
D7
  8
SIZE
  6
CONTINUOUS
 62
    30
 10
669.58380599999987
 20
-540.0
 30
0.0
 40
5.0
  0
LINE
  5
D8
  8
SIZE
  6
CONTINUOUS
 62
    30
 10
669.58380599999987
 20
-535.0
 30
0.0
 11
669.58380599999987
 21
-530.0
 31
0.0
  0
TEXT
  5
D9
  8
SIZE
  6
CONTINUOUS
 62
    30
 10
649.58380599999987
 20
-96.000000000000014
 30
0.0
 40
64.0
  1
1080
 50
90.0
 41
0.9
 72
     1
 11
649.58380599999987
 21
0.0
 31
0.0
  0
LINE
  5
DA
  8
SIZE
  6
CONTINUOUS
 62
    30
 10
335.0
 20
560.0
 30
0.0
 11
335.0
 21
1025.583255
 31
0.0
  0
LINE
  5
DB
  8
SIZE
  6
CONTINUOUS
 62
    30
 10
355.0
 20
540.0
 30
0.0
 11
355.0
 21
1025.583255
 31
0.0
  0
LINE
  5
DC
  8
SIZE
  6
CONTINUOUS
 62
    30
 10
325.0
 20
995.58325500000024
 30
0.0
 11
315.0
 21
995.58325500000024
 31
0.0
  0
LINE
  5
DD
  8
SIZE
  6
CONTINUOUS
 62
    30
 10
365.0
 20
995.58325500000024
 30
0.0
 11
375.0
 21
995.58325500000024
 31
0.0
  0
LINE
  5
DE
  8
SIZE
  6
CONTINUOUS
 62
    30
 10
335.0
 20
995.58325500000024
 30
0.0
 11
355.0
 21
995.58325500000024
 31
0.0
  0
CIRCLE
  5
DF
  8
SIZE
  6
CONTINUOUS
 62
    30
 10
335.0
 20
995.58325500000024
 30
0.0
 40
5.0
  0
LINE
  5
E0
  8
SIZE
  6
CONTINUOUS
 62
    30
 10
330.0
 20
995.58325500000024
 30
0.0
 11
325.0
 21
995.58325500000024
 31
0.0
  0
CIRCLE
  5
E1
  8
SIZE
  6
CONTINUOUS
 62
    30
 10
355.0
 20
995.58325500000024
 30
0.0
 40
5.0
  0
LINE
  5
E2
  8
SIZE
  6
CONTINUOUS
 62
    30
 10
360.0
 20
995.58325500000024
 30
0.0
 11
365.0
 21
995.58325500000024
 31
0.0
  0
TEXT
  5
E3
  8
SIZE
  6
CONTINUOUS
 62
    30
 10
298.37142857142851
 20
1015.583255
 30
0.0
 40
64.0
  1
20
 41
0.9
 72
     1
 11
345.0
 21
1015.583255
 31
0.0
  0
LINE
  5
E4
  8
SIZE
  6
CONTINUOUS
 62
    30
 10
-355.0
 20
540.0
 30
0.0
 11
-355.0
 21
1025.583255
 31
0.0
  0
LINE
  5
E5
  8
SIZE
  6
CONTINUOUS
 62
    30
 10
-335.0
 20
560.0
 30
0.0
 11
-335.0
 21
1025.583255
 31
0.0
  0
LINE
  5
E6
  8
SIZE
  6
CONTINUOUS
 62
    30
 10
-365.0
 20
995.58325500000024
 30
0.0
 11
-375.0
 21
995.58325500000024
 31
0.0
  0
LINE
  5
E7
  8
SIZE
  6
CONTINUOUS
 62
    30
 10
-325.0
 20
995.58325500000024
 30
0.0
 11
-315.0
 21
995.58325500000024
 31
0.0
  0
LINE
  5
E8
  8
SIZE
  6
CONTINUOUS
 62
    30
 10
-355.0
 20
995.58325500000024
 30
0.0
 11
-335.0
 21
995.58325500000024
 31
0.0
  0
CIRCLE
  5
E9
  8
SIZE
  6
CONTINUOUS
 62
    30
 10
-355.0
 20
995.58325500000024
 30
0.0
 40
5.0
  0
LINE
  5
EA
  8
SIZE
  6
CONTINUOUS
 62
    30
 10
-360.0
 20
995.58325500000024
 30
0.0
 11
-365.0
 21
995.58325500000024
 31
0.0
  0
CIRCLE
  5
EB
  8
SIZE
  6
CONTINUOUS
 62
    30
 10
-335.0
 20
995.58325500000024
 30
0.0
 40
5.0
  0
LINE
  5
EC
  8
SIZE
  6
CONTINUOUS
 62
    30
 10
-330.0
 20
995.58325500000024
 30
0.0
 11
-325.0
 21
995.58325500000024
 31
0.0
  0
TEXT
  5
ED
  8
SIZE
  6
CONTINUOUS
 62
    30
 10
-391.62857142857138
 20
1015.583255
 30
0.0
 40
64.0
  1
20
 41
0.9
 72
     1
 11
-345.0
 21
1015.583255
 31
0.0
  0
LINE
  5
EE
  8
SIZE
  6
CONTINUOUS
 62
    30
 10
-375.0
 20
-520.0
 30
0.0
 11
-648.05661299999986
 21
-520.0
 31
0.0
  0
LINE
  5
EF
  8
SIZE
  6
CONTINUOUS
 62
    30
 10
-327.0
 20
-412.0
 30
0.0
 11
-648.05661299999986
 21
-412.0
 31
0.0
  0
LINE
  5
F0
  8
SIZE
  6
CONTINUOUS
 62
    30
 10
-618.05661299999986
 20
-530.0
 30
0.0
 11
-618.05661299999986
 21
-540.0
 31
0.0
  0
LINE
  5
F1
  8
SIZE
  6
CONTINUOUS
 62
    30
 10
-618.05661299999986
 20
-402.0
 30
0.0
 11
-618.05661299999986
 21
-392.0
 31
0.0
  0
LINE
  5
F2
  8
SIZE
  6
CONTINUOUS
 62
    30
 10
-618.05661299999986
 20
-520.0
 30
0.0
 11
-618.05661299999986
 21
-412.0
 31
0.0
  0
CIRCLE
  5
F3
  8
SIZE
  6
CONTINUOUS
 62
    30
 10
-618.05661299999986
 20
-520.0
 30
0.0
 40
5.0
  0
LINE
  5
F4
  8
SIZE
  6
CONTINUOUS
 62
    30
 10
-618.05661299999986
 20
-525.0
 30
0.0
 11
-618.05661299999986
 21
-530.0
 31
0.0
  0
CIRCLE
  5
F5
  8
SIZE
  6
CONTINUOUS
 62
    30
 10
-618.05661299999986
 20
-412.0
 30
0.0
 40
5.0
  0
LINE
  5
F6
  8
SIZE
  6
CONTINUOUS
 62
    30
 10
-618.05661299999986
 20
-407.0
 30
0.0
 11
-618.05661299999986
 21
-402.0
 31
0.0
  0
TEXT
  5
F7
  8
SIZE
  6
CONTINUOUS
 62
    30
 10
-638.05661299999997
 20
-534.57142857142856
 30
0.0
 40
64.0
  1
108
 50
90.0
 41
0.9
 72
     1
 11
-638.05661299999997
 21
-466.0
 31
0.0
  0
LINE
  5
F8
  8
SIZE
  6
CONTINUOUS
 62
    30
 10
-375.0
 20
520.0
 30
0.0
 11
-647.57971999999995
 21
520.0
 31
0.0
  0
LINE
  5
F9
  8
SIZE
  6
CONTINUOUS
 62
    30
 10
-327.0
 20
412.0
 30
0.0
 11
-647.57971999999995
 21
412.0
 31
0.0
  0
LINE
  5
FA
  8
SIZE
  6
CONTINUOUS
 62
    30
 10
-617.57971999999995
 20
530.0
 30
0.0
 11
-617.57971999999995
 21
540.0
 31
0.0
  0
LINE
  5
FB
  8
SIZE
  6
CONTINUOUS
 62
    30
 10
-617.57971999999995
 20
402.0
 30
0.0
 11
-617.57971999999995
 21
392.0
 31
0.0
  0
LINE
  5
FC
  8
SIZE
  6
CONTINUOUS
 62
    30
 10
-617.57971999999995
 20
520.0
 30
0.0
 11
-617.57971999999995
 21
412.0
 31
0.0
  0
CIRCLE
  5
FD
  8
SIZE
  6
CONTINUOUS
 62
    30
 10
-617.57971999999995
 20
520.0
 30
0.0
 40
5.0
  0
LINE
  5
FE
  8
SIZE
  6
CONTINUOUS
 62
    30
 10
-617.57971999999995
 20
525.0
 30
0.0
 11
-617.57971999999995
 21
530.0
 31
0.0
  0
CIRCLE
  5
FF
  8
SIZE
  6
CONTINUOUS
 62
    30
 10
-617.57971999999995
 20
412.0
 30
0.0
 40
5.0
  0
LINE
  5
100
  8
SIZE
  6
CONTINUOUS
 62
    30
 10
-617.57971999999995
 20
407.0
 30
0.0
 11
-617.57971999999995
 21
402.0
 31
0.0
  0
TEXT
  5
101
  8
SIZE
  6
CONTINUOUS
 62
    30
 10
-637.57971999999995
 20
397.4285714285715
 30
0.0
 40
64.0
  1
108
 50
90.0
 41
0.9
 72
     1
 11
-637.57971999999995
 21
466.0
 31
0.0
  0
LINE
  5
102
  8
SIZE
  6
CONTINUOUS
 62
    30
 10
335.0
 20
560.0
 30
0.0
 11
335.0
 21
1025.583255
 31
0.0
  0
LINE
  5
103
  8
SIZE
  6
CONTINUOUS
 62
    30
 10
-335.0
 20
560.0
 30
0.0
 11
-335.0
 21
1025.583255
 31
0.0
  0
LINE
  5
104
  8
SIZE
  6
CONTINUOUS
 62
    30
 10
325.0
 20
995.58325500000024
 30
0.0
 11
-325.0
 21
995.58325500000024
 31
0.0
  0
CIRCLE
  5
105
  8
SIZE
  6
CONTINUOUS
 62
    30
 10
335.0
 20
995.58325500000024
 30
0.0
 40
5.0
  0
LINE
  5
106
  8
SIZE
  6
CONTINUOUS
 62
    30
 10
330.0
 20
995.58325500000024
 30
0.0
 11
325.0
 21
995.58325500000024
 31
0.0
  0
CIRCLE
  5
107
  8
SIZE
  6
CONTINUOUS
 62
    30
 10
-335.0
 20
995.58325500000024
 30
0.0
 40
5.0
  0
LINE
  5
108
  8
SIZE
  6
CONTINUOUS
 62
    30
 10
-330.0
 20
995.58325500000024
 30
0.0
 11
-325.0
 21
995.58325500000024
 31
0.0
  0
TEXT
  5
109
  8
SIZE
  6
CONTINUOUS
 62
    30
 10
-256.47493071428568
 20
1029.9880169999999
 30
0.0
 40
55.0
  1
670(天井開口寸法)
 41
0.9
 72
     1
 11
17.189354999999999
 21
1029.9880169999999
 31
0.0
  0
LINE
  5
10A
  8
SIZE
  6
CONTINUOUS
 62
    30
 10
-327.0
 20
412.0
 30
0.0
 11
-648.02815599999985
 21
412.0
 31
0.0
  0
LINE
  5
10B
  8
SIZE
  6
CONTINUOUS
 62
    30
 10
-327.0
 20
-412.0
 30
0.0
 11
-648.02815599999985
 21
-412.0
 31
0.0
  0
LINE
  5
10C
  8
SIZE
  6
CONTINUOUS
 62
    30
 10
-618.02815599999997
 20
402.0
 30
0.0
 11
-618.02815599999997
 21
-402.0
 31
0.0
  0
CIRCLE
  5
10D
  8
SIZE
  6
CONTINUOUS
 62
    30
 10
-618.02815599999997
 20
412.0
 30
0.0
 40
5.0
  0
LINE
  5
10E
  8
SIZE
  6
CONTINUOUS
 62
    30
 10
-618.02815599999997
 20
407.0
 30
0.0
 11
-618.02815599999997
 21
402.0
 31
0.0
  0
CIRCLE
  5
10F
  8
SIZE
  6
CONTINUOUS
 62
    30
 10
-618.02815599999997
 20
-412.0
 30
0.0
 40
5.0
  0
LINE
  5
110
  8
SIZE
  6
CONTINUOUS
 62
    30
 10
-618.02815599999997
 20
-407.0
 30
0.0
 11
-618.02815599999997
 21
-402.0
 31
0.0
  0
TEXT
  5
111
  8
SIZE
  6
CONTINUOUS
 62
    30
 10
-654.79006100000004
 20
-278.93750628571428
 30
0.0
 40
64.0
  1
824(吊りﾎﾞﾙﾄﾋﾟｯﾁ)
 50
90.0
 41
0.9
 72
     1
 11
-654.79006100000004
 21
22.228207999999999
 31
0.0
  0
LINE
  5
112
  8
SIZE
  6
CONTINUOUS
 62
    30
 10
-287.0
 20
452.0
 30
0.0
 11
-287.0
 21
874.38983000000007
 31
0.0
  0
LINE
  5
113
  8
SIZE
  6
CONTINUOUS
 62
    30
 10
-355.0
 20
540.0
 30
0.0
 11
-355.0
 21
874.38983000000007
 31
0.0
  0
LINE
  5
114
  8
SIZE
  6
CONTINUOUS
 62
    30
 10
-297.0
 20
844.38982999999996
 30
0.0
 11
-345.0
 21
844.38982999999996
 31
0.0
  0
LINE
  5
115
  8
SIZE
  6
CONTINUOUS
 62
    30
 10
-355.0
 20
844.38982999999996
 30
0.0
 11
-503.91750100000002
 21
844.38982999999996
 31
0.0
  0
CIRCLE
  5
116
  8
SIZE
  6
CONTINUOUS
 62
    30
 10
-287.0
 20
844.38982999999996
 30
0.0
 40
5.0
  0
LINE
  5
117
  8
SIZE
  6
CONTINUOUS
 62
    30
 10
-292.0
 20
844.38982999999996
 30
0.0
 11
-297.0
 21
844.38982999999996
 31
0.0
  0
CIRCLE
  5
118
  8
SIZE
  6
CONTINUOUS
 62
    30
 10
-355.0
 20
844.38982999999996
 30
0.0
 40
5.0
  0
LINE
  5
119
  8
SIZE
  6
CONTINUOUS
 62
    30
 10
-350.0
 20
844.38982999999996
 30
0.0
 11
-345.0
 21
844.38982999999996
 31
0.0
  0
TEXT
  5
11A
  8
SIZE
  6
CONTINUOUS
 62
    30
 10
-483.91750142857131
 20
864.38983000000007
 30
0.0
 40
64.0
  1
68
 41
0.9
 72
     1
 11
-437.28892999999988
 21
864.38983000000007
 31
0.0
  0
LINE
  5
11B
  8
SIZE
  6
CONTINUOUS
 62
    30
 10
287.0
 20
452.0
 30
0.0
 11
287.0
 21
874.69554299999993
 31
0.0
  0
LINE
  5
11C
  8
SIZE
  6
CONTINUOUS
 62
    30
 10
355.0
 20
540.0
 30
0.0
 11
355.0
 21
874.69554299999993
 31
0.0
  0
LINE
  5
11D
  8
SIZE
  6
CONTINUOUS
 62
    30
 10
297.0
 20
844.69554299999993
 30
0.0
 11
345.0
 21
844.69554299999993
 31
0.0
  0
LINE
  5
11E
  8
SIZE
  6
CONTINUOUS
 62
    30
 10
355.0
 20
844.69554299999993
 30
0.0
 11
538.82383200000004
 21
844.69554299999993
 31
0.0
  0
CIRCLE
  5
11F
  8
SIZE
  6
CONTINUOUS
 62
    30
 10
287.0
 20
844.69554299999993
 30
0.0
 40
5.0
  0
LINE
  5
120
  8
SIZE
  6
CONTINUOUS
 62
    30
 10
292.0
 20
844.69554299999993
 30
0.0
 11
297.0
 21
844.69554299999993
 31
0.0
  0
CIRCLE
  5
121
  8
SIZE
  6
CONTINUOUS
 62
    30
 10
355.0
 20
844.69554299999993
 30
0.0
 40
5.0
  0
LINE
  5
122
  8
SIZE
  6
CONTINUOUS
 62
    30
 10
350.0
 20
844.69554299999993
 30
0.0
 11
345.0
 21
844.69554299999993
 31
0.0
  0
TEXT
  5
123
  8
SIZE
  6
CONTINUOUS
 62
    30
 10
425.56668957142853
 20
864.69554300000004
 30
0.0
 40
64.0
  1
68
 41
0.9
 72
     1
 11
472.19526100000002
 21
864.69554300000004
 31
0.0
  0
LINE
  5
124
  8
SIZE
  6
CONTINUOUS
 62
    30
 10
287.0
 20
452.0
 30
0.0
 11
287.0
 21
874.69554299999993
 31
0.0
  0
LINE
  5
125
  8
SIZE
  6
CONTINUOUS
 62
    30
 10
-287.0
 20
452.0
 30
0.0
 11
-287.0
 21
874.69554299999993
 31
0.0
  0
LINE
  5
126
  8
SIZE
  6
CONTINUOUS
 62
    30
 10
277.0
 20
844.69554299999993
 30
0.0
 11
-277.0
 21
844.69554299999993
 31
0.0
  0
CIRCLE
  5
127
  8
SIZE
  6
CONTINUOUS
 62
    30
 10
287.0
 20
844.69554299999993
 30
0.0
 40
5.0
  0
LINE
  5
128
  8
SIZE
  6
CONTINUOUS
 62
    30
 10
282.0
 20
844.69554299999993
 30
0.0
 11
277.0
 21
844.69554299999993
 31
0.0
  0
CIRCLE
  5
129
  8
SIZE
  6
CONTINUOUS
 62
    30
 10
-287.0
 20
844.69554299999993
 30
0.0
 40
5.0
  0
LINE
  5
12A
  8
SIZE
  6
CONTINUOUS
 62
    30
 10
-282.0
 20
844.69554299999993
 30
0.0
 11
-277.0
 21
844.69554299999993
 31
0.0
  0
TEXT
  5
12B
  8
SIZE
  6
CONTINUOUS
 62
    30
 10
-258.8142857142858
 20
879.10030500000005
 30
0.0
 40
55.0
  1
574(吊りﾎﾞﾙﾄﾋﾟｯﾁ)
 41
0.9
 72
     1
 11
0.0
 21
879.10030500000005
 31
0.0
  0
LINE
  5
12C
  8
SIZE
  6
CONTINUOUS
 62
    30
 10
-375.0
 20
520.0
 30
0.0
 11
-831.63964899999996
 21
520.0
 31
0.0
  0
LINE
  5
12D
  8
SIZE
  6
CONTINUOUS
 62
    30
 10
-375.0
 20
-520.0
 30
0.0
 11
-831.63964899999996
 21
-520.0
 31
0.0
  0
LINE
  5
12E
  8
SIZE
  6
CONTINUOUS
 62
    30
 10
-801.63964900000008
 20
510.0
 30
0.0
 11
-801.63964900000008
 21
-510.0
 31
0.0
  0
CIRCLE
  5
12F
  8
SIZE
  6
CONTINUOUS
 62
    30
 10
-801.63964900000008
 20
520.0
 30
0.0
 40
5.0
  0
LINE
  5
130
  8
SIZE
  6
CONTINUOUS
 62
    30
 10
-801.63964900000008
 20
515.0
 30
0.0
 11
-801.63964900000008
 21
510.0
 31
0.0
  0
CIRCLE
  5
131
  8
SIZE
  6
CONTINUOUS
 62
    30
 10
-801.63964900000008
 20
-520.0
 30
0.0
 40
5.0
  0
LINE
  5
132
  8
SIZE
  6
CONTINUOUS
 62
    30
 10
-801.63964900000008
 20
-515.0
 30
0.0
 11
-801.63964900000008
 21
-510.0
 31
0.0
  0
TEXT
  5
133
  8
SIZE
  6
CONTINUOUS
 62
    30
 10
-838.40155300000004
 20
-340.38857142857131
 30
0.0
 40
64.0
  1
1040(天井開口寸法)
 50
90.0
 41
0.9
 72
     1
 11
-838.40155300000004
 21
0.0
 31
0.0
  0
LINE
  5
134
  8
SIZE
  6
CONTINUOUS
 62
    30
 10
-375.0
 20
-520.0
 30
0.0
 11
-831.63964899999996
 21
-520.0
 31
0.0
  0
LINE
  5
135
  8
SIZE
  6
CONTINUOUS
 62
    30
 10
-355.0
 20
-540.0
 30
0.0
 11
-831.63964899999996
 21
-540.0
 31
0.0
  0
LINE
  5
136
  8
SIZE
  6
CONTINUOUS
 62
    30
 10
-801.63964900000008
 20
-510.0
 30
0.0
 11
-801.63964900000008
 21
-500.0
 31
0.0
  0
LINE
  5
137
  8
SIZE
  6
CONTINUOUS
 62
    30
 10
-801.63964900000008
 20
-550.0
 30
0.0
 11
-801.63964900000008
 21
-560.0
 31
0.0
  0
LINE
  5
138
  8
SIZE
  6
CONTINUOUS
 62
    30
 10
-801.63964900000008
 20
-520.0
 30
0.0
 11
-801.63964900000008
 21
-540.0
 31
0.0
  0
CIRCLE
  5
139
  8
SIZE
  6
CONTINUOUS
 62
    30
 10
-801.63964900000008
 20
-520.0
 30
0.0
 40
5.0
  0
LINE
  5
13A
  8
SIZE
  6
CONTINUOUS
 62
    30
 10
-801.63964900000008
 20
-515.0
 30
0.0
 11
-801.63964900000008
 21
-510.0
 31
0.0
  0
CIRCLE
  5
13B
  8
SIZE
  6
CONTINUOUS
 62
    30
 10
-801.63964900000008
 20
-540.0
 30
0.0
 40
5.0
  0
LINE
  5
13C
  8
SIZE
  6
CONTINUOUS
 62
    30
 10
-801.63964900000008
 20
-545.0
 30
0.0
 11
-801.63964900000008
 21
-550.0
 31
0.0
  0
TEXT
  5
13D
  8
SIZE
  6
CONTINUOUS
 62
    30
 10
-821.63964900000008
 20
-576.62857142857138
 30
0.0
 40
64.0
  1
20
 50
90.0
 41
0.9
 72
     1
 11
-821.63964900000008
 21
-530.0
 31
0.0
  0
LINE
  5
13E
  8
SIZE
  6
CONTINUOUS
 62
    30
 10
-355.0
 20
540.0
 30
0.0
 11
-831.63964899999996
 21
540.0
 31
0.0
  0
LINE
  5
13F
  8
SIZE
  6
CONTINUOUS
 62
    30
 10
-375.0
 20
520.0
 30
0.0
 11
-831.63964899999996
 21
520.0
 31
0.0
  0
LINE
  5
140
  8
SIZE
  6
CONTINUOUS
 62
    30
 10
-801.63964900000008
 20
550.0
 30
0.0
 11
-801.63964900000008
 21
560.0
 31
0.0
  0
LINE
  5
141
  8
SIZE
  6
CONTINUOUS
 62
    30
 10
-801.63964900000008
 20
510.0
 30
0.0
 11
-801.63964900000008
 21
500.0
 31
0.0
  0
LINE
  5
142
  8
SIZE
  6
CONTINUOUS
 62
    30
 10
-801.63964900000008
 20
540.0
 30
0.0
 11
-801.63964900000008
 21
520.0
 31
0.0
  0
CIRCLE
  5
143
  8
SIZE
  6
CONTINUOUS
 62
    30
 10
-801.63964900000008
 20
540.0
 30
0.0
 40
5.0
  0
LINE
  5
144
  8
SIZE
  6
CONTINUOUS
 62
    30
 10
-801.63964900000008
 20
545.0
 30
0.0
 11
-801.63964900000008
 21
550.0
 31
0.0
  0
CIRCLE
  5
145
  8
SIZE
  6
CONTINUOUS
 62
    30
 10
-801.63964900000008
 20
520.0
 30
0.0
 40
5.0
  0
LINE
  5
146
  8
SIZE
  6
CONTINUOUS
 62
    30
 10
-801.63964900000008
 20
515.0
 30
0.0
 11
-801.63964900000008
 21
510.0
 31
0.0
  0
TEXT
  5
147
  8
SIZE
  6
CONTINUOUS
 62
    30
 10
-821.63964900000008
 20
483.37142857142851
 30
0.0
 40
64.0
  1
20
 50
90.0
 41
0.9
 72
     1
 11
-821.63964900000008
 21
530.0
 31
0.0
  0
LINE
  5
148
  8
SIZE
  6
CONTINUOUS
 62
    30
 10
171.0
 20
-488.0
 30
0.0
 11
171.0
 21
-870.21929
 31
0.0
  0
LINE
  5
149
  8
SIZE
  6
CONTINUOUS
 62
    30
 10
101.0
 20
-483.0
 30
0.0
 11
101.0
 21
-870.21929
 31
0.0
  0
LINE
  5
14A
  8
SIZE
  6
CONTINUOUS
 62
    30
 10
181.0
 20
-840.21928999999989
 30
0.0
 11
191.0
 21
-840.21928999999989
 31
0.0
  0
LINE
  5
14B
  8
SIZE
  6
CONTINUOUS
 62
    30
 10
91.0
 20
-840.21928999999989
 30
0.0
 11
81.0
 21
-840.21928999999989
 31
0.0
  0
LINE
  5
14C
  8
SIZE
  6
CONTINUOUS
 62
    30
 10
171.0
 20
-840.21928999999989
 30
0.0
 11
101.0
 21
-840.21928999999989
 31
0.0
  0
CIRCLE
  5
14D
  8
SIZE
  6
CONTINUOUS
 62
    30
 10
171.0
 20
-840.21928999999989
 30
0.0
 40
5.0
  0
LINE
  5
14E
  8
SIZE
  6
CONTINUOUS
 62
    30
 10
176.0
 20
-840.21928999999989
 30
0.0
 11
181.0
 21
-840.21928999999989
 31
0.0
  0
CIRCLE
  5
14F
  8
SIZE
  6
CONTINUOUS
 62
    30
 10
101.0
 20
-840.21928999999989
 30
0.0
 40
5.0
  0
LINE
  5
150
  8
SIZE
  6
CONTINUOUS
 62
    30
 10
96.0
 20
-840.21928999999989
 30
0.0
 11
91.0
 21
-840.21928999999989
 31
0.0
  0
TEXT
  5
151
  8
SIZE
  6
CONTINUOUS
 62
    30
 10
89.371428571428567
 20
-820.21929
 30
0.0
 40
64.0
  1
70
 41
0.9
 72
     1
 11
136.0
 21
-820.21929
 31
0.0
  0
LINE
  5
152
  8
SIZE
  6
CONTINUOUS
 62
    30
 10
317.0
 20
-520.0
 30
0.0
 11
317.0
 21
-872.01388599999996
 31
0.0
  0
LINE
  5
153
  8
SIZE
  6
CONTINUOUS
 62
    30
 10
171.0
 20
-488.0
 30
0.0
 11
171.0
 21
-872.01388599999996
 31
0.0
  0
LINE
  5
154
  8
SIZE
  6
CONTINUOUS
 62
    30
 10
327.0
 20
-842.01388599999996
 30
0.0
 11
337.0
 21
-842.01388599999996
 31
0.0
  0
LINE
  5
155
  8
SIZE
  6
CONTINUOUS
 62
    30
 10
161.0
 20
-842.01388599999996
 30
0.0
 11
151.0
 21
-842.01388599999996
 31
0.0
  0
LINE
  5
156
  8
SIZE
  6
CONTINUOUS
 62
    30
 10
317.0
 20
-842.01388599999996
 30
0.0
 11
171.0
 21
-842.01388599999996
 31
0.0
  0
CIRCLE
  5
157
  8
SIZE
  6
CONTINUOUS
 62
    30
 10
317.0
 20
-842.01388599999996
 30
0.0
 40
5.0
  0
LINE
  5
158
  8
SIZE
  6
CONTINUOUS
 62
    30
 10
322.0
 20
-842.01388599999996
 30
0.0
 11
327.0
 21
-842.01388599999996
 31
0.0
  0
CIRCLE
  5
159
  8
SIZE
  6
CONTINUOUS
 62
    30
 10
171.0
 20
-842.01388599999996
 30
0.0
 40
5.0
  0
LINE
  5
15A
  8
SIZE
  6
CONTINUOUS
 62
    30
 10
166.0
 20
-842.01388599999996
 30
0.0
 11
161.0
 21
-842.01388599999996
 31
0.0
  0
TEXT
  5
15B
  8
SIZE
  6
CONTINUOUS
 62
    30
 10
176.80000000000001
 20
-822.01388599999996
 30
0.0
 40
64.0
  1
146
 41
0.9
 72
     1
 11
244.0
 21
-822.01388599999996
 31
0.0
  0
LINE
  5
15C
  8
SIZE
  6
CONTINUOUS
 62
    30
 10
317.0
 20
-508.0
 30
0.0
 11
317.0
 21
-1009.945102
 31
0.0
  0
LINE
  5
15D
  8
SIZE
  6
CONTINUOUS
 62
    30
 10
-180.0
 20
-475.44269006521063
 30
0.0
 11
-180.0
 21
-1009.945102
 31
0.0
  0
LINE
  5
15E
  8
SIZE
  6
CONTINUOUS
 62
    30
 10
307.0
 20
-979.94510199999991
 30
0.0
 11
-170.0
 21
-979.94510199999991
 31
0.0
  0
CIRCLE
  5
15F
  8
SIZE
  6
CONTINUOUS
 62
    30
 10
317.0
 20
-979.94510199999991
 30
0.0
 40
5.0
  0
LINE
  5
160
  8
SIZE
  6
CONTINUOUS
 62
    30
 10
312.0
 20
-979.94510199999991
 30
0.0
 11
307.0
 21
-979.94510199999991
 31
0.0
  0
CIRCLE
  5
161
  8
SIZE
  6
CONTINUOUS
 62
    30
 10
-180.0
 20
-979.94510199999991
 30
0.0
 40
5.0
  0
LINE
  5
162
  8
SIZE
  6
CONTINUOUS
 62
    30
 10
-175.0
 20
-979.94510199999991
 30
0.0
 11
-170.0
 21
-979.94510199999991
 31
0.0
  0
TEXT
  5
163
  8
SIZE
  6
CONTINUOUS
 62
    30
 10
-5.5571428571428489
 20
-959.94510200000002
 30
0.0
 40
64.0
  1
497
 41
0.9
 72
     1
 11
68.5
 21
-959.94510200000002
 31
0.0
  0
LINE
  5
164
  8
SIZE
  6
CONTINUOUS
 62
    30
 10
-317.0
 20
-520.0
 30
0.0
 11
-317.0
 21
-1158.1315540000001
 31
0.0
  0
LINE
  5
165
  8
SIZE
  6
CONTINUOUS
 62
    30
 10
317.0
 20
-520.0
 30
0.0
 11
317.0
 21
-1158.1315540000001
 31
0.0
  0
LINE
  5
166
  8
SIZE
  6
CONTINUOUS
 62
    30
 10
-307.0
 20
-1128.1315540000001
 30
0.0
 11
307.0
 21
-1128.1315540000001
 31
0.0
  0
CIRCLE
  5
167
  8
SIZE
  6
CONTINUOUS
 62
    30
 10
-317.0
 20
-1128.1315540000001
 30
0.0
 40
5.0
  0
LINE
  5
168
  8
SIZE
  6
CONTINUOUS
 62
    30
 10
-312.0
 20
-1128.1315540000001
 30
0.0
 11
-307.0
 21
-1128.1315540000001
 31
0.0
  0
CIRCLE
  5
169
  8
SIZE
  6
CONTINUOUS
 62
    30
 10
317.0
 20
-1128.1315540000001
 30
0.0
 40
5.0
  0
LINE
  5
16A
  8
SIZE
  6
CONTINUOUS
 62
    30
 10
312.0
 20
-1128.1315540000001
 30
0.0
 11
307.0
 21
-1128.1315540000001
 31
0.0
  0
TEXT
  5
16B
  8
SIZE
  6
CONTINUOUS
 62
    30
 10
-75.428571428571416
 20
-1108.1315540000001
 30
0.0
 40
64.0
  1
634
 41
0.9
 72
     1
 11
0.0
 21
-1108.1315540000001
 31
0.0
  0
LINE
  5
369
  8
SIZE
  6
CONTINUOUS
 62
    30
 10
297.0
 20
-388.0
 30
0.0
 11
40.634723960320031
 21
-387.99999999999989
 31
0.0
  0
LINE
  5
36A
  8
SIZE
  6
CONTINUOUS
 62
    30
 10
84.174999999999997
 20
-455.0
 30
0.0
 11
40.634723960320031
 21
-455.0
 31
0.0
  0
LINE
  5
36B
  8
SIZE
  6
CONTINUOUS
 62
    30
 10
70.634723960320031
 20
-445.0
 30
0.0
 11
70.634723960320045
 21
-398.0
 31
0.0
  0
LINE
  5
36C
  8
SIZE
  6
CONTINUOUS
 62
    30
 10
70.634723960320045
 20
-387.99999999999989
 30
0.0
 11
70.634723960320073
 21
-247.12031431146349
 31
0.0
  0
LINE
  5
372
  8
SIZE
  6
CONTINUOUS
 62
    30
 10
337.0
 20
-388.0
 30
0.0
 11
510.21389140230542
 21
-388.00000000000011
 31
0.0
  0
LINE
  5
373
  8
SIZE
  6
CONTINUOUS
 62
    30
 10
197.34999999999999
 20
-466.0
 30
0.0
 11
510.21389140230542
 21
-466.00000000000011
 31
0.0
  0
LINE
  5
374
  8
SIZE
  6
CONTINUOUS
 62
    30
 10
480.21389140230531
 20
-456.0
 30
0.0
 11
480.21389140230531
 21
-398.00000000000011
 31
0.0
  0
LINE
  5
375
  8
SIZE
  6
CONTINUOUS
 62
    30
 10
480.21389140230531
 20
-388.00000000000011
 30
0.0
 11
480.21389140230542
 21
-277.89110515493502
 31
0.0
  0
LINE
  5
379
  8
SIZE
  6
CONTINUOUS
 62
    30
 10
-337.0
 20
-388.0
 30
0.0
 11
-467.06061194503468
 21
-387.99999999999989
 31
0.0
  0
LINE
  5
37A
  8
SIZE
  6
CONTINUOUS
 62
    30
 10
-216.0
 20
-448.0
 30
0.0
 11
-467.06061194503468
 21
-447.99999999999989
 31
0.0
  0
LINE
  5
37B
  8
SIZE
  6
CONTINUOUS
 62
    30
 10
-437.06061194503468
 20
-437.99999999999989
 30
0.0
 11
-437.06061194503468
 21
-398.0
 31
0.0
  0
LINE
  5
37C
  8
SIZE
  6
CONTINUOUS
 62
    30
 10
-437.06061194503468
 20
-387.99999999999989
 30
0.0
 11
-437.06061194503468
 21
-240.2823744654288
 31
0.0
  0
TEXT
  5
380
  8
SIZE
  6
CONTINUOUS
 62
    30
 10
-449.85656015932182
 20
-352.16290135420979
 30
0.0
 40
64.0
  1
60
 50
90.0
 41
0.9
 72
     1
 11
-449.85656015932182
 21
-305.5343299256383
 31
0.0
  0
CIRCLE
  5
381
  8
SIZE
  6
CONTINUOUS
 62
    30
 10
-437.06061194503468
 20
-387.99999999999989
 30
0.0
 40
5.0
  0
LINE
  5
382
  8
SIZE
  6
CONTINUOUS
 62
    30
 10
-437.06061194503468
 20
-393.0
 30
0.0
 11
-437.06061194503468
 21
-398.0
 31
0.0
  0
CIRCLE
  5
383
  8
SIZE
  6
CONTINUOUS
 62
    30
 10
-437.06061194503468
 20
-447.99999999999989
 30
0.0
 40
5.0
  0
LINE
  5
384
  8
SIZE
  6
CONTINUOUS
 62
    30
 10
-437.06061194503468
 20
-442.99999999999989
 30
0.0
 11
-437.06061194503468
 21
-437.99999999999989
 31
0.0
  0
TEXT
  5
385
  8
SIZE
  6
CONTINUOUS
 62
    30
 10
55.226755343974212
 20
-356.9594108991605
 30
0.0
 40
64.0
  1
67
 50
90.0
 41
0.9
 72
     1
 11
55.226755343974212
 21
-310.33083947058913
 31
0.0
  0
CIRCLE
  5
386
  8
SIZE
  6
CONTINUOUS
 62
    30
 10
70.634723960320045
 20
-387.99999999999989
 30
0.0
 40
5.0
  0
LINE
  5
387
  8
SIZE
  6
CONTINUOUS
 62
    30
 10
70.634723960320045
 20
-393.0
 30
0.0
 11
70.634723960320045
 21
-398.0
 31
0.0
  0
CIRCLE
  5
388
  8
SIZE
  6
CONTINUOUS
 62
    30
 10
70.634723960320031
 20
-455.0
 30
0.0
 40
5.0
  0
LINE
  5
389
  8
SIZE
  6
CONTINUOUS
 62
    30
 10
70.634723960320031
 20
-450.0
 30
0.0
 11
70.634723960320031
 21
-445.0
 31
0.0
  0
CIRCLE
  5
38A
  8
SIZE
  6
CONTINUOUS
 62
    30
 10
480.21389140230531
 20
-388.00000000000011
 30
0.0
 40
5.0
  0
LINE
  5
38B
  8
SIZE
  6
CONTINUOUS
 62
    30
 10
480.21389140230531
 20
-393.00000000000011
 30
0.0
 11
480.21389140230531
 21
-398.00000000000011
 31
0.0
  0
CIRCLE
  5
38C
  8
SIZE
  6
CONTINUOUS
 62
    30
 10
480.21389140230531
 20
-466.00000000000011
 30
0.0
 40
5.0
  0
LINE
  5
38D
  8
SIZE
  6
CONTINUOUS
 62
    30
 10
480.21389140230531
 20
-461.0
 30
0.0
 11
480.21389140230531
 21
-456.0
 31
0.0
  0
TEXT
  5
38E
  8
SIZE
  6
CONTINUOUS
 62
    30
 10
465.09121258934459
 20
-370.47928372752551
 30
0.0
 40
64.0
  1
78
 50
90.0
 41
0.9
 72
     1
 11
465.09121258934459
 21
-323.85071229895402
 31
0.0
  0
ENDSEC
  0
EOF
