  0
SECTION
  2
HEADER
  9
$ACADVER
  1
AC1014
  9
$ACADMAINTVER
 70
     0
  9
$DWGCODEPAGE
  3
ANSI_932
  9
$INSBASE
 10
0.0
 20
0.0
 30
0.0
  9
$EXTMIN
 10
-1409.852942
 20
-586.213802
 30
-0.001526
  9
$EXTMAX
 10
1465.279285
 20
1105.341056
 30
0.0
  9
$LIMMIN
 10
-4267.152221
 20
-2696.08321
  9
$LIMMAX
 10
7190.717423
 20
5141.155364
  9
$ORTHOMODE
 70
     0
  9
$REGENMODE
 70
     1
  9
$FILLMODE
 70
     1
  9
$QTEXTMODE
 70
     0
  9
$MIRRTEXT
 70
     0
  9
$DRAGMODE
 70
     2
  9
$LTSCALE
 40
20.0
  9
$OSMODE
 70
    37
  9
$ATTMODE
 70
     1
  9
$TEXTSIZE
 40
64.0
  9
$TRACEWID
 40
0.05
  9
$TEXTSTYLE
  7
STANDARD
  9
$CLAYER
  8
OUTLINE
  9
$CELTYPE
  6
CONTINUOUS
  9
$CECOLOR
 62
     7
  9
$CELTSCALE
 40
1.0
  9
$DELOBJ
 70
     1
  9
$DISPSILH
 70
     0
  9
$DIMSCALE
 40
1.0
  9
$DIMASZ
 40
10.0
  9
$DIMEXO
 40
20.0
  9
$DIMDLI
 40
200.0
  9
$DIMRND
 40
0.0
  9
$DIMDLE
 40
0.0
  9
$DIMEXE
 40
30.0
  9
$DIMTP
 40
0.0
  9
$DIMTM
 40
0.0
  9
$DIMTXT
 40
55.0
  9
$DIMCEN
 40
0.0
  9
$DIMTSZ
 40
0.0
  9
$DIMTOL
 70
     0
  9
$DIMLIM
 70
     0
  9
$DIMTIH
 70
     0
  9
$DIMTOH
 70
     0
  9
$DIMSE1
 70
     0
  9
$DIMSE2
 70
     0
  9
$DIMTAD
 70
     1
  9
$DIMZIN
 70
     8
  9
$DIMBLK
  1

  9
$DIMASO
 70
     1
  9
$DIMSHO
 70
     0
  9
$DIMPOST
  1

  9
$DIMAPOST
  1

  9
$DIMALT
 70
     0
  9
$DIMALTD
 70
     2
  9
$DIMALTF
 40
25.4
  9
$DIMLFAC
 40
1.0
  9
$DIMTOFL
 70
     1
  9
$DIMTVP
 40
0.0
  9
$DIMTIX
 70
     1
  9
$DIMSOXD
 70
     0
  9
$DIMSAH
 70
     1
  9
$DIMBLK1
  1
_DOTBLANK
  9
$DIMBLK2
  1
_DOTBLANK
  9
$DIMSTYLE
  2
STANDARD
  9
$DIMCLRD
 70
     0
  9
$DIMCLRE
 70
     0
  9
$DIMCLRT
 70
     0
  9
$DIMTFAC
 40
1.0
  9
$DIMGAP
 40
0.09
  9
$DIMJUST
 70
     0
  9
$DIMSD1
 70
     0
  9
$DIMSD2
 70
     0
  9
$DIMTOLJ
 70
     1
  9
$DIMTZIN
 70
     0
  9
$DIMALTZ
 70
     0
  9
$DIMALTTZ
 70
     0
  9
$DIMFIT
 70
     3
  9
$DIMUPT
 70
     0
  9
$DIMUNIT
 70
     2
  9
$DIMDEC
 70
     4
  9
$DIMTDEC
 70
     4
  9
$DIMALTU
 70
     2
  9
$DIMALTTD
 70
     2
  9
$DIMTXSTY
  7
STANDARD
  9
$DIMAUNIT
 70
     0
  9
$LUNITS
 70
     2
  9
$LUPREC
 70
     4
  9
$SKETCHINC
 40
0.1
  9
$FILLETRAD
 40
30.0
  9
$AUNITS
 70
     1
  9
$AUPREC
 70
     3
  9
$MENU
  1
ACAD
  9
$ELEVATION
 40
0.0
  9
$PELEVATION
 40
0.0
  9
$THICKNESS
 40
0.0
  9
$LIMCHECK
 70
     0
  9
$BLIPMODE
 70
     0
  9
$CHAMFERA
 40
0.0
  9
$CHAMFERB
 40
0.0
  9
$CHAMFERC
 40
0.0
  9
$CHAMFERD
 40
0.0
  9
$SKPOLY
 70
     0
  9
$TDCREATE
 40
2450330.439930995
  9
$TDUPDATE
 40
2454251.691400000
  9
$TDINDWG
 40
3.4464859954
  9
$TDUSRTIMER
 40
3.4464850000
  9
$USRTIMER
 70
     1
  9
$ANGBASE
 50
0.0
  9
$ANGDIR
 70
     0
  9
$PDMODE
 70
     3
  9
$PDSIZE
 40
-2.0
  9
$PLINEWID
 40
0.0
  9
$COORDS
 70
     2
  9
$SPLFRAME
 70
     0
  9
$SPLINETYPE
 70
     6
  9
$SPLINESEGS
 70
     8
  9
$ATTDIA
 70
     0
  9
$ATTREQ
 70
     1
  9
$HANDLING
 70
     1
  9
$HANDSEED
  5
84D
  9
$SURFTAB1
 70
     6
  9
$SURFTAB2
 70
     6
  9
$SURFTYPE
 70
     6
  9
$SURFU
 70
     6
  9
$SURFV
 70
     6
  9
$UCSNAME
  2

  9
$UCSORG
 10
0.0
 20
0.0
 30
0.0
  9
$UCSXDIR
 10
1.0
 20
0.0
 30
0.0
  9
$UCSYDIR
 10
0.0
 20
1.0
 30
0.0
  9
$PUCSNAME
  2

  9
$PUCSORG
 10
0.0
 20
0.0
 30
0.0
  9
$PUCSXDIR
 10
1.0
 20
0.0
 30
0.0
  9
$PUCSYDIR
 10
0.0
 20
1.0
 30
0.0
  9
$USERI1
 70
     0
  9
$USERI2
 70
     0
  9
$USERI3
 70
     0
  9
$USERI4
 70
     0
  9
$USERI5
 70
     0
  9
$USERR1
 40
20.0
  9
$USERR2
 40
0.0
  9
$USERR3
 40
0.0
  9
$USERR4
 40
0.0
  9
$USERR5
 40
0.0
  9
$WORLDVIEW
 70
     1
  9
$SHADEDGE
 70
     3
  9
$SHADEDIF
 70
    70
  9
$TILEMODE
 70
     1
  9
$MAXACTVP
 70
    48
  9
$PINSBASE
 10
0.0
 20
0.0
 30
0.0
  9
$PLIMCHECK
 70
     0
  9
$PEXTMIN
 10
1.000000E+20
 20
1.000000E+20
 30
1.000000E+20
  9
$PEXTMAX
 10
-1.000000E+20
 20
-1.000000E+20
 30
-1.000000E+20
  9
$PLIMMIN
 10
0.0
 20
0.0
  9
$PLIMMAX
 10
12.0
 20
9.0
  9
$UNITMODE
 70
     0
  9
$VISRETAIN
 70
     1
  9
$PLINEGEN
 70
     0
  9
$PSLTSCALE
 70
     1
  9
$TREEDEPTH
 70
  3020
  9
$PICKSTYLE
 70
     1
  9
$CMLSTYLE
  2
STANDARD
  9
$CMLJUST
 70
     0
  9
$CMLSCALE
 40
1.0
  9
$PROXYGRAPHICS
 70
     1
  9
$MEASUREMENT
 70
     0
  0
ENDSEC
  0
SECTION
  2
CLASSES
  0
ENDSEC
  0
SECTION
  2
TABLES
  0
TABLE
  2
VPORT
  5
302
100
AcDbSymbolTable
 70
     3
  0
VPORT
  5
84C
100
AcDbSymbolTableRecord
100
AcDbViewportTableRecord
  2
*ACTIVE
 70
     0
 10
0.0
 20
0.0
 11
1.0
 21
1.0
 12
1461.782601
 22
1331.287491
 13
0.0
 23
0.0
 14
50.0
 24
50.0
 15
100.0
 25
100.0
 16
0.0
 26
0.0
 36
1.0
 17
0.0
 27
0.0
 37
0.0
 40
8054.741402
 41
1.4225
 42
50.0
 43
0.0
 44
0.0
 50
0.0
 51
0.0
 71
     0
 72
  1000
 73
     1
 74
     0
 75
     0
 76
     0
 77
     0
 78
     0
  0
ENDTAB
  0
TABLE
  2
LTYPE
  5
2FF
100
AcDbSymbolTable
 70
     2
  0
LTYPE
  5
30C
100
AcDbSymbolTableRecord
100
AcDbLinetypeTableRecord
  2
BYBLOCK
 70
     0
  3

 72
    65
 73
     0
 40
0.0
  0
LTYPE
  5
30D
100
AcDbSymbolTableRecord
100
AcDbLinetypeTableRecord
  2
BYLAYER
 70
     0
  3

 72
    65
 73
     0
 40
0.0
  0
LTYPE
  5
30E
100
AcDbSymbolTableRecord
100
AcDbLinetypeTableRecord
  2
CONTINUOUS
 70
     0
  3
実線
 72
    65
 73
     0
 40
0.0
  0
LTYPE
  5
31A
100
AcDbSymbolTableRecord
100
AcDbLinetypeTableRecord
  2
DASHDOT
 70
     0
  3
____ _ ____ _ ____ _ ____ _ ____ _ ____ _ ____
 72
    65
 73
     4
 40
5.5
 49
4.0
 74
     0
 49
-0.6
 74
     0
 49
0.3
 74
     0
 49
-0.6
 74
     0
  0
ENDTAB
  0
TABLE
  2
LAYER
  5
2FC
100
AcDbSymbolTable
 70
    12
  0
LAYER
  5
308
100
AcDbSymbolTableRecord
100
AcDbLayerTableRecord
  2
0
 70
     0
 62
     7
  6
CONTINUOUS
  0
LAYER
  5
319
100
AcDbSymbolTableRecord
100
AcDbLayerTableRecord
  2
OUTLINE
 70
     0
 62
     3
  6
CONTINUOUS
  0
LAYER
  5
31B
100
AcDbSymbolTableRecord
100
AcDbLayerTableRecord
  2
DETAIL
 70
     0
 62
     5
  6
CONTINUOUS
  0
LAYER
  5
31C
100
AcDbSymbolTableRecord
100
AcDbLayerTableRecord
  2
BASIS
 70
     0
 62
     6
  6
DASHDOT
  0
LAYER
  5
31D
100
AcDbSymbolTableRecord
100
AcDbLayerTableRecord
  2
SIZE
 70
     0
 62
    30
  6
CONTINUOUS
  0
LAYER
  5
31E
100
AcDbSymbolTableRecord
100
AcDbLayerTableRecord
  2
NOTE
 70
     0
 62
     4
  6
CONTINUOUS
  0
LAYER
  5
31F
100
AcDbSymbolTableRecord
100
AcDbLayerTableRecord
  2
ARRANGE
 70
     0
 62
     1
  6
CONTINUOUS
  0
LAYER
  5
320
100
AcDbSymbolTableRecord
100
AcDbLayerTableRecord
  2
FIX
 70
     0
 62
    11
  6
CONTINUOUS
  0
LAYER
  5
321
100
AcDbSymbolTableRecord
100
AcDbLayerTableRecord
  2
SERVICESPACE
 70
     0
 62
     2
  6
DASHDOT
  0
LAYER
  5
322
100
AcDbSymbolTableRecord
100
AcDbLayerTableRecord
  2
ETC
 70
     0
 62
    61
  6
CONTINUOUS
  0
LAYER
  5
323
100
AcDbSymbolTableRecord
100
AcDbLayerTableRecord
  2
SYMBOLLINE
 70
     0
 62
    15
  6
CONTINUOUS
  0
LAYER
  5
324
100
AcDbSymbolTableRecord
100
AcDbLayerTableRecord
  2
DEFPOINTS
 70
     0
 62
     7
  6
CONTINUOUS
  0
ENDTAB
  0
TABLE
  2
STYLE
  5
2FD
100
AcDbSymbolTable
 70
     2
  0
STYLE
  5
309
100
AcDbSymbolTableRecord
100
AcDbTextStyleTableRecord
  2
STANDARD
 70
     0
 40
0.0
 41
0.9
 50
0.0
 71
     0
 42
64.0
  3
SIMPLEX
  4
BIGFONT
  0
STYLE
  5
325
100
AcDbSymbolTableRecord
100
AcDbTextStyleTableRecord
  2
STANDARD1
 70
     0
 40
0.0
 41
1.0
 50
0.0
 71
     0
 42
64.0
  3
MONOTXT
  4
BIGFONT
  0
ENDTAB
  0
TABLE
  2
VIEW
  5
300
100
AcDbSymbolTable
 70
     1
  0
VIEW
  5
326
100
AcDbSymbolTableRecord
100
AcDbViewTableRecord
  2
ALL
 70
     0
 40
9000.0
 10
241.506647
 20
0.0
 41
12483.01
 11
0.0
 21
0.0
 31
1.0
 12
0.0
 22
0.0
 32
0.0
 42
50.0
 43
0.0
 44
0.0
 50
0.0
 71
     0
  0
ENDTAB
  0
TABLE
  2
UCS
  5
301
100
AcDbSymbolTable
 70
     0
  0
ENDTAB
  0
TABLE
  2
APPID
  5
303
100
AcDbSymbolTable
 70
     1
  0
APPID
  5
30A
100
AcDbSymbolTableRecord
100
AcDbRegAppTableRecord
  2
ACAD
 70
     0
  0
ENDTAB
  0
TABLE
  2
DIMSTYLE
  5
304
100
AcDbSymbolTable
 70
     1
  0
DIMSTYLE
105
327
100
AcDbSymbolTableRecord
100
AcDbDimStyleTableRecord
  2
STANDARD
 70
     0
  3

  4

  5

  6

  7

 40
1.0
 41
0.18
 42
0.0625
 43
0.38
 44
0.18
 45
0.0
 46
0.0
 47
0.0
 48
0.0
140
0.18
141
0.09
142
0.0
143
25.4
144
1.0
145
0.0
146
1.0
147
0.09
 71
     0
 72
     0
 73
     1
 74
     1
 75
     0
 76
     0
 77
     0
 78
     0
170
     0
171
     2
172
     0
173
     0
174
     0
175
     0
176
     0
177
     0
178
     0
270
     2
271
     4
272
     4
273
     2
274
     2
340
309
275
     0
280
     0
281
     0
282
     0
283
     1
284
     0
285
     0
286
     0
287
     3
288
     0
  0
ENDTAB
  0
TABLE
  2
BLOCK_RECORD
  5
2FB
100
AcDbSymbolTable
 70
     4
  0
BLOCK_RECORD
  5
312
100
AcDbSymbolTableRecord
100
AcDbBlockTableRecord
  2
*MODEL_SPACE
  0
BLOCK_RECORD
  5
30F
100
AcDbSymbolTableRecord
100
AcDbBlockTableRecord
  2
*PAPER_SPACE
  0
BLOCK_RECORD
  5
32B
100
AcDbSymbolTableRecord
100
AcDbBlockTableRecord
  2
$MODEL_SPACE
  0
BLOCK_RECORD
  5
32D
100
AcDbSymbolTableRecord
100
AcDbBlockTableRecord
  2
$PAPER_SPACE
  0
BLOCK_RECORD
  5
32F
100
AcDbSymbolTableRecord
100
AcDbBlockTableRecord
  2
_DOTBLANK
  0
BLOCK_RECORD
  5
332
100
AcDbSymbolTableRecord
100
AcDbBlockTableRecord
  2
A$C3681769D
  0
ENDTAB
  0
ENDSEC
  0
SECTION
  2
BLOCKS
  0
BLOCK
  5
313
100
AcDbEntity
  8
0
100
AcDbBlockBegin
  2
*MODEL_SPACE
 70
     0
 10
0.0
 20
0.0
 30
0.0
  3
*MODEL_SPACE
  1

  0
ENDBLK
  5
314
100
AcDbEntity
  8
0
100
AcDbBlockEnd
  0
BLOCK
  5
310
100
AcDbEntity
 67
     1
  8
0
100
AcDbBlockBegin
  2
*PAPER_SPACE
 70
     0
 10
0.0
 20
0.0
 30
0.0
  3
*PAPER_SPACE
  1

  0
ENDBLK
  5
311
100
AcDbEntity
 67
     1
  8
0
100
AcDbBlockEnd
  0
BLOCK
  5
32C
100
AcDbEntity
  8
0
100
AcDbBlockBegin
  2
$MODEL_SPACE
 70
     0
 10
0.0
 20
0.0
 30
0.0
  3
$MODEL_SPACE
  1

  0
ENDBLK
  5
2DD
100
AcDbEntity
  8
0
100
AcDbBlockEnd
  0
BLOCK
  5
32E
100
AcDbEntity
  8
0
100
AcDbBlockBegin
  2
$PAPER_SPACE
 70
     0
 10
0.0
 20
0.0
 30
0.0
  3
$PAPER_SPACE
  1

  0
ENDBLK
  5
2DA
100
AcDbEntity
  8
0
100
AcDbBlockEnd
  0
BLOCK
  5
330
100
AcDbEntity
  8
0
100
AcDbBlockBegin
  2
_DOTBLANK
 70
     0
 10
0.0
 20
0.0
 30
0.0
  3
_DOTBLANK
  1

  0
CIRCLE
  5
32
100
AcDbEntity
  8
0
  6
CONTINUOUS
 62
     7
100
AcDbCircle
 10
0.0
 20
0.0
 30
0.0
 40
0.5
  0
LINE
  5
33
100
AcDbEntity
  8
0
  6
CONTINUOUS
 62
     7
100
AcDbLine
 10
-0.5
 20
0.0
 30
0.0
 11
-1.0
 21
0.0
 31
0.0
  0
ENDBLK
  5
34
100
AcDbEntity
  8
0
100
AcDbBlockEnd
  0
BLOCK
  5
5BE
100
AcDbEntity
  8
0
 62
     7
100
AcDbBlockBegin
  2
A$C3681769D
 70
     0
 10
0.0
 20
0.0
 30
0.0
  3
A$C3681769D
  1

  0
LINE
  5
333
100
AcDbEntity
  8
NOTE
  6
CONTINUOUS
 62
     4
100
AcDbLine
 10
2201.957909
 20
252.691568
 30
0.0
 11
2874.151003
 21
252.691568
 31
0.0
  0
LINE
  5
334
100
AcDbEntity
  8
DETAIL
  6
CONTINUOUS
 62
     5
100
AcDbLine
 10
1054.333898
 20
585.843546
 30
0.0
 11
1764.333898
 21
585.843546
 31
0.0
  0
ARC
  5
335
100
AcDbEntity
  8
OUTLINE
  6
CONTINUOUS
 62
     3
100
AcDbCircle
 10
1159.333898
 20
898.608252
 30
0.0
 40
332.764706
100
AcDbArc
 50
251.606688
 51
259.429888
  0
LINE
  5
336
100
AcDbEntity
  8
OUTLINE
  6
CONTINUOUS
 62
     3
100
AcDbLine
 10
1054.333898
 20
585.843546
 30
0.0
 11
1092.333898
 21
585.843546
 31
0.0
  0
LINE
  5
337
100
AcDbEntity
  8
NOTE
  6
CONTINUOUS
 62
     4
100
AcDbLine
 10
1022.692977
 20
1281.962376
 30
0.0
 11
1229.334433
 21
869.842333
 31
0.0
  0
LINE
  5
338
100
AcDbEntity
  8
NOTE
  6
CONTINUOUS
 62
     4
100
AcDbLine
 10
891.356273
 20
1063.151149
 30
0.0
 11
1219.33458
 21
663.842439
 31
0.0
  0
LINE
  5
339
100
AcDbEntity
  8
SIZE
  6
CONTINUOUS
 62
    30
100
AcDbLine
 10
1064.333898
 20
30.000008
 30
0.0
 11
1754.333898
 21
30.000008
 31
0.0
  0
LINE
  5
33A
100
AcDbEntity
  8
SIZE
  6
CONTINUOUS
 62
    30
100
AcDbLine
 10
1112.333898
 20
191.121384
 30
0.0
 11
1064.333898
 21
191.121384
 31
0.0
  0
LINE
  5
33B
100
AcDbEntity
  8
SIZE
  6
CONTINUOUS
 62
    30
100
AcDbLine
 10
1079.333898
 20
329.811086
 30
0.0
 11
1084.333898
 21
329.811086
 31
0.0
  0
LINE
  5
33C
100
AcDbEntity
  8
SIZE
  6
CONTINUOUS
 62
    30
100
AcDbLine
 10
1079.333898
 20
329.811086
 30
0.0
 11
1084.333898
 21
329.811086
 31
0.0
  0
LINE
  5
33D
100
AcDbEntity
  8
SIZE
  6
CONTINUOUS
 62
    30
100
AcDbLine
 10
1171.64159
 20
663.843042
 30
0.0
 11
752.186197
 21
663.843042
 31
0.0
  0
LINE
  5
33E
100
AcDbEntity
  8
SIZE
  6
CONTINUOUS
 62
    30
100
AcDbLine
 10
1184.14159
 20
869.843042
 30
0.0
 11
875.55174
 21
869.843042
 31
0.0
  0
LINE
  5
33F
100
AcDbEntity
  8
NOTE
  6
CONTINUOUS
 62
     4
100
AcDbLine
 10
1061.319179
 20
460.576158
 30
0.0
 11
1087.241628
 21
478.727252
 31
0.0
  0
LINE
  5
340
100
AcDbEntity
  8
NOTE
  6
CONTINUOUS
 62
     4
100
AcDbLine
 10
1061.319179
 20
460.576158
 30
0.0
 11
1105.461425
 21
537.032771
 31
0.0
  0
LINE
  5
341
100
AcDbEntity
  8
NOTE
  6
CONTINUOUS
 62
     4
100
AcDbLine
 10
1050.90244
 20
975.843546
 30
0.0
 11
1080.90244
 21
1005.843546
 31
0.0
  0
LINE
  5
342
100
AcDbEntity
  8
NOTE
  6
CONTINUOUS
 62
     4
100
AcDbLine
 10
1077.470983
 20
975.843546
 30
0.0
 11
1107.470983
 21
1005.843546
 31
0.0
  0
LINE
  5
343
100
AcDbEntity
  8
NOTE
  6
CONTINUOUS
 62
     4
100
AcDbLine
 10
1034.333898
 20
975.843546
 30
0.0
 11
1844.333898
 21
975.843546
 31
0.0
  0
ARC
  5
344
100
AcDbEntity
  8
DETAIL
  6
CONTINUOUS
 62
     5
100
AcDbCircle
 10
1159.333898
 20
898.608252
 30
0.0
 40
332.764706
100
AcDbArc
 50
251.606688
 51
259.429888
  0
TEXT
  5
345
100
AcDbEntity
  8
ETC
  6
CONTINUOUS
 62
    61
100
AcDbText
 10
0.000008
 20
1595.7542
 30
0.0
 40
80.0
  1
MPL-RP63LA(ﾘﾌﾟﾚｽﾊﾟﾈﾙ)_2
 50
0.000003
 41
0.8
100
AcDbText
  0
LINE
  5
346
100
AcDbEntity
  8
OUTLINE
  6
CONTINUOUS
 62
     3
100
AcDbLine
 10
1054.333898
 20
585.843546
 30
0.0
 11
1054.333898
 21
582.843546
 31
0.0
  0
CIRCLE
  5
347
100
AcDbEntity
  8
SIZE
  6
CONTINUOUS
 62
    30
100
AcDbCircle
 10
907.02038
 20
585.843546
 30
0.0
 40
5.0
  0
LINE
  5
348
100
AcDbEntity
  8
DETAIL
  6
CONTINUOUS
 62
     5
100
AcDbLine
 10
1054.333898
 20
585.843546
 30
0.0
 11
1054.333898
 21
582.843546
 31
0.0
  0
LINE
  5
349
100
AcDbEntity
  8
SIZE
  6
CONTINUOUS
 62
    30
100
AcDbLine
 10
1054.333898
 20
562.843546
 30
0.0
 11
1054.333898
 21
0.000008
 31
0.0
  0
LINE
  5
34A
100
AcDbEntity
  8
SIZE
  6
CONTINUOUS
 62
    30
100
AcDbLine
 10
1054.333898
 20
562.843546
 30
0.0
 11
1054.333898
 21
161.121384
 31
0.0
  0
LINE
  5
34B
100
AcDbEntity
  8
SIZE
  6
CONTINUOUS
 62
    30
100
AcDbLine
 10
1059.333898
 20
30.000008
 30
0.0
 11
1064.333898
 21
30.000008
 31
0.0
  0
CIRCLE
  5
34C
100
AcDbEntity
  8
SIZE
  6
CONTINUOUS
 62
    30
100
AcDbCircle
 10
1054.333898
 20
30.000008
 30
0.0
 40
5.0
  0
TEXT
  5
34D
100
AcDbEntity
  8
SIZE
  6
CONTINUOUS
 62
    30
100
AcDbText
 10
949.191041
 20
206.121384
 30
0.0
 40
55.0
  1
68
 41
0.9
 72
     1
 11
989.262469
 21
206.121384
 31
0.0
100
AcDbText
  0
LINE
  5
34E
100
AcDbEntity
  8
SIZE
  6
CONTINUOUS
 62
    30
100
AcDbLine
 10
1054.333898
 20
191.121384
 30
0.0
 11
934.191041
 21
191.121384
 31
0.0
  0
LINE
  5
34F
100
AcDbEntity
  8
SIZE
  6
CONTINUOUS
 62
    30
100
AcDbLine
 10
1059.333898
 20
191.121384
 30
0.0
 11
1064.333898
 21
191.121384
 31
0.0
  0
CIRCLE
  5
350
100
AcDbEntity
  8
SIZE
  6
CONTINUOUS
 62
    30
100
AcDbCircle
 10
1054.333898
 20
191.121384
 30
0.0
 40
5.0
  0
TEXT
  5
351
100
AcDbEntity
  8
SIZE
  6
CONTINUOUS
 62
    30
100
AcDbText
 10
892.02038
 20
455.577404
 30
0.0
 40
55.0
  1
45
 50
90.0
 41
0.9
 72
     1
 11
892.02038
 21
495.648833
 31
0.0
100
AcDbText
  0
LINE
  5
352
100
AcDbEntity
  8
SIZE
  6
CONTINUOUS
 62
    30
100
AcDbLine
 10
1074.333898
 20
565.843546
 30
0.0
 11
1074.333898
 21
299.811086
 31
0.0
  0
LINE
  5
353
100
AcDbEntity
  8
SIZE
  6
CONTINUOUS
 62
    30
100
AcDbLine
 10
1074.333898
 20
565.843546
 30
0.0
 11
1074.333898
 21
299.811086
 31
0.0
  0
LINE
  5
354
100
AcDbEntity
  8
SIZE
  6
CONTINUOUS
 62
    30
100
AcDbLine
 10
1054.333898
 20
562.843546
 30
0.0
 11
1054.333898
 21
299.811086
 31
0.0
  0
TEXT
  5
355
100
AcDbEntity
  8
SIZE
  6
CONTINUOUS
 62
    30
100
AcDbText
 10
939.191041
 20
344.811086
 30
0.0
 40
55.0
  1
20
 41
0.9
 72
     1
 11
979.262469
 21
344.811086
 31
0.0
100
AcDbText
  0
LINE
  5
356
100
AcDbEntity
  8
SIZE
  6
CONTINUOUS
 62
    30
100
AcDbLine
 10
1044.333898
 20
329.811086
 30
0.0
 11
924.191041
 21
329.811086
 31
0.0
  0
CIRCLE
  5
357
100
AcDbEntity
  8
SIZE
  6
CONTINUOUS
 62
    30
100
AcDbCircle
 10
1074.333898
 20
329.811086
 30
0.0
 40
5.0
  0
POINT
  5
358
100
AcDbEntity
  8
DEFPOINTS
  6
CONTINUOUS
 62
     7
100
AcDbPoint
 10
1074.333898
 20
329.811086
 30
0.0
  0
LINE
  5
359
100
AcDbEntity
  8
SIZE
  6
CONTINUOUS
 62
    30
100
AcDbLine
 10
1049.333898
 20
329.811086
 30
0.0
 11
1044.333898
 21
329.811086
 31
0.0
  0
CIRCLE
  5
35A
100
AcDbEntity
  8
SIZE
  6
CONTINUOUS
 62
    30
100
AcDbCircle
 10
1054.333898
 20
329.811086
 30
0.0
 40
5.0
  0
CIRCLE
  5
35B
100
AcDbEntity
  8
SIZE
  6
CONTINUOUS
 62
    30
100
AcDbCircle
 10
1074.333898
 20
329.811086
 30
0.0
 40
5.0
  0
LINE
  5
35C
100
AcDbEntity
  8
SIZE
  6
CONTINUOUS
 62
    30
100
AcDbLine
 10
1074.333898
 20
329.811086
 30
0.0
 11
1054.333898
 21
329.811086
 31
0.0
  0
LINE
  5
35D
100
AcDbEntity
  8
SIZE
  6
CONTINUOUS
 62
    30
100
AcDbLine
 10
907.02038
 20
580.843546
 30
0.0
 11
907.02038
 21
575.843546
 31
0.0
  0
LINE
  5
35E
100
AcDbEntity
  8
SIZE
  6
CONTINUOUS
 62
    30
100
AcDbLine
 10
907.02038
 20
575.843546
 30
0.0
 11
907.02038
 21
440.577404
 31
0.0
  0
POINT
  5
35F
100
AcDbEntity
  8
DEFPOINTS
  6
CONTINUOUS
 62
     7
100
AcDbPoint
 10
1054.333898
 20
582.843546
 30
0.0
  0
POINT
  5
360
100
AcDbEntity
  8
DEFPOINTS
  6
CONTINUOUS
 62
     7
100
AcDbPoint
 10
1054.333898
 20
582.843546
 30
0.0
  0
POINT
  5
361
100
AcDbEntity
  8
DEFPOINTS
  6
CONTINUOUS
 62
     7
100
AcDbPoint
 10
1054.333898
 20
582.843546
 30
0.0
  0
LINE
  5
362
100
AcDbEntity
  8
NOTE
  6
CONTINUOUS
 62
     4
100
AcDbLine
 10
1061.319179
 20
460.576158
 30
0.0
 11
1064.077264
 21
492.101204
 31
0.0
  0
TEXT
  5
363
100
AcDbEntity
  8
NOTE
  6
CONTINUOUS
 62
     4
100
AcDbText
 10
447.330324
 20
988.423665
 30
0.0
 40
64.0
  1
（自然排水口）
 41
0.9
100
AcDbText
  0
LINE
  5
364
100
AcDbEntity
  8
NOTE
  6
CONTINUOUS
 62
     4
100
AcDbLine
 10
422.491199
 20
1063.151149
 30
0.0
 11
891.356273
 21
1063.151149
 31
0.0
  0
TEXT
  5
365
100
AcDbEntity
  8
NOTE
  6
CONTINUOUS
 62
     4
100
AcDbText
 10
474.10196
 20
1090.093265
 30
0.0
 40
64.0
  1
D抜き
 41
0.9
100
AcDbText
  0
LINE
  5
366
100
AcDbEntity
  8
SIZE
  6
CONTINUOUS
 62
    30
100
AcDbLine
 10
782.186197
 20
919.843042
 30
0.0
 11
782.186197
 21
673.843042
 31
0.0
  0
LINE
  5
367
100
AcDbEntity
  8
SIZE
  6
CONTINUOUS
 62
    30
100
AcDbLine
 10
905.55174
 20
919.843042
 30
0.0
 11
905.55174
 21
879.843042
 31
0.0
  0
TEXT
  5
368
100
AcDbEntity
  8
SIZE
  6
CONTINUOUS
 62
    30
100
AcDbText
 10
890.55174
 20
764.700184
 30
0.0
 40
55.0
  1
60
 50
90.0
 41
0.9
 72
     1
 11
890.55174
 21
804.771613
 31
0.0
100
AcDbText
  0
TEXT
  5
369
100
AcDbEntity
  8
SIZE
  6
CONTINUOUS
 62
    30
100
AcDbText
 10
767.186197
 20
725.292753
 30
0.0
 40
55.0
  1
266
 50
90.0
 41
0.9
 72
     1
 11
767.186197
 21
787.757039
 31
0.0
100
AcDbText
  0
POINT
  5
36A
100
AcDbEntity
  8
DEFPOINTS
  6
CONTINUOUS
 62
     7
100
AcDbPoint
 10
782.186197
 20
663.843042
 30
0.0
  0
LINE
  5
36B
100
AcDbEntity
  8
SIZE
  6
CONTINUOUS
 62
    30
100
AcDbLine
 10
782.186197
 20
668.843042
 30
0.0
 11
782.186197
 21
673.843042
 31
0.0
  0
CIRCLE
  5
36C
100
AcDbEntity
  8
SIZE
  6
CONTINUOUS
 62
    30
100
AcDbCircle
 10
782.186197
 20
663.843042
 30
0.0
 40
5.0
  0
LINE
  5
36D
100
AcDbEntity
  8
SIZE
  6
CONTINUOUS
 62
    30
100
AcDbLine
 10
1072.333898
 20
630.843546
 30
0.0
 11
877.02038
 21
630.843546
 31
0.0
  0
POINT
  5
36E
100
AcDbEntity
  8
DEFPOINTS
  6
CONTINUOUS
 62
     7
100
AcDbPoint
 10
907.02038
 20
630.843546
 30
0.0
  0
LINE
  5
36F
100
AcDbEntity
  8
SIZE
  6
CONTINUOUS
 62
    30
100
AcDbLine
 10
907.02038
 20
635.843546
 30
0.0
 11
907.02038
 21
640.843546
 31
0.0
  0
CIRCLE
  5
370
100
AcDbEntity
  8
SIZE
  6
CONTINUOUS
 62
    30
100
AcDbCircle
 10
907.02038
 20
630.843546
 30
0.0
 40
5.0
  0
LINE
  5
371
100
AcDbEntity
  8
SIZE
  6
CONTINUOUS
 62
    30
100
AcDbLine
 10
907.02038
 20
630.843546
 30
0.0
 11
907.02038
 21
585.843546
 31
0.0
  0
LINE
  5
372
100
AcDbEntity
  8
SIZE
  6
CONTINUOUS
 62
    30
100
AcDbLine
 10
907.02038
 20
640.843546
 30
0.0
 11
907.02038
 21
650.843546
 31
0.0
  0
LINE
  5
373
100
AcDbEntity
  8
SIZE
  6
CONTINUOUS
 62
    30
100
AcDbLine
 10
954.333898
 20
585.843546
 30
0.0
 11
877.02038
 21
585.843546
 31
0.0
  0
POINT
  5
374
100
AcDbEntity
  8
DEFPOINTS
  6
CONTINUOUS
 62
     7
100
AcDbPoint
 10
1074.333898
 20
585.843546
 30
0.0
  0
POINT
  5
375
100
AcDbEntity
  8
DEFPOINTS
  6
CONTINUOUS
 62
     7
100
AcDbPoint
 10
1074.333898
 20
585.843546
 30
0.0
  0
POINT
  5
376
100
AcDbEntity
  8
DEFPOINTS
  6
CONTINUOUS
 62
     7
100
AcDbPoint
 10
974.333898
 20
585.843546
 30
0.0
  0
LINE
  5
377
100
AcDbEntity
  8
NOTE
  6
CONTINUOUS
 62
     4
100
AcDbLine
 10
974.333898
 20
591.418293
 30
0.0
 11
983.759151
 21
600.843546
 31
0.0
  0
LINE
  5
378
100
AcDbEntity
  8
NOTE
  6
CONTINUOUS
 62
     4
100
AcDbLine
 10
982.901287
 20
585.843546
 30
0.0
 11
997.901287
 21
600.843546
 31
0.0
  0
LINE
  5
379
100
AcDbEntity
  8
NOTE
  6
CONTINUOUS
 62
     4
100
AcDbLine
 10
997.043422
 20
585.843546
 30
0.0
 11
1012.043422
 21
600.843546
 31
0.0
  0
LINE
  5
37A
100
AcDbEntity
  8
NOTE
  6
CONTINUOUS
 62
     4
100
AcDbLine
 10
1039.469829
 20
585.843546
 30
0.0
 11
1054.469829
 21
600.843546
 31
0.0
  0
LINE
  5
37B
100
AcDbEntity
  8
NOTE
  6
CONTINUOUS
 62
     4
100
AcDbLine
 10
1053.611965
 20
585.843546
 30
0.0
 11
1068.611965
 21
600.843546
 31
0.0
  0
LINE
  5
37C
100
AcDbEntity
  8
NOTE
  6
CONTINUOUS
 62
     4
100
AcDbLine
 10
1067.7541
 20
585.843546
 30
0.0
 11
1074.333898
 21
592.423344
 31
0.0
  0
LINE
  5
37D
100
AcDbEntity
  8
NOTE
  6
CONTINUOUS
 62
     4
100
AcDbLine
 10
1074.333898
 20
585.843546
 30
0.0
 11
1074.333898
 21
600.843546
 31
0.0
  0
LINE
  5
37E
100
AcDbEntity
  8
NOTE
  6
CONTINUOUS
 62
     4
100
AcDbLine
 10
974.333898
 20
585.843546
 30
0.0
 11
1074.333898
 21
585.843546
 31
0.0
  0
LINE
  5
37F
100
AcDbEntity
  8
NOTE
  6
CONTINUOUS
 62
     4
100
AcDbLine
 10
974.333898
 20
600.843546
 30
0.0
 11
1074.333898
 21
600.843546
 31
0.0
  0
POINT
  5
380
100
AcDbEntity
  8
DEFPOINTS
  6
CONTINUOUS
 62
     7
100
AcDbPoint
 10
905.55174
 20
869.843042
 30
0.0
  0
LINE
  5
381
100
AcDbEntity
  8
SIZE
  6
CONTINUOUS
 62
    30
100
AcDbLine
 10
905.55174
 20
874.843042
 30
0.0
 11
905.55174
 21
879.843042
 31
0.0
  0
CIRCLE
  5
382
100
AcDbEntity
  8
SIZE
  6
CONTINUOUS
 62
    30
100
AcDbCircle
 10
905.55174
 20
869.843042
 30
0.0
 40
5.0
  0
LINE
  5
383
100
AcDbEntity
  8
SIZE
  6
CONTINUOUS
 62
    30
100
AcDbLine
 10
905.55174
 20
869.843042
 30
0.0
 11
905.55174
 21
749.700185
 31
0.0
  0
LINE
  5
384
100
AcDbEntity
  8
SIZE
  6
CONTINUOUS
 62
    30
100
AcDbLine
 10
1072.333898
 20
929.843042
 30
0.0
 11
752.186197
 21
929.843042
 31
0.0
  0
LINE
  5
385
100
AcDbEntity
  8
SIZE
  6
CONTINUOUS
 62
    30
100
AcDbLine
 10
782.186197
 20
924.843042
 30
0.0
 11
782.186197
 21
919.843042
 31
0.0
  0
CIRCLE
  5
386
100
AcDbEntity
  8
SIZE
  6
CONTINUOUS
 62
    30
100
AcDbCircle
 10
782.186197
 20
929.843042
 30
0.0
 40
5.0
  0
LINE
  5
387
100
AcDbEntity
  8
SIZE
  6
CONTINUOUS
 62
    30
100
AcDbLine
 10
1072.333898
 20
929.843042
 30
0.0
 11
875.55174
 21
929.843042
 31
0.0
  0
LINE
  5
388
100
AcDbEntity
  8
SIZE
  6
CONTINUOUS
 62
    30
100
AcDbLine
 10
905.55174
 20
924.843042
 30
0.0
 11
905.55174
 21
919.843042
 31
0.0
  0
CIRCLE
  5
389
100
AcDbEntity
  8
SIZE
  6
CONTINUOUS
 62
    30
100
AcDbCircle
 10
905.55174
 20
929.843042
 30
0.0
 40
5.0
  0
LINE
  5
38A
100
AcDbEntity
  8
NOTE
  6
CONTINUOUS
 62
     4
100
AcDbLine
 10
602.279865
 20
1281.962376
 30
0.0
 11
1022.692977
 21
1281.962376
 31
0.0
  0
TEXT
  5
38B
100
AcDbEntity
  8
NOTE
  6
CONTINUOUS
 62
     4
100
AcDbText
 10
618.514742
 20
1301.832964
 30
0.0
 40
64.0
  1
D VP-25
 41
0.9
100
AcDbText
  0
LINE
  5
38C
100
AcDbEntity
  8
BASIS
  6
DASHDOT
 62
     6
100
AcDbLine
 10
1409.333898
 20
956.001196
 30
0.0
 11
1409.333898
 21
544.235301
 31
0.0
  0
CIRCLE
  5
38D
100
AcDbEntity
  8
ARRANGE
  6
CONTINUOUS
 62
     1
100
AcDbCircle
 10
1409.333898
 20
585.843546
 30
0.0
 40
42.5
  0
LINE
  5
38E
100
AcDbEntity
  8
OUTLINE
  6
CONTINUOUS
 62
     3
100
AcDbLine
 10
1764.333898
 20
585.843546
 30
0.0
 11
1764.333898
 21
582.843546
 31
0.0
  0
LINE
  5
38F
100
AcDbEntity
  8
NOTE
  6
CONTINUOUS
 62
     4
100
AcDbLine
 10
2201.957909
 20
252.691568
 30
0.0
 11
1696.33342
 21
739.843503
 31
0.0
  0
LINE
  5
390
100
AcDbEntity
  8
SIZE
  6
CONTINUOUS
 62
    30
100
AcDbLine
 10
1696.333898
 20
704.902991
 30
0.0
 11
1696.333898
 21
161.121384
 31
0.0
  0
LINE
  5
391
100
AcDbEntity
  8
SIZE
  6
CONTINUOUS
 62
    30
100
AcDbLine
 10
1696.333898
 20
704.902991
 30
0.0
 11
1696.333898
 21
161.121384
 31
0.0
  0
LINE
  5
392
100
AcDbEntity
  8
SIZE
  6
CONTINUOUS
 62
    30
100
AcDbLine
 10
1122.333898
 20
704.902991
 30
0.0
 11
1122.333898
 21
161.121384
 31
0.0
  0
LINE
  5
393
100
AcDbEntity
  8
SIZE
  6
CONTINUOUS
 62
    30
100
AcDbLine
 10
1122.333898
 20
704.902991
 30
0.0
 11
1122.333898
 21
161.121384
 31
0.0
  0
CIRCLE
  5
394
100
AcDbEntity
  8
SIZE
  6
CONTINUOUS
 62
    30
100
AcDbCircle
 10
2396.349292
 20
585.843546
 30
0.0
 40
5.0
  0
LINE
  5
395
100
AcDbEntity
  8
SIZE
  6
CONTINUOUS
 62
    30
100
AcDbLine
 10
2396.349292
 20
585.843546
 30
0.0
 11
2396.349292
 21
565.843546
 31
0.0
  0
LINE
  5
396
100
AcDbEntity
  8
SIZE
  6
CONTINUOUS
 62
    30
100
AcDbLine
 10
2396.349292
 20
585.843546
 30
0.0
 11
2396.349292
 21
565.843546
 31
0.0
  0
CIRCLE
  5
397
100
AcDbEntity
  8
SIZE
  6
CONTINUOUS
 62
    30
100
AcDbCircle
 10
2396.349292
 20
585.843546
 30
0.0
 40
5.0
  0
LINE
  5
398
100
AcDbEntity
  8
ARRANGE
  6
CONTINUOUS
 62
     1
100
AcDbLine
 10
1451.803097
 20
628.000652
 30
0.0
 11
1366.864699
 21
543.68644
 31
0.0
  0
LINE
  5
399
100
AcDbEntity
  8
ARRANGE
  6
CONTINUOUS
 62
     1
100
AcDbLine
 10
1451.865646
 20
543.749546
 30
0.0
 11
1366.80215
 21
627.937546
 31
0.0
  0
LINE
  5
39A
100
AcDbEntity
  8
DETAIL
  6
CONTINUOUS
 62
     5
100
AcDbLine
 10
1764.333898
 20
585.843546
 30
0.0
 11
1764.333898
 21
582.843546
 31
0.0
  0
LINE
  5
39B
100
AcDbEntity
  8
SIZE
  6
CONTINUOUS
 62
    30
100
AcDbLine
 10
1429.333898
 20
565.843546
 30
0.0
 11
2426.349292
 21
565.843546
 31
0.0
  0
LINE
  5
39C
100
AcDbEntity
  8
OUTLINE
  6
CONTINUOUS
 62
     3
100
AcDbLine
 10
1659.333898
 20
565.843546
 30
0.0
 11
1159.333898
 21
565.843546
 31
0.0
  0
TEXT
  5
39D
100
AcDbEntity
  8
SIZE
  6
CONTINUOUS
 62
    30
100
AcDbText
 10
1150.519613
 20
210.526146
 30
0.0
 40
55.0
  1
574(吊りﾎﾞﾙﾄﾋﾟｯﾁ)
 41
0.9
 72
     1
 11
1409.333898
 21
210.526146
 31
0.0
100
AcDbText
  0
LINE
  5
39E
100
AcDbEntity
  8
SIZE
  6
CONTINUOUS
 62
    30
100
AcDbLine
 10
1132.333898
 20
191.121384
 30
0.0
 11
1686.333898
 21
191.121384
 31
0.0
  0
TEXT
  5
39F
100
AcDbEntity
  8
SIZE
  6
CONTINUOUS
 62
    30
100
AcDbText
 10
1135.669613
 20
349.215848
 30
0.0
 40
55.0
  1
670(天井開口寸法)
 41
0.9
 72
     1
 11
1409.333898
 21
349.215848
 31
0.0
100
AcDbText
  0
LINE
  5
3A0
100
AcDbEntity
  8
SIZE
  6
CONTINUOUS
 62
    30
100
AcDbLine
 10
1084.333898
 20
329.811086
 30
0.0
 11
1734.333898
 21
329.811086
 31
0.0
  0
LINE
  5
3A1
100
AcDbEntity
  8
DETAIL
  6
CONTINUOUS
 62
     5
100
AcDbLine
 10
1659.333898
 20
565.843546
 30
0.0
 11
1159.333898
 21
565.843546
 31
0.0
  0
LINE
  5
3A2
100
AcDbEntity
  8
SIZE
  6
CONTINUOUS
 62
    30
100
AcDbLine
 10
1127.333898
 20
191.121384
 30
0.0
 11
1132.333898
 21
191.121384
 31
0.0
  0
CIRCLE
  5
3A3
100
AcDbEntity
  8
SIZE
  6
CONTINUOUS
 62
    30
100
AcDbCircle
 10
1122.333898
 20
191.121384
 30
0.0
 40
5.0
  0
POINT
  5
3A4
100
AcDbEntity
  8
DEFPOINTS
  6
CONTINUOUS
 62
     7
100
AcDbPoint
 10
1122.333898
 20
191.121384
 30
0.0
  0
LINE
  5
3A5
100
AcDbEntity
  8
SIZE
  6
CONTINUOUS
 62
    30
100
AcDbLine
 10
1117.333898
 20
191.121384
 30
0.0
 11
1112.333898
 21
191.121384
 31
0.0
  0
CIRCLE
  5
3A6
100
AcDbEntity
  8
SIZE
  6
CONTINUOUS
 62
    30
100
AcDbCircle
 10
1122.333898
 20
191.121384
 30
0.0
 40
5.0
  0
TEXT
  5
3A7
100
AcDbEntity
  8
SIZE
  6
CONTINUOUS
 62
    30
100
AcDbText
 10
1350.405327
 20
45.000008
 30
0.0
 40
55.0
  1
710
 41
0.9
 72
     1
 11
1409.333898
 21
45.000008
 31
0.0
100
AcDbText
  0
LINE
  5
3A8
100
AcDbEntity
  8
SIZE
  6
CONTINUOUS
 62
    30
100
AcDbLine
 10
1084.333898
 20
329.811086
 30
0.0
 11
1094.333898
 21
329.811086
 31
0.0
  0
ARC
  5
3A9
100
AcDbEntity
  8
NOTE
  6
CONTINUOUS
 62
     4
100
AcDbCircle
 10
1194.331762
 20
468.804464
 30
0.0
 40
10.0
100
AcDbArc
 50
41.32594
 51
150.0
  0
ARC
  5
3AA
100
AcDbEntity
  8
NOTE
  6
CONTINUOUS
 62
     4
100
AcDbCircle
 10
1194.331762
 20
468.804464
 30
0.0
 40
10.0
100
AcDbArc
 50
210.0
 51
319.904575
  0
ARC
  5
3AB
100
AcDbEntity
  8
NOTE
  6
CONTINUOUS
 62
     4
100
AcDbCircle
 10
1194.331762
 20
478.804464
 30
0.0
 40
10.0
100
AcDbArc
 50
38.076672
 51
150.0
  0
ARC
  5
3AC
100
AcDbEntity
  8
NOTE
  6
CONTINUOUS
 62
     4
100
AcDbCircle
 10
1194.331762
 20
478.804464
 30
0.0
 40
10.0
100
AcDbArc
 50
210.0
 51
318.67406
  0
ARC
  5
3AD
100
AcDbEntity
  8
NOTE
  6
CONTINUOUS
 62
     4
100
AcDbCircle
 10
1194.331762
 20
488.804464
 30
0.0
 40
10.0
100
AcDbArc
 50
90.0
 51
321.923328
  0
ARC
  5
3AE
100
AcDbEntity
  8
NOTE
  6
CONTINUOUS
 62
     4
100
AcDbCircle
 10
1194.331762
 20
458.804464
 30
0.0
 40
10.0
100
AcDbArc
 50
40.095425
 51
270.0
  0
LINE
  5
3AF
100
AcDbEntity
  8
NOTE
  6
CONTINUOUS
 62
     4
100
AcDbLine
 10
1179.045343
 20
504.25094
 30
0.0
 11
1194.331762
 21
537.032771
 31
0.0
  0
ARC
  5
3B0
100
AcDbEntity
  8
OUTLINE
  6
CONTINUOUS
 62
     3
100
AcDbCircle
 10
1159.333898
 20
898.608252
 30
0.0
 40
332.764706
100
AcDbArc
 50
268.260704
 51
270.0
  0
LINE
  5
3B1
100
AcDbEntity
  8
OUTLINE
  6
CONTINUOUS
 62
     3
100
AcDbLine
 10
1100.154201
 20
571.17117
 30
0.0
 11
1102.756658
 21
570.734413
 31
0.0
  0
LINE
  5
3B2
100
AcDbEntity
  8
OUTLINE
  6
CONTINUOUS
 62
     3
100
AcDbLine
 10
1102.756658
 20
570.734413
 30
0.0
 11
1105.007466
 21
570.369401
 31
0.0
  0
LINE
  5
3B3
100
AcDbEntity
  8
OUTLINE
  6
CONTINUOUS
 62
     3
100
AcDbLine
 10
1117.668229
 20
568.563232
 30
0.0
 11
1119.977733
 21
568.279276
 31
0.0
  0
LINE
  5
3B4
100
AcDbEntity
  8
OUTLINE
  6
CONTINUOUS
 62
     3
100
AcDbLine
 10
1116.357684
 20
568.730522
 30
0.0
 11
1117.668229
 21
568.563232
 31
0.0
  0
LINE
  5
3B5
100
AcDbEntity
  8
OUTLINE
  6
CONTINUOUS
 62
     3
100
AcDbLine
 10
1114.973151
 20
568.912157
 30
0.0
 11
1116.357684
 21
568.730522
 31
0.0
  0
LINE
  5
3B6
100
AcDbEntity
  8
OUTLINE
  6
CONTINUOUS
 62
     3
100
AcDbLine
 10
1113.532592
 20
569.106519
 30
0.0
 11
1114.973151
 21
568.912157
 31
0.0
  0
LINE
  5
3B7
100
AcDbEntity
  8
OUTLINE
  6
CONTINUOUS
 62
     3
100
AcDbLine
 10
1112.057657
 20
569.31122
 30
0.0
 11
1113.532592
 21
569.106519
 31
0.0
  0
LINE
  5
3B8
100
AcDbEntity
  8
OUTLINE
  6
CONTINUOUS
 62
     3
100
AcDbLine
 10
1110.569684
 20
569.523594
 30
0.0
 11
1112.057657
 21
569.31122
 31
0.0
  0
LINE
  5
3B9
100
AcDbEntity
  8
OUTLINE
  6
CONTINUOUS
 62
     3
100
AcDbLine
 10
1109.093307
 20
569.740127
 30
0.0
 11
1110.569684
 21
569.523594
 31
0.0
  0
LINE
  5
3BA
100
AcDbEntity
  8
OUTLINE
  6
CONTINUOUS
 62
     3
100
AcDbLine
 10
1107.657166
 20
569.956312
 30
0.0
 11
1109.093307
 21
569.740127
 31
0.0
  0
LINE
  5
3BB
100
AcDbEntity
  8
OUTLINE
  6
CONTINUOUS
 62
     3
100
AcDbLine
 10
1106.287881
 20
570.167499
 30
0.0
 11
1107.657166
 21
569.956312
 31
0.0
  0
LINE
  5
3BC
100
AcDbEntity
  8
OUTLINE
  6
CONTINUOUS
 62
     3
100
AcDbLine
 10
1105.007466
 20
570.369401
 30
0.0
 11
1106.287881
 21
570.167499
 31
0.0
  0
LINE
  5
3BD
100
AcDbEntity
  8
OUTLINE
  6
CONTINUOUS
 62
     3
100
AcDbLine
 10
1137.113515
 20
566.659188
 30
0.0
 11
1139.07308
 21
566.52985
 31
0.0
  0
LINE
  5
3BE
100
AcDbEntity
  8
OUTLINE
  6
CONTINUOUS
 62
     3
100
AcDbLine
 10
1134.97493
 20
566.813564
 30
0.0
 11
1137.113515
 21
566.659188
 31
0.0
  0
LINE
  5
3BF
100
AcDbEntity
  8
OUTLINE
  6
CONTINUOUS
 62
     3
100
AcDbLine
 10
1132.610245
 20
567.000238
 30
0.0
 11
1134.97493
 21
566.813564
 31
0.0
  0
LINE
  5
3C0
100
AcDbEntity
  8
OUTLINE
  6
CONTINUOUS
 62
     3
100
AcDbLine
 10
1129.973615
 20
567.228064
 30
0.0
 11
1132.610245
 21
567.000238
 31
0.0
  0
LINE
  5
3C1
100
AcDbEntity
  8
OUTLINE
  6
CONTINUOUS
 62
     3
100
AcDbLine
 10
1127.01937
 20
567.507896
 30
0.0
 11
1129.973615
 21
567.228064
 31
0.0
  0
LINE
  5
3C2
100
AcDbEntity
  8
OUTLINE
  6
CONTINUOUS
 62
     3
100
AcDbLine
 10
1123.702428
 20
567.852939
 30
0.0
 11
1127.01937
 21
567.507896
 31
0.0
  0
LINE
  5
3C3
100
AcDbEntity
  8
OUTLINE
  6
CONTINUOUS
 62
     3
100
AcDbLine
 10
1119.977733
 20
568.279276
 30
0.0
 11
1123.702428
 21
567.852939
 31
0.0
  0
LINE
  5
3C4
100
AcDbEntity
  8
OUTLINE
  6
CONTINUOUS
 62
     3
100
AcDbLine
 10
1139.07308
 20
566.52985
 30
0.0
 11
1140.605673
 21
566.435596
 31
0.0
  0
LINE
  5
3C5
100
AcDbEntity
  8
OUTLINE
  6
CONTINUOUS
 62
     3
100
AcDbLine
 10
1140.605673
 20
566.435596
 30
0.0
 11
1142.84128
 21
566.30696
 31
0.0
  0
LINE
  5
3C6
100
AcDbEntity
  8
OUTLINE
  6
CONTINUOUS
 62
     3
100
AcDbLine
 10
1142.84128
 20
566.30696
 30
0.0
 11
1144.470917
 21
566.220272
 31
0.0
  0
LINE
  5
3C7
100
AcDbEntity
  8
OUTLINE
  6
CONTINUOUS
 62
     3
100
AcDbLine
 10
1144.470917
 20
566.220272
 30
0.0
 11
1146.332067
 21
566.129072
 31
0.0
  0
LINE
  5
3C8
100
AcDbEntity
  8
OUTLINE
  6
CONTINUOUS
 62
     3
100
AcDbLine
 10
1149.212884
 20
565.999679
 30
0.0
 11
1149.233898
 21
565.997075
 31
0.0
  0
LINE
  5
3C9
100
AcDbEntity
  8
OUTLINE
  6
CONTINUOUS
 62
     3
100
AcDbLine
 10
1149.146218
 20
566.003804
 30
0.0
 11
1149.212884
 21
565.999679
 31
0.0
  0
LINE
  5
3CA
100
AcDbEntity
  8
OUTLINE
  6
CONTINUOUS
 62
     3
100
AcDbLine
 10
1149.031788
 20
566.009541
 30
0.0
 11
1149.146218
 21
566.003804
 31
0.0
  0
LINE
  5
3CB
100
AcDbEntity
  8
OUTLINE
  6
CONTINUOUS
 62
     3
100
AcDbLine
 10
1146.332067
 20
566.129072
 30
0.0
 11
1149.031788
 21
566.009541
 31
0.0
  0
ARC
  5
3CC
100
AcDbEntity
  8
NOTE
  6
CONTINUOUS
 62
     4
100
AcDbCircle
 10
1194.331762
 20
468.804464
 30
0.0
 40
10.0
100
AcDbArc
 50
150.0
 51
210.0
  0
ARC
  5
3CD
100
AcDbEntity
  8
NOTE
  6
CONTINUOUS
 62
     4
100
AcDbCircle
 10
1194.331762
 20
478.804464
 30
0.0
 40
10.0
100
AcDbArc
 50
150.0
 51
210.0
  0
LINE
  5
3CE
100
AcDbEntity
  8
NOTE
  6
CONTINUOUS
 62
     4
100
AcDbLine
 10
1101.121679
 20
509.51611
 30
0.0
 11
1114.121679
 21
532.032771
 31
0.0
  0
LINE
  5
3CF
100
AcDbEntity
  8
NOTE
  6
CONTINUOUS
 62
     4
100
AcDbLine
 10
1083.801171
 20
519.51611
 30
0.0
 11
1096.801171
 21
542.032771
 31
0.0
  0
ARC
  5
3D0
100
AcDbEntity
  8
DETAIL
  6
CONTINUOUS
 62
     5
100
AcDbCircle
 10
1159.333898
 20
898.608252
 30
0.0
 40
332.764706
100
AcDbArc
 50
268.260704
 51
270.0
  0
LINE
  5
3D1
100
AcDbEntity
  8
DETAIL
  6
CONTINUOUS
 62
     5
100
AcDbLine
 10
1098.292006
 20
571.490326
 30
0.0
 11
1100.154201
 21
571.17117
 31
0.0
  0
LINE
  5
3D2
100
AcDbEntity
  8
DETAIL
  6
CONTINUOUS
 62
     5
100
AcDbLine
 10
1100.154201
 20
571.17117
 30
0.0
 11
1102.756658
 21
570.734413
 31
0.0
  0
LINE
  5
3D3
100
AcDbEntity
  8
DETAIL
  6
CONTINUOUS
 62
     5
100
AcDbLine
 10
1102.756658
 20
570.734413
 30
0.0
 11
1105.007466
 21
570.369401
 31
0.0
  0
LINE
  5
3D4
100
AcDbEntity
  8
DETAIL
  6
CONTINUOUS
 62
     5
100
AcDbLine
 10
1117.668229
 20
568.563232
 30
0.0
 11
1119.977733
 21
568.279276
 31
0.0
  0
LINE
  5
3D5
100
AcDbEntity
  8
DETAIL
  6
CONTINUOUS
 62
     5
100
AcDbLine
 10
1116.357684
 20
568.730522
 30
0.0
 11
1117.668229
 21
568.563232
 31
0.0
  0
LINE
  5
3D6
100
AcDbEntity
  8
DETAIL
  6
CONTINUOUS
 62
     5
100
AcDbLine
 10
1114.973151
 20
568.912157
 30
0.0
 11
1116.357684
 21
568.730522
 31
0.0
  0
LINE
  5
3D7
100
AcDbEntity
  8
DETAIL
  6
CONTINUOUS
 62
     5
100
AcDbLine
 10
1113.532592
 20
569.106519
 30
0.0
 11
1114.973151
 21
568.912157
 31
0.0
  0
LINE
  5
3D8
100
AcDbEntity
  8
DETAIL
  6
CONTINUOUS
 62
     5
100
AcDbLine
 10
1112.057657
 20
569.31122
 30
0.0
 11
1113.532592
 21
569.106519
 31
0.0
  0
LINE
  5
3D9
100
AcDbEntity
  8
DETAIL
  6
CONTINUOUS
 62
     5
100
AcDbLine
 10
1110.569684
 20
569.523594
 30
0.0
 11
1112.057657
 21
569.31122
 31
0.0
  0
LINE
  5
3DA
100
AcDbEntity
  8
DETAIL
  6
CONTINUOUS
 62
     5
100
AcDbLine
 10
1109.093307
 20
569.740127
 30
0.0
 11
1110.569684
 21
569.523594
 31
0.0
  0
LINE
  5
3DB
100
AcDbEntity
  8
DETAIL
  6
CONTINUOUS
 62
     5
100
AcDbLine
 10
1107.657166
 20
569.956312
 30
0.0
 11
1109.093307
 21
569.740127
 31
0.0
  0
LINE
  5
3DC
100
AcDbEntity
  8
DETAIL
  6
CONTINUOUS
 62
     5
100
AcDbLine
 10
1106.287881
 20
570.167499
 30
0.0
 11
1107.657166
 21
569.956312
 31
0.0
  0
LINE
  5
3DD
100
AcDbEntity
  8
DETAIL
  6
CONTINUOUS
 62
     5
100
AcDbLine
 10
1105.007466
 20
570.369401
 30
0.0
 11
1106.287881
 21
570.167499
 31
0.0
  0
LINE
  5
3DE
100
AcDbEntity
  8
DETAIL
  6
CONTINUOUS
 62
     5
100
AcDbLine
 10
1137.113515
 20
566.659188
 30
0.0
 11
1139.07308
 21
566.52985
 31
0.0
  0
LINE
  5
3DF
100
AcDbEntity
  8
DETAIL
  6
CONTINUOUS
 62
     5
100
AcDbLine
 10
1134.97493
 20
566.813564
 30
0.0
 11
1137.113515
 21
566.659188
 31
0.0
  0
LINE
  5
3E0
100
AcDbEntity
  8
DETAIL
  6
CONTINUOUS
 62
     5
100
AcDbLine
 10
1132.610245
 20
567.000238
 30
0.0
 11
1134.97493
 21
566.813564
 31
0.0
  0
LINE
  5
3E1
100
AcDbEntity
  8
DETAIL
  6
CONTINUOUS
 62
     5
100
AcDbLine
 10
1129.973615
 20
567.228064
 30
0.0
 11
1132.610245
 21
567.000238
 31
0.0
  0
LINE
  5
3E2
100
AcDbEntity
  8
DETAIL
  6
CONTINUOUS
 62
     5
100
AcDbLine
 10
1127.01937
 20
567.507896
 30
0.0
 11
1129.973615
 21
567.228064
 31
0.0
  0
LINE
  5
3E3
100
AcDbEntity
  8
DETAIL
  6
CONTINUOUS
 62
     5
100
AcDbLine
 10
1123.702428
 20
567.852939
 30
0.0
 11
1127.01937
 21
567.507896
 31
0.0
  0
LINE
  5
3E4
100
AcDbEntity
  8
DETAIL
  6
CONTINUOUS
 62
     5
100
AcDbLine
 10
1119.977733
 20
568.279276
 30
0.0
 11
1123.702428
 21
567.852939
 31
0.0
  0
LINE
  5
3E5
100
AcDbEntity
  8
DETAIL
  6
CONTINUOUS
 62
     5
100
AcDbLine
 10
1139.07308
 20
566.52985
 30
0.0
 11
1140.605673
 21
566.435596
 31
0.0
  0
LINE
  5
3E6
100
AcDbEntity
  8
DETAIL
  6
CONTINUOUS
 62
     5
100
AcDbLine
 10
1140.605673
 20
566.435596
 30
0.0
 11
1142.84128
 21
566.30696
 31
0.0
  0
LINE
  5
3E7
100
AcDbEntity
  8
DETAIL
  6
CONTINUOUS
 62
     5
100
AcDbLine
 10
1142.84128
 20
566.30696
 30
0.0
 11
1144.470917
 21
566.220272
 31
0.0
  0
LINE
  5
3E8
100
AcDbEntity
  8
DETAIL
  6
CONTINUOUS
 62
     5
100
AcDbLine
 10
1144.470917
 20
566.220272
 30
0.0
 11
1146.332067
 21
566.129072
 31
0.0
  0
LINE
  5
3E9
100
AcDbEntity
  8
DETAIL
  6
CONTINUOUS
 62
     5
100
AcDbLine
 10
1149.212884
 20
565.999679
 30
0.0
 11
1149.233898
 21
565.997075
 31
0.0
  0
LINE
  5
3EA
100
AcDbEntity
  8
DETAIL
  6
CONTINUOUS
 62
     5
100
AcDbLine
 10
1149.146218
 20
566.003804
 30
0.0
 11
1149.212884
 21
565.999679
 31
0.0
  0
LINE
  5
3EB
100
AcDbEntity
  8
DETAIL
  6
CONTINUOUS
 62
     5
100
AcDbLine
 10
1149.031788
 20
566.009541
 30
0.0
 11
1149.146218
 21
566.003804
 31
0.0
  0
LINE
  5
3EC
100
AcDbEntity
  8
DETAIL
  6
CONTINUOUS
 62
     5
100
AcDbLine
 10
1146.332067
 20
566.129072
 30
0.0
 11
1149.031788
 21
566.009541
 31
0.0
  0
ARC
  5
3ED
100
AcDbEntity
  8
NOTE
  6
CONTINUOUS
 62
     4
100
AcDbCircle
 10
1200.270415
 20
463.804464
 30
0.0
 40
2.236779
100
AcDbArc
 50
319.904575
 51
40.095425
  0
ARC
  5
3EE
100
AcDbEntity
  8
NOTE
  6
CONTINUOUS
 62
     4
100
AcDbCircle
 10
1200.017948
 20
473.804464
 30
0.0
 40
2.428163
100
AcDbArc
 50
318.67406
 51
41.32594
  0
ARC
  5
3EF
100
AcDbEntity
  8
NOTE
  6
CONTINUOUS
 62
     4
100
AcDbCircle
 10
1200.713848
 20
483.804464
 30
0.0
 40
1.892533
100
AcDbArc
 50
321.923328
 51
38.076672
  0
LINE
  5
3F0
100
AcDbEntity
  8
NOTE
  6
CONTINUOUS
 62
     4
100
AcDbLine
 10
1209.618181
 20
504.25094
 30
0.0
 11
1194.331762
 21
537.032771
 31
0.0
  0
LINE
  5
3F1
100
AcDbEntity
  8
NOTE
  6
CONTINUOUS
 62
     4
100
AcDbLine
 10
1194.331762
 20
437.2794
 30
0.0
 11
1194.331762
 21
537.032771
 31
0.0
  0
POINT
  5
3F2
100
AcDbEntity
  8
DEFPOINTS
  6
CONTINUOUS
 62
     7
100
AcDbPoint
 10
1409.333898
 20
565.843546
 30
0.0
  0
LINE
  5
3F3
100
AcDbEntity
  8
SIZE
  6
CONTINUOUS
 62
    30
100
AcDbLine
 10
1764.333898
 20
562.843546
 30
0.0
 11
1764.333898
 21
0.000008
 31
0.0
  0
LINE
  5
3F4
100
AcDbEntity
  8
SIZE
  6
CONTINUOUS
 62
    30
100
AcDbLine
 10
1764.333898
 20
562.843546
 30
0.0
 11
1764.333898
 21
161.121384
 31
0.0
  0
LINE
  5
3F5
100
AcDbEntity
  8
SIZE
  6
CONTINUOUS
 62
    30
100
AcDbLine
 10
1706.333898
 20
191.121384
 30
0.0
 11
1754.333898
 21
191.121384
 31
0.0
  0
LINE
  5
3F6
100
AcDbEntity
  8
SIZE
  6
CONTINUOUS
 62
    30
100
AcDbLine
 10
1701.333898
 20
191.121384
 30
0.0
 11
1706.333898
 21
191.121384
 31
0.0
  0
CIRCLE
  5
3F7
100
AcDbEntity
  8
SIZE
  6
CONTINUOUS
 62
    30
100
AcDbCircle
 10
1696.333898
 20
191.121384
 30
0.0
 40
5.0
  0
POINT
  5
3F8
100
AcDbEntity
  8
DEFPOINTS
  6
CONTINUOUS
 62
     7
100
AcDbPoint
 10
1696.333898
 20
191.121384
 30
0.0
  0
LINE
  5
3F9
100
AcDbEntity
  8
SIZE
  6
CONTINUOUS
 62
    30
100
AcDbLine
 10
1691.333898
 20
191.121384
 30
0.0
 11
1686.333898
 21
191.121384
 31
0.0
  0
CIRCLE
  5
3FA
100
AcDbEntity
  8
SIZE
  6
CONTINUOUS
 62
    30
100
AcDbCircle
 10
1696.333898
 20
191.121384
 30
0.0
 40
5.0
  0
POINT
  5
3FB
100
AcDbEntity
  8
DEFPOINTS
  6
CONTINUOUS
 62
     7
100
AcDbPoint
 10
1764.333898
 20
30.000008
 30
0.0
  0
LINE
  5
3FC
100
AcDbEntity
  8
SIZE
  6
CONTINUOUS
 62
    30
100
AcDbLine
 10
1759.333898
 20
30.000008
 30
0.0
 11
1754.333898
 21
30.000008
 31
0.0
  0
CIRCLE
  5
3FD
100
AcDbEntity
  8
SIZE
  6
CONTINUOUS
 62
    30
100
AcDbCircle
 10
1764.333898
 20
30.000008
 30
0.0
 40
5.0
  0
TEXT
  5
3FE
100
AcDbEntity
  8
SIZE
  6
CONTINUOUS
 62
    30
100
AcDbText
 10
1792.546787
 20
206.121384
 30
0.0
 40
55.0
  1
68
 41
0.9
 72
     1
 11
1832.618215
 21
206.121384
 31
0.0
100
AcDbText
  0
LINE
  5
3FF
100
AcDbEntity
  8
SIZE
  6
CONTINUOUS
 62
    30
100
AcDbLine
 10
1887.689644
 20
191.121384
 30
0.0
 11
1764.333898
 21
191.121384
 31
0.0
  0
POINT
  5
400
100
AcDbEntity
  8
DEFPOINTS
  6
CONTINUOUS
 62
     7
100
AcDbPoint
 10
1764.333898
 20
191.121384
 30
0.0
  0
LINE
  5
401
100
AcDbEntity
  8
SIZE
  6
CONTINUOUS
 62
    30
100
AcDbLine
 10
1759.333898
 20
191.121384
 30
0.0
 11
1754.333898
 21
191.121384
 31
0.0
  0
CIRCLE
  5
402
100
AcDbEntity
  8
SIZE
  6
CONTINUOUS
 62
    30
100
AcDbCircle
 10
1764.333898
 20
191.121384
 30
0.0
 40
5.0
  0
ARC
  5
403
100
AcDbEntity
  8
OUTLINE
  6
CONTINUOUS
 62
     3
100
AcDbCircle
 10
1659.333898
 20
898.608252
 30
0.0
 40
332.764706
100
AcDbArc
 50
280.570112
 51
288.393312
  0
LINE
  5
404
100
AcDbEntity
  8
SIZE
  6
CONTINUOUS
 62
    30
100
AcDbLine
 10
1744.333898
 20
329.811086
 30
0.0
 11
1764.333898
 21
329.811086
 31
0.0
  0
LINE
  5
405
100
AcDbEntity
  8
SIZE
  6
CONTINUOUS
 62
    30
100
AcDbLine
 10
1744.333898
 20
329.811086
 30
0.0
 11
1764.333898
 21
329.811086
 31
0.0
  0
ARC
  5
406
100
AcDbEntity
  8
DETAIL
  6
CONTINUOUS
 62
     5
100
AcDbCircle
 10
1659.333898
 20
898.608252
 30
0.0
 40
332.764706
100
AcDbArc
 50
280.570112
 51
288.393312
  0
LINE
  5
407
100
AcDbEntity
  8
SIZE
  6
CONTINUOUS
 62
    30
100
AcDbLine
 10
1744.333898
 20
565.843546
 30
0.0
 11
1744.333898
 21
299.811086
 31
0.0
  0
LINE
  5
408
100
AcDbEntity
  8
SIZE
  6
CONTINUOUS
 62
    30
100
AcDbLine
 10
1744.333898
 20
565.843546
 30
0.0
 11
1744.333898
 21
299.811086
 31
0.0
  0
LINE
  5
409
100
AcDbEntity
  8
SIZE
  6
CONTINUOUS
 62
    30
100
AcDbLine
 10
1739.333898
 20
329.811086
 30
0.0
 11
1734.333898
 21
329.811086
 31
0.0
  0
CIRCLE
  5
40A
100
AcDbEntity
  8
SIZE
  6
CONTINUOUS
 62
    30
100
AcDbCircle
 10
1744.333898
 20
329.811086
 30
0.0
 40
5.0
  0
LINE
  5
40B
100
AcDbEntity
  8
SIZE
  6
CONTINUOUS
 62
    30
100
AcDbLine
 10
1734.333898
 20
329.811086
 30
0.0
 11
1724.333898
 21
329.811086
 31
0.0
  0
POINT
  5
40C
100
AcDbEntity
  8
DEFPOINTS
  6
CONTINUOUS
 62
     7
100
AcDbPoint
 10
1744.333898
 20
329.811086
 30
0.0
  0
LINE
  5
40D
100
AcDbEntity
  8
SIZE
  6
CONTINUOUS
 62
    30
100
AcDbLine
 10
1739.333898
 20
329.811086
 30
0.0
 11
1734.333898
 21
329.811086
 31
0.0
  0
CIRCLE
  5
40E
100
AcDbEntity
  8
SIZE
  6
CONTINUOUS
 62
    30
100
AcDbCircle
 10
1744.333898
 20
329.811086
 30
0.0
 40
5.0
  0
ARC
  5
40F
100
AcDbEntity
  8
NOTE
  6
CONTINUOUS
 62
     4
100
AcDbCircle
 10
1604.997537
 20
463.804464
 30
0.0
 40
2.236779
100
AcDbArc
 50
139.904575
 51
220.095425
  0
ARC
  5
410
100
AcDbEntity
  8
NOTE
  6
CONTINUOUS
 62
     4
100
AcDbCircle
 10
1605.250004
 20
473.804464
 30
0.0
 40
2.428163
100
AcDbArc
 50
138.67406
 51
221.32594
  0
ARC
  5
411
100
AcDbEntity
  8
NOTE
  6
CONTINUOUS
 62
     4
100
AcDbCircle
 10
1604.554105
 20
483.804464
 30
0.0
 40
1.892533
100
AcDbArc
 50
141.923328
 51
218.076672
  0
ARC
  5
412
100
AcDbEntity
  8
NOTE
  6
CONTINUOUS
 62
     4
100
AcDbCircle
 10
1610.936191
 20
468.804464
 30
0.0
 40
10.0
100
AcDbArc
 50
30.0
 51
138.67406
  0
ARC
  5
413
100
AcDbEntity
  8
NOTE
  6
CONTINUOUS
 62
     4
100
AcDbCircle
 10
1610.936191
 20
468.804464
 30
0.0
 40
10.0
100
AcDbArc
 50
330.0
 51
30.0
  0
ARC
  5
414
100
AcDbEntity
  8
NOTE
  6
CONTINUOUS
 62
     4
100
AcDbCircle
 10
1610.936191
 20
468.804464
 30
0.0
 40
10.0
100
AcDbArc
 50
220.095425
 51
330.0
  0
ARC
  5
415
100
AcDbEntity
  8
NOTE
  6
CONTINUOUS
 62
     4
100
AcDbCircle
 10
1610.936191
 20
478.804464
 30
0.0
 40
10.0
100
AcDbArc
 50
330.0
 51
30.0
  0
ARC
  5
416
100
AcDbEntity
  8
NOTE
  6
CONTINUOUS
 62
     4
100
AcDbCircle
 10
1610.936191
 20
478.804464
 30
0.0
 40
10.0
100
AcDbArc
 50
30.0
 51
141.923328
  0
ARC
  5
417
100
AcDbEntity
  8
NOTE
  6
CONTINUOUS
 62
     4
100
AcDbCircle
 10
1610.936191
 20
478.804464
 30
0.0
 40
10.0
100
AcDbArc
 50
221.32594
 51
330.0
  0
ARC
  5
418
100
AcDbEntity
  8
NOTE
  6
CONTINUOUS
 62
     4
100
AcDbCircle
 10
1610.936191
 20
488.804464
 30
0.0
 40
10.0
100
AcDbArc
 50
218.076672
 51
90.0
  0
ARC
  5
419
100
AcDbEntity
  8
NOTE
  6
CONTINUOUS
 62
     4
100
AcDbCircle
 10
1610.936191
 20
458.804464
 30
0.0
 40
10.0
100
AcDbArc
 50
270.0
 51
139.904575
  0
LINE
  5
41A
100
AcDbEntity
  8
NOTE
  6
CONTINUOUS
 62
     4
100
AcDbLine
 10
1626.222609
 20
504.25094
 30
0.0
 11
1610.936191
 21
537.032771
 31
0.0
  0
LINE
  5
41B
100
AcDbEntity
  8
NOTE
  6
CONTINUOUS
 62
     4
100
AcDbLine
 10
1595.649772
 20
504.25094
 30
0.0
 11
1610.936191
 21
537.032771
 31
0.0
  0
LINE
  5
41C
100
AcDbEntity
  8
NOTE
  6
CONTINUOUS
 62
     4
100
AcDbLine
 10
1610.936191
 20
437.2794
 30
0.0
 11
1610.936191
 21
537.032771
 31
0.0
  0
ARC
  5
41D
100
AcDbEntity
  8
OUTLINE
  6
CONTINUOUS
 62
     3
100
AcDbCircle
 10
1659.333898
 20
898.608252
 30
0.0
 40
332.764706
100
AcDbArc
 50
270.0
 51
271.739296
  0
LINE
  5
41E
100
AcDbEntity
  8
OUTLINE
  6
CONTINUOUS
 62
     3
100
AcDbLine
 10
1702.310112
 20
568.730522
 30
0.0
 11
1700.999567
 21
568.563232
 31
0.0
  0
LINE
  5
41F
100
AcDbEntity
  8
OUTLINE
  6
CONTINUOUS
 62
     3
100
AcDbLine
 10
1703.694645
 20
568.912157
 30
0.0
 11
1702.310112
 21
568.730522
 31
0.0
  0
LINE
  5
420
100
AcDbEntity
  8
OUTLINE
  6
CONTINUOUS
 62
     3
100
AcDbLine
 10
1705.135204
 20
569.106519
 30
0.0
 11
1703.694645
 21
568.912157
 31
0.0
  0
LINE
  5
421
100
AcDbEntity
  8
OUTLINE
  6
CONTINUOUS
 62
     3
100
AcDbLine
 10
1706.610139
 20
569.31122
 30
0.0
 11
1705.135204
 21
569.106519
 31
0.0
  0
LINE
  5
422
100
AcDbEntity
  8
OUTLINE
  6
CONTINUOUS
 62
     3
100
AcDbLine
 10
1708.098112
 20
569.523594
 30
0.0
 11
1706.610139
 21
569.31122
 31
0.0
  0
LINE
  5
423
100
AcDbEntity
  8
OUTLINE
  6
CONTINUOUS
 62
     3
100
AcDbLine
 10
1709.574489
 20
569.740127
 30
0.0
 11
1708.098112
 21
569.523594
 31
0.0
  0
LINE
  5
424
100
AcDbEntity
  8
OUTLINE
  6
CONTINUOUS
 62
     3
100
AcDbLine
 10
1711.01063
 20
569.956312
 30
0.0
 11
1709.574489
 21
569.740127
 31
0.0
  0
LINE
  5
425
100
AcDbEntity
  8
OUTLINE
  6
CONTINUOUS
 62
     3
100
AcDbLine
 10
1712.379915
 20
570.167499
 30
0.0
 11
1711.01063
 21
569.956312
 31
0.0
  0
LINE
  5
426
100
AcDbEntity
  8
OUTLINE
  6
CONTINUOUS
 62
     3
100
AcDbLine
 10
1713.66033
 20
570.369401
 30
0.0
 11
1712.379915
 21
570.167499
 31
0.0
  0
LINE
  5
427
100
AcDbEntity
  8
OUTLINE
  6
CONTINUOUS
 62
     3
100
AcDbLine
 10
1715.911138
 20
570.734413
 30
0.0
 11
1713.66033
 21
570.369401
 31
0.0
  0
LINE
  5
428
100
AcDbEntity
  8
OUTLINE
  6
CONTINUOUS
 62
     3
100
AcDbLine
 10
1717.744644
 20
571.040658
 30
0.0
 11
1715.911138
 21
570.734413
 31
0.0
  0
LINE
  5
429
100
AcDbEntity
  8
OUTLINE
  6
CONTINUOUS
 62
     3
100
AcDbLine
 10
1720.37579
 20
571.490326
 30
0.0
 11
1717.744644
 21
571.040658
 31
0.0
  0
LINE
  5
42A
100
AcDbEntity
  8
OUTLINE
  6
CONTINUOUS
 62
     3
100
AcDbLine
 10
1683.692866
 20
566.813564
 30
0.0
 11
1681.554281
 21
566.659188
 31
0.0
  0
LINE
  5
42B
100
AcDbEntity
  8
OUTLINE
  6
CONTINUOUS
 62
     3
100
AcDbLine
 10
1686.057551
 20
567.000238
 30
0.0
 11
1683.692866
 21
566.813564
 31
0.0
  0
LINE
  5
42C
100
AcDbEntity
  8
OUTLINE
  6
CONTINUOUS
 62
     3
100
AcDbLine
 10
1688.694181
 20
567.228064
 30
0.0
 11
1686.057551
 21
567.000238
 31
0.0
  0
LINE
  5
42D
100
AcDbEntity
  8
OUTLINE
  6
CONTINUOUS
 62
     3
100
AcDbLine
 10
1691.648426
 20
567.507896
 30
0.0
 11
1688.694181
 21
567.228064
 31
0.0
  0
LINE
  5
42E
100
AcDbEntity
  8
OUTLINE
  6
CONTINUOUS
 62
     3
100
AcDbLine
 10
1694.965368
 20
567.852939
 30
0.0
 11
1691.648426
 21
567.507896
 31
0.0
  0
LINE
  5
42F
100
AcDbEntity
  8
OUTLINE
  6
CONTINUOUS
 62
     3
100
AcDbLine
 10
1698.690063
 20
568.279276
 30
0.0
 11
1694.965368
 21
567.852939
 31
0.0
  0
LINE
  5
430
100
AcDbEntity
  8
OUTLINE
  6
CONTINUOUS
 62
     3
100
AcDbLine
 10
1700.999567
 20
568.563232
 30
0.0
 11
1698.690063
 21
568.279276
 31
0.0
  0
LINE
  5
431
100
AcDbEntity
  8
OUTLINE
  6
CONTINUOUS
 62
     3
100
AcDbLine
 10
1677.518502
 20
566.403324
 30
0.0
 11
1675.826516
 21
566.30696
 31
0.0
  0
LINE
  5
432
100
AcDbEntity
  8
OUTLINE
  6
CONTINUOUS
 62
     3
100
AcDbLine
 10
1679.101025
 20
566.498971
 30
0.0
 11
1677.518502
 21
566.403324
 31
0.0
  0
LINE
  5
433
100
AcDbEntity
  8
OUTLINE
  6
CONTINUOUS
 62
     3
100
AcDbLine
 10
1681.554281
 20
566.659188
 30
0.0
 11
1679.101025
 21
566.498971
 31
0.0
  0
LINE
  5
434
100
AcDbEntity
  8
OUTLINE
  6
CONTINUOUS
 62
     3
100
AcDbLine
 10
1672.335729
 20
566.129072
 30
0.0
 11
1669.636008
 21
566.009541
 31
0.0
  0
LINE
  5
435
100
AcDbEntity
  8
OUTLINE
  6
CONTINUOUS
 62
     3
100
AcDbLine
 10
1674.196879
 20
566.220272
 30
0.0
 11
1672.335729
 21
566.129072
 31
0.0
  0
LINE
  5
436
100
AcDbEntity
  8
OUTLINE
  6
CONTINUOUS
 62
     3
100
AcDbLine
 10
1669.454912
 20
565.999679
 30
0.0
 11
1669.433898
 21
565.997075
 31
0.0
  0
LINE
  5
437
100
AcDbEntity
  8
OUTLINE
  6
CONTINUOUS
 62
     3
100
AcDbLine
 10
1669.521578
 20
566.003804
 30
0.0
 11
1669.454912
 21
565.999679
 31
0.0
  0
LINE
  5
438
100
AcDbEntity
  8
OUTLINE
  6
CONTINUOUS
 62
     3
100
AcDbLine
 10
1669.636008
 20
566.009541
 30
0.0
 11
1669.521578
 21
566.003804
 31
0.0
  0
LINE
  5
439
100
AcDbEntity
  8
OUTLINE
  6
CONTINUOUS
 62
     3
100
AcDbLine
 10
1675.826516
 20
566.30696
 30
0.0
 11
1674.196879
 21
566.220272
 31
0.0
  0
LINE
  5
43A
100
AcDbEntity
  8
NOTE
  6
CONTINUOUS
 62
     4
100
AcDbLine
 10
1709.146273
 20
509.51611
 30
0.0
 11
1696.146273
 21
532.032771
 31
0.0
  0
LINE
  5
43B
100
AcDbEntity
  8
NOTE
  6
CONTINUOUS
 62
     4
100
AcDbLine
 10
1726.466781
 20
519.51611
 30
0.0
 11
1713.466781
 21
542.032771
 31
0.0
  0
LINE
  5
43C
100
AcDbEntity
  8
NOTE
  6
CONTINUOUS
 62
     4
100
AcDbLine
 10
1748.948773
 20
460.576158
 30
0.0
 11
1746.190689
 21
492.101204
 31
0.0
  0
LINE
  5
43D
100
AcDbEntity
  8
NOTE
  6
CONTINUOUS
 62
     4
100
AcDbLine
 10
1748.948773
 20
460.576158
 30
0.0
 11
1723.026325
 21
478.727252
 31
0.0
  0
LINE
  5
43E
100
AcDbEntity
  8
NOTE
  6
CONTINUOUS
 62
     4
100
AcDbLine
 10
1748.948773
 20
460.576158
 30
0.0
 11
1704.806527
 21
537.032771
 31
0.0
  0
ARC
  5
43F
100
AcDbEntity
  8
DETAIL
  6
CONTINUOUS
 62
     5
100
AcDbCircle
 10
1659.333898
 20
898.608252
 30
0.0
 40
332.764706
100
AcDbArc
 50
270.0
 51
271.739296
  0
LINE
  5
440
100
AcDbEntity
  8
DETAIL
  6
CONTINUOUS
 62
     5
100
AcDbLine
 10
1702.310112
 20
568.730522
 30
0.0
 11
1700.999567
 21
568.563232
 31
0.0
  0
LINE
  5
441
100
AcDbEntity
  8
DETAIL
  6
CONTINUOUS
 62
     5
100
AcDbLine
 10
1703.694645
 20
568.912157
 30
0.0
 11
1702.310112
 21
568.730522
 31
0.0
  0
LINE
  5
442
100
AcDbEntity
  8
DETAIL
  6
CONTINUOUS
 62
     5
100
AcDbLine
 10
1705.135204
 20
569.106519
 30
0.0
 11
1703.694645
 21
568.912157
 31
0.0
  0
LINE
  5
443
100
AcDbEntity
  8
DETAIL
  6
CONTINUOUS
 62
     5
100
AcDbLine
 10
1706.610139
 20
569.31122
 30
0.0
 11
1705.135204
 21
569.106519
 31
0.0
  0
LINE
  5
444
100
AcDbEntity
  8
DETAIL
  6
CONTINUOUS
 62
     5
100
AcDbLine
 10
1708.098112
 20
569.523594
 30
0.0
 11
1706.610139
 21
569.31122
 31
0.0
  0
LINE
  5
445
100
AcDbEntity
  8
DETAIL
  6
CONTINUOUS
 62
     5
100
AcDbLine
 10
1709.574489
 20
569.740127
 30
0.0
 11
1708.098112
 21
569.523594
 31
0.0
  0
LINE
  5
446
100
AcDbEntity
  8
DETAIL
  6
CONTINUOUS
 62
     5
100
AcDbLine
 10
1711.01063
 20
569.956312
 30
0.0
 11
1709.574489
 21
569.740127
 31
0.0
  0
LINE
  5
447
100
AcDbEntity
  8
DETAIL
  6
CONTINUOUS
 62
     5
100
AcDbLine
 10
1712.379915
 20
570.167499
 30
0.0
 11
1711.01063
 21
569.956312
 31
0.0
  0
LINE
  5
448
100
AcDbEntity
  8
DETAIL
  6
CONTINUOUS
 62
     5
100
AcDbLine
 10
1713.66033
 20
570.369401
 30
0.0
 11
1712.379915
 21
570.167499
 31
0.0
  0
LINE
  5
449
100
AcDbEntity
  8
DETAIL
  6
CONTINUOUS
 62
     5
100
AcDbLine
 10
1715.911138
 20
570.734413
 30
0.0
 11
1713.66033
 21
570.369401
 31
0.0
  0
LINE
  5
44A
100
AcDbEntity
  8
DETAIL
  6
CONTINUOUS
 62
     5
100
AcDbLine
 10
1717.744644
 20
571.040658
 30
0.0
 11
1715.911138
 21
570.734413
 31
0.0
  0
LINE
  5
44B
100
AcDbEntity
  8
DETAIL
  6
CONTINUOUS
 62
     5
100
AcDbLine
 10
1720.37579
 20
571.490326
 30
0.0
 11
1717.744644
 21
571.040658
 31
0.0
  0
LINE
  5
44C
100
AcDbEntity
  8
DETAIL
  6
CONTINUOUS
 62
     5
100
AcDbLine
 10
1683.692866
 20
566.813564
 30
0.0
 11
1681.554281
 21
566.659188
 31
0.0
  0
LINE
  5
44D
100
AcDbEntity
  8
DETAIL
  6
CONTINUOUS
 62
     5
100
AcDbLine
 10
1686.057551
 20
567.000238
 30
0.0
 11
1683.692866
 21
566.813564
 31
0.0
  0
LINE
  5
44E
100
AcDbEntity
  8
DETAIL
  6
CONTINUOUS
 62
     5
100
AcDbLine
 10
1688.694181
 20
567.228064
 30
0.0
 11
1686.057551
 21
567.000238
 31
0.0
  0
LINE
  5
44F
100
AcDbEntity
  8
DETAIL
  6
CONTINUOUS
 62
     5
100
AcDbLine
 10
1691.648426
 20
567.507896
 30
0.0
 11
1688.694181
 21
567.228064
 31
0.0
  0
LINE
  5
450
100
AcDbEntity
  8
DETAIL
  6
CONTINUOUS
 62
     5
100
AcDbLine
 10
1694.965368
 20
567.852939
 30
0.0
 11
1691.648426
 21
567.507896
 31
0.0
  0
LINE
  5
451
100
AcDbEntity
  8
DETAIL
  6
CONTINUOUS
 62
     5
100
AcDbLine
 10
1698.690063
 20
568.279276
 30
0.0
 11
1694.965368
 21
567.852939
 31
0.0
  0
LINE
  5
452
100
AcDbEntity
  8
DETAIL
  6
CONTINUOUS
 62
     5
100
AcDbLine
 10
1700.999567
 20
568.563232
 30
0.0
 11
1698.690063
 21
568.279276
 31
0.0
  0
LINE
  5
453
100
AcDbEntity
  8
DETAIL
  6
CONTINUOUS
 62
     5
100
AcDbLine
 10
1677.518502
 20
566.403324
 30
0.0
 11
1675.826516
 21
566.30696
 31
0.0
  0
LINE
  5
454
100
AcDbEntity
  8
DETAIL
  6
CONTINUOUS
 62
     5
100
AcDbLine
 10
1679.101025
 20
566.498971
 30
0.0
 11
1677.518502
 21
566.403324
 31
0.0
  0
LINE
  5
455
100
AcDbEntity
  8
DETAIL
  6
CONTINUOUS
 62
     5
100
AcDbLine
 10
1681.554281
 20
566.659188
 30
0.0
 11
1679.101025
 21
566.498971
 31
0.0
  0
LINE
  5
456
100
AcDbEntity
  8
DETAIL
  6
CONTINUOUS
 62
     5
100
AcDbLine
 10
1672.335729
 20
566.129072
 30
0.0
 11
1669.636008
 21
566.009541
 31
0.0
  0
LINE
  5
457
100
AcDbEntity
  8
DETAIL
  6
CONTINUOUS
 62
     5
100
AcDbLine
 10
1674.196879
 20
566.220272
 30
0.0
 11
1672.335729
 21
566.129072
 31
0.0
  0
LINE
  5
458
100
AcDbEntity
  8
DETAIL
  6
CONTINUOUS
 62
     5
100
AcDbLine
 10
1669.454912
 20
565.999679
 30
0.0
 11
1669.433898
 21
565.997075
 31
0.0
  0
LINE
  5
459
100
AcDbEntity
  8
DETAIL
  6
CONTINUOUS
 62
     5
100
AcDbLine
 10
1669.521578
 20
566.003804
 30
0.0
 11
1669.454912
 21
565.999679
 31
0.0
  0
LINE
  5
45A
100
AcDbEntity
  8
DETAIL
  6
CONTINUOUS
 62
     5
100
AcDbLine
 10
1669.636008
 20
566.009541
 30
0.0
 11
1669.521578
 21
566.003804
 31
0.0
  0
LINE
  5
45B
100
AcDbEntity
  8
DETAIL
  6
CONTINUOUS
 62
     5
100
AcDbLine
 10
1675.826516
 20
566.30696
 30
0.0
 11
1674.196879
 21
566.220272
 31
0.0
  0
LINE
  5
45C
100
AcDbEntity
  8
SIZE
  6
CONTINUOUS
 62
    30
100
AcDbLine
 10
1764.333898
 20
562.843546
 30
0.0
 11
1764.333898
 21
299.811086
 31
0.0
  0
TEXT
  5
45D
100
AcDbEntity
  8
SIZE
  6
CONTINUOUS
 62
    30
100
AcDbText
 10
1800.857947
 20
344.811086
 30
0.0
 40
55.0
  1
20
 41
0.9
 72
     1
 11
1840.929375
 21
344.811086
 31
0.0
100
AcDbText
  0
LINE
  5
45E
100
AcDbEntity
  8
SIZE
  6
CONTINUOUS
 62
    30
100
AcDbLine
 10
1896.000804
 20
329.811086
 30
0.0
 11
1764.333898
 21
329.811086
 31
0.0
  0
POINT
  5
45F
100
AcDbEntity
  8
DEFPOINTS
  6
CONTINUOUS
 62
     7
100
AcDbPoint
 10
1764.333898
 20
329.811086
 30
0.0
  0
LINE
  5
460
100
AcDbEntity
  8
SIZE
  6
CONTINUOUS
 62
    30
100
AcDbLine
 10
1769.333898
 20
329.811086
 30
0.0
 11
1774.333898
 21
329.811086
 31
0.0
  0
CIRCLE
  5
461
100
AcDbEntity
  8
SIZE
  6
CONTINUOUS
 62
    30
100
AcDbCircle
 10
1764.333898
 20
329.811086
 30
0.0
 40
5.0
  0
LINE
  5
462
100
AcDbEntity
  8
SIZE
  6
CONTINUOUS
 62
    30
100
AcDbLine
 10
1774.333898
 20
329.811086
 30
0.0
 11
1784.333898
 21
329.811086
 31
0.0
  0
POINT
  5
463
100
AcDbEntity
  8
DEFPOINTS
  6
CONTINUOUS
 62
     7
100
AcDbPoint
 10
1764.333898
 20
582.843546
 30
0.0
  0
POINT
  5
464
100
AcDbEntity
  8
DEFPOINTS
  6
CONTINUOUS
 62
     7
100
AcDbPoint
 10
1764.333898
 20
582.843546
 30
0.0
  0
POINT
  5
465
100
AcDbEntity
  8
DEFPOINTS
  6
CONTINUOUS
 62
     7
100
AcDbPoint
 10
1764.333898
 20
582.843546
 30
0.0
  0
TEXT
  5
466
100
AcDbEntity
  8
NOTE
  6
CONTINUOUS
 62
     4
100
AcDbText
 10
2221.537545
 20
272.562156
 30
0.0
 40
64.0
  1
AH4-14×30長穴
 41
0.9
100
AcDbText
  0
LINE
  5
467
100
AcDbEntity
  8
SIZE
  6
CONTINUOUS
 62
    30
100
AcDbLine
 10
2396.349292
 20
430.616148
 30
0.0
 11
2396.349292
 21
565.843546
 31
0.0
  0
POINT
  5
468
100
AcDbEntity
  8
DEFPOINTS
  6
CONTINUOUS
 62
     7
100
AcDbPoint
 10
2396.349292
 20
565.843546
 30
0.0
  0
LINE
  5
469
100
AcDbEntity
  8
SIZE
  6
CONTINUOUS
 62
    30
100
AcDbLine
 10
2396.349292
 20
560.843546
 30
0.0
 11
2396.349292
 21
555.843546
 31
0.0
  0
CIRCLE
  5
46A
100
AcDbEntity
  8
SIZE
  6
CONTINUOUS
 62
    30
100
AcDbCircle
 10
2396.349292
 20
565.843546
 30
0.0
 40
5.0
  0
TEXT
  5
46B
100
AcDbEntity
  8
SIZE
  6
CONTINUOUS
 62
    30
100
AcDbText
 10
2381.349292
 20
445.616148
 30
0.0
 40
55.0
  1
20
 50
90.0
 41
0.9
 72
     1
 11
2381.349292
 21
485.687577
 31
0.0
100
AcDbText
  0
LINE
  5
46C
100
AcDbEntity
  8
SIZE
  6
CONTINUOUS
 62
    30
100
AcDbLine
 10
2396.349292
 20
555.843546
 30
0.0
 11
2396.349292
 21
545.843546
 31
0.0
  0
LINE
  5
46D
100
AcDbEntity
  8
NOTE
  6
CONTINUOUS
 62
     4
100
AcDbLine
 10
1986.219572
 20
1060.222009
 30
0.0
 11
1580.333364
 21
807.842579
 31
0.0
  0
LINE
  5
46E
100
AcDbEntity
  8
SIZE
  6
CONTINUOUS
 62
    30
100
AcDbLine
 10
1864.333898
 20
585.843546
 30
0.0
 11
2426.349292
 21
585.843546
 31
0.0
  0
LINE
  5
46F
100
AcDbEntity
  8
SIZE
  6
CONTINUOUS
 62
    30
100
AcDbLine
 10
1864.333898
 20
585.843546
 30
0.0
 11
2426.349292
 21
585.843546
 31
0.0
  0
LINE
  5
470
100
AcDbEntity
  8
SIZE
  6
CONTINUOUS
 62
    30
100
AcDbLine
 10
1864.333898
 20
975.843546
 30
0.0
 11
2426.349292
 21
975.843546
 31
0.0
  0
LINE
  5
471
100
AcDbEntity
  8
SIZE
  6
CONTINUOUS
 62
    30
100
AcDbLine
 10
1746.333898
 20
639.843042
 30
0.0
 11
2291.296056
 21
639.843042
 31
0.0
  0
LINE
  5
472
100
AcDbEntity
  8
SIZE
  6
CONTINUOUS
 62
    30
100
AcDbLine
 10
1746.333898
 20
929.843042
 30
0.0
 11
2291.296056
 21
929.843042
 31
0.0
  0
LINE
  5
473
100
AcDbEntity
  8
SIZE
  6
CONTINUOUS
 62
    30
100
AcDbLine
 10
1741.333898
 20
739.843042
 30
0.0
 11
2143.642904
 21
739.843042
 31
0.0
  0
LINE
  5
474
100
AcDbEntity
  8
SIZE
  6
CONTINUOUS
 62
    30
100
AcDbLine
 10
1746.333898
 20
929.843042
 30
0.0
 11
2143.642904
 21
929.843042
 31
0.0
  0
CIRCLE
  5
475
100
AcDbEntity
  8
SIZE
  6
CONTINUOUS
 62
    30
100
AcDbCircle
 10
1974.312391
 20
807.843042
 30
0.0
 40
5.0
  0
CIRCLE
  5
476
100
AcDbEntity
  8
SIZE
  6
CONTINUOUS
 62
    30
100
AcDbCircle
 10
1974.312391
 20
929.843042
 30
0.0
 40
5.0
  0
LINE
  5
477
100
AcDbEntity
  8
SIZE
  6
CONTINUOUS
 62
    30
100
AcDbLine
 10
1631.633898
 20
807.843042
 30
0.0
 11
2004.312391
 21
807.843042
 31
0.0
  0
LINE
  5
478
100
AcDbEntity
  8
SIZE
  6
CONTINUOUS
 62
    30
100
AcDbLine
 10
1746.333898
 20
929.843042
 30
0.0
 11
2004.312391
 21
929.843042
 31
0.0
  0
LINE
  5
479
100
AcDbEntity
  8
NOTE
  6
CONTINUOUS
 62
     4
100
AcDbLine
 10
1928.483071
 20
1244.567354
 30
0.0
 11
2347.182036
 21
1244.567354
 31
0.0
  0
TEXT
  5
47A
100
AcDbEntity
  8
NOTE
  6
CONTINUOUS
 62
     4
100
AcDbText
 10
1962.880829
 20
1264.437942
 30
0.0
 40
64.0
  1
RL %%C6.35
 41
0.9
100
AcDbText
  0
LINE
  5
47B
100
AcDbEntity
  8
NOTE
  6
CONTINUOUS
 62
     4
100
AcDbLine
 10
1928.483071
 20
1244.567354
 30
0.0
 11
1510.3335
 21
807.842427
 31
0.0
  0
LINE
  5
47C
100
AcDbEntity
  8
SIZE
  6
CONTINUOUS
 62
    30
100
AcDbLine
 10
1092.333898
 20
949.843042
 30
0.0
 11
1092.333898
 21
1456.79875
 31
0.0
  0
LINE
  5
47D
100
AcDbEntity
  8
SIZE
  6
CONTINUOUS
 62
    30
100
AcDbLine
 10
1726.333898
 20
949.843042
 30
0.0
 11
1726.333898
 21
1456.79875
 31
0.0
  0
LINE
  5
47E
100
AcDbEntity
  8
SIZE
  6
CONTINUOUS
 62
    30
100
AcDbLine
 10
1219.333898
 20
711.53535
 30
0.0
 11
1219.333898
 21
1339.4379
 31
0.0
  0
LINE
  5
47F
100
AcDbEntity
  8
SIZE
  6
CONTINUOUS
 62
    30
100
AcDbLine
 10
1726.333898
 20
949.843042
 30
0.0
 11
1726.333898
 21
1339.4379
 31
0.0
  0
LINE
  5
480
100
AcDbEntity
  8
SIZE
  6
CONTINUOUS
 62
    30
100
AcDbLine
 10
1229.333898
 20
915.03535
 30
0.0
 11
1229.333898
 21
1217.151765
 31
0.0
  0
LINE
  5
481
100
AcDbEntity
  8
SIZE
  6
CONTINUOUS
 62
    30
100
AcDbLine
 10
1726.333898
 20
949.843042
 30
0.0
 11
1726.333898
 21
1217.151765
 31
0.0
  0
POLYLINE
  5
482
100
AcDbEntity
  8
OUTLINE
  6
CONTINUOUS
 62
     3
100
AcDb2dPolyline
 66
     1
 10
0.0
 20
0.0
 30
0.0
 70
     1
  0
VERTEX
  5
483
100
AcDbEntity
  8
OUTLINE
  6
CONTINUOUS
 62
     3
100
AcDbVertex
100
AcDb2dVertex
 10
1092.333898
 20
639.843042
 30
0.0
  0
VERTEX
  5
484
100
AcDbEntity
  8
OUTLINE
  6
CONTINUOUS
 62
     3
100
AcDbVertex
100
AcDb2dVertex
 10
1726.333898
 20
639.843042
 30
0.0
  0
VERTEX
  5
485
100
AcDbEntity
  8
OUTLINE
  6
CONTINUOUS
 62
     3
100
AcDbVertex
100
AcDb2dVertex
 10
1726.333898
 20
630.843546
 30
0.0
  0
VERTEX
  5
486
100
AcDbEntity
  8
OUTLINE
  6
CONTINUOUS
 62
     3
100
AcDbVertex
100
AcDb2dVertex
 10
1092.333898
 20
630.843546
 30
0.0
  0
SEQEND
  5
487
100
AcDbEntity
  8
OUTLINE
  6
CONTINUOUS
 62
     3
  0
LINE
  5
488
100
AcDbEntity
  8
OUTLINE
  6
CONTINUOUS
 62
     3
100
AcDbLine
 10
1726.333898
 20
929.843042
 30
0.0
 11
1092.333898
 21
929.843042
 31
0.0
  0
LINE
  5
489
100
AcDbEntity
  8
NOTE
  6
CONTINUOUS
 62
     4
100
AcDbLine
 10
1510.333922
 20
807.842839
 30
0.0
 11
1539.693789
 21
825.741103
 31
0.0
  0
LINE
  5
48A
100
AcDbEntity
  8
SIZE
  6
CONTINUOUS
 62
    30
100
AcDbLine
 10
1716.333898
 20
1187.151765
 30
0.0
 11
1239.333898
 21
1187.151765
 31
0.0
  0
LINE
  5
48B
100
AcDbEntity
  8
SIZE
  6
CONTINUOUS
 62
    30
100
AcDbLine
 10
1570.333898
 20
1081.487705
 30
0.0
 11
1520.333898
 21
1081.487705
 31
0.0
  0
LINE
  5
48C
100
AcDbEntity
  8
NOTE
  6
CONTINUOUS
 62
     4
100
AcDbLine
 10
1540.833898
 20
807.843042
 30
0.0
 11
1479.833898
 21
807.843042
 31
0.0
  0
LINE
  5
48D
100
AcDbEntity
  8
DETAIL
  6
CONTINUOUS
 62
     5
100
AcDbLine
 10
1726.333898
 20
929.843042
 30
0.0
 11
1092.333898
 21
929.843042
 31
0.0
  0
LINE
  5
48E
100
AcDbEntity
  8
DETAIL
  6
CONTINUOUS
 62
     5
100
AcDbLine
 10
1465.540091
 20
877.043042
 30
0.0
 11
1625.940091
 21
877.043042
 31
0.0
  0
LINE
  5
48F
100
AcDbEntity
  8
DETAIL
  6
CONTINUOUS
 62
     5
100
AcDbLine
 10
1465.540091
 20
877.043042
 30
0.0
 11
1625.940091
 21
877.043042
 31
0.0
  0
LINE
  5
490
100
AcDbEntity
  8
DETAIL
  6
CONTINUOUS
 62
     5
100
AcDbLine
 10
1092.333898
 20
630.843546
 30
0.0
 11
1726.333898
 21
630.843546
 31
0.0
  0
LINE
  5
491
100
AcDbEntity
  8
DETAIL
  6
CONTINUOUS
 62
     5
100
AcDbLine
 10
1726.333898
 20
639.843042
 30
0.0
 11
1092.333898
 21
639.843042
 31
0.0
  0
LINE
  5
492
100
AcDbEntity
  8
DETAIL
  6
CONTINUOUS
 62
     5
100
AcDbLine
 10
1726.333898
 20
630.843546
 30
0.0
 11
1092.333898
 21
630.843546
 31
0.0
  0
LINE
  5
493
100
AcDbEntity
  8
OUTLINE
  6
CONTINUOUS
 62
     3
100
AcDbLine
 10
1092.333898
 20
585.843546
 30
0.0
 11
1092.333898
 21
929.843042
 31
0.0
  0
LINE
  5
494
100
AcDbEntity
  8
NOTE
  6
CONTINUOUS
 62
     4
100
AcDbLine
 10
1229.334187
 20
869.842869
 30
0.0
 11
1206.4367
 21
895.495448
 31
0.0
  0
LINE
  5
495
100
AcDbEntity
  8
NOTE
  6
CONTINUOUS
 62
     4
100
AcDbLine
 10
1229.334187
 20
869.842869
 30
0.0
 11
1222.330672
 21
903.507397
 31
0.0
  0
LINE
  5
496
100
AcDbEntity
  8
SIZE
  6
CONTINUOUS
 62
    30
100
AcDbLine
 10
1510.333898
 20
858.343042
 30
0.0
 11
1510.333898
 21
1111.487705
 31
0.0
  0
LINE
  5
497
100
AcDbEntity
  8
NOTE
  6
CONTINUOUS
 62
     4
100
AcDbLine
 10
1229.333898
 20
895.03535
 30
0.0
 11
1229.333898
 21
844.650734
 31
0.0
  0
LINE
  5
498
100
AcDbEntity
  8
DETAIL
  6
CONTINUOUS
 62
     5
100
AcDbLine
 10
1092.333898
 20
585.843546
 30
0.0
 11
1092.333898
 21
929.843042
 31
0.0
  0
LINE
  5
499
100
AcDbEntity
  8
DETAIL
  6
CONTINUOUS
 62
     5
100
AcDbLine
 10
1300.333898
 20
830.343042
 30
0.0
 11
1440.333898
 21
830.343042
 31
0.0
  0
LINE
  5
49A
100
AcDbEntity
  8
DETAIL
  6
CONTINUOUS
 62
     5
100
AcDbLine
 10
1300.333898
 20
779.759914
 30
0.0
 11
1440.333898
 21
779.759914
 31
0.0
  0
LINE
  5
49B
100
AcDbEntity
  8
DETAIL
  6
CONTINUOUS
 62
     5
100
AcDbLine
 10
1300.333898
 20
762.104851
 30
0.0
 11
1440.333898
 21
762.104851
 31
0.0
  0
LINE
  5
49C
100
AcDbEntity
  8
DETAIL
  6
CONTINUOUS
 62
     5
100
AcDbLine
 10
1300.333898
 20
707.104851
 30
0.0
 11
1440.333898
 21
707.104851
 31
0.0
  0
CIRCLE
  5
49D
100
AcDbEntity
  8
FIX
  6
CONTINUOUS
 62
    11
100
AcDbCircle
 10
1122.333898
 20
739.843042
 30
0.0
 40
14.940051
  0
LINE
  5
49E
100
AcDbEntity
  8
NOTE
  6
CONTINUOUS
 62
     4
100
AcDbLine
 10
1122.333898
 20
757.843042
 30
0.0
 11
1122.333898
 21
721.843042
 31
0.0
  0
LINE
  5
49F
100
AcDbEntity
  8
DETAIL
  6
CONTINUOUS
 62
     5
100
AcDbLine
 10
1147.333898
 20
739.843042
 30
0.0
 11
1147.333898
 21
701.843042
 31
0.0
  0
LINE
  5
4A0
100
AcDbEntity
  8
DETAIL
  6
CONTINUOUS
 62
     5
100
AcDbLine
 10
1097.333898
 20
739.843042
 30
0.0
 11
1097.333898
 21
701.843042
 31
0.0
  0
LINE
  5
4A1
100
AcDbEntity
  8
DETAIL
  6
CONTINUOUS
 62
     5
100
AcDbLine
 10
1116.333898
 20
739.843042
 30
0.0
 11
1116.333898
 21
730.843042
 31
0.0
  0
LINE
  5
4A2
100
AcDbEntity
  8
DETAIL
  6
CONTINUOUS
 62
     5
100
AcDbLine
 10
1128.333898
 20
739.843042
 30
0.0
 11
1128.333898
 21
730.843042
 31
0.0
  0
LINE
  5
4A3
100
AcDbEntity
  8
DETAIL
  6
CONTINUOUS
 62
     5
100
AcDbLine
 10
1300.333898
 20
830.343042
 30
0.0
 11
1300.333898
 21
707.104851
 31
0.0
  0
CIRCLE
  5
4A4
100
AcDbEntity
  8
DETAIL
  6
CONTINUOUS
 62
     5
100
AcDbCircle
 10
1259.333898
 20
754.843042
 30
0.0
 40
18.5
  0
LINE
  5
4A5
100
AcDbEntity
  8
NOTE
  6
CONTINUOUS
 62
     4
100
AcDbLine
 10
1219.334222
 20
663.842908
 30
0.0
 11
1191.333321
 21
683.800344
 31
0.0
  0
LINE
  5
4A6
100
AcDbEntity
  8
NOTE
  6
CONTINUOUS
 62
     4
100
AcDbLine
 10
1247.026206
 20
663.843042
 30
0.0
 11
1191.64159
 21
663.843042
 31
0.0
  0
POINT
  5
4A7
100
AcDbEntity
  8
DEFPOINTS
  6
CONTINUOUS
 62
     7
100
AcDbPoint
 10
1122.333898
 20
724.902991
 30
0.0
  0
POINT
  5
4A8
100
AcDbEntity
  8
DEFPOINTS
  6
CONTINUOUS
 62
     7
100
AcDbPoint
 10
1122.333898
 20
724.902991
 30
0.0
  0
POINT
  5
4A9
100
AcDbEntity
  8
DEFPOINTS
  6
CONTINUOUS
 62
     7
100
AcDbPoint
 10
1191.64159
 20
663.843042
 30
0.0
  0
POINT
  5
4AA
100
AcDbEntity
  8
DEFPOINTS
  6
CONTINUOUS
 62
     7
100
AcDbPoint
 10
1092.333898
 20
630.843546
 30
0.0
  0
LINE
  5
4AB
100
AcDbEntity
  8
DETAIL
  6
CONTINUOUS
 62
     5
100
AcDbLine
 10
1133.333898
 20
695.143042
 30
0.0
 11
1111.333898
 21
695.143042
 31
0.0
  0
LINE
  5
4AC
100
AcDbEntity
  8
DETAIL
  6
CONTINUOUS
 62
     5
100
AcDbLine
 10
1111.333898
 20
700.143042
 30
0.0
 11
1112.333898
 21
700.143042
 31
0.0
  0
LINE
  5
4AD
100
AcDbEntity
  8
DETAIL
  6
CONTINUOUS
 62
     5
100
AcDbLine
 10
1133.333898
 20
700.143042
 30
0.0
 11
1133.333898
 21
695.143042
 31
0.0
  0
LINE
  5
4AE
100
AcDbEntity
  8
DETAIL
  6
CONTINUOUS
 62
     5
100
AcDbLine
 10
1111.333898
 20
695.143042
 30
0.0
 11
1111.333898
 21
700.143042
 31
0.0
  0
LINE
  5
4AF
100
AcDbEntity
  8
DETAIL
  6
CONTINUOUS
 62
     5
100
AcDbLine
 10
1132.333898
 20
700.143042
 30
0.0
 11
1133.333898
 21
700.143042
 31
0.0
  0
LINE
  5
4B0
100
AcDbEntity
  8
DETAIL
  6
CONTINUOUS
 62
     5
100
AcDbLine
 10
1112.333898
 20
701.843042
 30
0.0
 11
1097.333898
 21
701.843042
 31
0.0
  0
LINE
  5
4B1
100
AcDbEntity
  8
DETAIL
  6
CONTINUOUS
 62
     5
100
AcDbLine
 10
1147.333898
 20
701.843042
 30
0.0
 11
1132.333898
 21
701.843042
 31
0.0
  0
LINE
  5
4B2
100
AcDbEntity
  8
DETAIL
  6
CONTINUOUS
 62
     5
100
AcDbLine
 10
1132.333898
 20
701.843042
 30
0.0
 11
1132.333898
 21
696.843042
 31
0.0
  0
LINE
  5
4B3
100
AcDbEntity
  8
DETAIL
  6
CONTINUOUS
 62
     5
100
AcDbLine
 10
1112.333898
 20
701.843042
 30
0.0
 11
1112.333898
 21
696.843042
 31
0.0
  0
LINE
  5
4B4
100
AcDbEntity
  8
DETAIL
  6
CONTINUOUS
 62
     5
100
AcDbLine
 10
1132.333898
 20
696.843042
 30
0.0
 11
1112.333898
 21
696.843042
 31
0.0
  0
CIRCLE
  5
4B5
100
AcDbEntity
  8
DETAIL
  6
CONTINUOUS
 62
     5
100
AcDbCircle
 10
1122.333898
 20
719.843042
 30
0.0
 40
3.5
  0
ARC
  5
4B6
100
AcDbEntity
  8
DETAIL
  6
CONTINUOUS
 62
     5
100
AcDbCircle
 10
1113.333898
 20
730.843042
 30
0.0
 40
3.0
100
AcDbArc
 50
270.0
 51
0.0
  0
LINE
  5
4B7
100
AcDbEntity
  8
DETAIL
  6
CONTINUOUS
 62
     5
100
AcDbLine
 10
1113.333898
 20
727.843042
 30
0.0
 11
1100.333898
 21
727.843042
 31
0.0
  0
ARC
  5
4B8
100
AcDbEntity
  8
DETAIL
  6
CONTINUOUS
 62
     5
100
AcDbCircle
 10
1131.333898
 20
730.843042
 30
0.0
 40
3.0
100
AcDbArc
 50
180.0
 51
270.0
  0
LINE
  5
4B9
100
AcDbEntity
  8
DETAIL
  6
CONTINUOUS
 62
     5
100
AcDbLine
 10
1144.333898
 20
727.843042
 30
0.0
 11
1131.333898
 21
727.843042
 31
0.0
  0
ARC
  5
4BA
100
AcDbEntity
  8
DETAIL
  6
CONTINUOUS
 62
     5
100
AcDbCircle
 10
1144.333898
 20
730.843042
 30
0.0
 40
3.0
100
AcDbArc
 50
270.0
 51
0.0
  0
ARC
  5
4BB
100
AcDbEntity
  8
DETAIL
  6
CONTINUOUS
 62
     5
100
AcDbCircle
 10
1100.333898
 20
730.843042
 30
0.0
 40
3.0
100
AcDbArc
 50
180.0
 51
270.0
  0
LINE
  5
4BC
100
AcDbEntity
  8
NOTE
  6
CONTINUOUS
 62
     4
100
AcDbLine
 10
1219.334222
 20
663.842908
 30
0.0
 11
1205.063449
 21
695.127005
 31
0.0
  0
POINT
  5
4BD
100
AcDbEntity
  8
DEFPOINTS
  6
CONTINUOUS
 62
     7
100
AcDbPoint
 10
1219.333898
 20
691.53535
 30
0.0
  0
LINE
  5
4BE
100
AcDbEntity
  8
NOTE
  6
CONTINUOUS
 62
     4
100
AcDbLine
 10
1219.333898
 20
691.53535
 30
0.0
 11
1219.333898
 21
636.150734
 31
0.0
  0
CIRCLE
  5
4BF
100
AcDbEntity
  8
DETAIL
  6
CONTINUOUS
 62
     5
100
AcDbCircle
 10
1219.333898
 20
663.843042
 30
0.0
 40
18.25
  0
LINE
  5
4C0
100
AcDbEntity
  8
NOTE
  6
CONTINUOUS
 62
     4
100
AcDbLine
 10
1140.333898
 20
739.843042
 30
0.0
 11
1104.333898
 21
739.843042
 31
0.0
  0
LINE
  5
4C1
100
AcDbEntity
  8
DETAIL
  6
CONTINUOUS
 62
     5
100
AcDbLine
 10
1128.333898
 20
737.543042
 30
0.0
 11
1116.333898
 21
737.543042
 31
0.0
  0
LINE
  5
4C2
100
AcDbEntity
  8
DETAIL
  6
CONTINUOUS
 62
     5
100
AcDbLine
 10
1147.333898
 20
739.843042
 30
0.0
 11
1097.333898
 21
739.843042
 31
0.0
  0
POINT
  5
4C3
100
AcDbEntity
  8
DEFPOINTS
  6
CONTINUOUS
 62
     7
100
AcDbPoint
 10
1204.14159
 20
869.843042
 30
0.0
  0
LINE
  5
4C4
100
AcDbEntity
  8
NOTE
  6
CONTINUOUS
 62
     4
100
AcDbLine
 10
1254.526206
 20
869.843042
 30
0.0
 11
1204.14159
 21
869.843042
 31
0.0
  0
LINE
  5
4C5
100
AcDbEntity
  8
DETAIL
  6
CONTINUOUS
 62
     5
100
AcDbLine
 10
1293.833898
 20
759.551738
 30
0.0
 11
1300.333898
 21
759.551738
 31
0.0
  0
ARC
  5
4C6
100
AcDbEntity
  8
DETAIL
  6
CONTINUOUS
 62
     5
100
AcDbCircle
 10
1293.833898
 20
762.551738
 30
0.0
 40
3.0
100
AcDbArc
 50
180.0
 51
270.0
  0
ARC
  5
4C7
100
AcDbEntity
  8
DETAIL
  6
CONTINUOUS
 62
     5
100
AcDbCircle
 10
1293.833898
 20
824.343042
 30
0.0
 40
3.0
100
AcDbArc
 50
90.0
 51
180.0
  0
LINE
  5
4C8
100
AcDbEntity
  8
DETAIL
  6
CONTINUOUS
 62
     5
100
AcDbLine
 10
1293.833898
 20
827.343042
 30
0.0
 11
1300.333898
 21
827.343042
 31
0.0
  0
LINE
  5
4C9
100
AcDbEntity
  8
DETAIL
  6
CONTINUOUS
 62
     5
100
AcDbLine
 10
1290.833898
 20
762.551738
 30
0.0
 11
1290.833898
 21
824.343042
 31
0.0
  0
CIRCLE
  5
4CA
100
AcDbEntity
  8
DETAIL
  6
CONTINUOUS
 62
     5
100
AcDbCircle
 10
1229.333898
 20
869.843042
 30
0.0
 40
17.5
  0
CIRCLE
  5
4CB
100
AcDbEntity
  8
DETAIL
  6
CONTINUOUS
 62
     5
100
AcDbCircle
 10
1229.333898
 20
869.843042
 30
0.0
 40
10.0
  0
LINE
  5
4CC
100
AcDbEntity
  8
DETAIL
  6
CONTINUOUS
 62
     5
100
AcDbLine
 10
1300.333898
 20
784.104851
 30
0.0
 11
1300.333898
 21
762.104851
 31
0.0
  0
LINE
  5
4CD
100
AcDbEntity
  8
DETAIL
  6
CONTINUOUS
 62
     5
100
AcDbLine
 10
1440.333898
 20
830.343042
 30
0.0
 11
1440.333898
 21
707.104851
 31
0.0
  0
LINE
  5
4CE
100
AcDbEntity
  8
DETAIL
  6
CONTINUOUS
 62
     5
100
AcDbLine
 10
1448.983898
 20
678.214895
 30
0.0
 11
1412.983898
 21
678.214895
 31
0.0
  0
LINE
  5
4CF
100
AcDbEntity
  8
DETAIL
  6
CONTINUOUS
 62
     5
100
AcDbLine
 10
1448.983898
 20
703.071189
 30
0.0
 11
1412.983898
 21
703.071189
 31
0.0
  0
LINE
  5
4D0
100
AcDbEntity
  8
DETAIL
  6
CONTINUOUS
 62
     5
100
AcDbLine
 10
1412.983898
 20
697.071189
 30
0.0
 11
1448.983898
 21
697.071189
 31
0.0
  0
LINE
  5
4D1
100
AcDbEntity
  8
DETAIL
  6
CONTINUOUS
 62
     5
100
AcDbLine
 10
1412.983898
 20
684.214895
 30
0.0
 11
1448.983898
 21
684.214895
 31
0.0
  0
ARC
  5
4D2
100
AcDbEntity
  8
DETAIL
  6
CONTINUOUS
 62
     5
100
AcDbCircle
 10
1412.983898
 20
690.643042
 30
0.0
 40
12.428147
100
AcDbArc
 50
90.0
 51
270.0
  0
ARC
  5
4D3
100
AcDbEntity
  8
DETAIL
  6
CONTINUOUS
 62
     5
100
AcDbCircle
 10
1412.983898
 20
690.643042
 30
0.0
 40
6.428147
100
AcDbArc
 50
90.0
 51
270.0
  0
ARC
  5
4D4
100
AcDbEntity
  8
DETAIL
  6
CONTINUOUS
 62
     5
100
AcDbCircle
 10
1424.983898
 20
690.643042
 30
0.0
 40
4.0
100
AcDbArc
 50
90.0
 51
270.0
  0
ARC
  5
4D5
100
AcDbEntity
  8
DETAIL
  6
CONTINUOUS
 62
     5
100
AcDbCircle
 10
1436.983898
 20
690.643042
 30
0.0
 40
4.0
100
AcDbArc
 50
270.0
 51
90.0
  0
LINE
  5
4D6
100
AcDbEntity
  8
DETAIL
  6
CONTINUOUS
 62
     5
100
AcDbLine
 10
1436.983898
 20
686.643042
 30
0.0
 11
1424.983898
 21
686.643042
 31
0.0
  0
LINE
  5
4D7
100
AcDbEntity
  8
DETAIL
  6
CONTINUOUS
 62
     5
100
AcDbLine
 10
1436.983898
 20
694.643042
 30
0.0
 11
1424.983898
 21
694.643042
 31
0.0
  0
ARC
  5
4D8
100
AcDbEntity
  8
DETAIL
  6
CONTINUOUS
 62
     5
100
AcDbCircle
 10
1448.983898
 20
690.643042
 30
0.0
 40
12.428147
100
AcDbArc
 50
270.0
 51
90.0
  0
ARC
  5
4D9
100
AcDbEntity
  8
DETAIL
  6
CONTINUOUS
 62
     5
100
AcDbCircle
 10
1448.983898
 20
690.643042
 30
0.0
 40
6.428147
100
AcDbArc
 50
270.0
 51
90.0
  0
CIRCLE
  5
4DA
100
AcDbEntity
  8
DETAIL
  6
CONTINUOUS
 62
     5
100
AcDbCircle
 10
1399.333898
 20
805.343042
 30
0.0
 40
18.0
  0
CIRCLE
  5
4DB
100
AcDbEntity
  8
DETAIL
  6
CONTINUOUS
 62
     5
100
AcDbCircle
 10
1341.333898
 20
805.343042
 30
0.0
 40
18.0
  0
LINE
  5
4DC
100
AcDbEntity
  8
NOTE
  6
CONTINUOUS
 62
     4
100
AcDbLine
 10
1510.333922
 20
807.842839
 30
0.0
 11
1526.81118
 21
838.023124
 31
0.0
  0
POINT
  5
4DD
100
AcDbEntity
  8
DEFPOINTS
  6
CONTINUOUS
 62
     7
100
AcDbPoint
 10
1510.333898
 20
838.343042
 30
0.0
  0
LINE
  5
4DE
100
AcDbEntity
  8
NOTE
  6
CONTINUOUS
 62
     4
100
AcDbLine
 10
1510.333898
 20
838.343042
 30
0.0
 11
1510.333898
 21
777.343042
 31
0.0
  0
LINE
  5
4DF
100
AcDbEntity
  8
DETAIL
  6
CONTINUOUS
 62
     5
100
AcDbLine
 10
1440.333898
 20
759.551738
 30
0.0
 11
1446.833898
 21
759.551738
 31
0.0
  0
ARC
  5
4E0
100
AcDbEntity
  8
DETAIL
  6
CONTINUOUS
 62
     5
100
AcDbCircle
 10
1446.833898
 20
762.551738
 30
0.0
 40
3.0
100
AcDbArc
 50
270.0
 51
0.0
  0
ARC
  5
4E1
100
AcDbEntity
  8
DETAIL
  6
CONTINUOUS
 62
     5
100
AcDbCircle
 10
1446.833898
 20
824.343042
 30
0.0
 40
3.0
100
AcDbArc
 50
0.0
 51
90.0
  0
LINE
  5
4E2
100
AcDbEntity
  8
DETAIL
  6
CONTINUOUS
 62
     5
100
AcDbLine
 10
1446.833898
 20
827.343042
 30
0.0
 11
1440.333898
 21
827.343042
 31
0.0
  0
LINE
  5
4E3
100
AcDbEntity
  8
DETAIL
  6
CONTINUOUS
 62
     5
100
AcDbLine
 10
1449.833898
 20
762.551738
 30
0.0
 11
1449.833898
 21
824.343042
 31
0.0
  0
LINE
  5
4E4
100
AcDbEntity
  8
DETAIL
  6
CONTINUOUS
 62
     5
100
AcDbLine
 10
1491.940091
 20
807.843042
 30
0.0
 11
1492.740091
 21
807.843042
 31
0.0
  0
ARC
  5
4E5
100
AcDbEntity
  8
DETAIL
  6
CONTINUOUS
 62
     5
100
AcDbCircle
 10
1510.333898
 20
807.843042
 30
0.0
 40
18.0
100
AcDbArc
 50
180.0
 51
357.452682
  0
LINE
  5
4E6
100
AcDbEntity
  8
DETAIL
  6
CONTINUOUS
 62
     5
100
AcDbLine
 10
1518.833898
 20
802.935565
 30
0.0
 11
1518.833898
 21
812.750519
 31
0.0
  0
LINE
  5
4E7
100
AcDbEntity
  8
DETAIL
  6
CONTINUOUS
 62
     5
100
AcDbLine
 10
1518.833898
 20
802.935565
 30
0.0
 11
1510.333898
 21
798.028087
 31
0.0
  0
LINE
  5
4E8
100
AcDbEntity
  8
DETAIL
  6
CONTINUOUS
 62
     5
100
AcDbLine
 10
1501.833898
 20
802.935565
 30
0.0
 11
1510.333898
 21
798.028087
 31
0.0
  0
LINE
  5
4E9
100
AcDbEntity
  8
DETAIL
  6
CONTINUOUS
 62
     5
100
AcDbLine
 10
1501.833898
 20
802.935565
 30
0.0
 11
1501.833898
 21
812.750519
 31
0.0
  0
LINE
  5
4EA
100
AcDbEntity
  8
DETAIL
  6
CONTINUOUS
 62
     5
100
AcDbLine
 10
1510.333898
 20
817.657996
 30
0.0
 11
1501.833898
 21
812.750519
 31
0.0
  0
LINE
  5
4EB
100
AcDbEntity
  8
DETAIL
  6
CONTINUOUS
 62
     5
100
AcDbLine
 10
1510.333898
 20
817.657996
 30
0.0
 11
1518.833898
 21
812.750519
 31
0.0
  0
CIRCLE
  5
4EC
100
AcDbEntity
  8
DETAIL
  6
CONTINUOUS
 62
     5
100
AcDbCircle
 10
1510.333898
 20
807.843042
 30
0.0
 40
6.0
  0
LINE
  5
4ED
100
AcDbEntity
  8
DETAIL
  6
CONTINUOUS
 62
     5
100
AcDbLine
 10
1440.333898
 20
784.104851
 30
0.0
 11
1440.333898
 21
762.104851
 31
0.0
  0
CIRCLE
  5
4EE
100
AcDbEntity
  8
DETAIL
  6
CONTINUOUS
 62
     5
100
AcDbCircle
 10
1468.740091
 20
837.843042
 30
0.0
 40
5.0
  0
ARC
  5
4EF
100
AcDbEntity
  8
DETAIL
  6
CONTINUOUS
 62
     5
100
AcDbCircle
 10
1465.540091
 20
873.043042
 30
0.0
 40
4.0
100
AcDbArc
 50
90.0
 51
180.0
  0
LINE
  5
4F0
100
AcDbEntity
  8
DETAIL
  6
CONTINUOUS
 62
     5
100
AcDbLine
 10
1487.740091
 20
807.843042
 30
0.0
 11
1487.740091
 21
803.643042
 31
0.0
  0
LINE
  5
4F1
100
AcDbEntity
  8
DETAIL
  6
CONTINUOUS
 62
     5
100
AcDbLine
 10
1487.740091
 20
807.843042
 30
0.0
 11
1491.940091
 21
807.843042
 31
0.0
  0
LINE
  5
4F2
100
AcDbEntity
  8
DETAIL
  6
CONTINUOUS
 62
     5
100
AcDbLine
 10
1487.740091
 20
807.843042
 30
0.0
 11
1487.740091
 21
802.843042
 31
0.0
  0
LINE
  5
4F3
100
AcDbEntity
  8
DETAIL
  6
CONTINUOUS
 62
     5
100
AcDbLine
 10
1487.740091
 20
807.843042
 30
0.0
 11
1492.740091
 21
807.843042
 31
0.0
  0
ARC
  5
4F4
100
AcDbEntity
  8
DETAIL
  6
CONTINUOUS
 62
     5
100
AcDbCircle
 10
1510.333898
 20
807.843042
 30
0.0
 40
18.0
100
AcDbArc
 50
2.547318
 51
180.0
  0
LINE
  5
4F5
100
AcDbEntity
  8
DETAIL
  6
CONTINUOUS
 62
     5
100
AcDbLine
 10
1461.540091
 20
802.843042
 30
0.0
 11
1487.740091
 21
802.843042
 31
0.0
  0
ARC
  5
4F6
100
AcDbEntity
  8
DETAIL
  6
CONTINUOUS
 62
     5
100
AcDbCircle
 10
1465.540091
 20
873.043042
 30
0.0
 40
4.0
100
AcDbArc
 50
90.0
 51
180.0
  0
LINE
  5
4F7
100
AcDbEntity
  8
DETAIL
  6
CONTINUOUS
 62
     5
100
AcDbLine
 10
1461.540091
 20
873.043042
 30
0.0
 11
1461.540091
 21
802.843042
 31
0.0
  0
LINE
  5
4F8
100
AcDbEntity
  8
NOTE
  6
CONTINUOUS
 62
     4
100
AcDbLine
 10
1294.039525
 20
975.843546
 30
0.0
 11
1324.039525
 21
1005.843546
 31
0.0
  0
POINT
  5
4F9
100
AcDbEntity
  8
DEFPOINTS
  6
CONTINUOUS
 62
     7
100
AcDbPoint
 10
1092.333898
 20
929.843042
 30
0.0
  0
POINT
  5
4FA
100
AcDbEntity
  8
DEFPOINTS
  6
CONTINUOUS
 62
     7
100
AcDbPoint
 10
1092.333898
 20
929.843042
 30
0.0
  0
POINT
  5
4FB
100
AcDbEntity
  8
DEFPOINTS
  6
CONTINUOUS
 62
     7
100
AcDbPoint
 10
1092.333898
 20
929.843042
 30
0.0
  0
LINE
  5
4FC
100
AcDbEntity
  8
NOTE
  6
CONTINUOUS
 62
     4
100
AcDbLine
 10
1104.039525
 20
975.843546
 30
0.0
 11
1134.039525
 21
1005.843546
 31
0.0
  0
POINT
  5
4FD
100
AcDbEntity
  8
DEFPOINTS
  6
CONTINUOUS
 62
     7
100
AcDbPoint
 10
1229.333898
 20
895.03535
 30
0.0
  0
LINE
  5
4FE
100
AcDbEntity
  8
NOTE
  6
CONTINUOUS
 62
     4
100
AcDbLine
 10
1240.90244
 20
975.843546
 30
0.0
 11
1270.90244
 21
1005.843546
 31
0.0
  0
LINE
  5
4FF
100
AcDbEntity
  8
NOTE
  6
CONTINUOUS
 62
     4
100
AcDbLine
 10
1267.470983
 20
975.843546
 30
0.0
 11
1297.470983
 21
1005.843546
 31
0.0
  0
POINT
  5
500
100
AcDbEntity
  8
DEFPOINTS
  6
CONTINUOUS
 62
     7
100
AcDbPoint
 10
1229.333898
 20
1187.151765
 30
0.0
  0
LINE
  5
501
100
AcDbEntity
  8
SIZE
  6
CONTINUOUS
 62
    30
100
AcDbLine
 10
1234.333898
 20
1187.151765
 30
0.0
 11
1239.333898
 21
1187.151765
 31
0.0
  0
CIRCLE
  5
502
100
AcDbEntity
  8
SIZE
  6
CONTINUOUS
 62
    30
100
AcDbCircle
 10
1229.333898
 20
1187.151765
 30
0.0
 40
5.0
  0
LINE
  5
503
100
AcDbEntity
  8
NOTE
  6
CONTINUOUS
 62
     4
100
AcDbLine
 10
1410.90244
 20
975.843546
 30
0.0
 11
1440.90244
 21
1005.843546
 31
0.0
  0
LINE
  5
504
100
AcDbEntity
  8
NOTE
  6
CONTINUOUS
 62
     4
100
AcDbLine
 10
1437.470983
 20
975.843546
 30
0.0
 11
1467.470983
 21
1005.843546
 31
0.0
  0
LINE
  5
505
100
AcDbEntity
  8
NOTE
  6
CONTINUOUS
 62
     4
100
AcDbLine
 10
1464.039525
 20
975.843546
 30
0.0
 11
1494.039525
 21
1005.843546
 31
0.0
  0
TEXT
  5
506
100
AcDbEntity
  8
SIZE
  6
CONTINUOUS
 62
    30
100
AcDbText
 10
1395.288852
 20
1096.487705
 30
0.0
 40
55.0
  1
70
 41
0.9
 72
     1
 11
1435.36028
 21
1096.487705
 31
0.0
100
AcDbText
  0
LINE
  5
507
100
AcDbEntity
  8
SIZE
  6
CONTINUOUS
 62
    30
100
AcDbLine
 10
1380.288851
 20
1081.487705
 30
0.0
 11
1510.333898
 21
1081.487705
 31
0.0
  0
POINT
  5
508
100
AcDbEntity
  8
DEFPOINTS
  6
CONTINUOUS
 62
     7
100
AcDbPoint
 10
1510.333898
 20
1081.487705
 30
0.0
  0
LINE
  5
509
100
AcDbEntity
  8
SIZE
  6
CONTINUOUS
 62
    30
100
AcDbLine
 10
1515.333898
 20
1081.487705
 30
0.0
 11
1520.333898
 21
1081.487705
 31
0.0
  0
CIRCLE
  5
50A
100
AcDbEntity
  8
SIZE
  6
CONTINUOUS
 62
    30
100
AcDbCircle
 10
1510.333898
 20
1081.487705
 30
0.0
 40
5.0
  0
LINE
  5
50B
100
AcDbEntity
  8
OUTLINE
  6
CONTINUOUS
 62
     3
100
AcDbLine
 10
1726.333898
 20
929.843042
 30
0.0
 11
1726.333898
 21
585.843546
 31
0.0
  0
LINE
  5
50C
100
AcDbEntity
  8
SIZE
  6
CONTINUOUS
 62
    30
100
AcDbLine
 10
1580.333898
 20
859.143042
 30
0.0
 11
1580.333898
 21
1111.487705
 31
0.0
  0
LINE
  5
50D
100
AcDbEntity
  8
SIZE
  6
CONTINUOUS
 62
    30
100
AcDbLine
 10
1580.333898
 20
859.143042
 30
0.0
 11
1580.333898
 21
1111.487705
 31
0.0
  0
TEXT
  5
50E
100
AcDbEntity
  8
SIZE
  6
CONTINUOUS
 62
    30
100
AcDbText
 10
1959.312391
 20
809.91447
 30
0.0
 40
55.0
  1
122
 50
90.0
 41
0.9
 72
     1
 11
1959.312391
 21
868.843042
 31
0.0
100
AcDbText
  0
LINE
  5
50F
100
AcDbEntity
  8
SIZE
  6
CONTINUOUS
 62
    30
100
AcDbLine
 10
1974.312391
 20
929.843042
 30
0.0
 11
1974.312391
 21
807.843042
 31
0.0
  0
LINE
  5
510
100
AcDbEntity
  8
DETAIL
  6
CONTINUOUS
 62
     5
100
AcDbLine
 10
1726.333898
 20
929.843042
 30
0.0
 11
1726.333898
 21
585.843546
 31
0.0
  0
LINE
  5
511
100
AcDbEntity
  8
OUTLINE
  6
CONTINUOUS
 62
     3
100
AcDbLine
 10
1726.333898
 20
585.843546
 30
0.0
 11
1764.333898
 21
585.843546
 31
0.0
  0
LINE
  5
512
100
AcDbEntity
  8
NOTE
  6
CONTINUOUS
 62
     4
100
AcDbLine
 10
1744.333898
 20
591.821565
 30
0.0
 11
1753.355879
 21
600.843546
 31
0.0
  0
LINE
  5
513
100
AcDbEntity
  8
NOTE
  6
CONTINUOUS
 62
     4
100
AcDbLine
 10
1744.333898
 20
585.843546
 30
0.0
 11
1844.333898
 21
585.843546
 31
0.0
  0
LINE
  5
514
100
AcDbEntity
  8
NOTE
  6
CONTINUOUS
 62
     4
100
AcDbLine
 10
1744.333898
 20
600.843546
 30
0.0
 11
1844.333898
 21
600.843546
 31
0.0
  0
LINE
  5
515
100
AcDbEntity
  8
NOTE
  6
CONTINUOUS
 62
     4
100
AcDbLine
 10
1696.333831
 20
739.843079
 30
0.0
 11
1726.462552
 21
723.271723
 31
0.0
  0
LINE
  5
516
100
AcDbEntity
  8
NOTE
  6
CONTINUOUS
 62
     4
100
AcDbLine
 10
1696.333831
 20
739.843079
 30
0.0
 11
1714.14039
 21
710.427503
 31
0.0
  0
CIRCLE
  5
517
100
AcDbEntity
  8
FIX
  6
CONTINUOUS
 62
    11
100
AcDbCircle
 10
1696.333898
 20
739.843042
 30
0.0
 40
14.940051
  0
LINE
  5
518
100
AcDbEntity
  8
NOTE
  6
CONTINUOUS
 62
     4
100
AcDbLine
 10
1696.333898
 20
757.843042
 30
0.0
 11
1696.333898
 21
721.843042
 31
0.0
  0
LINE
  5
519
100
AcDbEntity
  8
DETAIL
  6
CONTINUOUS
 62
     5
100
AcDbLine
 10
1671.333898
 20
739.843042
 30
0.0
 11
1671.333898
 21
701.843042
 31
0.0
  0
LINE
  5
51A
100
AcDbEntity
  8
DETAIL
  6
CONTINUOUS
 62
     5
100
AcDbLine
 10
1721.333898
 20
739.843042
 30
0.0
 11
1721.333898
 21
701.843042
 31
0.0
  0
LINE
  5
51B
100
AcDbEntity
  8
DETAIL
  6
CONTINUOUS
 62
     5
100
AcDbLine
 10
1702.333898
 20
739.843042
 30
0.0
 11
1702.333898
 21
730.843042
 31
0.0
  0
LINE
  5
51C
100
AcDbEntity
  8
DETAIL
  6
CONTINUOUS
 62
     5
100
AcDbLine
 10
1690.333898
 20
739.843042
 30
0.0
 11
1690.333898
 21
730.843042
 31
0.0
  0
POINT
  5
51D
100
AcDbEntity
  8
DEFPOINTS
  6
CONTINUOUS
 62
     7
100
AcDbPoint
 10
1696.333898
 20
724.902991
 30
0.0
  0
POINT
  5
51E
100
AcDbEntity
  8
DEFPOINTS
  6
CONTINUOUS
 62
     7
100
AcDbPoint
 10
1696.333898
 20
724.902991
 30
0.0
  0
POINT
  5
51F
100
AcDbEntity
  8
DEFPOINTS
  6
CONTINUOUS
 62
     7
100
AcDbPoint
 10
1744.333898
 20
585.843546
 30
0.0
  0
POINT
  5
520
100
AcDbEntity
  8
DEFPOINTS
  6
CONTINUOUS
 62
     7
100
AcDbPoint
 10
1744.333898
 20
585.843546
 30
0.0
  0
POINT
  5
521
100
AcDbEntity
  8
DEFPOINTS
  6
CONTINUOUS
 62
     7
100
AcDbPoint
 10
1726.333898
 20
639.843042
 30
0.0
  0
LINE
  5
522
100
AcDbEntity
  8
DETAIL
  6
CONTINUOUS
 62
     5
100
AcDbLine
 10
1685.333898
 20
695.143042
 30
0.0
 11
1707.333898
 21
695.143042
 31
0.0
  0
LINE
  5
523
100
AcDbEntity
  8
DETAIL
  6
CONTINUOUS
 62
     5
100
AcDbLine
 10
1707.333898
 20
700.143042
 30
0.0
 11
1706.333898
 21
700.143042
 31
0.0
  0
LINE
  5
524
100
AcDbEntity
  8
DETAIL
  6
CONTINUOUS
 62
     5
100
AcDbLine
 10
1685.333898
 20
700.143042
 30
0.0
 11
1685.333898
 21
695.143042
 31
0.0
  0
LINE
  5
525
100
AcDbEntity
  8
DETAIL
  6
CONTINUOUS
 62
     5
100
AcDbLine
 10
1707.333898
 20
695.143042
 30
0.0
 11
1707.333898
 21
700.143042
 31
0.0
  0
LINE
  5
526
100
AcDbEntity
  8
DETAIL
  6
CONTINUOUS
 62
     5
100
AcDbLine
 10
1686.333898
 20
700.143042
 30
0.0
 11
1685.333898
 21
700.143042
 31
0.0
  0
LINE
  5
527
100
AcDbEntity
  8
DETAIL
  6
CONTINUOUS
 62
     5
100
AcDbLine
 10
1706.333898
 20
701.843042
 30
0.0
 11
1721.333898
 21
701.843042
 31
0.0
  0
LINE
  5
528
100
AcDbEntity
  8
DETAIL
  6
CONTINUOUS
 62
     5
100
AcDbLine
 10
1671.333898
 20
701.843042
 30
0.0
 11
1686.333898
 21
701.843042
 31
0.0
  0
LINE
  5
529
100
AcDbEntity
  8
DETAIL
  6
CONTINUOUS
 62
     5
100
AcDbLine
 10
1686.333898
 20
701.843042
 30
0.0
 11
1686.333898
 21
696.843042
 31
0.0
  0
LINE
  5
52A
100
AcDbEntity
  8
DETAIL
  6
CONTINUOUS
 62
     5
100
AcDbLine
 10
1706.333898
 20
701.843042
 30
0.0
 11
1706.333898
 21
696.843042
 31
0.0
  0
LINE
  5
52B
100
AcDbEntity
  8
DETAIL
  6
CONTINUOUS
 62
     5
100
AcDbLine
 10
1686.333898
 20
696.843042
 30
0.0
 11
1706.333898
 21
696.843042
 31
0.0
  0
CIRCLE
  5
52C
100
AcDbEntity
  8
DETAIL
  6
CONTINUOUS
 62
     5
100
AcDbCircle
 10
1696.333898
 20
719.843042
 30
0.0
 40
3.5
  0
ARC
  5
52D
100
AcDbEntity
  8
DETAIL
  6
CONTINUOUS
 62
     5
100
AcDbCircle
 10
1705.333898
 20
730.843042
 30
0.0
 40
3.0
100
AcDbArc
 50
180.0
 51
270.0
  0
LINE
  5
52E
100
AcDbEntity
  8
DETAIL
  6
CONTINUOUS
 62
     5
100
AcDbLine
 10
1705.333898
 20
727.843042
 30
0.0
 11
1718.333898
 21
727.843042
 31
0.0
  0
ARC
  5
52F
100
AcDbEntity
  8
DETAIL
  6
CONTINUOUS
 62
     5
100
AcDbCircle
 10
1687.333898
 20
730.843042
 30
0.0
 40
3.0
100
AcDbArc
 50
270.0
 51
0.0
  0
LINE
  5
530
100
AcDbEntity
  8
DETAIL
  6
CONTINUOUS
 62
     5
100
AcDbLine
 10
1674.333898
 20
727.843042
 30
0.0
 11
1687.333898
 21
727.843042
 31
0.0
  0
ARC
  5
531
100
AcDbEntity
  8
DETAIL
  6
CONTINUOUS
 62
     5
100
AcDbCircle
 10
1674.333898
 20
730.843042
 30
0.0
 40
3.0
100
AcDbArc
 50
180.0
 51
270.0
  0
ARC
  5
532
100
AcDbEntity
  8
DETAIL
  6
CONTINUOUS
 62
     5
100
AcDbCircle
 10
1718.333898
 20
730.843042
 30
0.0
 40
3.0
100
AcDbArc
 50
270.0
 51
0.0
  0
LINE
  5
533
100
AcDbEntity
  8
NOTE
  6
CONTINUOUS
 62
     4
100
AcDbLine
 10
1744.333898
 20
585.843546
 30
0.0
 11
1744.333898
 21
600.843546
 31
0.0
  0
LINE
  5
534
100
AcDbEntity
  8
NOTE
  6
CONTINUOUS
 62
     4
100
AcDbLine
 10
1580.333875
 20
807.842873
 30
0.0
 11
1603.786489
 21
832.988937
 31
0.0
  0
LINE
  5
535
100
AcDbEntity
  8
NOTE
  6
CONTINUOUS
 62
     4
100
AcDbLine
 10
1580.333875
 20
807.842873
 30
0.0
 11
1613.217467
 21
817.893696
 31
0.0
  0
POINT
  5
536
100
AcDbEntity
  8
DEFPOINTS
  6
CONTINUOUS
 62
     7
100
AcDbPoint
 10
1580.333898
 20
839.143042
 30
0.0
  0
POINT
  5
537
100
AcDbEntity
  8
DEFPOINTS
  6
CONTINUOUS
 62
     7
100
AcDbPoint
 10
1580.333898
 20
839.143042
 30
0.0
  0
POINT
  5
538
100
AcDbEntity
  8
DEFPOINTS
  6
CONTINUOUS
 62
     7
100
AcDbPoint
 10
1611.633898
 20
807.843042
 30
0.0
  0
LINE
  5
539
100
AcDbEntity
  8
NOTE
  6
CONTINUOUS
 62
     4
100
AcDbLine
 10
1611.633898
 20
807.843042
 30
0.0
 11
1549.033898
 21
807.843042
 31
0.0
  0
LINE
  5
53A
100
AcDbEntity
  8
NOTE
  6
CONTINUOUS
 62
     4
100
AcDbLine
 10
1580.333898
 20
839.143042
 30
0.0
 11
1580.333898
 21
776.543042
 31
0.0
  0
LINE
  5
53B
100
AcDbEntity
  8
DETAIL
  6
CONTINUOUS
 62
     5
100
AcDbLine
 10
1598.333898
 20
807.843042
 30
0.0
 11
1599.133898
 21
807.843042
 31
0.0
  0
LINE
  5
53C
100
AcDbEntity
  8
DETAIL
  6
CONTINUOUS
 62
     5
100
AcDbLine
 10
1554.740091
 20
813.593432
 30
0.0
 11
1536.740091
 21
813.593432
 31
0.0
  0
LINE
  5
53D
100
AcDbEntity
  8
DETAIL
  6
CONTINUOUS
 62
     5
100
AcDbLine
 10
1536.740091
 20
813.593432
 30
0.0
 11
1536.313235
 21
813.563373
 31
0.0
  0
LINE
  5
53E
100
AcDbEntity
  8
DETAIL
  6
CONTINUOUS
 62
     5
100
AcDbLine
 10
1536.313235
 20
813.563373
 30
0.0
 11
1535.894648
 21
813.473687
 31
0.0
  0
LINE
  5
53F
100
AcDbEntity
  8
DETAIL
  6
CONTINUOUS
 62
     5
100
AcDbLine
 10
1535.894648
 20
813.473687
 30
0.0
 11
1535.494075
 21
813.32655
 31
0.0
  0
LINE
  5
540
100
AcDbEntity
  8
DETAIL
  6
CONTINUOUS
 62
     5
100
AcDbLine
 10
1535.494075
 20
813.32655
 30
0.0
 11
1535.117867
 21
813.124237
 31
0.0
  0
LINE
  5
541
100
AcDbEntity
  8
DETAIL
  6
CONTINUOUS
 62
     5
100
AcDbLine
 10
1535.117867
 20
813.124237
 30
0.0
 11
1534.77578
 21
812.872045
 31
0.0
  0
LINE
  5
542
100
AcDbEntity
  8
DETAIL
  6
CONTINUOUS
 62
     5
100
AcDbLine
 10
1534.77578
 20
812.872045
 30
0.0
 11
1534.472607
 21
812.573478
 31
0.0
  0
LINE
  5
543
100
AcDbEntity
  8
DETAIL
  6
CONTINUOUS
 62
     5
100
AcDbLine
 10
1534.472607
 20
812.573478
 30
0.0
 11
1534.216524
 21
812.236588
 31
0.0
  0
LINE
  5
544
100
AcDbEntity
  8
DETAIL
  6
CONTINUOUS
 62
     5
100
AcDbLine
 10
1534.216524
 20
812.236588
 30
0.0
 11
1534.01109
 21
811.866095
 31
0.0
  0
LINE
  5
545
100
AcDbEntity
  8
DETAIL
  6
CONTINUOUS
 62
     5
100
AcDbLine
 10
1534.01109
 20
811.866095
 30
0.0
 11
1533.861684
 21
811.471608
 31
0.0
  0
LINE
  5
546
100
AcDbEntity
  8
DETAIL
  6
CONTINUOUS
 62
     5
100
AcDbLine
 10
1533.861684
 20
811.471608
 30
0.0
 11
1533.770614
 21
811.05938
 31
0.0
  0
LINE
  5
547
100
AcDbEntity
  8
DETAIL
  6
CONTINUOUS
 62
     5
100
AcDbLine
 10
1533.770614
 20
811.05938
 30
0.0
 11
1533.740091
 21
810.639009
 31
0.0
  0
LINE
  5
548
100
AcDbEntity
  8
DETAIL
  6
CONTINUOUS
 62
     5
100
AcDbLine
 10
1533.740091
 20
810.500091
 30
0.0
 11
1533.740091
 21
810.639009
 31
0.0
  0
LINE
  5
549
100
AcDbEntity
  8
DETAIL
  6
CONTINUOUS
 62
     5
100
AcDbLine
 10
1557.740091
 20
810.500091
 30
0.0
 11
1557.740091
 21
810.639009
 31
0.0
  0
LINE
  5
54A
100
AcDbEntity
  8
DETAIL
  6
CONTINUOUS
 62
     5
100
AcDbLine
 10
1557.740091
 20
810.639009
 30
0.0
 11
1557.709568
 21
811.05938
 31
0.0
  0
LINE
  5
54B
100
AcDbEntity
  8
DETAIL
  6
CONTINUOUS
 62
     5
100
AcDbLine
 10
1557.709568
 20
811.05938
 30
0.0
 11
1557.618498
 21
811.471608
 31
0.0
  0
LINE
  5
54C
100
AcDbEntity
  8
DETAIL
  6
CONTINUOUS
 62
     5
100
AcDbLine
 10
1557.618498
 20
811.471608
 30
0.0
 11
1557.469092
 21
811.866095
 31
0.0
  0
LINE
  5
54D
100
AcDbEntity
  8
DETAIL
  6
CONTINUOUS
 62
     5
100
AcDbLine
 10
1557.469092
 20
811.866095
 30
0.0
 11
1557.263658
 21
812.236588
 31
0.0
  0
LINE
  5
54E
100
AcDbEntity
  8
DETAIL
  6
CONTINUOUS
 62
     5
100
AcDbLine
 10
1557.263658
 20
812.236588
 30
0.0
 11
1557.007575
 21
812.573478
 31
0.0
  0
LINE
  5
54F
100
AcDbEntity
  8
DETAIL
  6
CONTINUOUS
 62
     5
100
AcDbLine
 10
1557.007575
 20
812.573478
 30
0.0
 11
1556.704402
 21
812.872045
 31
0.0
  0
LINE
  5
550
100
AcDbEntity
  8
DETAIL
  6
CONTINUOUS
 62
     5
100
AcDbLine
 10
1556.704402
 20
812.872045
 30
0.0
 11
1556.362315
 21
813.124237
 31
0.0
  0
LINE
  5
551
100
AcDbEntity
  8
DETAIL
  6
CONTINUOUS
 62
     5
100
AcDbLine
 10
1556.362315
 20
813.124237
 30
0.0
 11
1555.986106
 21
813.32655
 31
0.0
  0
LINE
  5
552
100
AcDbEntity
  8
DETAIL
  6
CONTINUOUS
 62
     5
100
AcDbLine
 10
1555.986106
 20
813.32655
 30
0.0
 11
1555.585534
 21
813.473687
 31
0.0
  0
LINE
  5
553
100
AcDbEntity
  8
DETAIL
  6
CONTINUOUS
 62
     5
100
AcDbLine
 10
1555.585534
 20
813.473687
 30
0.0
 11
1555.166946
 21
813.563373
 31
0.0
  0
LINE
  5
554
100
AcDbEntity
  8
DETAIL
  6
CONTINUOUS
 62
     5
100
AcDbLine
 10
1555.166946
 20
813.563373
 30
0.0
 11
1554.740091
 21
813.593432
 31
0.0
  0
ARC
  5
555
100
AcDbEntity
  8
DETAIL
  6
CONTINUOUS
 62
     5
100
AcDbCircle
 10
1580.333898
 20
807.843042
 30
0.0
 40
18.0
100
AcDbArc
 50
182.547318
 51
0.0
  0
LINE
  5
556
100
AcDbEntity
  8
DETAIL
  6
CONTINUOUS
 62
     5
100
AcDbLine
 10
1557.740091
 20
810.500091
 30
0.0
 11
1557.740091
 21
807.043042
 31
0.0
  0
LINE
  5
557
100
AcDbEntity
  8
DETAIL
  6
CONTINUOUS
 62
     5
100
AcDbLine
 10
1562.757877
 20
807.043042
 30
0.0
 11
1528.722304
 21
807.043042
 31
0.0
  0
LINE
  5
558
100
AcDbEntity
  8
DETAIL
  6
CONTINUOUS
 62
     5
100
AcDbLine
 10
1533.740091
 20
810.500091
 30
0.0
 11
1533.740091
 21
807.043042
 31
0.0
  0
CIRCLE
  5
559
100
AcDbEntity
  8
DETAIL
  6
CONTINUOUS
 62
     5
100
AcDbCircle
 10
1580.333898
 20
807.843042
 30
0.0
 40
9.0
  0
LINE
  5
55A
100
AcDbEntity
  8
DETAIL
  6
CONTINUOUS
 62
     5
100
AcDbLine
 10
1580.333898
 20
792.254585
 30
0.0
 11
1593.833898
 21
800.048813
 31
0.0
  0
LINE
  5
55B
100
AcDbEntity
  8
DETAIL
  6
CONTINUOUS
 62
     5
100
AcDbLine
 10
1580.333898
 20
823.431499
 30
0.0
 11
1593.833898
 21
815.637271
 31
0.0
  0
LINE
  5
55C
100
AcDbEntity
  8
DETAIL
  6
CONTINUOUS
 62
     5
100
AcDbLine
 10
1580.333898
 20
823.431499
 30
0.0
 11
1566.833898
 21
815.637271
 31
0.0
  0
LINE
  5
55D
100
AcDbEntity
  8
DETAIL
  6
CONTINUOUS
 62
     5
100
AcDbLine
 10
1580.333898
 20
792.254585
 30
0.0
 11
1566.833898
 21
800.048813
 31
0.0
  0
LINE
  5
55E
100
AcDbEntity
  8
DETAIL
  6
CONTINUOUS
 62
     5
100
AcDbLine
 10
1593.833898
 20
800.048813
 30
0.0
 11
1593.833898
 21
815.637271
 31
0.0
  0
LINE
  5
55F
100
AcDbEntity
  8
DETAIL
  6
CONTINUOUS
 62
     5
100
AcDbLine
 10
1566.833898
 20
800.048813
 30
0.0
 11
1566.833898
 21
815.637271
 31
0.0
  0
CIRCLE
  5
560
100
AcDbEntity
  8
DETAIL
  6
CONTINUOUS
 62
     5
100
AcDbCircle
 10
1622.740091
 20
837.843042
 30
0.0
 40
5.0
  0
ARC
  5
561
100
AcDbEntity
  8
DETAIL
  6
CONTINUOUS
 62
     5
100
AcDbCircle
 10
1625.940091
 20
873.043042
 30
0.0
 40
4.0
100
AcDbArc
 50
0.0
 51
90.0
  0
LINE
  5
562
100
AcDbEntity
  8
DETAIL
  6
CONTINUOUS
 62
     5
100
AcDbLine
 10
1629.940091
 20
873.043042
 30
0.0
 11
1629.940091
 21
803.643042
 31
0.0
  0
LINE
  5
563
100
AcDbEntity
  8
DETAIL
  6
CONTINUOUS
 62
     5
100
AcDbLine
 10
1603.740091
 20
807.843042
 30
0.0
 11
1603.740091
 21
803.643042
 31
0.0
  0
LINE
  5
564
100
AcDbEntity
  8
DETAIL
  6
CONTINUOUS
 62
     5
100
AcDbLine
 10
1599.540091
 20
807.843042
 30
0.0
 11
1603.740091
 21
807.843042
 31
0.0
  0
LINE
  5
565
100
AcDbEntity
  8
DETAIL
  6
CONTINUOUS
 62
     5
100
AcDbLine
 10
1528.722304
 20
808.643042
 30
0.0
 11
1533.740091
 21
808.643042
 31
0.0
  0
LINE
  5
566
100
AcDbEntity
  8
DETAIL
  6
CONTINUOUS
 62
     5
100
AcDbLine
 10
1598.740091
 20
807.843042
 30
0.0
 11
1603.740091
 21
807.843042
 31
0.0
  0
LINE
  5
567
100
AcDbEntity
  8
DETAIL
  6
CONTINUOUS
 62
     5
100
AcDbLine
 10
1603.740091
 20
807.843042
 30
0.0
 11
1603.740091
 21
802.843042
 31
0.0
  0
ARC
  5
568
100
AcDbEntity
  8
DETAIL
  6
CONTINUOUS
 62
     5
100
AcDbCircle
 10
1580.333898
 20
807.843042
 30
0.0
 40
18.0
100
AcDbArc
 50
0.0
 51
177.452682
  0
LINE
  5
569
100
AcDbEntity
  8
DETAIL
  6
CONTINUOUS
 62
     5
100
AcDbLine
 10
1603.740091
 20
802.843042
 30
0.0
 11
1629.940091
 21
802.843042
 31
0.0
  0
ARC
  5
56A
100
AcDbEntity
  8
DETAIL
  6
CONTINUOUS
 62
     5
100
AcDbCircle
 10
1625.940091
 20
873.043042
 30
0.0
 40
4.0
100
AcDbArc
 50
0.0
 51
90.0
  0
LINE
  5
56B
100
AcDbEntity
  8
DETAIL
  6
CONTINUOUS
 62
     5
100
AcDbLine
 10
1629.940091
 20
873.043042
 30
0.0
 11
1629.940091
 21
802.843042
 31
0.0
  0
LINE
  5
56C
100
AcDbEntity
  8
DETAIL
  6
CONTINUOUS
 62
     5
100
AcDbLine
 10
1557.740091
 20
808.643042
 30
0.0
 11
1562.757877
 21
808.643042
 31
0.0
  0
POINT
  5
56D
100
AcDbEntity
  8
DEFPOINTS
  6
CONTINUOUS
 62
     7
100
AcDbPoint
 10
1721.333898
 20
739.843042
 30
0.0
  0
LINE
  5
56E
100
AcDbEntity
  8
NOTE
  6
CONTINUOUS
 62
     4
100
AcDbLine
 10
1714.333898
 20
739.843042
 30
0.0
 11
1678.333898
 21
739.843042
 31
0.0
  0
LINE
  5
56F
100
AcDbEntity
  8
DETAIL
  6
CONTINUOUS
 62
     5
100
AcDbLine
 10
1690.333898
 20
737.543042
 30
0.0
 11
1702.333898
 21
737.543042
 31
0.0
  0
LINE
  5
570
100
AcDbEntity
  8
DETAIL
  6
CONTINUOUS
 62
     5
100
AcDbLine
 10
1671.333898
 20
739.843042
 30
0.0
 11
1721.333898
 21
739.843042
 31
0.0
  0
POINT
  5
571
100
AcDbEntity
  8
DEFPOINTS
  6
CONTINUOUS
 62
     7
100
AcDbPoint
 10
1844.333898
 20
585.843546
 30
0.0
  0
POINT
  5
572
100
AcDbEntity
  8
DEFPOINTS
  6
CONTINUOUS
 62
     7
100
AcDbPoint
 10
1844.333898
 20
585.843546
 30
0.0
  0
LINE
  5
573
100
AcDbEntity
  8
NOTE
  6
CONTINUOUS
 62
     4
100
AcDbLine
 10
1752.498015
 20
585.843546
 30
0.0
 11
1767.498015
 21
600.843546
 31
0.0
  0
LINE
  5
574
100
AcDbEntity
  8
NOTE
  6
CONTINUOUS
 62
     4
100
AcDbLine
 10
1766.640151
 20
585.843546
 30
0.0
 11
1781.640151
 21
600.843546
 31
0.0
  0
LINE
  5
575
100
AcDbEntity
  8
NOTE
  6
CONTINUOUS
 62
     4
100
AcDbLine
 10
1809.066557
 20
585.843546
 30
0.0
 11
1824.066557
 21
600.843546
 31
0.0
  0
LINE
  5
576
100
AcDbEntity
  8
NOTE
  6
CONTINUOUS
 62
     4
100
AcDbLine
 10
1823.208693
 20
585.843546
 30
0.0
 11
1838.208693
 21
600.843546
 31
0.0
  0
LINE
  5
577
100
AcDbEntity
  8
NOTE
  6
CONTINUOUS
 62
     4
100
AcDbLine
 10
1837.350829
 20
585.843546
 30
0.0
 11
1844.333898
 21
592.826615
 31
0.0
  0
POINT
  5
578
100
AcDbEntity
  8
DEFPOINTS
  6
CONTINUOUS
 62
     7
100
AcDbPoint
 10
1974.312391
 20
807.843042
 30
0.0
  0
LINE
  5
579
100
AcDbEntity
  8
SIZE
  6
CONTINUOUS
 62
    30
100
AcDbLine
 10
1974.312391
 20
802.843042
 30
0.0
 11
1974.312391
 21
797.843042
 31
0.0
  0
LINE
  5
57A
100
AcDbEntity
  8
SIZE
  6
CONTINUOUS
 62
    30
100
AcDbLine
 10
1974.312391
 20
797.843042
 30
0.0
 11
1974.312391
 21
787.843042
 31
0.0
  0
LINE
  5
57B
100
AcDbEntity
  8
NOTE
  6
CONTINUOUS
 62
     4
100
AcDbLine
 10
1750.90244
 20
975.843546
 30
0.0
 11
1780.90244
 21
1005.843546
 31
0.0
  0
LINE
  5
57C
100
AcDbEntity
  8
SIZE
  6
CONTINUOUS
 62
    30
100
AcDbLine
 10
1726.333898
 20
949.843042
 30
0.0
 11
1726.333898
 21
1111.487705
 31
0.0
  0
LINE
  5
57D
100
AcDbEntity
  8
NOTE
  6
CONTINUOUS
 62
     4
100
AcDbLine
 10
1617.470983
 20
975.843546
 30
0.0
 11
1647.470983
 21
1005.843546
 31
0.0
  0
LINE
  5
57E
100
AcDbEntity
  8
NOTE
  6
CONTINUOUS
 62
     4
100
AcDbLine
 10
1590.90244
 20
975.843546
 30
0.0
 11
1620.90244
 21
1005.843546
 31
0.0
  0
POINT
  5
57F
100
AcDbEntity
  8
DEFPOINTS
  6
CONTINUOUS
 62
     7
100
AcDbPoint
 10
1726.333898
 20
929.843042
 30
0.0
  0
POINT
  5
580
100
AcDbEntity
  8
DEFPOINTS
  6
CONTINUOUS
 62
     7
100
AcDbPoint
 10
1726.333898
 20
929.843042
 30
0.0
  0
POINT
  5
581
100
AcDbEntity
  8
DEFPOINTS
  6
CONTINUOUS
 62
     7
100
AcDbPoint
 10
1726.333898
 20
929.843042
 30
0.0
  0
POINT
  5
582
100
AcDbEntity
  8
DEFPOINTS
  6
CONTINUOUS
 62
     7
100
AcDbPoint
 10
1726.333898
 20
929.843042
 30
0.0
  0
POINT
  5
583
100
AcDbEntity
  8
DEFPOINTS
  6
CONTINUOUS
 62
     7
100
AcDbPoint
 10
1726.333898
 20
929.843042
 30
0.0
  0
POINT
  5
584
100
AcDbEntity
  8
DEFPOINTS
  6
CONTINUOUS
 62
     7
100
AcDbPoint
 10
1726.333898
 20
929.843042
 30
0.0
  0
POINT
  5
585
100
AcDbEntity
  8
DEFPOINTS
  6
CONTINUOUS
 62
     7
100
AcDbPoint
 10
1726.333898
 20
929.843042
 30
0.0
  0
LINE
  5
586
100
AcDbEntity
  8
NOTE
  6
CONTINUOUS
 62
     4
100
AcDbLine
 10
1644.039525
 20
975.843546
 30
0.0
 11
1674.039525
 21
1005.843546
 31
0.0
  0
TEXT
  5
587
100
AcDbEntity
  8
SIZE
  6
CONTINUOUS
 62
    30
100
AcDbText
 10
1595.583898
 20
1096.487705
 30
0.0
 40
55.0
  1
146
 41
0.9
 72
     1
 11
1653.333898
 21
1096.487705
 31
0.0
100
AcDbText
  0
LINE
  5
588
100
AcDbEntity
  8
SIZE
  6
CONTINUOUS
 62
    30
100
AcDbLine
 10
1716.333898
 20
1081.487705
 30
0.0
 11
1590.333898
 21
1081.487705
 31
0.0
  0
LINE
  5
589
100
AcDbEntity
  8
SIZE
  6
CONTINUOUS
 62
    30
100
AcDbLine
 10
1575.333898
 20
1081.487705
 30
0.0
 11
1570.333898
 21
1081.487705
 31
0.0
  0
CIRCLE
  5
58A
100
AcDbEntity
  8
SIZE
  6
CONTINUOUS
 62
    30
100
AcDbCircle
 10
1580.333898
 20
1081.487705
 30
0.0
 40
5.0
  0
POINT
  5
58B
100
AcDbEntity
  8
DEFPOINTS
  6
CONTINUOUS
 62
     7
100
AcDbPoint
 10
1580.333898
 20
1081.487705
 30
0.0
  0
LINE
  5
58C
100
AcDbEntity
  8
SIZE
  6
CONTINUOUS
 62
    30
100
AcDbLine
 10
1585.333898
 20
1081.487705
 30
0.0
 11
1590.333898
 21
1081.487705
 31
0.0
  0
CIRCLE
  5
58D
100
AcDbEntity
  8
SIZE
  6
CONTINUOUS
 62
    30
100
AcDbCircle
 10
1580.333898
 20
1081.487705
 30
0.0
 40
5.0
  0
LINE
  5
58E
100
AcDbEntity
  8
SIZE
  6
CONTINUOUS
 62
    30
100
AcDbLine
 10
1721.333898
 20
1187.151765
 30
0.0
 11
1716.333898
 21
1187.151765
 31
0.0
  0
CIRCLE
  5
58F
100
AcDbEntity
  8
SIZE
  6
CONTINUOUS
 62
    30
100
AcDbCircle
 10
1726.333898
 20
1187.151765
 30
0.0
 40
5.0
  0
LINE
  5
590
100
AcDbEntity
  8
SIZE
  6
CONTINUOUS
 62
    30
100
AcDbLine
 10
1721.333898
 20
1081.487705
 30
0.0
 11
1716.333898
 21
1081.487705
 31
0.0
  0
CIRCLE
  5
591
100
AcDbEntity
  8
SIZE
  6
CONTINUOUS
 62
    30
100
AcDbCircle
 10
1726.333898
 20
1081.487705
 30
0.0
 40
5.0
  0
POINT
  5
592
100
AcDbEntity
  8
DEFPOINTS
  6
CONTINUOUS
 62
     7
100
AcDbPoint
 10
1844.333898
 20
975.843546
 30
0.0
  0
LINE
  5
593
100
AcDbEntity
  8
NOTE
  6
CONTINUOUS
 62
     4
100
AcDbLine
 10
1777.470983
 20
975.843546
 30
0.0
 11
1807.470983
 21
1005.843546
 31
0.0
  0
LINE
  5
594
100
AcDbEntity
  8
NOTE
  6
CONTINUOUS
 62
     4
100
AcDbLine
 10
1804.039525
 20
975.843546
 30
0.0
 11
1834.039525
 21
1005.843546
 31
0.0
  0
LINE
  5
595
100
AcDbEntity
  8
SIZE
  6
CONTINUOUS
 62
    30
100
AcDbLine
 10
1974.312391
 20
934.843042
 30
0.0
 11
1974.312391
 21
939.843042
 31
0.0
  0
LINE
  5
596
100
AcDbEntity
  8
SIZE
  6
CONTINUOUS
 62
    30
100
AcDbLine
 10
1974.312391
 20
939.843042
 30
0.0
 11
1974.312391
 21
949.843042
 31
0.0
  0
LINE
  5
597
100
AcDbEntity
  8
SIZE
  6
CONTINUOUS
 62
    30
100
AcDbLine
 10
1716.333898
 20
1426.79875
 30
0.0
 11
1102.333898
 21
1426.79875
 31
0.0
  0
TEXT
  5
598
100
AcDbEntity
  8
SIZE
  6
CONTINUOUS
 62
    30
100
AcDbText
 10
1409.191041
 20
1324.4379
 30
0.0
 40
55.0
  1
507
 41
0.9
 72
     1
 11
1472.833898
 21
1324.4379
 31
0.0
100
AcDbText
  0
LINE
  5
599
100
AcDbEntity
  8
SIZE
  6
CONTINUOUS
 62
    30
100
AcDbLine
 10
1716.333898
 20
1309.4379
 30
0.0
 11
1229.333898
 21
1309.4379
 31
0.0
  0
TEXT
  5
59A
100
AcDbEntity
  8
SIZE
  6
CONTINUOUS
 62
    30
100
AcDbText
 10
1414.191041
 20
1202.151765
 30
0.0
 40
55.0
  1
497
 41
0.9
 72
     1
 11
1477.833898
 21
1202.151765
 31
0.0
100
AcDbText
  0
POINT
  5
59B
100
AcDbEntity
  8
DEFPOINTS
  6
CONTINUOUS
 62
     7
100
AcDbPoint
 10
1219.333898
 20
1309.4379
 30
0.0
  0
LINE
  5
59C
100
AcDbEntity
  8
SIZE
  6
CONTINUOUS
 62
    30
100
AcDbLine
 10
1224.333898
 20
1309.4379
 30
0.0
 11
1229.333898
 21
1309.4379
 31
0.0
  0
CIRCLE
  5
59D
100
AcDbEntity
  8
SIZE
  6
CONTINUOUS
 62
    30
100
AcDbCircle
 10
1219.333898
 20
1309.4379
 30
0.0
 40
5.0
  0
POINT
  5
59E
100
AcDbEntity
  8
DEFPOINTS
  6
CONTINUOUS
 62
     7
100
AcDbPoint
 10
1092.333898
 20
1426.79875
 30
0.0
  0
LINE
  5
59F
100
AcDbEntity
  8
SIZE
  6
CONTINUOUS
 62
    30
100
AcDbLine
 10
1097.333898
 20
1426.79875
 30
0.0
 11
1102.333898
 21
1426.79875
 31
0.0
  0
CIRCLE
  5
5A0
100
AcDbEntity
  8
SIZE
  6
CONTINUOUS
 62
    30
100
AcDbCircle
 10
1092.333898
 20
1426.79875
 30
0.0
 40
5.0
  0
TEXT
  5
5A1
100
AcDbEntity
  8
SIZE
  6
CONTINUOUS
 62
    30
100
AcDbText
 10
1344.51247
 20
1441.79875
 30
0.0
 40
55.0
  1
634
 41
0.9
 72
     1
 11
1409.333898
 21
1441.79875
 31
0.0
100
AcDbText
  0
LINE
  5
5A2
100
AcDbEntity
  8
SIZE
  6
CONTINUOUS
 62
    30
100
AcDbLine
 10
1721.333898
 20
1309.4379
 30
0.0
 11
1716.333898
 21
1309.4379
 31
0.0
  0
CIRCLE
  5
5A3
100
AcDbEntity
  8
SIZE
  6
CONTINUOUS
 62
    30
100
AcDbCircle
 10
1726.333898
 20
1309.4379
 30
0.0
 40
5.0
  0
LINE
  5
5A4
100
AcDbEntity
  8
SIZE
  6
CONTINUOUS
 62
    30
100
AcDbLine
 10
1721.333898
 20
1426.79875
 30
0.0
 11
1716.333898
 21
1426.79875
 31
0.0
  0
CIRCLE
  5
5A5
100
AcDbEntity
  8
SIZE
  6
CONTINUOUS
 62
    30
100
AcDbCircle
 10
1726.333898
 20
1426.79875
 30
0.0
 40
5.0
  0
TEXT
  5
5A6
100
AcDbEntity
  8
SIZE
  6
CONTINUOUS
 62
    30
100
AcDbText
 10
2381.349292
 20
657.32926
 30
0.0
 40
55.0
  1
350以上
 50
90.0
 41
0.9
 72
     1
 11
2381.349292
 21
780.843546
 31
0.0
100
AcDbText
  0
LINE
  5
5A7
100
AcDbEntity
  8
SIZE
  6
CONTINUOUS
 62
    30
100
AcDbLine
 10
2396.349292
 20
965.843546
 30
0.0
 11
2396.349292
 21
595.843546
 31
0.0
  0
LINE
  5
5A8
100
AcDbEntity
  8
SIZE
  6
CONTINUOUS
 62
    30
100
AcDbLine
 10
2261.296056
 20
919.843042
 30
0.0
 11
2261.296056
 21
649.843042
 31
0.0
  0
TEXT
  5
5A9
100
AcDbEntity
  8
SIZE
  6
CONTINUOUS
 62
    30
100
AcDbText
 10
2098.642904
 20
775.91447
 30
0.0
 40
55.0
  1
190
 50
90.0
 41
0.9
 72
     1
 11
2098.642904
 21
834.843042
 31
0.0
100
AcDbText
  0
LINE
  5
5AA
100
AcDbEntity
  8
SIZE
  6
CONTINUOUS
 62
    30
100
AcDbLine
 10
2113.642904
 20
919.843042
 30
0.0
 11
2113.642904
 21
749.843042
 31
0.0
  0
TEXT
  5
5AB
100
AcDbEntity
  8
SIZE
  6
CONTINUOUS
 62
    30
100
AcDbText
 10
2246.296056
 20
721.200185
 30
0.0
 40
55.0
  1
290
 50
90.0
 41
0.9
 72
     1
 11
2246.296056
 21
784.843042
 31
0.0
100
AcDbText
  0
CIRCLE
  5
5AC
100
AcDbEntity
  8
SIZE
  6
CONTINUOUS
 62
    30
100
AcDbCircle
 10
2113.642904
 20
739.843042
 30
0.0
 40
5.0
  0
POINT
  5
5AD
100
AcDbEntity
  8
DEFPOINTS
  6
CONTINUOUS
 62
     7
100
AcDbPoint
 10
2113.642904
 20
739.843042
 30
0.0
  0
LINE
  5
5AE
100
AcDbEntity
  8
SIZE
  6
CONTINUOUS
 62
    30
100
AcDbLine
 10
2113.642904
 20
744.843042
 30
0.0
 11
2113.642904
 21
749.843042
 31
0.0
  0
POINT
  5
5AF
100
AcDbEntity
  8
DEFPOINTS
  6
CONTINUOUS
 62
     7
100
AcDbPoint
 10
2261.296056
 20
639.843042
 30
0.0
  0
LINE
  5
5B0
100
AcDbEntity
  8
SIZE
  6
CONTINUOUS
 62
    30
100
AcDbLine
 10
2261.296056
 20
644.843042
 30
0.0
 11
2261.296056
 21
649.843042
 31
0.0
  0
CIRCLE
  5
5B1
100
AcDbEntity
  8
SIZE
  6
CONTINUOUS
 62
    30
100
AcDbCircle
 10
2261.296056
 20
639.843042
 30
0.0
 40
5.0
  0
LINE
  5
5B2
100
AcDbEntity
  8
SIZE
  6
CONTINUOUS
 62
    30
100
AcDbLine
 10
2396.349292
 20
590.843546
 30
0.0
 11
2396.349292
 21
595.843546
 31
0.0
  0
LINE
  5
5B3
100
AcDbEntity
  8
SIZE
  6
CONTINUOUS
 62
    30
100
AcDbLine
 10
2396.349292
 20
595.843546
 30
0.0
 11
2396.349292
 21
605.843546
 31
0.0
  0
POINT
  5
5B4
100
AcDbEntity
  8
DEFPOINTS
  6
CONTINUOUS
 62
     7
100
AcDbPoint
 10
2396.349292
 20
585.843546
 30
0.0
  0
LINE
  5
5B5
100
AcDbEntity
  8
SIZE
  6
CONTINUOUS
 62
    30
100
AcDbLine
 10
2396.349292
 20
590.843546
 30
0.0
 11
2396.349292
 21
595.843546
 31
0.0
  0
LINE
  5
5B6
100
AcDbEntity
  8
NOTE
  6
CONTINUOUS
 62
     4
100
AcDbLine
 10
1986.219572
 20
1060.222009
 30
0.0
 11
2386.755655
 21
1060.222009
 31
0.0
  0
TEXT
  5
5B7
100
AcDbEntity
  8
NOTE
  6
CONTINUOUS
 62
     4
100
AcDbText
 10
2002.454449
 20
1080.092597
 30
0.0
 40
64.0
  1
RG %%C12.7
 41
0.9
100
AcDbText
  0
LINE
  5
5B8
100
AcDbEntity
  8
SIZE
  6
CONTINUOUS
 62
    30
100
AcDbLine
 10
2113.642904
 20
924.843042
 30
0.0
 11
2113.642904
 21
919.843042
 31
0.0
  0
CIRCLE
  5
5B9
100
AcDbEntity
  8
SIZE
  6
CONTINUOUS
 62
    30
100
AcDbCircle
 10
2113.642904
 20
929.843042
 30
0.0
 40
5.0
  0
LINE
  5
5BA
100
AcDbEntity
  8
SIZE
  6
CONTINUOUS
 62
    30
100
AcDbLine
 10
2261.296056
 20
924.843042
 30
0.0
 11
2261.296056
 21
919.843042
 31
0.0
  0
CIRCLE
  5
5BB
100
AcDbEntity
  8
SIZE
  6
CONTINUOUS
 62
    30
100
AcDbCircle
 10
2261.296056
 20
929.843042
 30
0.0
 40
5.0
  0
LINE
  5
5BC
100
AcDbEntity
  8
SIZE
  6
CONTINUOUS
 62
    30
100
AcDbLine
 10
2396.349292
 20
970.843546
 30
0.0
 11
2396.349292
 21
965.843546
 31
0.0
  0
CIRCLE
  5
5BD
100
AcDbEntity
  8
SIZE
  6
CONTINUOUS
 62
    30
100
AcDbCircle
 10
2396.349292
 20
975.843546
 30
0.0
 40
5.0
  0
ENDBLK
  5
5BF
100
AcDbEntity
  8
0
 62
     7
100
AcDbBlockEnd
  0
ENDSEC
  0
SECTION
  2
ENTITIES
  0
LINE
  5
5C1
100
AcDbEntity
  8
NOTE
  6
CONTINUOUS
 62
     4
100
AcDbLine
 10
792.624011
 20
-333.151978
 30
0.0
 11
1464.817105
 21
-333.151978
 31
0.0
  0
LINE
  5
5C2
100
AcDbEntity
  8
DETAIL
  6
CONTINUOUS
 62
     5
100
AcDbLine
 10
-355.0
 20
0.0
 30
0.0
 11
355.0
 21
0.0
 31
0.0
  0
ARC
  5
5C3
100
AcDbEntity
  8
OUTLINE
  6
CONTINUOUS
 62
     3
100
AcDbCircle
 10
-250.0
 20
312.764706
 30
0.0
 40
332.764706
100
AcDbArc
 50
251.606688
 51
259.429888
  0
LINE
  5
5C4
100
AcDbEntity
  8
OUTLINE
  6
CONTINUOUS
 62
     3
100
AcDbLine
 10
-355.0
 20
0.0
 30
0.0
 11
-317.0
 21
0.0
 31
0.0
  0
LINE
  5
5C5
100
AcDbEntity
  8
NOTE
  6
CONTINUOUS
 62
     4
100
AcDbLine
 10
-386.640921
 20
696.11883
 30
0.0
 11
-179.999465
 21
283.998787
 31
0.0
  0
LINE
  5
5C6
100
AcDbEntity
  8
NOTE
  6
CONTINUOUS
 62
     4
100
AcDbLine
 10
-517.977625
 20
477.307603
 30
0.0
 11
-189.999318
 21
77.998893
 31
0.0
  0
LINE
  5
5C7
100
AcDbEntity
  8
SIZE
  6
CONTINUOUS
 62
    30
100
AcDbLine
 10
-345.0
 20
-555.843538
 30
0.0
 11
345.0
 21
-555.843538
 31
0.0
  0
LINE
  5
5C8
100
AcDbEntity
  8
SIZE
  6
CONTINUOUS
 62
    30
100
AcDbLine
 10
-297.0
 20
-394.722162
 30
0.0
 11
-345.0
 21
-394.722162
 31
0.0
  0
LINE
  5
5C9
100
AcDbEntity
  8
SIZE
  6
CONTINUOUS
 62
    30
100
AcDbLine
 10
-330.0
 20
-256.03246
 30
0.0
 11
-325.0
 21
-256.03246
 31
0.0
  0
LINE
  5
5CA
100
AcDbEntity
  8
SIZE
  6
CONTINUOUS
 62
    30
100
AcDbLine
 10
-330.0
 20
-256.03246
 30
0.0
 11
-325.0
 21
-256.03246
 31
0.0
  0
LINE
  5
5CB
100
AcDbEntity
  8
SIZE
  6
CONTINUOUS
 62
    30
100
AcDbLine
 10
-237.692308
 20
77.999496
 30
0.0
 11
-657.147701
 21
77.999496
 31
0.0
  0
LINE
  5
5CC
100
AcDbEntity
  8
SIZE
  6
CONTINUOUS
 62
    30
100
AcDbLine
 10
-225.192308
 20
283.999496
 30
0.0
 11
-533.782158
 21
283.999496
 31
0.0
  0
LINE
  5
5CD
100
AcDbEntity
  8
NOTE
  6
CONTINUOUS
 62
     4
100
AcDbLine
 10
-348.014719
 20
-125.267388
 30
0.0
 11
-322.09227
 21
-107.116294
 31
0.0
  0
LINE
  5
5CE
100
AcDbEntity
  8
NOTE
  6
CONTINUOUS
 62
     4
100
AcDbLine
 10
-348.014719
 20
-125.267388
 30
0.0
 11
-303.872473
 21
-48.810775
 31
0.0
  0
LINE
  5
5CF
100
AcDbEntity
  8
NOTE
  6
CONTINUOUS
 62
     4
100
AcDbLine
 10
-358.431458
 20
390.0
 30
0.0
 11
-328.431458
 21
420.0
 31
0.0
  0
LINE
  5
5D0
100
AcDbEntity
  8
NOTE
  6
CONTINUOUS
 62
     4
100
AcDbLine
 10
-331.862915
 20
390.0
 30
0.0
 11
-301.862915
 21
420.0
 31
0.0
  0
LINE
  5
5D1
100
AcDbEntity
  8
NOTE
  6
CONTINUOUS
 62
     4
100
AcDbLine
 10
-375.0
 20
390.0
 30
0.0
 11
435.0
 21
390.0
 31
0.0
  0
ARC
  5
5D2
100
AcDbEntity
  8
DETAIL
  6
CONTINUOUS
 62
     5
100
AcDbCircle
 10
-250.0
 20
312.764706
 30
0.0
 40
332.764706
100
AcDbArc
 50
251.606688
 51
259.429888
  0
TEXT
  5
5D3
100
AcDbEntity
  8
ETC
  6
CONTINUOUS
 62
    61
100
AcDbText
 10
-1409.33389
 20
1009.910654
 30
0.0
 40
80.0
  1
MPL-RP63LA(ﾘﾌﾟﾚｽﾊﾟﾈﾙ)_2
 50
0.000003
 41
0.8
100
AcDbText
  0
LINE
  5
5D4
100
AcDbEntity
  8
OUTLINE
  6
CONTINUOUS
 62
     3
100
AcDbLine
 10
-355.0
 20
0.0
 30
0.0
 11
-355.0
 21
-3.0
 31
0.0
  0
CIRCLE
  5
5D5
100
AcDbEntity
  8
SIZE
  6
CONTINUOUS
 62
    30
100
AcDbCircle
 10
-502.313518
 20
0.0
 30
0.0
 40
5.0
  0
LINE
  5
5D6
100
AcDbEntity
  8
DETAIL
  6
CONTINUOUS
 62
     5
100
AcDbLine
 10
-355.0
 20
0.0
 30
0.0
 11
-355.0
 21
-3.0
 31
0.0
  0
LINE
  5
5D7
100
AcDbEntity
  8
SIZE
  6
CONTINUOUS
 62
    30
100
AcDbLine
 10
-355.0
 20
-23.0
 30
0.0
 11
-355.0
 21
-585.843538
 31
0.0
  0
LINE
  5
5D8
100
AcDbEntity
  8
SIZE
  6
CONTINUOUS
 62
    30
100
AcDbLine
 10
-355.0
 20
-23.0
 30
0.0
 11
-355.0
 21
-424.722162
 31
0.0
  0
LINE
  5
5D9
100
AcDbEntity
  8
SIZE
  6
CONTINUOUS
 62
    30
100
AcDbLine
 10
-350.0
 20
-555.843538
 30
0.0
 11
-345.0
 21
-555.843538
 31
0.0
  0
CIRCLE
  5
5DA
100
AcDbEntity
  8
SIZE
  6
CONTINUOUS
 62
    30
100
AcDbCircle
 10
-355.0
 20
-555.843538
 30
0.0
 40
5.0
  0
TEXT
  5
5DB
100
AcDbEntity
  8
SIZE
  6
CONTINUOUS
 62
    30
100
AcDbText
 10
-460.142858
 20
-379.722162
 30
0.0
 40
55.0
  1
68
 41
0.9
 72
     1
 11
-420.071429
 21
-379.722162
 31
0.0
100
AcDbText
  0
LINE
  5
5DC
100
AcDbEntity
  8
SIZE
  6
CONTINUOUS
 62
    30
100
AcDbLine
 10
-355.0
 20
-394.722162
 30
0.0
 11
-475.142857
 21
-394.722162
 31
0.0
  0
LINE
  5
5DD
100
AcDbEntity
  8
SIZE
  6
CONTINUOUS
 62
    30
100
AcDbLine
 10
-350.0
 20
-394.722162
 30
0.0
 11
-345.0
 21
-394.722162
 31
0.0
  0
CIRCLE
  5
5DE
100
AcDbEntity
  8
SIZE
  6
CONTINUOUS
 62
    30
100
AcDbCircle
 10
-355.0
 20
-394.722162
 30
0.0
 40
5.0
  0
TEXT
  5
5DF
100
AcDbEntity
  8
SIZE
  6
CONTINUOUS
 62
    30
100
AcDbText
 10
-517.313518
 20
-130.266142
 30
0.0
 40
55.0
  1
45
 50
90.0
 41
0.9
 72
     1
 11
-517.313518
 21
-90.194713
 31
0.0
100
AcDbText
  0
LINE
  5
5E1
100
AcDbEntity
  8
SIZE
  6
CONTINUOUS
 62
    30
100
AcDbLine
 10
-335.0
 20
-20.0
 30
0.0
 11
-335.0
 21
-286.03246
 31
0.0
  0
LINE
  5
5E2
100
AcDbEntity
  8
SIZE
  6
CONTINUOUS
 62
    30
100
AcDbLine
 10
-355.0
 20
-23.0
 30
0.0
 11
-355.0
 21
-286.03246
 31
0.0
  0
TEXT
  5
5E3
100
AcDbEntity
  8
SIZE
  6
CONTINUOUS
 62
    30
100
AcDbText
 10
-470.142858
 20
-241.03246
 30
0.0
 40
55.0
  1
20
 41
0.9
 72
     1
 11
-430.071429
 21
-241.03246
 31
0.0
100
AcDbText
  0
LINE
  5
5E4
100
AcDbEntity
  8
SIZE
  6
CONTINUOUS
 62
    30
100
AcDbLine
 10
-365.0
 20
-256.03246
 30
0.0
 11
-485.142857
 21
-256.03246
 31
0.0
  0
CIRCLE
  5
5E5
100
AcDbEntity
  8
SIZE
  6
CONTINUOUS
 62
    30
100
AcDbCircle
 10
-335.0
 20
-256.03246
 30
0.0
 40
5.0
  0
POINT
  5
5E6
100
AcDbEntity
  8
DEFPOINTS
  6
CONTINUOUS
 62
     7
100
AcDbPoint
 10
-335.0
 20
-256.03246
 30
0.0
  0
LINE
  5
5E7
100
AcDbEntity
  8
SIZE
  6
CONTINUOUS
 62
    30
100
AcDbLine
 10
-360.0
 20
-256.03246
 30
0.0
 11
-365.0
 21
-256.03246
 31
0.0
  0
CIRCLE
  5
5E8
100
AcDbEntity
  8
SIZE
  6
CONTINUOUS
 62
    30
100
AcDbCircle
 10
-355.0
 20
-256.03246
 30
0.0
 40
5.0
  0
CIRCLE
  5
5E9
100
AcDbEntity
  8
SIZE
  6
CONTINUOUS
 62
    30
100
AcDbCircle
 10
-335.0
 20
-256.03246
 30
0.0
 40
5.0
  0
LINE
  5
5EA
100
AcDbEntity
  8
SIZE
  6
CONTINUOUS
 62
    30
100
AcDbLine
 10
-335.0
 20
-256.03246
 30
0.0
 11
-355.0
 21
-256.03246
 31
0.0
  0
LINE
  5
5EB
100
AcDbEntity
  8
SIZE
  6
CONTINUOUS
 62
    30
100
AcDbLine
 10
-502.313518
 20
-5.0
 30
0.0
 11
-502.313518
 21
-10.0
 31
0.0
  0
LINE
  5
5EC
100
AcDbEntity
  8
SIZE
  6
CONTINUOUS
 62
    30
100
AcDbLine
 10
-502.313518
 20
-10.0
 30
0.0
 11
-502.313518
 21
-145.266142
 31
0.0
  0
POINT
  5
5ED
100
AcDbEntity
  8
DEFPOINTS
  6
CONTINUOUS
 62
     7
100
AcDbPoint
 10
-355.0
 20
-3.0
 30
0.0
  0
POINT
  5
5EE
100
AcDbEntity
  8
DEFPOINTS
  6
CONTINUOUS
 62
     7
100
AcDbPoint
 10
-355.0
 20
-3.0
 30
0.0
  0
POINT
  5
5EF
100
AcDbEntity
  8
DEFPOINTS
  6
CONTINUOUS
 62
     7
100
AcDbPoint
 10
-355.0
 20
-3.0
 30
0.0
  0
LINE
  5
5F0
100
AcDbEntity
  8
NOTE
  6
CONTINUOUS
 62
     4
100
AcDbLine
 10
-348.014719
 20
-125.267388
 30
0.0
 11
-345.256634
 21
-93.742342
 31
0.0
  0
TEXT
  5
5F1
100
AcDbEntity
  8
NOTE
  6
CONTINUOUS
 62
     4
100
AcDbText
 10
-962.003574
 20
402.580119
 30
0.0
 40
64.0
  1
（自然排水口）
 41
0.9
100
AcDbText
  0
LINE
  5
5F2
100
AcDbEntity
  8
NOTE
  6
CONTINUOUS
 62
     4
100
AcDbLine
 10
-986.842699
 20
477.307603
 30
0.0
 11
-517.977625
 21
477.307603
 31
0.0
  0
TEXT
  5
5F3
100
AcDbEntity
  8
NOTE
  6
CONTINUOUS
 62
     4
100
AcDbText
 10
-935.231938
 20
504.249719
 30
0.0
 40
64.0
  1
D抜き
 41
0.9
100
AcDbText
  0
LINE
  5
5F4
100
AcDbEntity
  8
SIZE
  6
CONTINUOUS
 62
    30
100
AcDbLine
 10
-627.147701
 20
333.999496
 30
0.0
 11
-627.147701
 21
87.999496
 31
0.0
  0
LINE
  5
5F5
100
AcDbEntity
  8
SIZE
  6
CONTINUOUS
 62
    30
100
AcDbLine
 10
-503.782158
 20
333.999496
 30
0.0
 11
-503.782158
 21
293.999496
 31
0.0
  0
TEXT
  5
5F6
100
AcDbEntity
  8
SIZE
  6
CONTINUOUS
 62
    30
100
AcDbText
 10
-518.782158
 20
178.856638
 30
0.0
 40
55.0
  1
60
 50
90.0
 41
0.9
 72
     1
 11
-518.782158
 21
218.928067
 31
0.0
100
AcDbText
  0
TEXT
  5
5F7
100
AcDbEntity
  8
SIZE
  6
CONTINUOUS
 62
    30
100
AcDbText
 10
-642.147701
 20
139.449207
 30
0.0
 40
55.0
  1
266
 50
90.0
 41
0.9
 72
     1
 11
-642.147701
 21
201.913493
 31
0.0
100
AcDbText
  0
POINT
  5
5F8
100
AcDbEntity
  8
DEFPOINTS
  6
CONTINUOUS
 62
     7
100
AcDbPoint
 10
-627.147701
 20
77.999496
 30
0.0
  0
LINE
  5
5F9
100
AcDbEntity
  8
SIZE
  6
CONTINUOUS
 62
    30
100
AcDbLine
 10
-627.147701
 20
82.999496
 30
0.0
 11
-627.147701
 21
87.999496
 31
0.0
  0
CIRCLE
  5
5FA
100
AcDbEntity
  8
SIZE
  6
CONTINUOUS
 62
    30
100
AcDbCircle
 10
-627.147701
 20
77.999496
 30
0.0
 40
5.0
  0
LINE
  5
5FB
100
AcDbEntity
  8
SIZE
  6
CONTINUOUS
 62
    30
100
AcDbLine
 10
-337.0
 20
45.0
 30
0.0
 11
-532.313518
 21
45.0
 31
0.0
  0
POINT
  5
5FC
100
AcDbEntity
  8
DEFPOINTS
  6
CONTINUOUS
 62
     7
100
AcDbPoint
 10
-502.313518
 20
45.0
 30
0.0
  0
LINE
  5
5FD
100
AcDbEntity
  8
SIZE
  6
CONTINUOUS
 62
    30
100
AcDbLine
 10
-502.313518
 20
50.0
 30
0.0
 11
-502.313518
 21
55.0
 31
0.0
  0
CIRCLE
  5
5FE
100
AcDbEntity
  8
SIZE
  6
CONTINUOUS
 62
    30
100
AcDbCircle
 10
-502.313518
 20
45.0
 30
0.0
 40
5.0
  0
LINE
  5
5FF
100
AcDbEntity
  8
SIZE
  6
CONTINUOUS
 62
    30
100
AcDbLine
 10
-502.313518
 20
45.0
 30
0.0
 11
-502.313518
 21
0.0
 31
0.0
  0
LINE
  5
600
100
AcDbEntity
  8
SIZE
  6
CONTINUOUS
 62
    30
100
AcDbLine
 10
-502.313518
 20
55.0
 30
0.0
 11
-502.313518
 21
65.0
 31
0.0
  0
LINE
  5
601
100
AcDbEntity
  8
SIZE
  6
CONTINUOUS
 62
    30
100
AcDbLine
 10
-455.0
 20
0.0
 30
0.0
 11
-532.313518
 21
0.0
 31
0.0
  0
POINT
  5
602
100
AcDbEntity
  8
DEFPOINTS
  6
CONTINUOUS
 62
     7
100
AcDbPoint
 10
-335.0
 20
0.0
 30
0.0
  0
POINT
  5
603
100
AcDbEntity
  8
DEFPOINTS
  6
CONTINUOUS
 62
     7
100
AcDbPoint
 10
-335.0
 20
0.0
 30
0.0
  0
POINT
  5
604
100
AcDbEntity
  8
DEFPOINTS
  6
CONTINUOUS
 62
     7
100
AcDbPoint
 10
-435.0
 20
0.0
 30
0.0
  0
LINE
  5
605
100
AcDbEntity
  8
NOTE
  6
CONTINUOUS
 62
     4
100
AcDbLine
 10
-435.0
 20
5.574747
 30
0.0
 11
-425.574747
 21
15.0
 31
0.0
  0
LINE
  5
606
100
AcDbEntity
  8
NOTE
  6
CONTINUOUS
 62
     4
100
AcDbLine
 10
-426.432611
 20
0.0
 30
0.0
 11
-411.432611
 21
15.0
 31
0.0
  0
LINE
  5
607
100
AcDbEntity
  8
NOTE
  6
CONTINUOUS
 62
     4
100
AcDbLine
 10
-412.290476
 20
0.0
 30
0.0
 11
-397.290476
 21
15.0
 31
0.0
  0
LINE
  5
608
100
AcDbEntity
  8
NOTE
  6
CONTINUOUS
 62
     4
100
AcDbLine
 10
-369.864069
 20
0.0
 30
0.0
 11
-354.864069
 21
15.0
 31
0.0
  0
LINE
  5
609
100
AcDbEntity
  8
NOTE
  6
CONTINUOUS
 62
     4
100
AcDbLine
 10
-355.721933
 20
0.0
 30
0.0
 11
-340.721933
 21
15.0
 31
0.0
  0
LINE
  5
60A
100
AcDbEntity
  8
NOTE
  6
CONTINUOUS
 62
     4
100
AcDbLine
 10
-341.579798
 20
0.0
 30
0.0
 11
-335.0
 21
6.579798
 31
0.0
  0
LINE
  5
60B
100
AcDbEntity
  8
NOTE
  6
CONTINUOUS
 62
     4
100
AcDbLine
 10
-335.0
 20
0.0
 30
0.0
 11
-335.0
 21
15.0
 31
0.0
  0
LINE
  5
60C
100
AcDbEntity
  8
NOTE
  6
CONTINUOUS
 62
     4
100
AcDbLine
 10
-435.0
 20
0.0
 30
0.0
 11
-335.0
 21
0.0
 31
0.0
  0
LINE
  5
60D
100
AcDbEntity
  8
NOTE
  6
CONTINUOUS
 62
     4
100
AcDbLine
 10
-435.0
 20
15.0
 30
0.0
 11
-335.0
 21
15.0
 31
0.0
  0
POINT
  5
60E
100
AcDbEntity
  8
DEFPOINTS
  6
CONTINUOUS
 62
     7
100
AcDbPoint
 10
-503.782158
 20
283.999496
 30
0.0
  0
LINE
  5
60F
100
AcDbEntity
  8
SIZE
  6
CONTINUOUS
 62
    30
100
AcDbLine
 10
-503.782158
 20
288.999496
 30
0.0
 11
-503.782158
 21
293.999496
 31
0.0
  0
CIRCLE
  5
610
100
AcDbEntity
  8
SIZE
  6
CONTINUOUS
 62
    30
100
AcDbCircle
 10
-503.782158
 20
283.999496
 30
0.0
 40
5.0
  0
LINE
  5
611
100
AcDbEntity
  8
SIZE
  6
CONTINUOUS
 62
    30
100
AcDbLine
 10
-503.782158
 20
283.999496
 30
0.0
 11
-503.782158
 21
163.856639
 31
0.0
  0
LINE
  5
612
100
AcDbEntity
  8
SIZE
  6
CONTINUOUS
 62
    30
100
AcDbLine
 10
-337.0
 20
343.999496
 30
0.0
 11
-657.147701
 21
343.999496
 31
0.0
  0
LINE
  5
613
100
AcDbEntity
  8
SIZE
  6
CONTINUOUS
 62
    30
100
AcDbLine
 10
-627.147701
 20
338.999496
 30
0.0
 11
-627.147701
 21
333.999496
 31
0.0
  0
CIRCLE
  5
614
100
AcDbEntity
  8
SIZE
  6
CONTINUOUS
 62
    30
100
AcDbCircle
 10
-627.147701
 20
343.999496
 30
0.0
 40
5.0
  0
LINE
  5
615
100
AcDbEntity
  8
SIZE
  6
CONTINUOUS
 62
    30
100
AcDbLine
 10
-337.0
 20
343.999496
 30
0.0
 11
-533.782158
 21
343.999496
 31
0.0
  0
LINE
  5
616
100
AcDbEntity
  8
SIZE
  6
CONTINUOUS
 62
    30
100
AcDbLine
 10
-503.782158
 20
338.999496
 30
0.0
 11
-503.782158
 21
333.999496
 31
0.0
  0
CIRCLE
  5
617
100
AcDbEntity
  8
SIZE
  6
CONTINUOUS
 62
    30
100
AcDbCircle
 10
-503.782158
 20
343.999496
 30
0.0
 40
5.0
  0
LINE
  5
618
100
AcDbEntity
  8
NOTE
  6
CONTINUOUS
 62
     4
100
AcDbLine
 10
-807.054033
 20
696.11883
 30
0.0
 11
-386.640921
 21
696.11883
 31
0.0
  0
TEXT
  5
619
100
AcDbEntity
  8
NOTE
  6
CONTINUOUS
 62
     4
100
AcDbText
 10
-790.819156
 20
715.989418
 30
0.0
 40
64.0
  1
D VP-25
 41
0.9
100
AcDbText
  0
LINE
  5
61A
100
AcDbEntity
  8
BASIS
  6
DASHDOT
 62
     6
100
AcDbLine
 10
0.0
 20
370.15765
 30
0.0
 11
0.0
 21
-41.608245
 31
0.0
  0
CIRCLE
  5
61B
100
AcDbEntity
  8
ARRANGE
  6
CONTINUOUS
 62
     1
100
AcDbCircle
 10
0.0
 20
0.0
 30
0.0
 40
42.5
  0
LINE
  5
61C
100
AcDbEntity
  8
OUTLINE
  6
CONTINUOUS
 62
     3
100
AcDbLine
 10
355.0
 20
0.0
 30
0.0
 11
355.0
 21
-3.0
 31
0.0
  0
LINE
  5
61D
100
AcDbEntity
  8
NOTE
  6
CONTINUOUS
 62
     4
100
AcDbLine
 10
792.624011
 20
-333.151978
 30
0.0
 11
286.999522
 21
153.999957
 31
0.0
  0
LINE
  5
61F
100
AcDbEntity
  8
SIZE
  6
CONTINUOUS
 62
    30
100
AcDbLine
 10
287.0
 20
119.059445
 30
0.0
 11
287.0
 21
-424.722162
 31
0.0
  0
LINE
  5
621
100
AcDbEntity
  8
SIZE
  6
CONTINUOUS
 62
    30
100
AcDbLine
 10
-287.0
 20
119.059445
 30
0.0
 11
-287.0
 21
-424.722162
 31
0.0
  0
CIRCLE
  5
622
100
AcDbEntity
  8
SIZE
  6
CONTINUOUS
 62
    30
100
AcDbCircle
 10
987.015394
 20
0.0
 30
0.0
 40
5.0
  0
LINE
  5
623
100
AcDbEntity
  8
SIZE
  6
CONTINUOUS
 62
    30
100
AcDbLine
 10
987.015394
 20
0.0
 30
0.0
 11
987.015394
 21
-20.0
 31
0.0
  0
LINE
  5
624
100
AcDbEntity
  8
SIZE
  6
CONTINUOUS
 62
    30
100
AcDbLine
 10
987.015394
 20
0.0
 30
0.0
 11
987.015394
 21
-20.0
 31
0.0
  0
CIRCLE
  5
625
100
AcDbEntity
  8
SIZE
  6
CONTINUOUS
 62
    30
100
AcDbCircle
 10
987.015394
 20
0.0
 30
0.0
 40
5.0
  0
LINE
  5
626
100
AcDbEntity
  8
ARRANGE
  6
CONTINUOUS
 62
     1
100
AcDbLine
 10
42.469199
 20
42.157106
 30
0.0
 11
-42.469199
 21
-42.157106
 31
0.0
  0
LINE
  5
627
100
AcDbEntity
  8
ARRANGE
  6
CONTINUOUS
 62
     1
100
AcDbLine
 10
42.531748
 20
-42.094
 30
0.0
 11
-42.531748
 21
42.094
 31
0.0
  0
LINE
  5
628
100
AcDbEntity
  8
DETAIL
  6
CONTINUOUS
 62
     5
100
AcDbLine
 10
355.0
 20
0.0
 30
0.0
 11
355.0
 21
-3.0
 31
0.0
  0
LINE
  5
629
100
AcDbEntity
  8
SIZE
  6
CONTINUOUS
 62
    30
100
AcDbLine
 10
20.0
 20
-20.0
 30
0.0
 11
1017.015394
 21
-20.0
 31
0.0
  0
LINE
  5
62A
100
AcDbEntity
  8
OUTLINE
  6
CONTINUOUS
 62
     3
100
AcDbLine
 10
250.0
 20
-20.0
 30
0.0
 11
-250.0
 21
-20.0
 31
0.0
  0
TEXT
  5
62B
100
AcDbEntity
  8
SIZE
  6
CONTINUOUS
 62
    30
100
AcDbText
 10
-258.814286
 20
-375.3174
 30
0.0
 40
55.0
  1
574(吊りﾎﾞﾙﾄﾋﾟｯﾁ)
 41
0.9
 72
     1
 11
0.0
 21
-375.3174
 31
0.0
100
AcDbText
  0
LINE
  5
62C
100
AcDbEntity
  8
SIZE
  6
CONTINUOUS
 62
    30
100
AcDbLine
 10
-277.0
 20
-394.722162
 30
0.0
 11
277.0
 21
-394.722162
 31
0.0
  0
TEXT
  5
62D
100
AcDbEntity
  8
SIZE
  6
CONTINUOUS
 62
    30
100
AcDbText
 10
-273.664286
 20
-236.627698
 30
0.0
 40
55.0
  1
670(天井開口寸法)
 41
0.9
 72
     1
 11
0.0
 21
-236.627698
 31
0.0
100
AcDbText
  0
LINE
  5
62E
100
AcDbEntity
  8
SIZE
  6
CONTINUOUS
 62
    30
100
AcDbLine
 10
-325.0
 20
-256.03246
 30
0.0
 11
325.0
 21
-256.03246
 31
0.0
  0
LINE
  5
62F
100
AcDbEntity
  8
DETAIL
  6
CONTINUOUS
 62
     5
100
AcDbLine
 10
250.0
 20
-20.0
 30
0.0
 11
-250.0
 21
-20.0
 31
0.0
  0
LINE
  5
630
100
AcDbEntity
  8
SIZE
  6
CONTINUOUS
 62
    30
100
AcDbLine
 10
-282.0
 20
-394.722162
 30
0.0
 11
-277.0
 21
-394.722162
 31
0.0
  0
CIRCLE
  5
631
100
AcDbEntity
  8
SIZE
  6
CONTINUOUS
 62
    30
100
AcDbCircle
 10
-287.0
 20
-394.722162
 30
0.0
 40
5.0
  0
POINT
  5
632
100
AcDbEntity
  8
DEFPOINTS
  6
CONTINUOUS
 62
     7
100
AcDbPoint
 10
-287.0
 20
-394.722162
 30
0.0
  0
LINE
  5
633
100
AcDbEntity
  8
SIZE
  6
CONTINUOUS
 62
    30
100
AcDbLine
 10
-292.0
 20
-394.722162
 30
0.0
 11
-297.0
 21
-394.722162
 31
0.0
  0
CIRCLE
  5
634
100
AcDbEntity
  8
SIZE
  6
CONTINUOUS
 62
    30
100
AcDbCircle
 10
-287.0
 20
-394.722162
 30
0.0
 40
5.0
  0
TEXT
  5
635
100
AcDbEntity
  8
SIZE
  6
CONTINUOUS
 62
    30
100
AcDbText
 10
-58.928571
 20
-540.843538
 30
0.0
 40
55.0
  1
710
 41
0.9
 72
     1
 11
0.0
 21
-540.843538
 31
0.0
100
AcDbText
  0
LINE
  5
636
100
AcDbEntity
  8
SIZE
  6
CONTINUOUS
 62
    30
100
AcDbLine
 10
-325.0
 20
-256.03246
 30
0.0
 11
-315.0
 21
-256.03246
 31
0.0
  0
LINE
  5
63D
100
AcDbEntity
  8
NOTE
  6
CONTINUOUS
 62
     4
100
AcDbLine
 10
-230.288555
 20
-81.592606
 30
0.0
 11
-215.002136
 21
-48.810775
 31
0.0
  0
ARC
  5
63E
100
AcDbEntity
  8
OUTLINE
  6
CONTINUOUS
 62
     3
100
AcDbCircle
 10
-250.0
 20
312.764706
 30
0.0
 40
332.764706
100
AcDbArc
 50
268.260704
 51
270.0
  0
LINE
  5
63F
100
AcDbEntity
  8
OUTLINE
  6
CONTINUOUS
 62
     3
100
AcDbLine
 10
-309.179697
 20
-14.672376
 30
0.0
 11
-306.57724
 21
-15.109133
 31
0.0
  0
LINE
  5
640
100
AcDbEntity
  8
OUTLINE
  6
CONTINUOUS
 62
     3
100
AcDbLine
 10
-306.57724
 20
-15.109133
 30
0.0
 11
-304.326432
 21
-15.474145
 31
0.0
  0
LINE
  5
641
100
AcDbEntity
  8
OUTLINE
  6
CONTINUOUS
 62
     3
100
AcDbLine
 10
-291.665669
 20
-17.280314
 30
0.0
 11
-289.356165
 21
-17.56427
 31
0.0
  0
LINE
  5
642
100
AcDbEntity
  8
OUTLINE
  6
CONTINUOUS
 62
     3
100
AcDbLine
 10
-292.976214
 20
-17.113024
 30
0.0
 11
-291.665669
 21
-17.280314
 31
0.0
  0
LINE
  5
643
100
AcDbEntity
  8
OUTLINE
  6
CONTINUOUS
 62
     3
100
AcDbLine
 10
-294.360747
 20
-16.931389
 30
0.0
 11
-292.976214
 21
-17.113024
 31
0.0
  0
LINE
  5
644
100
AcDbEntity
  8
OUTLINE
  6
CONTINUOUS
 62
     3
100
AcDbLine
 10
-295.801306
 20
-16.737027
 30
0.0
 11
-294.360747
 21
-16.931389
 31
0.0
  0
LINE
  5
645
100
AcDbEntity
  8
OUTLINE
  6
CONTINUOUS
 62
     3
100
AcDbLine
 10
-297.276241
 20
-16.532326
 30
0.0
 11
-295.801306
 21
-16.737027
 31
0.0
  0
LINE
  5
646
100
AcDbEntity
  8
OUTLINE
  6
CONTINUOUS
 62
     3
100
AcDbLine
 10
-298.764214
 20
-16.319952
 30
0.0
 11
-297.276241
 21
-16.532326
 31
0.0
  0
LINE
  5
647
100
AcDbEntity
  8
OUTLINE
  6
CONTINUOUS
 62
     3
100
AcDbLine
 10
-300.240591
 20
-16.103419
 30
0.0
 11
-298.764214
 21
-16.319952
 31
0.0
  0
LINE
  5
648
100
AcDbEntity
  8
OUTLINE
  6
CONTINUOUS
 62
     3
100
AcDbLine
 10
-301.676732
 20
-15.887234
 30
0.0
 11
-300.240591
 21
-16.103419
 31
0.0
  0
LINE
  5
649
100
AcDbEntity
  8
OUTLINE
  6
CONTINUOUS
 62
     3
100
AcDbLine
 10
-303.046017
 20
-15.676047
 30
0.0
 11
-301.676732
 21
-15.887234
 31
0.0
  0
LINE
  5
64A
100
AcDbEntity
  8
OUTLINE
  6
CONTINUOUS
 62
     3
100
AcDbLine
 10
-304.326432
 20
-15.474145
 30
0.0
 11
-303.046017
 21
-15.676047
 31
0.0
  0
LINE
  5
64B
100
AcDbEntity
  8
OUTLINE
  6
CONTINUOUS
 62
     3
100
AcDbLine
 10
-272.220383
 20
-19.184358
 30
0.0
 11
-270.260818
 21
-19.313696
 31
0.0
  0
LINE
  5
64C
100
AcDbEntity
  8
OUTLINE
  6
CONTINUOUS
 62
     3
100
AcDbLine
 10
-274.358968
 20
-19.029982
 30
0.0
 11
-272.220383
 21
-19.184358
 31
0.0
  0
LINE
  5
64D
100
AcDbEntity
  8
OUTLINE
  6
CONTINUOUS
 62
     3
100
AcDbLine
 10
-276.723653
 20
-18.843308
 30
0.0
 11
-274.358968
 21
-19.029982
 31
0.0
  0
LINE
  5
64E
100
AcDbEntity
  8
OUTLINE
  6
CONTINUOUS
 62
     3
100
AcDbLine
 10
-279.360283
 20
-18.615482
 30
0.0
 11
-276.723653
 21
-18.843308
 31
0.0
  0
LINE
  5
64F
100
AcDbEntity
  8
OUTLINE
  6
CONTINUOUS
 62
     3
100
AcDbLine
 10
-282.314528
 20
-18.33565
 30
0.0
 11
-279.360283
 21
-18.615482
 31
0.0
  0
LINE
  5
650
100
AcDbEntity
  8
OUTLINE
  6
CONTINUOUS
 62
     3
100
AcDbLine
 10
-285.63147
 20
-17.990607
 30
0.0
 11
-282.314528
 21
-18.33565
 31
0.0
  0
LINE
  5
651
100
AcDbEntity
  8
OUTLINE
  6
CONTINUOUS
 62
     3
100
AcDbLine
 10
-289.356165
 20
-17.56427
 30
0.0
 11
-285.63147
 21
-17.990607
 31
0.0
  0
LINE
  5
652
100
AcDbEntity
  8
OUTLINE
  6
CONTINUOUS
 62
     3
100
AcDbLine
 10
-270.260818
 20
-19.313696
 30
0.0
 11
-268.728225
 21
-19.40795
 31
0.0
  0
LINE
  5
653
100
AcDbEntity
  8
OUTLINE
  6
CONTINUOUS
 62
     3
100
AcDbLine
 10
-268.728225
 20
-19.40795
 30
0.0
 11
-266.492618
 21
-19.536586
 31
0.0
  0
LINE
  5
654
100
AcDbEntity
  8
OUTLINE
  6
CONTINUOUS
 62
     3
100
AcDbLine
 10
-266.492618
 20
-19.536586
 30
0.0
 11
-264.862981
 21
-19.623274
 31
0.0
  0
LINE
  5
655
100
AcDbEntity
  8
OUTLINE
  6
CONTINUOUS
 62
     3
100
AcDbLine
 10
-264.862981
 20
-19.623274
 30
0.0
 11
-263.001831
 21
-19.714474
 31
0.0
  0
LINE
  5
656
100
AcDbEntity
  8
OUTLINE
  6
CONTINUOUS
 62
     3
100
AcDbLine
 10
-260.121014
 20
-19.843867
 30
0.0
 11
-260.1
 21
-19.846471
 31
0.0
  0
LINE
  5
657
100
AcDbEntity
  8
OUTLINE
  6
CONTINUOUS
 62
     3
100
AcDbLine
 10
-260.18768
 20
-19.839742
 30
0.0
 11
-260.121014
 21
-19.843867
 31
0.0
  0
LINE
  5
658
100
AcDbEntity
  8
OUTLINE
  6
CONTINUOUS
 62
     3
100
AcDbLine
 10
-260.30211
 20
-19.834005
 30
0.0
 11
-260.18768
 21
-19.839742
 31
0.0
  0
LINE
  5
659
100
AcDbEntity
  8
OUTLINE
  6
CONTINUOUS
 62
     3
100
AcDbLine
 10
-263.001831
 20
-19.714474
 30
0.0
 11
-260.30211
 21
-19.834005
 31
0.0
  0
ARC
  5
65E
100
AcDbEntity
  8
DETAIL
  6
CONTINUOUS
 62
     5
100
AcDbCircle
 10
-250.0
 20
312.764706
 30
0.0
 40
332.764706
100
AcDbArc
 50
268.260704
 51
270.0
  0
LINE
  5
65F
100
AcDbEntity
  8
DETAIL
  6
CONTINUOUS
 62
     5
100
AcDbLine
 10
-311.041892
 20
-14.35322
 30
0.0
 11
-309.179697
 21
-14.672376
 31
0.0
  0
LINE
  5
660
100
AcDbEntity
  8
DETAIL
  6
CONTINUOUS
 62
     5
100
AcDbLine
 10
-309.179697
 20
-14.672376
 30
0.0
 11
-306.57724
 21
-15.109133
 31
0.0
  0
LINE
  5
661
100
AcDbEntity
  8
DETAIL
  6
CONTINUOUS
 62
     5
100
AcDbLine
 10
-306.57724
 20
-15.109133
 30
0.0
 11
-304.326432
 21
-15.474145
 31
0.0
  0
LINE
  5
662
100
AcDbEntity
  8
DETAIL
  6
CONTINUOUS
 62
     5
100
AcDbLine
 10
-291.665669
 20
-17.280314
 30
0.0
 11
-289.356165
 21
-17.56427
 31
0.0
  0
LINE
  5
663
100
AcDbEntity
  8
DETAIL
  6
CONTINUOUS
 62
     5
100
AcDbLine
 10
-292.976214
 20
-17.113024
 30
0.0
 11
-291.665669
 21
-17.280314
 31
0.0
  0
LINE
  5
664
100
AcDbEntity
  8
DETAIL
  6
CONTINUOUS
 62
     5
100
AcDbLine
 10
-294.360747
 20
-16.931389
 30
0.0
 11
-292.976214
 21
-17.113024
 31
0.0
  0
LINE
  5
665
100
AcDbEntity
  8
DETAIL
  6
CONTINUOUS
 62
     5
100
AcDbLine
 10
-295.801306
 20
-16.737027
 30
0.0
 11
-294.360747
 21
-16.931389
 31
0.0
  0
LINE
  5
666
100
AcDbEntity
  8
DETAIL
  6
CONTINUOUS
 62
     5
100
AcDbLine
 10
-297.276241
 20
-16.532326
 30
0.0
 11
-295.801306
 21
-16.737027
 31
0.0
  0
LINE
  5
667
100
AcDbEntity
  8
DETAIL
  6
CONTINUOUS
 62
     5
100
AcDbLine
 10
-298.764214
 20
-16.319952
 30
0.0
 11
-297.276241
 21
-16.532326
 31
0.0
  0
LINE
  5
668
100
AcDbEntity
  8
DETAIL
  6
CONTINUOUS
 62
     5
100
AcDbLine
 10
-300.240591
 20
-16.103419
 30
0.0
 11
-298.764214
 21
-16.319952
 31
0.0
  0
LINE
  5
669
100
AcDbEntity
  8
DETAIL
  6
CONTINUOUS
 62
     5
100
AcDbLine
 10
-301.676732
 20
-15.887234
 30
0.0
 11
-300.240591
 21
-16.103419
 31
0.0
  0
LINE
  5
66A
100
AcDbEntity
  8
DETAIL
  6
CONTINUOUS
 62
     5
100
AcDbLine
 10
-303.046017
 20
-15.676047
 30
0.0
 11
-301.676732
 21
-15.887234
 31
0.0
  0
LINE
  5
66B
100
AcDbEntity
  8
DETAIL
  6
CONTINUOUS
 62
     5
100
AcDbLine
 10
-304.326432
 20
-15.474145
 30
0.0
 11
-303.046017
 21
-15.676047
 31
0.0
  0
LINE
  5
66C
100
AcDbEntity
  8
DETAIL
  6
CONTINUOUS
 62
     5
100
AcDbLine
 10
-272.220383
 20
-19.184358
 30
0.0
 11
-270.260818
 21
-19.313696
 31
0.0
  0
LINE
  5
66D
100
AcDbEntity
  8
DETAIL
  6
CONTINUOUS
 62
     5
100
AcDbLine
 10
-274.358968
 20
-19.029982
 30
0.0
 11
-272.220383
 21
-19.184358
 31
0.0
  0
LINE
  5
66E
100
AcDbEntity
  8
DETAIL
  6
CONTINUOUS
 62
     5
100
AcDbLine
 10
-276.723653
 20
-18.843308
 30
0.0
 11
-274.358968
 21
-19.029982
 31
0.0
  0
LINE
  5
66F
100
AcDbEntity
  8
DETAIL
  6
CONTINUOUS
 62
     5
100
AcDbLine
 10
-279.360283
 20
-18.615482
 30
0.0
 11
-276.723653
 21
-18.843308
 31
0.0
  0
LINE
  5
670
100
AcDbEntity
  8
DETAIL
  6
CONTINUOUS
 62
     5
100
AcDbLine
 10
-282.314528
 20
-18.33565
 30
0.0
 11
-279.360283
 21
-18.615482
 31
0.0
  0
LINE
  5
671
100
AcDbEntity
  8
DETAIL
  6
CONTINUOUS
 62
     5
100
AcDbLine
 10
-285.63147
 20
-17.990607
 30
0.0
 11
-282.314528
 21
-18.33565
 31
0.0
  0
LINE
  5
672
100
AcDbEntity
  8
DETAIL
  6
CONTINUOUS
 62
     5
100
AcDbLine
 10
-289.356165
 20
-17.56427
 30
0.0
 11
-285.63147
 21
-17.990607
 31
0.0
  0
LINE
  5
673
100
AcDbEntity
  8
DETAIL
  6
CONTINUOUS
 62
     5
100
AcDbLine
 10
-270.260818
 20
-19.313696
 30
0.0
 11
-268.728225
 21
-19.40795
 31
0.0
  0
LINE
  5
674
100
AcDbEntity
  8
DETAIL
  6
CONTINUOUS
 62
     5
100
AcDbLine
 10
-268.728225
 20
-19.40795
 30
0.0
 11
-266.492618
 21
-19.536586
 31
0.0
  0
LINE
  5
675
100
AcDbEntity
  8
DETAIL
  6
CONTINUOUS
 62
     5
100
AcDbLine
 10
-266.492618
 20
-19.536586
 30
0.0
 11
-264.862981
 21
-19.623274
 31
0.0
  0
LINE
  5
676
100
AcDbEntity
  8
DETAIL
  6
CONTINUOUS
 62
     5
100
AcDbLine
 10
-264.862981
 20
-19.623274
 30
0.0
 11
-263.001831
 21
-19.714474
 31
0.0
  0
LINE
  5
677
100
AcDbEntity
  8
DETAIL
  6
CONTINUOUS
 62
     5
100
AcDbLine
 10
-260.121014
 20
-19.843867
 30
0.0
 11
-260.1
 21
-19.846471
 31
0.0
  0
LINE
  5
678
100
AcDbEntity
  8
DETAIL
  6
CONTINUOUS
 62
     5
100
AcDbLine
 10
-260.18768
 20
-19.839742
 30
0.0
 11
-260.121014
 21
-19.843867
 31
0.0
  0
LINE
  5
679
100
AcDbEntity
  8
DETAIL
  6
CONTINUOUS
 62
     5
100
AcDbLine
 10
-260.30211
 20
-19.834005
 30
0.0
 11
-260.18768
 21
-19.839742
 31
0.0
  0
LINE
  5
67A
100
AcDbEntity
  8
DETAIL
  6
CONTINUOUS
 62
     5
100
AcDbLine
 10
-263.001831
 20
-19.714474
 30
0.0
 11
-260.30211
 21
-19.834005
 31
0.0
  0
LINE
  5
67E
100
AcDbEntity
  8
NOTE
  6
CONTINUOUS
 62
     4
100
AcDbLine
 10
-199.715717
 20
-81.592606
 30
0.0
 11
-215.002136
 21
-48.810775
 31
0.0
  0
LINE
  5
67F
100
AcDbEntity
  8
NOTE
  6
CONTINUOUS
 62
     4
100
AcDbLine
 10
-215.002136
 20
-148.564146
 30
0.0
 11
-215.002136
 21
-48.810775
 31
0.0
  0
POINT
  5
680
100
AcDbEntity
  8
DEFPOINTS
  6
CONTINUOUS
 62
     7
100
AcDbPoint
 10
0.0
 20
-20.0
 30
0.0
  0
LINE
  5
681
100
AcDbEntity
  8
SIZE
  6
CONTINUOUS
 62
    30
100
AcDbLine
 10
355.0
 20
-23.0
 30
0.0
 11
355.0
 21
-585.843538
 31
0.0
  0
LINE
  5
682
100
AcDbEntity
  8
SIZE
  6
CONTINUOUS
 62
    30
100
AcDbLine
 10
355.0
 20
-23.0
 30
0.0
 11
355.0
 21
-424.722162
 31
0.0
  0
LINE
  5
683
100
AcDbEntity
  8
SIZE
  6
CONTINUOUS
 62
    30
100
AcDbLine
 10
297.0
 20
-394.722162
 30
0.0
 11
345.0
 21
-394.722162
 31
0.0
  0
LINE
  5
684
100
AcDbEntity
  8
SIZE
  6
CONTINUOUS
 62
    30
100
AcDbLine
 10
292.0
 20
-394.722162
 30
0.0
 11
297.0
 21
-394.722162
 31
0.0
  0
CIRCLE
  5
685
100
AcDbEntity
  8
SIZE
  6
CONTINUOUS
 62
    30
100
AcDbCircle
 10
287.0
 20
-394.722162
 30
0.0
 40
5.0
  0
POINT
  5
686
100
AcDbEntity
  8
DEFPOINTS
  6
CONTINUOUS
 62
     7
100
AcDbPoint
 10
287.0
 20
-394.722162
 30
0.0
  0
LINE
  5
687
100
AcDbEntity
  8
SIZE
  6
CONTINUOUS
 62
    30
100
AcDbLine
 10
282.0
 20
-394.722162
 30
0.0
 11
277.0
 21
-394.722162
 31
0.0
  0
CIRCLE
  5
688
100
AcDbEntity
  8
SIZE
  6
CONTINUOUS
 62
    30
100
AcDbCircle
 10
287.0
 20
-394.722162
 30
0.0
 40
5.0
  0
POINT
  5
689
100
AcDbEntity
  8
DEFPOINTS
  6
CONTINUOUS
 62
     7
100
AcDbPoint
 10
355.0
 20
-555.843538
 30
0.0
  0
LINE
  5
68A
100
AcDbEntity
  8
SIZE
  6
CONTINUOUS
 62
    30
100
AcDbLine
 10
350.0
 20
-555.843538
 30
0.0
 11
345.0
 21
-555.843538
 31
0.0
  0
CIRCLE
  5
68B
100
AcDbEntity
  8
SIZE
  6
CONTINUOUS
 62
    30
100
AcDbCircle
 10
355.0
 20
-555.843538
 30
0.0
 40
5.0
  0
TEXT
  5
68C
100
AcDbEntity
  8
SIZE
  6
CONTINUOUS
 62
    30
100
AcDbText
 10
383.212888
 20
-379.722162
 30
0.0
 40
55.0
  1
68
 41
0.9
 72
     1
 11
423.284317
 21
-379.722162
 31
0.0
100
AcDbText
  0
LINE
  5
68D
100
AcDbEntity
  8
SIZE
  6
CONTINUOUS
 62
    30
100
AcDbLine
 10
478.355746
 20
-394.722162
 30
0.0
 11
355.0
 21
-394.722162
 31
0.0
  0
POINT
  5
68E
100
AcDbEntity
  8
DEFPOINTS
  6
CONTINUOUS
 62
     7
100
AcDbPoint
 10
355.0
 20
-394.722162
 30
0.0
  0
LINE
  5
68F
100
AcDbEntity
  8
SIZE
  6
CONTINUOUS
 62
    30
100
AcDbLine
 10
350.0
 20
-394.722162
 30
0.0
 11
345.0
 21
-394.722162
 31
0.0
  0
CIRCLE
  5
690
100
AcDbEntity
  8
SIZE
  6
CONTINUOUS
 62
    30
100
AcDbCircle
 10
355.0
 20
-394.722162
 30
0.0
 40
5.0
  0
ARC
  5
691
100
AcDbEntity
  8
OUTLINE
  6
CONTINUOUS
 62
     3
100
AcDbCircle
 10
250.0
 20
312.764706
 30
0.0
 40
332.764706
100
AcDbArc
 50
280.570112
 51
288.393312
  0
LINE
  5
692
100
AcDbEntity
  8
SIZE
  6
CONTINUOUS
 62
    30
100
AcDbLine
 10
335.0
 20
-256.03246
 30
0.0
 11
355.0
 21
-256.03246
 31
0.0
  0
LINE
  5
693
100
AcDbEntity
  8
SIZE
  6
CONTINUOUS
 62
    30
100
AcDbLine
 10
335.0
 20
-256.03246
 30
0.0
 11
355.0
 21
-256.03246
 31
0.0
  0
ARC
  5
694
100
AcDbEntity
  8
DETAIL
  6
CONTINUOUS
 62
     5
100
AcDbCircle
 10
250.0
 20
312.764706
 30
0.0
 40
332.764706
100
AcDbArc
 50
280.570112
 51
288.393312
  0
LINE
  5
696
100
AcDbEntity
  8
SIZE
  6
CONTINUOUS
 62
    30
100
AcDbLine
 10
335.0
 20
-20.0
 30
0.0
 11
335.0
 21
-286.03246
 31
0.0
  0
LINE
  5
697
100
AcDbEntity
  8
SIZE
  6
CONTINUOUS
 62
    30
100
AcDbLine
 10
330.0
 20
-256.03246
 30
0.0
 11
325.0
 21
-256.03246
 31
0.0
  0
CIRCLE
  5
698
100
AcDbEntity
  8
SIZE
  6
CONTINUOUS
 62
    30
100
AcDbCircle
 10
335.0
 20
-256.03246
 30
0.0
 40
5.0
  0
LINE
  5
699
100
AcDbEntity
  8
SIZE
  6
CONTINUOUS
 62
    30
100
AcDbLine
 10
325.0
 20
-256.03246
 30
0.0
 11
315.0
 21
-256.03246
 31
0.0
  0
POINT
  5
69A
100
AcDbEntity
  8
DEFPOINTS
  6
CONTINUOUS
 62
     7
100
AcDbPoint
 10
335.0
 20
-256.03246
 30
0.0
  0
LINE
  5
69B
100
AcDbEntity
  8
SIZE
  6
CONTINUOUS
 62
    30
100
AcDbLine
 10
330.0
 20
-256.03246
 30
0.0
 11
325.0
 21
-256.03246
 31
0.0
  0
CIRCLE
  5
69C
100
AcDbEntity
  8
SIZE
  6
CONTINUOUS
 62
    30
100
AcDbCircle
 10
335.0
 20
-256.03246
 30
0.0
 40
5.0
  0
LINE
  5
6A8
100
AcDbEntity
  8
NOTE
  6
CONTINUOUS
 62
     4
100
AcDbLine
 10
216.888711
 20
-81.592606
 30
0.0
 11
201.602293
 21
-48.810775
 31
0.0
  0
LINE
  5
6A9
100
AcDbEntity
  8
NOTE
  6
CONTINUOUS
 62
     4
100
AcDbLine
 10
186.315874
 20
-81.592606
 30
0.0
 11
201.602293
 21
-48.810775
 31
0.0
  0
LINE
  5
6AA
100
AcDbEntity
  8
NOTE
  6
CONTINUOUS
 62
     4
100
AcDbLine
 10
201.602293
 20
-148.564146
 30
0.0
 11
201.602293
 21
-48.810775
 31
0.0
  0
ARC
  5
6AB
100
AcDbEntity
  8
OUTLINE
  6
CONTINUOUS
 62
     3
100
AcDbCircle
 10
250.0
 20
312.764706
 30
0.0
 40
332.764706
100
AcDbArc
 50
270.0
 51
271.739296
  0
LINE
  5
6AC
100
AcDbEntity
  8
OUTLINE
  6
CONTINUOUS
 62
     3
100
AcDbLine
 10
292.976214
 20
-17.113024
 30
0.0
 11
291.665669
 21
-17.280314
 31
0.0
  0
LINE
  5
6AD
100
AcDbEntity
  8
OUTLINE
  6
CONTINUOUS
 62
     3
100
AcDbLine
 10
294.360747
 20
-16.931389
 30
0.0
 11
292.976214
 21
-17.113024
 31
0.0
  0
LINE
  5
6AE
100
AcDbEntity
  8
OUTLINE
  6
CONTINUOUS
 62
     3
100
AcDbLine
 10
295.801306
 20
-16.737027
 30
0.0
 11
294.360747
 21
-16.931389
 31
0.0
  0
LINE
  5
6AF
100
AcDbEntity
  8
OUTLINE
  6
CONTINUOUS
 62
     3
100
AcDbLine
 10
297.276241
 20
-16.532326
 30
0.0
 11
295.801306
 21
-16.737027
 31
0.0
  0
LINE
  5
6B0
100
AcDbEntity
  8
OUTLINE
  6
CONTINUOUS
 62
     3
100
AcDbLine
 10
298.764214
 20
-16.319952
 30
0.0
 11
297.276241
 21
-16.532326
 31
0.0
  0
LINE
  5
6B1
100
AcDbEntity
  8
OUTLINE
  6
CONTINUOUS
 62
     3
100
AcDbLine
 10
300.240591
 20
-16.103419
 30
0.0
 11
298.764214
 21
-16.319952
 31
0.0
  0
LINE
  5
6B2
100
AcDbEntity
  8
OUTLINE
  6
CONTINUOUS
 62
     3
100
AcDbLine
 10
301.676732
 20
-15.887234
 30
0.0
 11
300.240591
 21
-16.103419
 31
0.0
  0
LINE
  5
6B3
100
AcDbEntity
  8
OUTLINE
  6
CONTINUOUS
 62
     3
100
AcDbLine
 10
303.046017
 20
-15.676047
 30
0.0
 11
301.676732
 21
-15.887234
 31
0.0
  0
LINE
  5
6B4
100
AcDbEntity
  8
OUTLINE
  6
CONTINUOUS
 62
     3
100
AcDbLine
 10
304.326432
 20
-15.474145
 30
0.0
 11
303.046017
 21
-15.676047
 31
0.0
  0
LINE
  5
6B5
100
AcDbEntity
  8
OUTLINE
  6
CONTINUOUS
 62
     3
100
AcDbLine
 10
306.57724
 20
-15.109133
 30
0.0
 11
304.326432
 21
-15.474145
 31
0.0
  0
LINE
  5
6B6
100
AcDbEntity
  8
OUTLINE
  6
CONTINUOUS
 62
     3
100
AcDbLine
 10
308.410746
 20
-14.802888
 30
0.0
 11
306.57724
 21
-15.109133
 31
0.0
  0
LINE
  5
6B7
100
AcDbEntity
  8
OUTLINE
  6
CONTINUOUS
 62
     3
100
AcDbLine
 10
311.041892
 20
-14.35322
 30
0.0
 11
308.410746
 21
-14.802888
 31
0.0
  0
LINE
  5
6B8
100
AcDbEntity
  8
OUTLINE
  6
CONTINUOUS
 62
     3
100
AcDbLine
 10
274.358968
 20
-19.029982
 30
0.0
 11
272.220383
 21
-19.184358
 31
0.0
  0
LINE
  5
6B9
100
AcDbEntity
  8
OUTLINE
  6
CONTINUOUS
 62
     3
100
AcDbLine
 10
276.723653
 20
-18.843308
 30
0.0
 11
274.358968
 21
-19.029982
 31
0.0
  0
LINE
  5
6BA
100
AcDbEntity
  8
OUTLINE
  6
CONTINUOUS
 62
     3
100
AcDbLine
 10
279.360283
 20
-18.615482
 30
0.0
 11
276.723653
 21
-18.843308
 31
0.0
  0
LINE
  5
6BB
100
AcDbEntity
  8
OUTLINE
  6
CONTINUOUS
 62
     3
100
AcDbLine
 10
282.314528
 20
-18.33565
 30
0.0
 11
279.360283
 21
-18.615482
 31
0.0
  0
LINE
  5
6BC
100
AcDbEntity
  8
OUTLINE
  6
CONTINUOUS
 62
     3
100
AcDbLine
 10
285.63147
 20
-17.990607
 30
0.0
 11
282.314528
 21
-18.33565
 31
0.0
  0
LINE
  5
6BD
100
AcDbEntity
  8
OUTLINE
  6
CONTINUOUS
 62
     3
100
AcDbLine
 10
289.356165
 20
-17.56427
 30
0.0
 11
285.63147
 21
-17.990607
 31
0.0
  0
LINE
  5
6BE
100
AcDbEntity
  8
OUTLINE
  6
CONTINUOUS
 62
     3
100
AcDbLine
 10
291.665669
 20
-17.280314
 30
0.0
 11
289.356165
 21
-17.56427
 31
0.0
  0
LINE
  5
6BF
100
AcDbEntity
  8
OUTLINE
  6
CONTINUOUS
 62
     3
100
AcDbLine
 10
268.184604
 20
-19.440222
 30
0.0
 11
266.492618
 21
-19.536586
 31
0.0
  0
LINE
  5
6C0
100
AcDbEntity
  8
OUTLINE
  6
CONTINUOUS
 62
     3
100
AcDbLine
 10
269.767127
 20
-19.344575
 30
0.0
 11
268.184604
 21
-19.440222
 31
0.0
  0
LINE
  5
6C1
100
AcDbEntity
  8
OUTLINE
  6
CONTINUOUS
 62
     3
100
AcDbLine
 10
272.220383
 20
-19.184358
 30
0.0
 11
269.767127
 21
-19.344575
 31
0.0
  0
LINE
  5
6C2
100
AcDbEntity
  8
OUTLINE
  6
CONTINUOUS
 62
     3
100
AcDbLine
 10
263.001831
 20
-19.714474
 30
0.0
 11
260.30211
 21
-19.834005
 31
0.0
  0
LINE
  5
6C3
100
AcDbEntity
  8
OUTLINE
  6
CONTINUOUS
 62
     3
100
AcDbLine
 10
264.862981
 20
-19.623274
 30
0.0
 11
263.001831
 21
-19.714474
 31
0.0
  0
LINE
  5
6C4
100
AcDbEntity
  8
OUTLINE
  6
CONTINUOUS
 62
     3
100
AcDbLine
 10
260.121014
 20
-19.843867
 30
0.0
 11
260.1
 21
-19.846471
 31
0.0
  0
LINE
  5
6C5
100
AcDbEntity
  8
OUTLINE
  6
CONTINUOUS
 62
     3
100
AcDbLine
 10
260.18768
 20
-19.839742
 30
0.0
 11
260.121014
 21
-19.843867
 31
0.0
  0
LINE
  5
6C6
100
AcDbEntity
  8
OUTLINE
  6
CONTINUOUS
 62
     3
100
AcDbLine
 10
260.30211
 20
-19.834005
 30
0.0
 11
260.18768
 21
-19.839742
 31
0.0
  0
LINE
  5
6C7
100
AcDbEntity
  8
OUTLINE
  6
CONTINUOUS
 62
     3
100
AcDbLine
 10
266.492618
 20
-19.536586
 30
0.0
 11
264.862981
 21
-19.623274
 31
0.0
  0
LINE
  5
6CA
100
AcDbEntity
  8
NOTE
  6
CONTINUOUS
 62
     4
100
AcDbLine
 10
339.614875
 20
-125.267388
 30
0.0
 11
336.856791
 21
-93.742342
 31
0.0
  0
LINE
  5
6CB
100
AcDbEntity
  8
NOTE
  6
CONTINUOUS
 62
     4
100
AcDbLine
 10
339.614875
 20
-125.267388
 30
0.0
 11
313.692427
 21
-107.116294
 31
0.0
  0
LINE
  5
6CC
100
AcDbEntity
  8
NOTE
  6
CONTINUOUS
 62
     4
100
AcDbLine
 10
339.614875
 20
-125.267388
 30
0.0
 11
295.472629
 21
-48.810775
 31
0.0
  0
ARC
  5
6CD
100
AcDbEntity
  8
DETAIL
  6
CONTINUOUS
 62
     5
100
AcDbCircle
 10
250.0
 20
312.764706
 30
0.0
 40
332.764706
100
AcDbArc
 50
270.0
 51
271.739296
  0
LINE
  5
6CE
100
AcDbEntity
  8
DETAIL
  6
CONTINUOUS
 62
     5
100
AcDbLine
 10
292.976214
 20
-17.113024
 30
0.0
 11
291.665669
 21
-17.280314
 31
0.0
  0
LINE
  5
6CF
100
AcDbEntity
  8
DETAIL
  6
CONTINUOUS
 62
     5
100
AcDbLine
 10
294.360747
 20
-16.931389
 30
0.0
 11
292.976214
 21
-17.113024
 31
0.0
  0
LINE
  5
6D0
100
AcDbEntity
  8
DETAIL
  6
CONTINUOUS
 62
     5
100
AcDbLine
 10
295.801306
 20
-16.737027
 30
0.0
 11
294.360747
 21
-16.931389
 31
0.0
  0
LINE
  5
6D1
100
AcDbEntity
  8
DETAIL
  6
CONTINUOUS
 62
     5
100
AcDbLine
 10
297.276241
 20
-16.532326
 30
0.0
 11
295.801306
 21
-16.737027
 31
0.0
  0
LINE
  5
6D2
100
AcDbEntity
  8
DETAIL
  6
CONTINUOUS
 62
     5
100
AcDbLine
 10
298.764214
 20
-16.319952
 30
0.0
 11
297.276241
 21
-16.532326
 31
0.0
  0
LINE
  5
6D3
100
AcDbEntity
  8
DETAIL
  6
CONTINUOUS
 62
     5
100
AcDbLine
 10
300.240591
 20
-16.103419
 30
0.0
 11
298.764214
 21
-16.319952
 31
0.0
  0
LINE
  5
6D4
100
AcDbEntity
  8
DETAIL
  6
CONTINUOUS
 62
     5
100
AcDbLine
 10
301.676732
 20
-15.887234
 30
0.0
 11
300.240591
 21
-16.103419
 31
0.0
  0
LINE
  5
6D5
100
AcDbEntity
  8
DETAIL
  6
CONTINUOUS
 62
     5
100
AcDbLine
 10
303.046017
 20
-15.676047
 30
0.0
 11
301.676732
 21
-15.887234
 31
0.0
  0
LINE
  5
6D6
100
AcDbEntity
  8
DETAIL
  6
CONTINUOUS
 62
     5
100
AcDbLine
 10
304.326432
 20
-15.474145
 30
0.0
 11
303.046017
 21
-15.676047
 31
0.0
  0
LINE
  5
6D7
100
AcDbEntity
  8
DETAIL
  6
CONTINUOUS
 62
     5
100
AcDbLine
 10
306.57724
 20
-15.109133
 30
0.0
 11
304.326432
 21
-15.474145
 31
0.0
  0
LINE
  5
6D8
100
AcDbEntity
  8
DETAIL
  6
CONTINUOUS
 62
     5
100
AcDbLine
 10
308.410746
 20
-14.802888
 30
0.0
 11
306.57724
 21
-15.109133
 31
0.0
  0
LINE
  5
6D9
100
AcDbEntity
  8
DETAIL
  6
CONTINUOUS
 62
     5
100
AcDbLine
 10
311.041892
 20
-14.35322
 30
0.0
 11
308.410746
 21
-14.802888
 31
0.0
  0
LINE
  5
6DA
100
AcDbEntity
  8
DETAIL
  6
CONTINUOUS
 62
     5
100
AcDbLine
 10
274.358968
 20
-19.029982
 30
0.0
 11
272.220383
 21
-19.184358
 31
0.0
  0
LINE
  5
6DB
100
AcDbEntity
  8
DETAIL
  6
CONTINUOUS
 62
     5
100
AcDbLine
 10
276.723653
 20
-18.843308
 30
0.0
 11
274.358968
 21
-19.029982
 31
0.0
  0
LINE
  5
6DC
100
AcDbEntity
  8
DETAIL
  6
CONTINUOUS
 62
     5
100
AcDbLine
 10
279.360283
 20
-18.615482
 30
0.0
 11
276.723653
 21
-18.843308
 31
0.0
  0
LINE
  5
6DD
100
AcDbEntity
  8
DETAIL
  6
CONTINUOUS
 62
     5
100
AcDbLine
 10
282.314528
 20
-18.33565
 30
0.0
 11
279.360283
 21
-18.615482
 31
0.0
  0
LINE
  5
6DE
100
AcDbEntity
  8
DETAIL
  6
CONTINUOUS
 62
     5
100
AcDbLine
 10
285.63147
 20
-17.990607
 30
0.0
 11
282.314528
 21
-18.33565
 31
0.0
  0
LINE
  5
6DF
100
AcDbEntity
  8
DETAIL
  6
CONTINUOUS
 62
     5
100
AcDbLine
 10
289.356165
 20
-17.56427
 30
0.0
 11
285.63147
 21
-17.990607
 31
0.0
  0
LINE
  5
6E0
100
AcDbEntity
  8
DETAIL
  6
CONTINUOUS
 62
     5
100
AcDbLine
 10
291.665669
 20
-17.280314
 30
0.0
 11
289.356165
 21
-17.56427
 31
0.0
  0
LINE
  5
6E1
100
AcDbEntity
  8
DETAIL
  6
CONTINUOUS
 62
     5
100
AcDbLine
 10
268.184604
 20
-19.440222
 30
0.0
 11
266.492618
 21
-19.536586
 31
0.0
  0
LINE
  5
6E2
100
AcDbEntity
  8
DETAIL
  6
CONTINUOUS
 62
     5
100
AcDbLine
 10
269.767127
 20
-19.344575
 30
0.0
 11
268.184604
 21
-19.440222
 31
0.0
  0
LINE
  5
6E3
100
AcDbEntity
  8
DETAIL
  6
CONTINUOUS
 62
     5
100
AcDbLine
 10
272.220383
 20
-19.184358
 30
0.0
 11
269.767127
 21
-19.344575
 31
0.0
  0
LINE
  5
6E4
100
AcDbEntity
  8
DETAIL
  6
CONTINUOUS
 62
     5
100
AcDbLine
 10
263.001831
 20
-19.714474
 30
0.0
 11
260.30211
 21
-19.834005
 31
0.0
  0
LINE
  5
6E5
100
AcDbEntity
  8
DETAIL
  6
CONTINUOUS
 62
     5
100
AcDbLine
 10
264.862981
 20
-19.623274
 30
0.0
 11
263.001831
 21
-19.714474
 31
0.0
  0
LINE
  5
6E6
100
AcDbEntity
  8
DETAIL
  6
CONTINUOUS
 62
     5
100
AcDbLine
 10
260.121014
 20
-19.843867
 30
0.0
 11
260.1
 21
-19.846471
 31
0.0
  0
LINE
  5
6E7
100
AcDbEntity
  8
DETAIL
  6
CONTINUOUS
 62
     5
100
AcDbLine
 10
260.18768
 20
-19.839742
 30
0.0
 11
260.121014
 21
-19.843867
 31
0.0
  0
LINE
  5
6E8
100
AcDbEntity
  8
DETAIL
  6
CONTINUOUS
 62
     5
100
AcDbLine
 10
260.30211
 20
-19.834005
 30
0.0
 11
260.18768
 21
-19.839742
 31
0.0
  0
LINE
  5
6E9
100
AcDbEntity
  8
DETAIL
  6
CONTINUOUS
 62
     5
100
AcDbLine
 10
266.492618
 20
-19.536586
 30
0.0
 11
264.862981
 21
-19.623274
 31
0.0
  0
LINE
  5
6EA
100
AcDbEntity
  8
SIZE
  6
CONTINUOUS
 62
    30
100
AcDbLine
 10
355.0
 20
-23.0
 30
0.0
 11
355.0
 21
-286.03246
 31
0.0
  0
TEXT
  5
6EB
100
AcDbEntity
  8
SIZE
  6
CONTINUOUS
 62
    30
100
AcDbText
 10
391.524048
 20
-241.03246
 30
0.0
 40
55.0
  1
20
 41
0.9
 72
     1
 11
431.595477
 21
-241.03246
 31
0.0
100
AcDbText
  0
LINE
  5
6EC
100
AcDbEntity
  8
SIZE
  6
CONTINUOUS
 62
    30
100
AcDbLine
 10
486.666906
 20
-256.03246
 30
0.0
 11
355.0
 21
-256.03246
 31
0.0
  0
POINT
  5
6ED
100
AcDbEntity
  8
DEFPOINTS
  6
CONTINUOUS
 62
     7
100
AcDbPoint
 10
355.0
 20
-256.03246
 30
0.0
  0
LINE
  5
6EE
100
AcDbEntity
  8
SIZE
  6
CONTINUOUS
 62
    30
100
AcDbLine
 10
360.0
 20
-256.03246
 30
0.0
 11
365.0
 21
-256.03246
 31
0.0
  0
CIRCLE
  5
6EF
100
AcDbEntity
  8
SIZE
  6
CONTINUOUS
 62
    30
100
AcDbCircle
 10
355.0
 20
-256.03246
 30
0.0
 40
5.0
  0
LINE
  5
6F0
100
AcDbEntity
  8
SIZE
  6
CONTINUOUS
 62
    30
100
AcDbLine
 10
365.0
 20
-256.03246
 30
0.0
 11
375.0
 21
-256.03246
 31
0.0
  0
POINT
  5
6F1
100
AcDbEntity
  8
DEFPOINTS
  6
CONTINUOUS
 62
     7
100
AcDbPoint
 10
355.0
 20
-3.0
 30
0.0
  0
POINT
  5
6F2
100
AcDbEntity
  8
DEFPOINTS
  6
CONTINUOUS
 62
     7
100
AcDbPoint
 10
355.0
 20
-3.0
 30
0.0
  0
POINT
  5
6F3
100
AcDbEntity
  8
DEFPOINTS
  6
CONTINUOUS
 62
     7
100
AcDbPoint
 10
355.0
 20
-3.0
 30
0.0
  0
TEXT
  5
6F4
100
AcDbEntity
  8
NOTE
  6
CONTINUOUS
 62
     4
100
AcDbText
 10
812.203647
 20
-313.28139
 30
0.0
 40
64.0
  1
AH4-14×30長穴
 41
0.9
100
AcDbText
  0
LINE
  5
6F5
100
AcDbEntity
  8
SIZE
  6
CONTINUOUS
 62
    30
100
AcDbLine
 10
987.015394
 20
-155.227398
 30
0.0
 11
987.015394
 21
-20.0
 31
0.0
  0
POINT
  5
6F6
100
AcDbEntity
  8
DEFPOINTS
  6
CONTINUOUS
 62
     7
100
AcDbPoint
 10
987.015394
 20
-20.0
 30
0.0
  0
LINE
  5
6F7
100
AcDbEntity
  8
SIZE
  6
CONTINUOUS
 62
    30
100
AcDbLine
 10
987.015394
 20
-25.0
 30
0.0
 11
987.015394
 21
-30.0
 31
0.0
  0
CIRCLE
  5
6F8
100
AcDbEntity
  8
SIZE
  6
CONTINUOUS
 62
    30
100
AcDbCircle
 10
987.015394
 20
-20.0
 30
0.0
 40
5.0
  0
TEXT
  5
6F9
100
AcDbEntity
  8
SIZE
  6
CONTINUOUS
 62
    30
100
AcDbText
 10
972.015394
 20
-140.227398
 30
0.0
 40
55.0
  1
20
 50
90.0
 41
0.9
 72
     1
 11
972.015394
 21
-100.155969
 31
0.0
100
AcDbText
  0
LINE
  5
6FA
100
AcDbEntity
  8
SIZE
  6
CONTINUOUS
 62
    30
100
AcDbLine
 10
987.015394
 20
-30.0
 30
0.0
 11
987.015394
 21
-40.0
 31
0.0
  0
LINE
  5
6FB
100
AcDbEntity
  8
NOTE
  6
CONTINUOUS
 62
     4
100
AcDbLine
 10
576.885674
 20
474.378463
 30
0.0
 11
170.999466
 21
221.999033
 31
0.0
  0
LINE
  5
6FD
100
AcDbEntity
  8
SIZE
  6
CONTINUOUS
 62
    30
100
AcDbLine
 10
455.0
 20
0.0
 30
0.0
 11
1017.015394
 21
0.0
 31
0.0
  0
LINE
  5
6FE
100
AcDbEntity
  8
SIZE
  6
CONTINUOUS
 62
    30
100
AcDbLine
 10
455.0
 20
390.0
 30
0.0
 11
1017.015394
 21
390.0
 31
0.0
  0
LINE
  5
6FF
100
AcDbEntity
  8
SIZE
  6
CONTINUOUS
 62
    30
100
AcDbLine
 10
337.0
 20
53.999496
 30
0.0
 11
881.962158
 21
53.999496
 31
0.0
  0
LINE
  5
700
100
AcDbEntity
  8
SIZE
  6
CONTINUOUS
 62
    30
100
AcDbLine
 10
337.0
 20
343.999496
 30
0.0
 11
881.962158
 21
343.999496
 31
0.0
  0
LINE
  5
701
100
AcDbEntity
  8
SIZE
  6
CONTINUOUS
 62
    30
100
AcDbLine
 10
332.0
 20
153.999496
 30
0.0
 11
734.309006
 21
153.999496
 31
0.0
  0
LINE
  5
702
100
AcDbEntity
  8
SIZE
  6
CONTINUOUS
 62
    30
100
AcDbLine
 10
337.0
 20
343.999496
 30
0.0
 11
734.309006
 21
343.999496
 31
0.0
  0
CIRCLE
  5
703
100
AcDbEntity
  8
SIZE
  6
CONTINUOUS
 62
    30
100
AcDbCircle
 10
564.978493
 20
221.999496
 30
0.0
 40
5.0
  0
CIRCLE
  5
704
100
AcDbEntity
  8
SIZE
  6
CONTINUOUS
 62
    30
100
AcDbCircle
 10
564.978493
 20
343.999496
 30
0.0
 40
5.0
  0
LINE
  5
705
100
AcDbEntity
  8
SIZE
  6
CONTINUOUS
 62
    30
100
AcDbLine
 10
222.3
 20
221.999496
 30
0.0
 11
594.978493
 21
221.999496
 31
0.0
  0
LINE
  5
706
100
AcDbEntity
  8
SIZE
  6
CONTINUOUS
 62
    30
100
AcDbLine
 10
337.0
 20
343.999496
 30
0.0
 11
594.978493
 21
343.999496
 31
0.0
  0
LINE
  5
707
100
AcDbEntity
  8
NOTE
  6
CONTINUOUS
 62
     4
100
AcDbLine
 10
519.149173
 20
658.723808
 30
0.0
 11
937.848138
 21
658.723808
 31
0.0
  0
TEXT
  5
708
100
AcDbEntity
  8
NOTE
  6
CONTINUOUS
 62
     4
100
AcDbText
 10
553.546931
 20
678.594396
 30
0.0
 40
64.0
  1
RL %%C6.35
 41
0.9
100
AcDbText
  0
LINE
  5
709
100
AcDbEntity
  8
NOTE
  6
CONTINUOUS
 62
     4
100
AcDbLine
 10
519.149173
 20
658.723808
 30
0.0
 11
100.999602
 21
221.998881
 31
0.0
  0
LINE
  5
70A
100
AcDbEntity
  8
SIZE
  6
CONTINUOUS
 62
    30
100
AcDbLine
 10
-317.0
 20
363.999496
 30
0.0
 11
-317.0
 21
870.955204
 31
0.0
  0
LINE
  5
70B
100
AcDbEntity
  8
SIZE
  6
CONTINUOUS
 62
    30
100
AcDbLine
 10
317.0
 20
363.999496
 30
0.0
 11
317.0
 21
870.955204
 31
0.0
  0
LINE
  5
70C
100
AcDbEntity
  8
SIZE
  6
CONTINUOUS
 62
    30
100
AcDbLine
 10
-190.0
 20
125.691804
 30
0.0
 11
-190.0
 21
753.594354
 31
0.0
  0
LINE
  5
70D
100
AcDbEntity
  8
SIZE
  6
CONTINUOUS
 62
    30
100
AcDbLine
 10
317.0
 20
363.999496
 30
0.0
 11
317.0
 21
753.594354
 31
0.0
  0
LINE
  5
70E
100
AcDbEntity
  8
SIZE
  6
CONTINUOUS
 62
    30
100
AcDbLine
 10
-180.0
 20
329.191804
 30
0.0
 11
-180.0
 21
631.308219
 31
0.0
  0
LINE
  5
70F
100
AcDbEntity
  8
SIZE
  6
CONTINUOUS
 62
    30
100
AcDbLine
 10
317.0
 20
363.999496
 30
0.0
 11
317.0
 21
631.308219
 31
0.0
  0
POLYLINE
  5
710
100
AcDbEntity
  8
OUTLINE
  6
CONTINUOUS
 62
     3
100
AcDb2dPolyline
 66
     1
 10
0.0
 20
0.0
 30
0.0
 70
     1
  0
VERTEX
  5
711
100
AcDbEntity
  8
OUTLINE
  6
CONTINUOUS
 62
     3
100
AcDbVertex
100
AcDb2dVertex
 10
-317.0
 20
53.999496
 30
0.0
  0
VERTEX
  5
712
100
AcDbEntity
  8
OUTLINE
  6
CONTINUOUS
 62
     3
100
AcDbVertex
100
AcDb2dVertex
 10
317.0
 20
53.999496
 30
0.0
  0
VERTEX
  5
713
100
AcDbEntity
  8
OUTLINE
  6
CONTINUOUS
 62
     3
100
AcDbVertex
100
AcDb2dVertex
 10
317.0
 20
45.0
 30
0.0
  0
VERTEX
  5
714
100
AcDbEntity
  8
OUTLINE
  6
CONTINUOUS
 62
     3
100
AcDbVertex
100
AcDb2dVertex
 10
-317.0
 20
45.0
 30
0.0
  0
SEQEND
  5
715
100
AcDbEntity
  8
OUTLINE
  6
CONTINUOUS
 62
     3
  0
LINE
  5
716
100
AcDbEntity
  8
OUTLINE
  6
CONTINUOUS
 62
     3
100
AcDbLine
 10
317.0
 20
343.999496
 30
0.0
 11
-317.0
 21
343.999496
 31
0.0
  0
LINE
  5
717
100
AcDbEntity
  8
NOTE
  6
CONTINUOUS
 62
     4
100
AcDbLine
 10
101.000024
 20
221.999293
 30
0.0
 11
130.359891
 21
239.897557
 31
0.0
  0
LINE
  5
718
100
AcDbEntity
  8
SIZE
  6
CONTINUOUS
 62
    30
100
AcDbLine
 10
307.0
 20
601.308219
 30
0.0
 11
-170.0
 21
601.308219
 31
0.0
  0
LINE
  5
719
100
AcDbEntity
  8
SIZE
  6
CONTINUOUS
 62
    30
100
AcDbLine
 10
161.0
 20
495.644159
 30
0.0
 11
111.0
 21
495.644159
 31
0.0
  0
LINE
  5
71A
100
AcDbEntity
  8
NOTE
  6
CONTINUOUS
 62
     4
100
AcDbLine
 10
131.5
 20
221.999496
 30
0.0
 11
70.5
 21
221.999496
 31
0.0
  0
LINE
  5
71B
100
AcDbEntity
  8
DETAIL
  6
CONTINUOUS
 62
     5
100
AcDbLine
 10
317.0
 20
343.999496
 30
0.0
 11
-317.0
 21
343.999496
 31
0.0
  0
LINE
  5
71C
100
AcDbEntity
  8
DETAIL
  6
CONTINUOUS
 62
     5
100
AcDbLine
 10
56.206193
 20
291.199496
 30
0.0
 11
216.606193
 21
291.199496
 31
0.0
  0
LINE
  5
71D
100
AcDbEntity
  8
DETAIL
  6
CONTINUOUS
 62
     5
100
AcDbLine
 10
56.206193
 20
291.199496
 30
0.0
 11
216.606193
 21
291.199496
 31
0.0
  0
LINE
  5
71E
100
AcDbEntity
  8
DETAIL
  6
CONTINUOUS
 62
     5
100
AcDbLine
 10
-317.0
 20
45.0
 30
0.0
 11
317.0
 21
45.0
 31
0.0
  0
LINE
  5
71F
100
AcDbEntity
  8
DETAIL
  6
CONTINUOUS
 62
     5
100
AcDbLine
 10
317.0
 20
53.999496
 30
0.0
 11
-317.0
 21
53.999496
 31
0.0
  0
LINE
  5
720
100
AcDbEntity
  8
DETAIL
  6
CONTINUOUS
 62
     5
100
AcDbLine
 10
317.0
 20
45.0
 30
0.0
 11
-317.0
 21
45.0
 31
0.0
  0
LINE
  5
721
100
AcDbEntity
  8
OUTLINE
  6
CONTINUOUS
 62
     3
100
AcDbLine
 10
-317.0
 20
0.0
 30
0.0
 11
-317.0
 21
343.999496
 31
0.0
  0
LINE
  5
722
100
AcDbEntity
  8
NOTE
  6
CONTINUOUS
 62
     4
100
AcDbLine
 10
-179.999711
 20
283.999323
 30
0.0
 11
-202.897198
 21
309.651902
 31
0.0
  0
LINE
  5
723
100
AcDbEntity
  8
NOTE
  6
CONTINUOUS
 62
     4
100
AcDbLine
 10
-179.999711
 20
283.999323
 30
0.0
 11
-187.003226
 21
317.663851
 31
0.0
  0
LINE
  5
724
100
AcDbEntity
  8
SIZE
  6
CONTINUOUS
 62
    30
100
AcDbLine
 10
101.0
 20
272.499496
 30
0.0
 11
101.0
 21
525.644159
 31
0.0
  0
LINE
  5
725
100
AcDbEntity
  8
NOTE
  6
CONTINUOUS
 62
     4
100
AcDbLine
 10
-180.0
 20
309.191804
 30
0.0
 11
-180.0
 21
258.807188
 31
0.0
  0
LINE
  5
726
100
AcDbEntity
  8
DETAIL
  6
CONTINUOUS
 62
     5
100
AcDbLine
 10
-317.0
 20
0.0
 30
0.0
 11
-317.0
 21
343.999496
 31
0.0
  0
LINE
  5
727
100
AcDbEntity
  8
DETAIL
  6
CONTINUOUS
 62
     5
100
AcDbLine
 10
-109.0
 20
244.499496
 30
0.0
 11
31.0
 21
244.499496
 31
0.0
  0
LINE
  5
728
100
AcDbEntity
  8
DETAIL
  6
CONTINUOUS
 62
     5
100
AcDbLine
 10
-109.0
 20
193.916368
 30
0.0
 11
31.0
 21
193.916368
 31
0.0
  0
LINE
  5
72A
100
AcDbEntity
  8
DETAIL
  6
CONTINUOUS
 62
     5
100
AcDbLine
 10
-109.0
 20
121.261305
 30
0.0
 11
31.0
 21
121.261305
 31
0.0
  0
CIRCLE
  5
72B
100
AcDbEntity
  8
FIX
  6
CONTINUOUS
 62
    11
100
AcDbCircle
 10
-287.0
 20
153.999496
 30
0.0
 40
14.940051
  0
LINE
  5
72C
100
AcDbEntity
  8
NOTE
  6
CONTINUOUS
 62
     4
100
AcDbLine
 10
-287.0
 20
171.999496
 30
0.0
 11
-287.0
 21
135.999496
 31
0.0
  0
LINE
  5
72D
100
AcDbEntity
  8
DETAIL
  6
CONTINUOUS
 62
     5
100
AcDbLine
 10
-262.0
 20
153.999496
 30
0.0
 11
-262.0
 21
115.999496
 31
0.0
  0
LINE
  5
72E
100
AcDbEntity
  8
DETAIL
  6
CONTINUOUS
 62
     5
100
AcDbLine
 10
-312.0
 20
153.999496
 30
0.0
 11
-312.0
 21
115.999496
 31
0.0
  0
LINE
  5
731
100
AcDbEntity
  8
DETAIL
  6
CONTINUOUS
 62
     5
100
AcDbLine
 10
-109.0
 20
244.499496
 30
0.0
 11
-109.0
 21
121.261305
 31
0.0
  0
LINE
  5
733
100
AcDbEntity
  8
NOTE
  6
CONTINUOUS
 62
     4
100
AcDbLine
 10
-189.999676
 20
77.999362
 30
0.0
 11
-218.000577
 21
97.956798
 31
0.0
  0
LINE
  5
734
100
AcDbEntity
  8
NOTE
  6
CONTINUOUS
 62
     4
100
AcDbLine
 10
-162.307692
 20
77.999496
 30
0.0
 11
-217.692308
 21
77.999496
 31
0.0
  0
POINT
  5
735
100
AcDbEntity
  8
DEFPOINTS
  6
CONTINUOUS
 62
     7
100
AcDbPoint
 10
-287.0
 20
139.059445
 30
0.0
  0
POINT
  5
736
100
AcDbEntity
  8
DEFPOINTS
  6
CONTINUOUS
 62
     7
100
AcDbPoint
 10
-287.0
 20
139.059445
 30
0.0
  0
POINT
  5
737
100
AcDbEntity
  8
DEFPOINTS
  6
CONTINUOUS
 62
     7
100
AcDbPoint
 10
-217.692308
 20
77.999496
 30
0.0
  0
POINT
  5
738
100
AcDbEntity
  8
DEFPOINTS
  6
CONTINUOUS
 62
     7
100
AcDbPoint
 10
-317.0
 20
45.0
 30
0.0
  0
LINE
  5
73E
100
AcDbEntity
  8
DETAIL
  6
CONTINUOUS
 62
     5
100
AcDbLine
 10
-297.0
 20
115.999496
 30
0.0
 11
-312.0
 21
115.999496
 31
0.0
  0
LINE
  5
73F
100
AcDbEntity
  8
DETAIL
  6
CONTINUOUS
 62
     5
100
AcDbLine
 10
-262.0
 20
115.999496
 30
0.0
 11
-277.0
 21
115.999496
 31
0.0
  0
LINE
  5
740
100
AcDbEntity
  8
DETAIL
  6
CONTINUOUS
 62
     5
100
AcDbLine
 10
-277.0
 20
115.999496
 30
0.0
 11
-277.0
 21
110.999496
 31
0.0
  0
LINE
  5
741
100
AcDbEntity
  8
DETAIL
  6
CONTINUOUS
 62
     5
100
AcDbLine
 10
-297.0
 20
115.999496
 30
0.0
 11
-297.0
 21
110.999496
 31
0.0
  0
LINE
  5
742
100
AcDbEntity
  8
DETAIL
  6
CONTINUOUS
 62
     5
100
AcDbLine
 10
-277.0
 20
110.999496
 30
0.0
 11
-297.0
 21
110.999496
 31
0.0
  0
LINE
  5
74A
100
AcDbEntity
  8
NOTE
  6
CONTINUOUS
 62
     4
100
AcDbLine
 10
-189.999676
 20
77.999362
 30
0.0
 11
-204.270449
 21
109.283459
 31
0.0
  0
POINT
  5
74B
100
AcDbEntity
  8
DEFPOINTS
  6
CONTINUOUS
 62
     7
100
AcDbPoint
 10
-190.0
 20
105.691804
 30
0.0
  0
LINE
  5
74C
100
AcDbEntity
  8
NOTE
  6
CONTINUOUS
 62
     4
100
AcDbLine
 10
-190.0
 20
105.691804
 30
0.0
 11
-190.0
 21
50.307188
 31
0.0
  0
CIRCLE
  5
74D
100
AcDbEntity
  8
DETAIL
  6
CONTINUOUS
 62
     5
100
AcDbCircle
 10
-190.0
 20
77.999496
 30
0.0
 40
18.25
  0
LINE
  5
74E
100
AcDbEntity
  8
NOTE
  6
CONTINUOUS
 62
     4
100
AcDbLine
 10
-269.0
 20
153.999496
 30
0.0
 11
-305.0
 21
153.999496
 31
0.0
  0
LINE
  5
750
100
AcDbEntity
  8
DETAIL
  6
CONTINUOUS
 62
     5
100
AcDbLine
 10
-262.0
 20
153.999496
 30
0.0
 11
-312.0
 21
153.999496
 31
0.0
  0
POINT
  5
751
100
AcDbEntity
  8
DEFPOINTS
  6
CONTINUOUS
 62
     7
100
AcDbPoint
 10
-205.192308
 20
283.999496
 30
0.0
  0
LINE
  5
752
100
AcDbEntity
  8
NOTE
  6
CONTINUOUS
 62
     4
100
AcDbLine
 10
-154.807692
 20
283.999496
 30
0.0
 11
-205.192308
 21
283.999496
 31
0.0
  0
CIRCLE
  5
758
100
AcDbEntity
  8
DETAIL
  6
CONTINUOUS
 62
     5
100
AcDbCircle
 10
-180.0
 20
283.999496
 30
0.0
 40
17.5
  0
CIRCLE
  5
759
100
AcDbEntity
  8
DETAIL
  6
CONTINUOUS
 62
     5
100
AcDbCircle
 10
-180.0
 20
283.999496
 30
0.0
 40
10.0
  0
LINE
  5
75A
100
AcDbEntity
  8
DETAIL
  6
CONTINUOUS
 62
     5
100
AcDbLine
 10
-109.0
 20
198.261305
 30
0.0
 11
-109.0
 21
176.261305
 31
0.0
  0
LINE
  5
75B
100
AcDbEntity
  8
DETAIL
  6
CONTINUOUS
 62
     5
100
AcDbLine
 10
31.0
 20
244.499496
 30
0.0
 11
31.0
 21
121.261305
 31
0.0
  0
CIRCLE
  5
768
100
AcDbEntity
  8
DETAIL
  6
CONTINUOUS
 62
     5
100
AcDbCircle
 10
-10.0
 20
219.499496
 30
0.0
 40
18.0
  0
CIRCLE
  5
769
100
AcDbEntity
  8
DETAIL
  6
CONTINUOUS
 62
     5
100
AcDbCircle
 10
-68.0
 20
219.499496
 30
0.0
 40
18.0
  0
LINE
  5
76A
100
AcDbEntity
  8
NOTE
  6
CONTINUOUS
 62
     4
100
AcDbLine
 10
101.000024
 20
221.999293
 30
0.0
 11
117.477282
 21
252.179578
 31
0.0
  0
POINT
  5
76B
100
AcDbEntity
  8
DEFPOINTS
  6
CONTINUOUS
 62
     7
100
AcDbPoint
 10
101.0
 20
252.499496
 30
0.0
  0
LINE
  5
76C
100
AcDbEntity
  8
NOTE
  6
CONTINUOUS
 62
     4
100
AcDbLine
 10
101.0
 20
252.499496
 30
0.0
 11
101.0
 21
191.499496
 31
0.0
  0
LINE
  5
772
100
AcDbEntity
  8
DETAIL
  6
CONTINUOUS
 62
     5
100
AcDbLine
 10
82.606193
 20
221.999496
 30
0.0
 11
83.406193
 21
221.999496
 31
0.0
  0
ARC
  5
773
100
AcDbEntity
  8
DETAIL
  6
CONTINUOUS
 62
     5
100
AcDbCircle
 10
101.0
 20
221.999496
 30
0.0
 40
18.0
100
AcDbArc
 50
180.0
 51
357.452682
  0
CIRCLE
  5
77A
100
AcDbEntity
  8
DETAIL
  6
CONTINUOUS
 62
     5
100
AcDbCircle
 10
101.0
 20
221.999496
 30
0.0
 40
3.175
  0
LINE
  5
77B
100
AcDbEntity
  8
DETAIL
  6
CONTINUOUS
 62
     5
100
AcDbLine
 10
31.0
 20
198.261305
 30
0.0
 11
31.0
 21
176.261305
 31
0.0
  0
ARC
  5
77D
100
AcDbEntity
  8
DETAIL
  6
CONTINUOUS
 62
     5
100
AcDbCircle
 10
56.206193
 20
287.199496
 30
0.0
 40
4.0
100
AcDbArc
 50
90.0
 51
180.0
  0
LINE
  5
77E
100
AcDbEntity
  8
DETAIL
  6
CONTINUOUS
 62
     5
100
AcDbLine
 10
78.406193
 20
221.999496
 30
0.0
 11
78.406193
 21
217.799496
 31
0.0
  0
LINE
  5
77F
100
AcDbEntity
  8
DETAIL
  6
CONTINUOUS
 62
     5
100
AcDbLine
 10
78.406193
 20
221.999496
 30
0.0
 11
82.606193
 21
221.999496
 31
0.0
  0
LINE
  5
780
100
AcDbEntity
  8
DETAIL
  6
CONTINUOUS
 62
     5
100
AcDbLine
 10
78.406193
 20
221.999496
 30
0.0
 11
78.406193
 21
216.999496
 31
0.0
  0
LINE
  5
781
100
AcDbEntity
  8
DETAIL
  6
CONTINUOUS
 62
     5
100
AcDbLine
 10
78.406193
 20
221.999496
 30
0.0
 11
83.406193
 21
221.999496
 31
0.0
  0
ARC
  5
782
100
AcDbEntity
  8
DETAIL
  6
CONTINUOUS
 62
     5
100
AcDbCircle
 10
101.0
 20
221.999496
 30
0.0
 40
18.0
100
AcDbArc
 50
2.547318
 51
180.0
  0
LINE
  5
783
100
AcDbEntity
  8
DETAIL
  6
CONTINUOUS
 62
     5
100
AcDbLine
 10
52.206193
 20
216.999496
 30
0.0
 11
78.406193
 21
216.999496
 31
0.0
  0
ARC
  5
784
100
AcDbEntity
  8
DETAIL
  6
CONTINUOUS
 62
     5
100
AcDbCircle
 10
56.206193
 20
287.199496
 30
0.0
 40
4.0
100
AcDbArc
 50
90.0
 51
180.0
  0
LINE
  5
785
100
AcDbEntity
  8
DETAIL
  6
CONTINUOUS
 62
     5
100
AcDbLine
 10
52.206193
 20
287.199496
 30
0.0
 11
52.206193
 21
216.999496
 31
0.0
  0
POINT
  5
787
100
AcDbEntity
  8
DEFPOINTS
  6
CONTINUOUS
 62
     7
100
AcDbPoint
 10
-317.0
 20
343.999496
 30
0.0
  0
POINT
  5
788
100
AcDbEntity
  8
DEFPOINTS
  6
CONTINUOUS
 62
     7
100
AcDbPoint
 10
-317.0
 20
343.999496
 30
0.0
  0
POINT
  5
789
100
AcDbEntity
  8
DEFPOINTS
  6
CONTINUOUS
 62
     7
100
AcDbPoint
 10
-317.0
 20
343.999496
 30
0.0
  0
LINE
  5
78A
100
AcDbEntity
  8
NOTE
  6
CONTINUOUS
 62
     4
100
AcDbLine
 10
-305.294373
 20
390.0
 30
0.0
 11
-275.294373
 21
420.0
 31
0.0
  0
POINT
  5
78B
100
AcDbEntity
  8
DEFPOINTS
  6
CONTINUOUS
 62
     7
100
AcDbPoint
 10
-180.0
 20
309.191804
 30
0.0
  0
POINT
  5
78E
100
AcDbEntity
  8
DEFPOINTS
  6
CONTINUOUS
 62
     7
100
AcDbPoint
 10
-180.0
 20
601.308219
 30
0.0
  0
LINE
  5
78F
100
AcDbEntity
  8
SIZE
  6
CONTINUOUS
 62
    30
100
AcDbLine
 10
-175.0
 20
601.308219
 30
0.0
 11
-170.0
 21
601.308219
 31
0.0
  0
CIRCLE
  5
790
100
AcDbEntity
  8
SIZE
  6
CONTINUOUS
 62
    30
100
AcDbCircle
 10
-180.0
 20
601.308219
 30
0.0
 40
5.0
  0
LINE
  5
791
100
AcDbEntity
  8
NOTE
  6
CONTINUOUS
 62
     4
100
AcDbLine
 10
1.568542
 20
390.0
 30
0.0
 11
31.568542
 21
420.0
 31
0.0
  0
LINE
  5
792
100
AcDbEntity
  8
NOTE
  6
CONTINUOUS
 62
     4
100
AcDbLine
 10
28.137085
 20
390.0
 30
0.0
 11
58.137085
 21
420.0
 31
0.0
  0
LINE
  5
793
100
AcDbEntity
  8
NOTE
  6
CONTINUOUS
 62
     4
100
AcDbLine
 10
54.705627
 20
390.0
 30
0.0
 11
84.705627
 21
420.0
 31
0.0
  0
TEXT
  5
794
100
AcDbEntity
  8
SIZE
  6
CONTINUOUS
 62
    30
100
AcDbText
 10
-14.045047
 20
510.644159
 30
0.0
 40
55.0
  1
70
 41
0.9
 72
     1
 11
26.026382
 21
510.644159
 31
0.0
100
AcDbText
  0
LINE
  5
795
100
AcDbEntity
  8
SIZE
  6
CONTINUOUS
 62
    30
100
AcDbLine
 10
-29.045047
 20
495.644159
 30
0.0
 11
101.0
 21
495.644159
 31
0.0
  0
POINT
  5
796
100
AcDbEntity
  8
DEFPOINTS
  6
CONTINUOUS
 62
     7
100
AcDbPoint
 10
101.0
 20
495.644159
 30
0.0
  0
LINE
  5
797
100
AcDbEntity
  8
SIZE
  6
CONTINUOUS
 62
    30
100
AcDbLine
 10
106.0
 20
495.644159
 30
0.0
 11
111.0
 21
495.644159
 31
0.0
  0
CIRCLE
  5
798
100
AcDbEntity
  8
SIZE
  6
CONTINUOUS
 62
    30
100
AcDbCircle
 10
101.0
 20
495.644159
 30
0.0
 40
5.0
  0
LINE
  5
799
100
AcDbEntity
  8
OUTLINE
  6
CONTINUOUS
 62
     3
100
AcDbLine
 10
317.0
 20
343.999496
 30
0.0
 11
317.0
 21
0.0
 31
0.0
  0
LINE
  5
79A
100
AcDbEntity
  8
SIZE
  6
CONTINUOUS
 62
    30
100
AcDbLine
 10
171.0
 20
273.299496
 30
0.0
 11
171.0
 21
525.644159
 31
0.0
  0
LINE
  5
79B
100
AcDbEntity
  8
SIZE
  6
CONTINUOUS
 62
    30
100
AcDbLine
 10
171.0
 20
273.299496
 30
0.0
 11
171.0
 21
525.644159
 31
0.0
  0
TEXT
  5
79C
100
AcDbEntity
  8
SIZE
  6
CONTINUOUS
 62
    30
100
AcDbText
 10
549.978493
 20
224.070925
 30
0.0
 40
55.0
  1
122
 50
90.0
 41
0.9
 72
     1
 11
549.978493
 21
282.999496
 31
0.0
100
AcDbText
  0
LINE
  5
79D
100
AcDbEntity
  8
SIZE
  6
CONTINUOUS
 62
    30
100
AcDbLine
 10
564.978493
 20
343.999496
 30
0.0
 11
564.978493
 21
221.999496
 31
0.0
  0
LINE
  5
79E
100
AcDbEntity
  8
DETAIL
  6
CONTINUOUS
 62
     5
100
AcDbLine
 10
317.0
 20
343.999496
 30
0.0
 11
317.0
 21
0.0
 31
0.0
  0
LINE
  5
79F
100
AcDbEntity
  8
OUTLINE
  6
CONTINUOUS
 62
     3
100
AcDbLine
 10
317.0
 20
0.0
 30
0.0
 11
355.0
 21
0.0
 31
0.0
  0
LINE
  5
7A0
100
AcDbEntity
  8
NOTE
  6
CONTINUOUS
 62
     4
100
AcDbLine
 10
335.0
 20
5.978019
 30
0.0
 11
344.021981
 21
15.0
 31
0.0
  0
LINE
  5
7A1
100
AcDbEntity
  8
NOTE
  6
CONTINUOUS
 62
     4
100
AcDbLine
 10
335.0
 20
0.0
 30
0.0
 11
435.0
 21
0.0
 31
0.0
  0
LINE
  5
7A2
100
AcDbEntity
  8
NOTE
  6
CONTINUOUS
 62
     4
100
AcDbLine
 10
335.0
 20
15.0
 30
0.0
 11
435.0
 21
15.0
 31
0.0
  0
LINE
  5
7A3
100
AcDbEntity
  8
NOTE
  6
CONTINUOUS
 62
     4
100
AcDbLine
 10
286.999933
 20
153.999533
 30
0.0
 11
317.128654
 21
137.428177
 31
0.0
  0
LINE
  5
7A4
100
AcDbEntity
  8
NOTE
  6
CONTINUOUS
 62
     4
100
AcDbLine
 10
286.999933
 20
153.999533
 30
0.0
 11
304.806492
 21
124.583957
 31
0.0
  0
CIRCLE
  5
7A5
100
AcDbEntity
  8
FIX
  6
CONTINUOUS
 62
    11
100
AcDbCircle
 10
287.0
 20
153.999496
 30
0.0
 40
14.940051
  0
LINE
  5
7A6
100
AcDbEntity
  8
NOTE
  6
CONTINUOUS
 62
     4
100
AcDbLine
 10
287.0
 20
171.999496
 30
0.0
 11
287.0
 21
135.999496
 31
0.0
  0
LINE
  5
7A7
100
AcDbEntity
  8
DETAIL
  6
CONTINUOUS
 62
     5
100
AcDbLine
 10
262.0
 20
153.999496
 30
0.0
 11
262.0
 21
115.999496
 31
0.0
  0
LINE
  5
7A8
100
AcDbEntity
  8
DETAIL
  6
CONTINUOUS
 62
     5
100
AcDbLine
 10
312.0
 20
153.999496
 30
0.0
 11
312.0
 21
115.999496
 31
0.0
  0
POINT
  5
7AB
100
AcDbEntity
  8
DEFPOINTS
  6
CONTINUOUS
 62
     7
100
AcDbPoint
 10
287.0
 20
139.059445
 30
0.0
  0
POINT
  5
7AC
100
AcDbEntity
  8
DEFPOINTS
  6
CONTINUOUS
 62
     7
100
AcDbPoint
 10
287.0
 20
139.059445
 30
0.0
  0
POINT
  5
7AD
100
AcDbEntity
  8
DEFPOINTS
  6
CONTINUOUS
 62
     7
100
AcDbPoint
 10
335.0
 20
0.0
 30
0.0
  0
POINT
  5
7AE
100
AcDbEntity
  8
DEFPOINTS
  6
CONTINUOUS
 62
     7
100
AcDbPoint
 10
335.0
 20
0.0
 30
0.0
  0
POINT
  5
7AF
100
AcDbEntity
  8
DEFPOINTS
  6
CONTINUOUS
 62
     7
100
AcDbPoint
 10
317.0
 20
53.999496
 30
0.0
  0
LINE
  5
7B5
100
AcDbEntity
  8
DETAIL
  6
CONTINUOUS
 62
     5
100
AcDbLine
 10
297.0
 20
115.999496
 30
0.0
 11
312.0
 21
115.999496
 31
0.0
  0
LINE
  5
7B6
100
AcDbEntity
  8
DETAIL
  6
CONTINUOUS
 62
     5
100
AcDbLine
 10
262.0
 20
115.999496
 30
0.0
 11
277.0
 21
115.999496
 31
0.0
  0
LINE
  5
7B7
100
AcDbEntity
  8
DETAIL
  6
CONTINUOUS
 62
     5
100
AcDbLine
 10
277.0
 20
115.999496
 30
0.0
 11
277.0
 21
110.999496
 31
0.0
  0
LINE
  5
7B8
100
AcDbEntity
  8
DETAIL
  6
CONTINUOUS
 62
     5
100
AcDbLine
 10
297.0
 20
115.999496
 30
0.0
 11
297.0
 21
110.999496
 31
0.0
  0
LINE
  5
7B9
100
AcDbEntity
  8
DETAIL
  6
CONTINUOUS
 62
     5
100
AcDbLine
 10
277.0
 20
110.999496
 30
0.0
 11
297.0
 21
110.999496
 31
0.0
  0
LINE
  5
7C1
100
AcDbEntity
  8
NOTE
  6
CONTINUOUS
 62
     4
100
AcDbLine
 10
335.0
 20
0.0
 30
0.0
 11
335.0
 21
15.0
 31
0.0
  0
LINE
  5
7C2
100
AcDbEntity
  8
NOTE
  6
CONTINUOUS
 62
     4
100
AcDbLine
 10
170.999977
 20
221.999327
 30
0.0
 11
194.452591
 21
247.145391
 31
0.0
  0
LINE
  5
7C3
100
AcDbEntity
  8
NOTE
  6
CONTINUOUS
 62
     4
100
AcDbLine
 10
170.999977
 20
221.999327
 30
0.0
 11
203.883569
 21
232.05015
 31
0.0
  0
POINT
  5
7C4
100
AcDbEntity
  8
DEFPOINTS
  6
CONTINUOUS
 62
     7
100
AcDbPoint
 10
171.0
 20
253.299496
 30
0.0
  0
POINT
  5
7C5
100
AcDbEntity
  8
DEFPOINTS
  6
CONTINUOUS
 62
     7
100
AcDbPoint
 10
171.0
 20
253.299496
 30
0.0
  0
POINT
  5
7C6
100
AcDbEntity
  8
DEFPOINTS
  6
CONTINUOUS
 62
     7
100
AcDbPoint
 10
202.3
 20
221.999496
 30
0.0
  0
LINE
  5
7C7
100
AcDbEntity
  8
NOTE
  6
CONTINUOUS
 62
     4
100
AcDbLine
 10
202.3
 20
221.999496
 30
0.0
 11
139.7
 21
221.999496
 31
0.0
  0
LINE
  5
7C8
100
AcDbEntity
  8
NOTE
  6
CONTINUOUS
 62
     4
100
AcDbLine
 10
171.0
 20
253.299496
 30
0.0
 11
171.0
 21
190.699496
 31
0.0
  0
LINE
  5
7C9
100
AcDbEntity
  8
DETAIL
  6
CONTINUOUS
 62
     5
100
AcDbLine
 10
189.0
 20
221.999496
 30
0.0
 11
189.8
 21
221.999496
 31
0.0
  0
LINE
  5
7CA
100
AcDbEntity
  8
DETAIL
  6
CONTINUOUS
 62
     5
100
AcDbLine
 10
145.406193
 20
227.749886
 30
0.0
 11
127.406193
 21
227.749886
 31
0.0
  0
LINE
  5
7CB
100
AcDbEntity
  8
DETAIL
  6
CONTINUOUS
 62
     5
100
AcDbLine
 10
127.406193
 20
227.749886
 30
0.0
 11
126.979337
 21
227.719827
 31
0.0
  0
LINE
  5
7CC
100
AcDbEntity
  8
DETAIL
  6
CONTINUOUS
 62
     5
100
AcDbLine
 10
126.979337
 20
227.719827
 30
0.0
 11
126.56075
 21
227.630141
 31
0.0
  0
LINE
  5
7CD
100
AcDbEntity
  8
DETAIL
  6
CONTINUOUS
 62
     5
100
AcDbLine
 10
126.56075
 20
227.630141
 30
0.0
 11
126.160177
 21
227.483004
 31
0.0
  0
LINE
  5
7CE
100
AcDbEntity
  8
DETAIL
  6
CONTINUOUS
 62
     5
100
AcDbLine
 10
126.160177
 20
227.483004
 30
0.0
 11
125.783969
 21
227.280691
 31
0.0
  0
LINE
  5
7CF
100
AcDbEntity
  8
DETAIL
  6
CONTINUOUS
 62
     5
100
AcDbLine
 10
125.783969
 20
227.280691
 30
0.0
 11
125.441882
 21
227.028499
 31
0.0
  0
LINE
  5
7D0
100
AcDbEntity
  8
DETAIL
  6
CONTINUOUS
 62
     5
100
AcDbLine
 10
125.441882
 20
227.028499
 30
0.0
 11
125.138709
 21
226.729932
 31
0.0
  0
LINE
  5
7D1
100
AcDbEntity
  8
DETAIL
  6
CONTINUOUS
 62
     5
100
AcDbLine
 10
125.138709
 20
226.729932
 30
0.0
 11
124.882626
 21
226.393042
 31
0.0
  0
LINE
  5
7D2
100
AcDbEntity
  8
DETAIL
  6
CONTINUOUS
 62
     5
100
AcDbLine
 10
124.882626
 20
226.393042
 30
0.0
 11
124.677192
 21
226.022549
 31
0.0
  0
LINE
  5
7D3
100
AcDbEntity
  8
DETAIL
  6
CONTINUOUS
 62
     5
100
AcDbLine
 10
124.677192
 20
226.022549
 30
0.0
 11
124.527786
 21
225.628062
 31
0.0
  0
LINE
  5
7D4
100
AcDbEntity
  8
DETAIL
  6
CONTINUOUS
 62
     5
100
AcDbLine
 10
124.527786
 20
225.628062
 30
0.0
 11
124.436716
 21
225.215834
 31
0.0
  0
LINE
  5
7D5
100
AcDbEntity
  8
DETAIL
  6
CONTINUOUS
 62
     5
100
AcDbLine
 10
124.436716
 20
225.215834
 30
0.0
 11
124.406193
 21
224.795463
 31
0.0
  0
LINE
  5
7D6
100
AcDbEntity
  8
DETAIL
  6
CONTINUOUS
 62
     5
100
AcDbLine
 10
124.406193
 20
224.656545
 30
0.0
 11
124.406193
 21
224.795463
 31
0.0
  0
LINE
  5
7D7
100
AcDbEntity
  8
DETAIL
  6
CONTINUOUS
 62
     5
100
AcDbLine
 10
148.406193
 20
224.656545
 30
0.0
 11
148.406193
 21
224.795463
 31
0.0
  0
LINE
  5
7D8
100
AcDbEntity
  8
DETAIL
  6
CONTINUOUS
 62
     5
100
AcDbLine
 10
148.406193
 20
224.795463
 30
0.0
 11
148.37567
 21
225.215834
 31
0.0
  0
LINE
  5
7D9
100
AcDbEntity
  8
DETAIL
  6
CONTINUOUS
 62
     5
100
AcDbLine
 10
148.37567
 20
225.215834
 30
0.0
 11
148.2846
 21
225.628062
 31
0.0
  0
LINE
  5
7DA
100
AcDbEntity
  8
DETAIL
  6
CONTINUOUS
 62
     5
100
AcDbLine
 10
148.2846
 20
225.628062
 30
0.0
 11
148.135194
 21
226.022549
 31
0.0
  0
LINE
  5
7DB
100
AcDbEntity
  8
DETAIL
  6
CONTINUOUS
 62
     5
100
AcDbLine
 10
148.135194
 20
226.022549
 30
0.0
 11
147.92976
 21
226.393042
 31
0.0
  0
LINE
  5
7DC
100
AcDbEntity
  8
DETAIL
  6
CONTINUOUS
 62
     5
100
AcDbLine
 10
147.92976
 20
226.393042
 30
0.0
 11
147.673677
 21
226.729932
 31
0.0
  0
LINE
  5
7DD
100
AcDbEntity
  8
DETAIL
  6
CONTINUOUS
 62
     5
100
AcDbLine
 10
147.673677
 20
226.729932
 30
0.0
 11
147.370504
 21
227.028499
 31
0.0
  0
LINE
  5
7DE
100
AcDbEntity
  8
DETAIL
  6
CONTINUOUS
 62
     5
100
AcDbLine
 10
147.370504
 20
227.028499
 30
0.0
 11
147.028417
 21
227.280691
 31
0.0
  0
LINE
  5
7DF
100
AcDbEntity
  8
DETAIL
  6
CONTINUOUS
 62
     5
100
AcDbLine
 10
147.028417
 20
227.280691
 30
0.0
 11
146.652208
 21
227.483004
 31
0.0
  0
LINE
  5
7E0
100
AcDbEntity
  8
DETAIL
  6
CONTINUOUS
 62
     5
100
AcDbLine
 10
146.652208
 20
227.483004
 30
0.0
 11
146.251636
 21
227.630141
 31
0.0
  0
LINE
  5
7E1
100
AcDbEntity
  8
DETAIL
  6
CONTINUOUS
 62
     5
100
AcDbLine
 10
146.251636
 20
227.630141
 30
0.0
 11
145.833048
 21
227.719827
 31
0.0
  0
LINE
  5
7E2
100
AcDbEntity
  8
DETAIL
  6
CONTINUOUS
 62
     5
100
AcDbLine
 10
145.833048
 20
227.719827
 30
0.0
 11
145.406193
 21
227.749886
 31
0.0
  0
ARC
  5
7E3
100
AcDbEntity
  8
DETAIL
  6
CONTINUOUS
 62
     5
100
AcDbCircle
 10
171.0
 20
221.999496
 30
0.0
 40
18.0
100
AcDbArc
 50
182.547318
 51
0.0
  0
LINE
  5
7E4
100
AcDbEntity
  8
DETAIL
  6
CONTINUOUS
 62
     5
100
AcDbLine
 10
148.406193
 20
224.656545
 30
0.0
 11
148.406193
 21
221.199496
 31
0.0
  0
LINE
  5
7E5
100
AcDbEntity
  8
DETAIL
  6
CONTINUOUS
 62
     5
100
AcDbLine
 10
153.423979
 20
221.199496
 30
0.0
 11
119.388406
 21
221.199496
 31
0.0
  0
LINE
  5
7E6
100
AcDbEntity
  8
DETAIL
  6
CONTINUOUS
 62
     5
100
AcDbLine
 10
124.406193
 20
224.656545
 30
0.0
 11
124.406193
 21
221.199496
 31
0.0
  0
CIRCLE
  5
7E7
100
AcDbEntity
  8
DETAIL
  6
CONTINUOUS
 62
     5
100
AcDbCircle
 10
171.0
 20
221.999496
 30
0.0
 40
6.35
  0
ARC
  5
7EF
100
AcDbEntity
  8
DETAIL
  6
CONTINUOUS
 62
     5
100
AcDbCircle
 10
216.606193
 20
287.199496
 30
0.0
 40
4.0
100
AcDbArc
 50
0.0
 51
90.0
  0
LINE
  5
7F0
100
AcDbEntity
  8
DETAIL
  6
CONTINUOUS
 62
     5
100
AcDbLine
 10
220.606193
 20
287.199496
 30
0.0
 11
220.606193
 21
217.799496
 31
0.0
  0
LINE
  5
7F1
100
AcDbEntity
  8
DETAIL
  6
CONTINUOUS
 62
     5
100
AcDbLine
 10
194.406193
 20
221.999496
 30
0.0
 11
194.406193
 21
217.799496
 31
0.0
  0
LINE
  5
7F2
100
AcDbEntity
  8
DETAIL
  6
CONTINUOUS
 62
     5
100
AcDbLine
 10
190.206193
 20
221.999496
 30
0.0
 11
194.406193
 21
221.999496
 31
0.0
  0
LINE
  5
7F3
100
AcDbEntity
  8
DETAIL
  6
CONTINUOUS
 62
     5
100
AcDbLine
 10
119.388406
 20
222.799496
 30
0.0
 11
124.406193
 21
222.799496
 31
0.0
  0
LINE
  5
7F4
100
AcDbEntity
  8
DETAIL
  6
CONTINUOUS
 62
     5
100
AcDbLine
 10
189.406193
 20
221.999496
 30
0.0
 11
194.406193
 21
221.999496
 31
0.0
  0
LINE
  5
7F5
100
AcDbEntity
  8
DETAIL
  6
CONTINUOUS
 62
     5
100
AcDbLine
 10
194.406193
 20
221.999496
 30
0.0
 11
194.406193
 21
216.999496
 31
0.0
  0
ARC
  5
7F6
100
AcDbEntity
  8
DETAIL
  6
CONTINUOUS
 62
     5
100
AcDbCircle
 10
171.0
 20
221.999496
 30
0.0
 40
18.0
100
AcDbArc
 50
0.0
 51
177.452682
  0
LINE
  5
7F7
100
AcDbEntity
  8
DETAIL
  6
CONTINUOUS
 62
     5
100
AcDbLine
 10
194.406193
 20
216.999496
 30
0.0
 11
220.606193
 21
216.999496
 31
0.0
  0
ARC
  5
7F8
100
AcDbEntity
  8
DETAIL
  6
CONTINUOUS
 62
     5
100
AcDbCircle
 10
216.606193
 20
287.199496
 30
0.0
 40
4.0
100
AcDbArc
 50
0.0
 51
90.0
  0
LINE
  5
7F9
100
AcDbEntity
  8
DETAIL
  6
CONTINUOUS
 62
     5
100
AcDbLine
 10
220.606193
 20
287.199496
 30
0.0
 11
220.606193
 21
216.999496
 31
0.0
  0
LINE
  5
7FA
100
AcDbEntity
  8
DETAIL
  6
CONTINUOUS
 62
     5
100
AcDbLine
 10
148.406193
 20
222.799496
 30
0.0
 11
153.423979
 21
222.799496
 31
0.0
  0
POINT
  5
7FB
100
AcDbEntity
  8
DEFPOINTS
  6
CONTINUOUS
 62
     7
100
AcDbPoint
 10
312.0
 20
153.999496
 30
0.0
  0
LINE
  5
7FC
100
AcDbEntity
  8
NOTE
  6
CONTINUOUS
 62
     4
100
AcDbLine
 10
305.0
 20
153.999496
 30
0.0
 11
269.0
 21
153.999496
 31
0.0
  0
LINE
  5
7FE
100
AcDbEntity
  8
DETAIL
  6
CONTINUOUS
 62
     5
100
AcDbLine
 10
262.0
 20
153.999496
 30
0.0
 11
312.0
 21
153.999496
 31
0.0
  0
POINT
  5
7FF
100
AcDbEntity
  8
DEFPOINTS
  6
CONTINUOUS
 62
     7
100
AcDbPoint
 10
435.0
 20
0.0
 30
0.0
  0
POINT
  5
800
100
AcDbEntity
  8
DEFPOINTS
  6
CONTINUOUS
 62
     7
100
AcDbPoint
 10
435.0
 20
0.0
 30
0.0
  0
LINE
  5
801
100
AcDbEntity
  8
NOTE
  6
CONTINUOUS
 62
     4
100
AcDbLine
 10
343.164117
 20
0.0
 30
0.0
 11
358.164117
 21
15.0
 31
0.0
  0
LINE
  5
802
100
AcDbEntity
  8
NOTE
  6
CONTINUOUS
 62
     4
100
AcDbLine
 10
357.306253
 20
0.0
 30
0.0
 11
372.306253
 21
15.0
 31
0.0
  0
LINE
  5
803
100
AcDbEntity
  8
NOTE
  6
CONTINUOUS
 62
     4
100
AcDbLine
 10
399.732659
 20
0.0
 30
0.0
 11
414.732659
 21
15.0
 31
0.0
  0
LINE
  5
804
100
AcDbEntity
  8
NOTE
  6
CONTINUOUS
 62
     4
100
AcDbLine
 10
413.874795
 20
0.0
 30
0.0
 11
428.874795
 21
15.0
 31
0.0
  0
LINE
  5
805
100
AcDbEntity
  8
NOTE
  6
CONTINUOUS
 62
     4
100
AcDbLine
 10
428.016931
 20
0.0
 30
0.0
 11
435.0
 21
6.983069
 31
0.0
  0
POINT
  5
806
100
AcDbEntity
  8
DEFPOINTS
  6
CONTINUOUS
 62
     7
100
AcDbPoint
 10
564.978493
 20
221.999496
 30
0.0
  0
LINE
  5
807
100
AcDbEntity
  8
SIZE
  6
CONTINUOUS
 62
    30
100
AcDbLine
 10
564.978493
 20
216.999496
 30
0.0
 11
564.978493
 21
211.999496
 31
0.0
  0
LINE
  5
808
100
AcDbEntity
  8
SIZE
  6
CONTINUOUS
 62
    30
100
AcDbLine
 10
564.978493
 20
211.999496
 30
0.0
 11
564.978493
 21
201.999496
 31
0.0
  0
LINE
  5
809
100
AcDbEntity
  8
NOTE
  6
CONTINUOUS
 62
     4
100
AcDbLine
 10
341.568542
 20
390.0
 30
0.0
 11
371.568542
 21
420.0
 31
0.0
  0
LINE
  5
80A
100
AcDbEntity
  8
SIZE
  6
CONTINUOUS
 62
    30
100
AcDbLine
 10
317.0
 20
363.999496
 30
0.0
 11
317.0
 21
525.644159
 31
0.0
  0
POINT
  5
80D
100
AcDbEntity
  8
DEFPOINTS
  6
CONTINUOUS
 62
     7
100
AcDbPoint
 10
317.0
 20
343.999496
 30
0.0
  0
POINT
  5
80E
100
AcDbEntity
  8
DEFPOINTS
  6
CONTINUOUS
 62
     7
100
AcDbPoint
 10
317.0
 20
343.999496
 30
0.0
  0
POINT
  5
80F
100
AcDbEntity
  8
DEFPOINTS
  6
CONTINUOUS
 62
     7
100
AcDbPoint
 10
317.0
 20
343.999496
 30
0.0
  0
POINT
  5
810
100
AcDbEntity
  8
DEFPOINTS
  6
CONTINUOUS
 62
     7
100
AcDbPoint
 10
317.0
 20
343.999496
 30
0.0
  0
POINT
  5
811
100
AcDbEntity
  8
DEFPOINTS
  6
CONTINUOUS
 62
     7
100
AcDbPoint
 10
317.0
 20
343.999496
 30
0.0
  0
POINT
  5
812
100
AcDbEntity
  8
DEFPOINTS
  6
CONTINUOUS
 62
     7
100
AcDbPoint
 10
317.0
 20
343.999496
 30
0.0
  0
POINT
  5
813
100
AcDbEntity
  8
DEFPOINTS
  6
CONTINUOUS
 62
     7
100
AcDbPoint
 10
317.0
 20
343.999496
 30
0.0
  0
TEXT
  5
815
100
AcDbEntity
  8
SIZE
  6
CONTINUOUS
 62
    30
100
AcDbText
 10
186.25
 20
510.644159
 30
0.0
 40
55.0
  1
146
 41
0.9
 72
     1
 11
244.0
 21
510.644159
 31
0.0
100
AcDbText
  0
LINE
  5
816
100
AcDbEntity
  8
SIZE
  6
CONTINUOUS
 62
    30
100
AcDbLine
 10
307.0
 20
495.644159
 30
0.0
 11
181.0
 21
495.644159
 31
0.0
  0
LINE
  5
817
100
AcDbEntity
  8
SIZE
  6
CONTINUOUS
 62
    30
100
AcDbLine
 10
166.0
 20
495.644159
 30
0.0
 11
161.0
 21
495.644159
 31
0.0
  0
CIRCLE
  5
818
100
AcDbEntity
  8
SIZE
  6
CONTINUOUS
 62
    30
100
AcDbCircle
 10
171.0
 20
495.644159
 30
0.0
 40
5.0
  0
POINT
  5
819
100
AcDbEntity
  8
DEFPOINTS
  6
CONTINUOUS
 62
     7
100
AcDbPoint
 10
171.0
 20
495.644159
 30
0.0
  0
LINE
  5
81A
100
AcDbEntity
  8
SIZE
  6
CONTINUOUS
 62
    30
100
AcDbLine
 10
176.0
 20
495.644159
 30
0.0
 11
181.0
 21
495.644159
 31
0.0
  0
CIRCLE
  5
81B
100
AcDbEntity
  8
SIZE
  6
CONTINUOUS
 62
    30
100
AcDbCircle
 10
171.0
 20
495.644159
 30
0.0
 40
5.0
  0
LINE
  5
81C
100
AcDbEntity
  8
SIZE
  6
CONTINUOUS
 62
    30
100
AcDbLine
 10
312.0
 20
601.308219
 30
0.0
 11
307.0
 21
601.308219
 31
0.0
  0
CIRCLE
  5
81D
100
AcDbEntity
  8
SIZE
  6
CONTINUOUS
 62
    30
100
AcDbCircle
 10
317.0
 20
601.308219
 30
0.0
 40
5.0
  0
LINE
  5
81E
100
AcDbEntity
  8
SIZE
  6
CONTINUOUS
 62
    30
100
AcDbLine
 10
312.0
 20
495.644159
 30
0.0
 11
307.0
 21
495.644159
 31
0.0
  0
CIRCLE
  5
81F
100
AcDbEntity
  8
SIZE
  6
CONTINUOUS
 62
    30
100
AcDbCircle
 10
317.0
 20
495.644159
 30
0.0
 40
5.0
  0
POINT
  5
820
100
AcDbEntity
  8
DEFPOINTS
  6
CONTINUOUS
 62
     7
100
AcDbPoint
 10
435.0
 20
390.0
 30
0.0
  0
LINE
  5
821
100
AcDbEntity
  8
NOTE
  6
CONTINUOUS
 62
     4
100
AcDbLine
 10
368.137085
 20
390.0
 30
0.0
 11
398.137085
 21
420.0
 31
0.0
  0
LINE
  5
822
100
AcDbEntity
  8
NOTE
  6
CONTINUOUS
 62
     4
100
AcDbLine
 10
394.705627
 20
390.0
 30
0.0
 11
424.705627
 21
420.0
 31
0.0
  0
LINE
  5
823
100
AcDbEntity
  8
SIZE
  6
CONTINUOUS
 62
    30
100
AcDbLine
 10
564.978493
 20
348.999496
 30
0.0
 11
564.978493
 21
353.999496
 31
0.0
  0
LINE
  5
824
100
AcDbEntity
  8
SIZE
  6
CONTINUOUS
 62
    30
100
AcDbLine
 10
564.978493
 20
353.999496
 30
0.0
 11
564.978493
 21
363.999496
 31
0.0
  0
LINE
  5
825
100
AcDbEntity
  8
SIZE
  6
CONTINUOUS
 62
    30
100
AcDbLine
 10
307.0
 20
840.955204
 30
0.0
 11
-307.0
 21
840.955204
 31
0.0
  0
TEXT
  5
826
100
AcDbEntity
  8
SIZE
  6
CONTINUOUS
 62
    30
100
AcDbText
 10
-0.142857
 20
738.594354
 30
0.0
 40
55.0
  1
507
 41
0.9
 72
     1
 11
63.5
 21
738.594354
 31
0.0
100
AcDbText
  0
LINE
  5
827
100
AcDbEntity
  8
SIZE
  6
CONTINUOUS
 62
    30
100
AcDbLine
 10
307.0
 20
723.594354
 30
0.0
 11
-180.0
 21
723.594354
 31
0.0
  0
TEXT
  5
828
100
AcDbEntity
  8
SIZE
  6
CONTINUOUS
 62
    30
100
AcDbText
 10
4.857143
 20
616.308219
 30
0.0
 40
55.0
  1
497
 41
0.9
 72
     1
 11
68.5
 21
616.308219
 31
0.0
100
AcDbText
  0
POINT
  5
829
100
AcDbEntity
  8
DEFPOINTS
  6
CONTINUOUS
 62
     7
100
AcDbPoint
 10
-190.0
 20
723.594354
 30
0.0
  0
LINE
  5
82A
100
AcDbEntity
  8
SIZE
  6
CONTINUOUS
 62
    30
100
AcDbLine
 10
-185.0
 20
723.594354
 30
0.0
 11
-180.0
 21
723.594354
 31
0.0
  0
CIRCLE
  5
82B
100
AcDbEntity
  8
SIZE
  6
CONTINUOUS
 62
    30
100
AcDbCircle
 10
-190.0
 20
723.594354
 30
0.0
 40
5.0
  0
POINT
  5
82C
100
AcDbEntity
  8
DEFPOINTS
  6
CONTINUOUS
 62
     7
100
AcDbPoint
 10
-317.0
 20
840.955204
 30
0.0
  0
LINE
  5
82D
100
AcDbEntity
  8
SIZE
  6
CONTINUOUS
 62
    30
100
AcDbLine
 10
-312.0
 20
840.955204
 30
0.0
 11
-307.0
 21
840.955204
 31
0.0
  0
CIRCLE
  5
82E
100
AcDbEntity
  8
SIZE
  6
CONTINUOUS
 62
    30
100
AcDbCircle
 10
-317.0
 20
840.955204
 30
0.0
 40
5.0
  0
TEXT
  5
82F
100
AcDbEntity
  8
SIZE
  6
CONTINUOUS
 62
    30
100
AcDbText
 10
-64.821429
 20
855.955204
 30
0.0
 40
55.0
  1
634
 41
0.9
 72
     1
 11
0.0
 21
855.955204
 31
0.0
100
AcDbText
  0
LINE
  5
830
100
AcDbEntity
  8
SIZE
  6
CONTINUOUS
 62
    30
100
AcDbLine
 10
312.0
 20
723.594354
 30
0.0
 11
307.0
 21
723.594354
 31
0.0
  0
CIRCLE
  5
831
100
AcDbEntity
  8
SIZE
  6
CONTINUOUS
 62
    30
100
AcDbCircle
 10
317.0
 20
723.594354
 30
0.0
 40
5.0
  0
LINE
  5
832
100
AcDbEntity
  8
SIZE
  6
CONTINUOUS
 62
    30
100
AcDbLine
 10
312.0
 20
840.955204
 30
0.0
 11
307.0
 21
840.955204
 31
0.0
  0
CIRCLE
  5
833
100
AcDbEntity
  8
SIZE
  6
CONTINUOUS
 62
    30
100
AcDbCircle
 10
317.0
 20
840.955204
 30
0.0
 40
5.0
  0
TEXT
  5
834
100
AcDbEntity
  8
SIZE
  6
CONTINUOUS
 62
    30
100
AcDbText
 10
972.015394
 20
71.485714
 30
0.0
 40
55.0
  1
350以上
 50
90.0
 41
0.9
 72
     1
 11
972.015394
 21
195.0
 31
0.0
100
AcDbText
  0
LINE
  5
835
100
AcDbEntity
  8
SIZE
  6
CONTINUOUS
 62
    30
100
AcDbLine
 10
987.015394
 20
380.0
 30
0.0
 11
987.015394
 21
10.0
 31
0.0
  0
LINE
  5
836
100
AcDbEntity
  8
SIZE
  6
CONTINUOUS
 62
    30
100
AcDbLine
 10
851.962158
 20
333.999496
 30
0.0
 11
851.962158
 21
63.999496
 31
0.0
  0
TEXT
  5
837
100
AcDbEntity
  8
SIZE
  6
CONTINUOUS
 62
    30
100
AcDbText
 10
689.309006
 20
190.070925
 30
0.0
 40
55.0
  1
190
 50
90.0
 41
0.9
 72
     1
 11
689.309006
 21
248.999496
 31
0.0
100
AcDbText
  0
LINE
  5
838
100
AcDbEntity
  8
SIZE
  6
CONTINUOUS
 62
    30
100
AcDbLine
 10
704.309006
 20
333.999496
 30
0.0
 11
704.309006
 21
163.999496
 31
0.0
  0
TEXT
  5
839
100
AcDbEntity
  8
SIZE
  6
CONTINUOUS
 62
    30
100
AcDbText
 10
836.962158
 20
135.356639
 30
0.0
 40
55.0
  1
290
 50
90.0
 41
0.9
 72
     1
 11
836.962158
 21
198.999496
 31
0.0
100
AcDbText
  0
CIRCLE
  5
83A
100
AcDbEntity
  8
SIZE
  6
CONTINUOUS
 62
    30
100
AcDbCircle
 10
704.309006
 20
153.999496
 30
0.0
 40
5.0
  0
POINT
  5
83B
100
AcDbEntity
  8
DEFPOINTS
  6
CONTINUOUS
 62
     7
100
AcDbPoint
 10
704.309006
 20
153.999496
 30
0.0
  0
LINE
  5
83C
100
AcDbEntity
  8
SIZE
  6
CONTINUOUS
 62
    30
100
AcDbLine
 10
704.309006
 20
158.999496
 30
0.0
 11
704.309006
 21
163.999496
 31
0.0
  0
POINT
  5
83D
100
AcDbEntity
  8
DEFPOINTS
  6
CONTINUOUS
 62
     7
100
AcDbPoint
 10
851.962158
 20
53.999496
 30
0.0
  0
LINE
  5
83E
100
AcDbEntity
  8
SIZE
  6
CONTINUOUS
 62
    30
100
AcDbLine
 10
851.962158
 20
58.999496
 30
0.0
 11
851.962158
 21
63.999496
 31
0.0
  0
CIRCLE
  5
83F
100
AcDbEntity
  8
SIZE
  6
CONTINUOUS
 62
    30
100
AcDbCircle
 10
851.962158
 20
53.999496
 30
0.0
 40
5.0
  0
LINE
  5
840
100
AcDbEntity
  8
SIZE
  6
CONTINUOUS
 62
    30
100
AcDbLine
 10
987.015394
 20
5.0
 30
0.0
 11
987.015394
 21
10.0
 31
0.0
  0
LINE
  5
841
100
AcDbEntity
  8
SIZE
  6
CONTINUOUS
 62
    30
100
AcDbLine
 10
987.015394
 20
10.0
 30
0.0
 11
987.015394
 21
20.0
 31
0.0
  0
POINT
  5
842
100
AcDbEntity
  8
DEFPOINTS
  6
CONTINUOUS
 62
     7
100
AcDbPoint
 10
987.015394
 20
0.0
 30
0.0
  0
LINE
  5
843
100
AcDbEntity
  8
SIZE
  6
CONTINUOUS
 62
    30
100
AcDbLine
 10
987.015394
 20
5.0
 30
0.0
 11
987.015394
 21
10.0
 31
0.0
  0
LINE
  5
844
100
AcDbEntity
  8
NOTE
  6
CONTINUOUS
 62
     4
100
AcDbLine
 10
576.885674
 20
474.378463
 30
0.0
 11
977.421757
 21
474.378463
 31
0.0
  0
TEXT
  5
845
100
AcDbEntity
  8
NOTE
  6
CONTINUOUS
 62
     4
100
AcDbText
 10
593.120551
 20
494.249051
 30
0.0
 40
64.0
  1
RG %%C12.7
 41
0.9
100
AcDbText
  0
LINE
  5
846
100
AcDbEntity
  8
SIZE
  6
CONTINUOUS
 62
    30
100
AcDbLine
 10
704.309006
 20
338.999496
 30
0.0
 11
704.309006
 21
333.999496
 31
0.0
  0
CIRCLE
  5
847
100
AcDbEntity
  8
SIZE
  6
CONTINUOUS
 62
    30
100
AcDbCircle
 10
704.309006
 20
343.999496
 30
0.0
 40
5.0
  0
LINE
  5
848
100
AcDbEntity
  8
SIZE
  6
CONTINUOUS
 62
    30
100
AcDbLine
 10
851.962158
 20
338.999496
 30
0.0
 11
851.962158
 21
333.999496
 31
0.0
  0
CIRCLE
  5
849
100
AcDbEntity
  8
SIZE
  6
CONTINUOUS
 62
    30
100
AcDbCircle
 10
851.962158
 20
343.999496
 30
0.0
 40
5.0
  0
LINE
  5
84A
100
AcDbEntity
  8
SIZE
  6
CONTINUOUS
 62
    30
100
AcDbLine
 10
987.015394
 20
385.0
 30
0.0
 11
987.015394
 21
380.0
 31
0.0
  0
CIRCLE
  5
84B
100
AcDbEntity
  8
SIZE
  6
CONTINUOUS
 62
    30
100
AcDbCircle
 10
987.015394
 20
390.0
 30
0.0
 40
5.0
  0
ENDSEC
  0
SECTION
  2
OBJECTS
  0
DICTIONARY
  5
306
100
AcDbDictionary
  3
ACAD_GROUP
350
307
  3
ACAD_MLINESTYLE
350
315
  0
DICTIONARY
  5
307
102
{ACAD_REACTORS
330
306
102
}
100
AcDbDictionary
  0
DICTIONARY
  5
315
102
{ACAD_REACTORS
330
306
102
}
100
AcDbDictionary
  3
STANDARD
350
316
  0
MLINESTYLE
  5
316
102
{ACAD_REACTORS
330
315
102
}
100
AcDbMlineStyle
  2
STANDARD
 70
     0
  3

 62
   256
 51
90.0
 52
90.0
 71
     2
 49
0.5
 62
   256
  6
BYLAYER
 49
-0.5
 62
   256
  6
BYLAYER
  0
ENDSEC
  0
EOF
