  0
SECTION
  2
HEADER
  9
$ACADVER
  1
AC1014
  9
$ACADMAINTVER
 70
     0
  9
$DWGCODEPAGE
  3
ANSI_932
  9
$INSBASE
 10
0.0
 20
0.0
 30
0.0
  9
$EXTMIN
 10
-1991.173386
 20
-1063.365016
 30
-0.001526
  9
$EXTMAX
 10
1078.023711
 20
1190.247663
 30
0.0
  9
$LIMMIN
 10
-4267.152221
 20
-2696.08321
  9
$LIMMAX
 10
7190.717423
 20
5141.155364
  9
$ORTHOMODE
 70
     0
  9
$REGENMODE
 70
     1
  9
$FILLMODE
 70
     1
  9
$QTEXTMODE
 70
     0
  9
$MIRRTEXT
 70
     0
  9
$DRAGMODE
 70
     2
  9
$LTSCALE
 40
20.0
  9
$OSMODE
 70
    39
  9
$ATTMODE
 70
     1
  9
$TEXTSIZE
 40
64.0
  9
$TRACEWID
 40
0.05
  9
$TEXTSTYLE
  7
STANDARD
  9
$CLAYER
  8
OUTLINE
  9
$CELTYPE
  6
CONTINUOUS
  9
$CECOLOR
 62
     7
  9
$CELTSCALE
 40
1.0
  9
$DELOBJ
 70
     1
  9
$DISPSILH
 70
     0
  9
$DIMSCALE
 40
1.0
  9
$DIMASZ
 40
10.0
  9
$DIMEXO
 40
20.0
  9
$DIMDLI
 40
200.0
  9
$DIMRND
 40
0.0
  9
$DIMDLE
 40
0.0
  9
$DIMEXE
 40
30.0
  9
$DIMTP
 40
0.0
  9
$DIMTM
 40
0.0
  9
$DIMTXT
 40
55.0
  9
$DIMCEN
 40
0.0
  9
$DIMTSZ
 40
0.0
  9
$DIMTOL
 70
     0
  9
$DIMLIM
 70
     0
  9
$DIMTIH
 70
     0
  9
$DIMTOH
 70
     0
  9
$DIMSE1
 70
     0
  9
$DIMSE2
 70
     0
  9
$DIMTAD
 70
     1
  9
$DIMZIN
 70
     8
  9
$DIMBLK
  1

  9
$DIMASO
 70
     1
  9
$DIMSHO
 70
     0
  9
$DIMPOST
  1

  9
$DIMAPOST
  1

  9
$DIMALT
 70
     0
  9
$DIMALTD
 70
     2
  9
$DIMALTF
 40
25.4
  9
$DIMLFAC
 40
1.0
  9
$DIMTOFL
 70
     1
  9
$DIMTVP
 40
0.0
  9
$DIMTIX
 70
     1
  9
$DIMSOXD
 70
     0
  9
$DIMSAH
 70
     1
  9
$DIMBLK1
  1
_DOTBLANK
  9
$DIMBLK2
  1
_DOTBLANK
  9
$DIMSTYLE
  2
STANDARD
  9
$DIMCLRD
 70
     0
  9
$DIMCLRE
 70
     0
  9
$DIMCLRT
 70
     0
  9
$DIMTFAC
 40
1.0
  9
$DIMGAP
 40
0.09
  9
$DIMJUST
 70
     0
  9
$DIMSD1
 70
     0
  9
$DIMSD2
 70
     0
  9
$DIMTOLJ
 70
     1
  9
$DIMTZIN
 70
     0
  9
$DIMALTZ
 70
     0
  9
$DIMALTTZ
 70
     0
  9
$DIMFIT
 70
     3
  9
$DIMUPT
 70
     0
  9
$DIMUNIT
 70
     2
  9
$DIMDEC
 70
     4
  9
$DIMTDEC
 70
     4
  9
$DIMALTU
 70
     2
  9
$DIMALTTD
 70
     2
  9
$DIMTXSTY
  7
STANDARD
  9
$DIMAUNIT
 70
     0
  9
$LUNITS
 70
     2
  9
$LUPREC
 70
     4
  9
$SKETCHINC
 40
0.1
  9
$FILLETRAD
 40
30.0
  9
$AUNITS
 70
     1
  9
$AUPREC
 70
     3
  9
$MENU
  1
ACAD
  9
$ELEVATION
 40
0.0
  9
$PELEVATION
 40
0.0
  9
$THICKNESS
 40
0.0
  9
$LIMCHECK
 70
     0
  9
$BLIPMODE
 70
     0
  9
$CHAMFERA
 40
0.0
  9
$CHAMFERB
 40
0.0
  9
$CHAMFERC
 40
0.0
  9
$CHAMFERD
 40
0.0
  9
$SKPOLY
 70
     0
  9
$TDCREATE
 40
2450330.439930995
  9
$TDUPDATE
 40
2454251.685355000
  9
$TDINDWG
 40
3.4469979977
  9
$TDUSRTIMER
 40
3.4469979977
  9
$USRTIMER
 70
     1
  9
$ANGBASE
 50
0.0
  9
$ANGDIR
 70
     0
  9
$PDMODE
 70
     3
  9
$PDSIZE
 40
-2.0
  9
$PLINEWID
 40
0.0
  9
$COORDS
 70
     2
  9
$SPLFRAME
 70
     0
  9
$SPLINETYPE
 70
     6
  9
$SPLINESEGS
 70
     8
  9
$ATTDIA
 70
     0
  9
$ATTREQ
 70
     1
  9
$HANDLING
 70
     1
  9
$HANDSEED
  5
5F2
  9
$SURFTAB1
 70
     6
  9
$SURFTAB2
 70
     6
  9
$SURFTYPE
 70
     6
  9
$SURFU
 70
     6
  9
$SURFV
 70
     6
  9
$UCSNAME
  2

  9
$UCSORG
 10
0.0
 20
0.0
 30
0.0
  9
$UCSXDIR
 10
1.0
 20
0.0
 30
0.0
  9
$UCSYDIR
 10
0.0
 20
1.0
 30
0.0
  9
$PUCSNAME
  2

  9
$PUCSORG
 10
0.0
 20
0.0
 30
0.0
  9
$PUCSXDIR
 10
1.0
 20
0.0
 30
0.0
  9
$PUCSYDIR
 10
0.0
 20
1.0
 30
0.0
  9
$USERI1
 70
     0
  9
$USERI2
 70
     0
  9
$USERI3
 70
     0
  9
$USERI4
 70
     0
  9
$USERI5
 70
     0
  9
$USERR1
 40
20.0
  9
$USERR2
 40
0.0
  9
$USERR3
 40
0.0
  9
$USERR4
 40
0.0
  9
$USERR5
 40
0.0
  9
$WORLDVIEW
 70
     1
  9
$SHADEDGE
 70
     3
  9
$SHADEDIF
 70
    70
  9
$TILEMODE
 70
     1
  9
$MAXACTVP
 70
    48
  9
$PINSBASE
 10
0.0
 20
0.0
 30
0.0
  9
$PLIMCHECK
 70
     0
  9
$PEXTMIN
 10
1.000000E+20
 20
1.000000E+20
 30
1.000000E+20
  9
$PEXTMAX
 10
-1.000000E+20
 20
-1.000000E+20
 30
-1.000000E+20
  9
$PLIMMIN
 10
0.0
 20
0.0
  9
$PLIMMAX
 10
12.0
 20
9.0
  9
$UNITMODE
 70
     0
  9
$VISRETAIN
 70
     1
  9
$PLINEGEN
 70
     0
  9
$PSLTSCALE
 70
     1
  9
$TREEDEPTH
 70
  3020
  9
$PICKSTYLE
 70
     1
  9
$CMLSTYLE
  2
STANDARD
  9
$CMLJUST
 70
     0
  9
$CMLSCALE
 40
1.0
  9
$PROXYGRAPHICS
 70
     1
  9
$MEASUREMENT
 70
     0
  0
ENDSEC
  0
SECTION
  2
CLASSES
  0
ENDSEC
  0
SECTION
  2
TABLES
  0
TABLE
  2
VPORT
  5
239
100
AcDbSymbolTable
 70
     3
  0
VPORT
  5
5F1
100
AcDbSymbolTableRecord
100
AcDbViewportTableRecord
  2
*ACTIVE
 70
     0
 10
0.0
 20
0.0
 11
1.0
 21
1.0
 12
1461.782601
 22
1331.287491
 13
0.0
 23
0.0
 14
50.0
 24
50.0
 15
100.0
 25
100.0
 16
0.0
 26
0.0
 36
1.0
 17
0.0
 27
0.0
 37
0.0
 40
8054.741402
 41
1.4225
 42
50.0
 43
0.0
 44
0.0
 50
0.0
 51
0.0
 71
     0
 72
  1000
 73
     1
 74
     0
 75
     0
 76
     0
 77
     0
 78
     0
  0
ENDTAB
  0
TABLE
  2
LTYPE
  5
236
100
AcDbSymbolTable
 70
     2
  0
LTYPE
  5
243
100
AcDbSymbolTableRecord
100
AcDbLinetypeTableRecord
  2
BYBLOCK
 70
     0
  3

 72
    65
 73
     0
 40
0.0
  0
LTYPE
  5
244
100
AcDbSymbolTableRecord
100
AcDbLinetypeTableRecord
  2
BYLAYER
 70
     0
  3

 72
    65
 73
     0
 40
0.0
  0
LTYPE
  5
245
100
AcDbSymbolTableRecord
100
AcDbLinetypeTableRecord
  2
CONTINUOUS
 70
     0
  3
実線
 72
    65
 73
     0
 40
0.0
  0
LTYPE
  5
251
100
AcDbSymbolTableRecord
100
AcDbLinetypeTableRecord
  2
DASHDOT
 70
     0
  3
____ _ ____ _ ____ _ ____ _ ____ _ ____ _ ____
 72
    65
 73
     4
 40
5.5
 49
4.0
 74
     0
 49
-0.6
 74
     0
 49
0.3
 74
     0
 49
-0.6
 74
     0
  0
ENDTAB
  0
TABLE
  2
LAYER
  5
233
100
AcDbSymbolTable
 70
    12
  0
LAYER
  5
23F
100
AcDbSymbolTableRecord
100
AcDbLayerTableRecord
  2
0
 70
     0
 62
     7
  6
CONTINUOUS
  0
LAYER
  5
250
100
AcDbSymbolTableRecord
100
AcDbLayerTableRecord
  2
OUTLINE
 70
     0
 62
     3
  6
CONTINUOUS
  0
LAYER
  5
252
100
AcDbSymbolTableRecord
100
AcDbLayerTableRecord
  2
DETAIL
 70
     0
 62
     5
  6
CONTINUOUS
  0
LAYER
  5
253
100
AcDbSymbolTableRecord
100
AcDbLayerTableRecord
  2
BASIS
 70
     0
 62
     6
  6
DASHDOT
  0
LAYER
  5
254
100
AcDbSymbolTableRecord
100
AcDbLayerTableRecord
  2
SIZE
 70
     0
 62
    30
  6
CONTINUOUS
  0
LAYER
  5
255
100
AcDbSymbolTableRecord
100
AcDbLayerTableRecord
  2
NOTE
 70
     0
 62
     4
  6
CONTINUOUS
  0
LAYER
  5
256
100
AcDbSymbolTableRecord
100
AcDbLayerTableRecord
  2
ARRANGE
 70
     0
 62
     1
  6
CONTINUOUS
  0
LAYER
  5
257
100
AcDbSymbolTableRecord
100
AcDbLayerTableRecord
  2
FIX
 70
     0
 62
    11
  6
CONTINUOUS
  0
LAYER
  5
258
100
AcDbSymbolTableRecord
100
AcDbLayerTableRecord
  2
SERVICESPACE
 70
     0
 62
     2
  6
DASHDOT
  0
LAYER
  5
259
100
AcDbSymbolTableRecord
100
AcDbLayerTableRecord
  2
ETC
 70
     0
 62
    61
  6
CONTINUOUS
  0
LAYER
  5
25A
100
AcDbSymbolTableRecord
100
AcDbLayerTableRecord
  2
SYMBOLLINE
 70
     0
 62
    15
  6
CONTINUOUS
  0
LAYER
  5
25B
100
AcDbSymbolTableRecord
100
AcDbLayerTableRecord
  2
DEFPOINTS
 70
     0
 62
     7
  6
CONTINUOUS
  0
ENDTAB
  0
TABLE
  2
STYLE
  5
234
100
AcDbSymbolTable
 70
     2
  0
STYLE
  5
240
100
AcDbSymbolTableRecord
100
AcDbTextStyleTableRecord
  2
STANDARD
 70
     0
 40
0.0
 41
0.9
 50
0.0
 71
     0
 42
64.0
  3
SIMPLEX
  4
BIGFONT
  0
STYLE
  5
25C
100
AcDbSymbolTableRecord
100
AcDbTextStyleTableRecord
  2
STANDARD1
 70
     0
 40
0.0
 41
1.0
 50
0.0
 71
     0
 42
64.0
  3
MONOTXT
  4
BIGFONT
  0
ENDTAB
  0
TABLE
  2
VIEW
  5
237
100
AcDbSymbolTable
 70
     1
  0
VIEW
  5
25D
100
AcDbSymbolTableRecord
100
AcDbViewTableRecord
  2
ALL
 70
     0
 40
9000.0
 10
241.506647
 20
0.0
 41
12483.01
 11
0.0
 21
0.0
 31
1.0
 12
0.0
 22
0.0
 32
0.0
 42
50.0
 43
0.0
 44
0.0
 50
0.0
 71
     0
  0
ENDTAB
  0
TABLE
  2
UCS
  5
238
100
AcDbSymbolTable
 70
     0
  0
ENDTAB
  0
TABLE
  2
APPID
  5
23A
100
AcDbSymbolTable
 70
     1
  0
APPID
  5
241
100
AcDbSymbolTableRecord
100
AcDbRegAppTableRecord
  2
ACAD
 70
     0
  0
ENDTAB
  0
TABLE
  2
DIMSTYLE
  5
23B
100
AcDbSymbolTable
 70
     1
  0
DIMSTYLE
105
25E
100
AcDbSymbolTableRecord
100
AcDbDimStyleTableRecord
  2
STANDARD
 70
     0
  3

  4

  5

  6

  7

 40
1.0
 41
0.18
 42
0.0625
 43
0.38
 44
0.18
 45
0.0
 46
0.0
 47
0.0
 48
0.0
140
0.18
141
0.09
142
0.0
143
25.4
144
1.0
145
0.0
146
1.0
147
0.09
 71
     0
 72
     0
 73
     1
 74
     1
 75
     0
 76
     0
 77
     0
 78
     0
170
     0
171
     2
172
     0
173
     0
174
     0
175
     0
176
     0
177
     0
178
     0
270
     2
271
     4
272
     4
273
     2
274
     2
340
240
275
     0
280
     0
281
     0
282
     0
283
     1
284
     0
285
     0
286
     0
287
     3
288
     0
  0
ENDTAB
  0
TABLE
  2
BLOCK_RECORD
  5
232
100
AcDbSymbolTable
 70
     4
  0
BLOCK_RECORD
  5
249
100
AcDbSymbolTableRecord
100
AcDbBlockTableRecord
  2
*MODEL_SPACE
  0
BLOCK_RECORD
  5
246
100
AcDbSymbolTableRecord
100
AcDbBlockTableRecord
  2
*PAPER_SPACE
  0
BLOCK_RECORD
  5
262
100
AcDbSymbolTableRecord
100
AcDbBlockTableRecord
  2
$MODEL_SPACE
  0
BLOCK_RECORD
  5
264
100
AcDbSymbolTableRecord
100
AcDbBlockTableRecord
  2
$PAPER_SPACE
  0
BLOCK_RECORD
  5
266
100
AcDbSymbolTableRecord
100
AcDbBlockTableRecord
  2
_DOTBLANK
  0
BLOCK_RECORD
  5
269
100
AcDbSymbolTableRecord
100
AcDbBlockTableRecord
  2
A$C56CA66F8
  0
ENDTAB
  0
ENDSEC
  0
SECTION
  2
BLOCKS
  0
BLOCK
  5
24A
100
AcDbEntity
  8
0
100
AcDbBlockBegin
  2
*MODEL_SPACE
 70
     0
 10
0.0
 20
0.0
 30
0.0
  3
*MODEL_SPACE
  1

  0
ENDBLK
  5
24B
100
AcDbEntity
  8
0
100
AcDbBlockEnd
  0
BLOCK
  5
247
100
AcDbEntity
 67
     1
  8
0
100
AcDbBlockBegin
  2
*PAPER_SPACE
 70
     0
 10
0.0
 20
0.0
 30
0.0
  3
*PAPER_SPACE
  1

  0
ENDBLK
  5
248
100
AcDbEntity
 67
     1
  8
0
100
AcDbBlockEnd
  0
BLOCK
  5
263
100
AcDbEntity
  8
0
100
AcDbBlockBegin
  2
$MODEL_SPACE
 70
     0
 10
0.0
 20
0.0
 30
0.0
  3
$MODEL_SPACE
  1

  0
ENDBLK
  5
214
100
AcDbEntity
  8
0
100
AcDbBlockEnd
  0
BLOCK
  5
265
100
AcDbEntity
  8
0
100
AcDbBlockBegin
  2
$PAPER_SPACE
 70
     0
 10
0.0
 20
0.0
 30
0.0
  3
$PAPER_SPACE
  1

  0
ENDBLK
  5
211
100
AcDbEntity
  8
0
100
AcDbBlockEnd
  0
BLOCK
  5
267
100
AcDbEntity
  8
0
100
AcDbBlockBegin
  2
_DOTBLANK
 70
     0
 10
0.0
 20
0.0
 30
0.0
  3
_DOTBLANK
  1

  0
CIRCLE
  5
32
100
AcDbEntity
  8
0
  6
CONTINUOUS
 62
     7
100
AcDbCircle
 10
0.0
 20
0.0
 30
0.0
 40
0.5
  0
LINE
  5
33
100
AcDbEntity
  8
0
  6
CONTINUOUS
 62
     7
100
AcDbLine
 10
-0.5
 20
0.0
 30
0.0
 11
-1.0
 21
0.0
 31
0.0
  0
ENDBLK
  5
34
100
AcDbEntity
  8
0
100
AcDbBlockEnd
  0
BLOCK
  5
42C
100
AcDbEntity
  8
0
 62
     7
100
AcDbBlockBegin
  2
A$C56CA66F8
 70
     0
 10
0.0
 20
0.0
 30
0.0
  3
A$C56CA66F8
  1

  0
LINE
  5
26A
100
AcDbEntity
  8
BASIS
  6
DASHDOT
 62
     6
100
AcDbLine
 10
2371.451319
 20
1061.316526
 30
0.0
 11
1609.410571
 21
1061.316526
 31
0.0
  0
LINE
  5
26B
100
AcDbEntity
  8
SIZE
  6
CONTINUOUS
 62
    30
100
AcDbLine
 10
1693.430945
 20
2039.475841
 30
0.0
 11
1645.430945
 21
2039.475841
 31
0.0
  0
LINE
  5
26C
100
AcDbEntity
  8
SIZE
  6
CONTINUOUS
 62
    30
100
AcDbLine
 10
1665.430945
 20
564.316526
 30
0.0
 11
1360.484509
 21
564.316526
 31
0.0
  0
LINE
  5
26D
100
AcDbEntity
  8
SIZE
  6
CONTINUOUS
 62
    30
100
AcDbLine
 10
1665.430945
 20
564.316526
 30
0.0
 11
1360.484509
 21
564.316526
 31
0.0
  0
LINE
  5
26E
100
AcDbEntity
  8
SIZE
  6
CONTINUOUS
 62
    30
100
AcDbLine
 10
1665.430945
 20
1558.316526
 30
0.0
 11
1360.484509
 21
1558.316526
 31
0.0
  0
LINE
  5
26F
100
AcDbEntity
  8
SIZE
  6
CONTINUOUS
 62
    30
100
AcDbLine
 10
1665.430945
 20
1558.316526
 30
0.0
 11
1360.484509
 21
1558.316526
 31
0.0
  0
LINE
  5
270
100
AcDbEntity
  8
SIZE
  6
CONTINUOUS
 62
    30
100
AcDbLine
 10
1645.430945
 20
2183.124047
 30
0.0
 11
2335.430945
 21
2183.124047
 31
0.0
  0
POLYLINE
  5
271
100
AcDbEntity
  8
OUTLINE
  6
CONTINUOUS
 62
     3
100
AcDb2dPolyline
 66
     1
 10
0.0
 20
0.0
 30
0.0
 70
     1
  0
VERTEX
  5
272
100
AcDbEntity
  8
OUTLINE
  6
CONTINUOUS
 62
     3
100
AcDbVertex
100
AcDb2dVertex
 10
1635.430945
 20
1831.316526
 30
0.0
  0
VERTEX
  5
273
100
AcDbEntity
  8
OUTLINE
  6
CONTINUOUS
 62
     3
100
AcDbVertex
100
AcDb2dVertex
 10
2345.430945
 20
1831.316526
 30
0.0
  0
VERTEX
  5
274
100
AcDbEntity
  8
OUTLINE
  6
CONTINUOUS
 62
     3
100
AcDbVertex
100
AcDb2dVertex
 10
2345.430945
 20
291.316526
 30
0.0
  0
VERTEX
  5
275
100
AcDbEntity
  8
OUTLINE
  6
CONTINUOUS
 62
     3
100
AcDbVertex
100
AcDb2dVertex
 10
1635.430945
 20
291.316526
 30
0.0
  0
SEQEND
  5
276
100
AcDbEntity
  8
OUTLINE
  6
CONTINUOUS
 62
     3
  0
LINE
  5
277
100
AcDbEntity
  8
DETAIL
  6
CONTINUOUS
 62
     5
100
AcDbLine
 10
1635.430945
 20
1831.316526
 30
0.0
 11
2345.430945
 21
1831.316526
 31
0.0
  0
LINE
  5
278
100
AcDbEntity
  8
DETAIL
  6
CONTINUOUS
 62
     5
100
AcDbLine
 10
1635.430945
 20
291.316526
 30
0.0
 11
2345.430945
 21
291.316526
 31
0.0
  0
LINE
  5
279
100
AcDbEntity
  8
NOTE
  6
CONTINUOUS
 62
     4
100
AcDbLine
 10
1661.076976
 20
95.61918
 30
0.0
 11
2091.431591
 21
606.317013
 31
0.0
  0
LINE
  5
27A
100
AcDbEntity
  8
NOTE
  6
CONTINUOUS
 62
     4
100
AcDbLine
 10
1553.000398
 20
1901.78727
 30
0.0
 11
1703.430787
 21
1558.317176
 31
0.0
  0
TEXT
  5
27B
100
AcDbEntity
  8
SIZE
  6
CONTINUOUS
 62
    30
100
AcDbText
 10
1371.079747
 20
802.50224
 30
0.0
 40
55.0
  1
994(吊りﾎﾞﾙﾄﾋﾟｯﾁ)
 50
90.0
 41
0.9
 72
     1
 11
1371.079747
 21
1061.316526
 31
0.0
100
AcDbText
  0
LINE
  5
27C
100
AcDbEntity
  8
SIZE
  6
CONTINUOUS
 62
    30
100
AcDbLine
 10
1390.484509
 20
1548.316526
 30
0.0
 11
1390.484509
 21
574.316526
 31
0.0
  0
TEXT
  5
27D
100
AcDbEntity
  8
SIZE
  6
CONTINUOUS
 62
    30
100
AcDbText
 10
1131.87242
 20
978.816526
 30
0.0
 40
55.0
  1
1540
 50
90.0
 41
0.9
 72
     1
 11
1131.87242
 21
1061.316526
 31
0.0
100
AcDbText
  0
LINE
  5
27E
100
AcDbEntity
  8
SIZE
  6
CONTINUOUS
 62
    30
100
AcDbLine
 10
1146.87242
 20
1821.316526
 30
0.0
 11
1146.87242
 21
301.316526
 31
0.0
  0
LINE
  5
27F
100
AcDbEntity
  8
DETAIL
  6
CONTINUOUS
 62
     5
100
AcDbLine
 10
1635.430945
 20
291.316526
 30
0.0
 11
1635.430945
 21
1831.316526
 31
0.0
  0
TEXT
  5
280
100
AcDbEntity
  8
SIZE
  6
CONTINUOUS
 62
    30
100
AcDbText
 10
1375.484509
 20
364.173669
 30
0.0
 40
55.0
  1
273
 50
90.0
 41
0.9
 72
     1
 11
1375.484509
 21
427.816526
 31
0.0
100
AcDbText
  0
LINE
  5
281
100
AcDbEntity
  8
SIZE
  6
CONTINUOUS
 62
    30
100
AcDbLine
 10
1390.484509
 20
554.316526
 30
0.0
 11
1390.484509
 21
301.316526
 31
0.0
  0
LINE
  5
282
100
AcDbEntity
  8
SIZE
  6
CONTINUOUS
 62
    30
100
AcDbLine
 10
1615.430945
 20
291.316526
 30
0.0
 11
1116.87242
 21
291.316526
 31
0.0
  0
CIRCLE
  5
283
100
AcDbEntity
  8
SIZE
  6
CONTINUOUS
 62
    30
100
AcDbCircle
 10
1146.87242
 20
291.316526
 30
0.0
 40
5.0
  0
POINT
  5
284
100
AcDbEntity
  8
DEFPOINTS
  6
CONTINUOUS
 62
     7
100
AcDbPoint
 10
1146.87242
 20
291.316526
 30
0.0
  0
LINE
  5
285
100
AcDbEntity
  8
SIZE
  6
CONTINUOUS
 62
    30
100
AcDbLine
 10
1146.87242
 20
296.316526
 30
0.0
 11
1146.87242
 21
301.316526
 31
0.0
  0
TEXT
  5
286
100
AcDbEntity
  8
NOTE
  6
CONTINUOUS
 62
     4
100
AcDbText
 10
1282.912517
 20
115.489768
 30
0.0
 40
64.0
  1
RL %%C6.35
 41
0.9
100
AcDbText
  0
LINE
  5
287
100
AcDbEntity
  8
NOTE
  6
CONTINUOUS
 62
     4
100
AcDbLine
 10
1266.67764
 20
95.61918
 30
0.0
 11
1661.076976
 21
95.61918
 31
0.0
  0
LINE
  5
288
100
AcDbEntity
  8
SIZE
  6
CONTINUOUS
 62
    30
100
AcDbLine
 10
1615.430945
 20
291.316526
 30
0.0
 11
1360.484509
 21
291.316526
 31
0.0
  0
CIRCLE
  5
289
100
AcDbEntity
  8
SIZE
  6
CONTINUOUS
 62
    30
100
AcDbCircle
 10
1390.484509
 20
291.316526
 30
0.0
 40
5.0
  0
POINT
  5
28A
100
AcDbEntity
  8
DEFPOINTS
  6
CONTINUOUS
 62
     7
100
AcDbPoint
 10
1390.484509
 20
291.316526
 30
0.0
  0
LINE
  5
28B
100
AcDbEntity
  8
SIZE
  6
CONTINUOUS
 62
    30
100
AcDbLine
 10
1390.484509
 20
296.316526
 30
0.0
 11
1390.484509
 21
301.316526
 31
0.0
  0
POINT
  5
28C
100
AcDbEntity
  8
DEFPOINTS
  6
CONTINUOUS
 62
     7
100
AcDbPoint
 10
1635.430945
 20
291.316526
 30
0.0
  0
POINT
  5
28D
100
AcDbEntity
  8
DEFPOINTS
  6
CONTINUOUS
 62
     7
100
AcDbPoint
 10
1635.430945
 20
291.316526
 30
0.0
  0
LINE
  5
28E
100
AcDbEntity
  8
SIZE
  6
CONTINUOUS
 62
    30
100
AcDbLine
 10
1390.484509
 20
559.316526
 30
0.0
 11
1390.484509
 21
554.316526
 31
0.0
  0
CIRCLE
  5
28F
100
AcDbEntity
  8
SIZE
  6
CONTINUOUS
 62
    30
100
AcDbCircle
 10
1390.484509
 20
564.316526
 30
0.0
 40
5.0
  0
POINT
  5
290
100
AcDbEntity
  8
DEFPOINTS
  6
CONTINUOUS
 62
     7
100
AcDbPoint
 10
1390.484509
 20
564.316526
 30
0.0
  0
LINE
  5
291
100
AcDbEntity
  8
SIZE
  6
CONTINUOUS
 62
    30
100
AcDbLine
 10
1390.484509
 20
569.316526
 30
0.0
 11
1390.484509
 21
574.316526
 31
0.0
  0
CIRCLE
  5
292
100
AcDbEntity
  8
SIZE
  6
CONTINUOUS
 62
    30
100
AcDbCircle
 10
1390.484509
 20
564.316526
 30
0.0
 40
5.0
  0
TEXT
  5
293
100
AcDbEntity
  8
ETC
  6
CONTINUOUS
 62
    61
100
AcDbText
 10
-0.000007
 20
2151.299525
 30
0.0
 40
80.0
  1
MPL-RP63LA(ﾘﾌﾟﾚｽﾊﾟﾈﾙ)_6
 50
0.000003
 41
0.8
100
AcDbText
  0
TEXT
  5
294
100
AcDbEntity
  8
SIZE
  6
CONTINUOUS
 62
    30
100
AcDbText
 10
1375.484509
 20
1631.173669
 30
0.0
 40
55.0
  1
273
 50
90.0
 41
0.9
 72
     1
 11
1375.484509
 21
1694.816526
 31
0.0
100
AcDbText
  0
LINE
  5
295
100
AcDbEntity
  8
SIZE
  6
CONTINUOUS
 62
    30
100
AcDbLine
 10
1390.484509
 20
1821.316526
 30
0.0
 11
1390.484509
 21
1568.316526
 31
0.0
  0
LINE
  5
296
100
AcDbEntity
  8
SIZE
  6
CONTINUOUS
 62
    30
100
AcDbLine
 10
1390.484509
 20
1553.316526
 30
0.0
 11
1390.484509
 21
1548.316526
 31
0.0
  0
CIRCLE
  5
297
100
AcDbEntity
  8
SIZE
  6
CONTINUOUS
 62
    30
100
AcDbCircle
 10
1390.484509
 20
1558.316526
 30
0.0
 40
5.0
  0
POINT
  5
298
100
AcDbEntity
  8
DEFPOINTS
  6
CONTINUOUS
 62
     7
100
AcDbPoint
 10
1390.484509
 20
1558.316526
 30
0.0
  0
LINE
  5
299
100
AcDbEntity
  8
SIZE
  6
CONTINUOUS
 62
    30
100
AcDbLine
 10
1390.484509
 20
1563.316526
 30
0.0
 11
1390.484509
 21
1568.316526
 31
0.0
  0
CIRCLE
  5
29A
100
AcDbEntity
  8
SIZE
  6
CONTINUOUS
 62
    30
100
AcDbCircle
 10
1390.484509
 20
1558.316526
 30
0.0
 40
5.0
  0
LINE
  5
29B
100
AcDbEntity
  8
SIZE
  6
CONTINUOUS
 62
    30
100
AcDbLine
 10
1615.430945
 20
1831.316526
 30
0.0
 11
1116.87242
 21
1831.316526
 31
0.0
  0
LINE
  5
29C
100
AcDbEntity
  8
NOTE
  6
CONTINUOUS
 62
     4
100
AcDbLine
 10
869.831546
 20
1901.78727
 30
0.0
 11
1553.000398
 21
1901.78727
 31
0.0
  0
TEXT
  5
29D
100
AcDbEntity
  8
NOTE
  6
CONTINUOUS
 62
     4
100
AcDbText
 10
889.411182
 20
1921.657858
 30
0.0
 40
64.0
  1
AH4-14×30長穴
 41
0.9
100
AcDbText
  0
LINE
  5
29E
100
AcDbEntity
  8
SIZE
  6
CONTINUOUS
 62
    30
100
AcDbLine
 10
1146.87242
 20
1826.316526
 30
0.0
 11
1146.87242
 21
1821.316526
 31
0.0
  0
CIRCLE
  5
29F
100
AcDbEntity
  8
SIZE
  6
CONTINUOUS
 62
    30
100
AcDbCircle
 10
1146.87242
 20
1831.316526
 30
0.0
 40
5.0
  0
LINE
  5
2A0
100
AcDbEntity
  8
SIZE
  6
CONTINUOUS
 62
    30
100
AcDbLine
 10
1635.430945
 20
1851.316526
 30
0.0
 11
1635.430945
 21
2069.475841
 31
0.0
  0
LINE
  5
2A1
100
AcDbEntity
  8
SIZE
  6
CONTINUOUS
 62
    30
100
AcDbLine
 10
1635.430945
 20
1851.316526
 30
0.0
 11
1635.430945
 21
2213.124047
 31
0.0
  0
LINE
  5
2A2
100
AcDbEntity
  8
SIZE
  6
CONTINUOUS
 62
    30
100
AcDbLine
 10
1615.430945
 20
1831.316526
 30
0.0
 11
1360.484509
 21
1831.316526
 31
0.0
  0
LINE
  5
2A3
100
AcDbEntity
  8
SIZE
  6
CONTINUOUS
 62
    30
100
AcDbLine
 10
1390.484509
 20
1826.316526
 30
0.0
 11
1390.484509
 21
1821.316526
 31
0.0
  0
CIRCLE
  5
2A4
100
AcDbEntity
  8
SIZE
  6
CONTINUOUS
 62
    30
100
AcDbCircle
 10
1390.484509
 20
1831.316526
 30
0.0
 40
5.0
  0
POINT
  5
2A5
100
AcDbEntity
  8
DEFPOINTS
  6
CONTINUOUS
 62
     7
100
AcDbPoint
 10
1635.430945
 20
1831.316526
 30
0.0
  0
POINT
  5
2A6
100
AcDbEntity
  8
DEFPOINTS
  6
CONTINUOUS
 62
     7
100
AcDbPoint
 10
1635.430945
 20
1831.316526
 30
0.0
  0
POINT
  5
2A7
100
AcDbEntity
  8
DEFPOINTS
  6
CONTINUOUS
 62
     7
100
AcDbPoint
 10
1635.430945
 20
1831.316526
 30
0.0
  0
POINT
  5
2A8
100
AcDbEntity
  8
DEFPOINTS
  6
CONTINUOUS
 62
     7
100
AcDbPoint
 10
1635.430945
 20
1831.316526
 30
0.0
  0
TEXT
  5
2A9
100
AcDbEntity
  8
SIZE
  6
CONTINUOUS
 62
    30
100
AcDbText
 10
1530.288088
 20
2054.475841
 30
0.0
 40
55.0
  1
68
 41
0.9
 72
     1
 11
1570.359516
 21
2054.475841
 31
0.0
100
AcDbText
  0
LINE
  5
2AA
100
AcDbEntity
  8
SIZE
  6
CONTINUOUS
 62
    30
100
AcDbLine
 10
1635.430945
 20
2039.475841
 30
0.0
 11
1515.288088
 21
2039.475841
 31
0.0
  0
LINE
  5
2AB
100
AcDbEntity
  8
SIZE
  6
CONTINUOUS
 62
    30
100
AcDbLine
 10
1640.430945
 20
2039.475841
 30
0.0
 11
1645.430945
 21
2039.475841
 31
0.0
  0
CIRCLE
  5
2AC
100
AcDbEntity
  8
SIZE
  6
CONTINUOUS
 62
    30
100
AcDbCircle
 10
1635.430945
 20
2039.475841
 30
0.0
 40
5.0
  0
LINE
  5
2AD
100
AcDbEntity
  8
SIZE
  6
CONTINUOUS
 62
    30
100
AcDbLine
 10
1640.430945
 20
2183.124047
 30
0.0
 11
1645.430945
 21
2183.124047
 31
0.0
  0
CIRCLE
  5
2AE
100
AcDbEntity
  8
SIZE
  6
CONTINUOUS
 62
    30
100
AcDbCircle
 10
1635.430945
 20
2183.124047
 30
0.0
 40
5.0
  0
CIRCLE
  5
2AF
100
AcDbEntity
  8
ARRANGE
  6
CONTINUOUS
 62
     1
100
AcDbCircle
 10
1990.430945
 20
1061.316526
 30
0.0
 40
42.5
  0
LINE
  5
2B0
100
AcDbEntity
  8
BASIS
  6
DASHDOT
 62
     6
100
AcDbLine
 10
1990.430945
 20
1863.205535
 30
0.0
 11
1990.430945
 21
263.205535
 31
0.0
  0
CIRCLE
  5
2B1
100
AcDbEntity
  8
SIZE
  6
CONTINUOUS
 62
    30
100
AcDbCircle
 10
2487.162948
 20
1061.316526
 30
0.0
 40
5.0
  0
CIRCLE
  5
2B2
100
AcDbEntity
  8
SIZE
  6
CONTINUOUS
 62
    30
100
AcDbCircle
 10
2600.65432
 20
1061.316526
 30
0.0
 40
5.0
  0
LINE
  5
2B3
100
AcDbEntity
  8
DETAIL
  6
CONTINUOUS
 62
     5
100
AcDbLine
 10
1720.006986
 20
1628.485368
 30
0.0
 11
1720.006986
 21
494.147533
 31
0.0
  0
LINE
  5
2B4
100
AcDbEntity
  8
DETAIL
  6
CONTINUOUS
 62
     5
100
AcDbLine
 10
1691.54319
 20
1620.526734
 30
0.0
 11
1691.54319
 21
502.198833
 31
0.0
  0
LINE
  5
2B5
100
AcDbEntity
  8
DETAIL
  6
CONTINUOUS
 62
     5
100
AcDbLine
 10
1726.182993
 20
1627.48507
 30
0.0
 11
1726.182993
 21
495.14783
 31
0.0
  0
LINE
  5
2B6
100
AcDbEntity
  8
DETAIL
  6
CONTINUOUS
 62
     5
100
AcDbLine
 10
1677.537757
 20
502.122896
 30
0.0
 11
1677.537757
 21
1620.510004
 31
0.0
  0
LINE
  5
2B7
100
AcDbEntity
  8
DETAIL
  6
CONTINUOUS
 62
     5
100
AcDbLine
 10
1730.253457
 20
1626.311732
 30
0.0
 11
1730.253457
 21
496.321168
 31
0.0
  0
LINE
  5
2B8
100
AcDbEntity
  8
DETAIL
  6
CONTINUOUS
 62
     5
100
AcDbLine
 10
1810.37732
 20
493.747413
 30
0.0
 11
1810.37732
 21
1628.885487
 31
0.0
  0
LINE
  5
2B9
100
AcDbEntity
  8
DETAIL
  6
CONTINUOUS
 62
     5
100
AcDbLine
 10
2170.48457
 20
1628.885487
 30
0.0
 11
2170.48457
 21
493.747413
 31
0.0
  0
LINE
  5
2BA
100
AcDbEntity
  8
DETAIL
  6
CONTINUOUS
 62
     5
100
AcDbLine
 10
2260.854904
 20
1628.485368
 30
0.0
 11
2260.854904
 21
494.147533
 31
0.0
  0
LINE
  5
2BB
100
AcDbEntity
  8
DETAIL
  6
CONTINUOUS
 62
     5
100
AcDbLine
 10
2289.3187
 20
1620.526734
 30
0.0
 11
2289.3187
 21
502.198833
 31
0.0
  0
LINE
  5
2BC
100
AcDbEntity
  8
DETAIL
  6
CONTINUOUS
 62
     5
100
AcDbLine
 10
2254.678897
 20
1627.48507
 30
0.0
 11
2254.678897
 21
495.14783
 31
0.0
  0
LINE
  5
2BD
100
AcDbEntity
  8
DETAIL
  6
CONTINUOUS
 62
     5
100
AcDbLine
 10
2303.324133
 20
502.122896
 30
0.0
 11
2303.324133
 21
1620.510004
 31
0.0
  0
LINE
  5
2BE
100
AcDbEntity
  8
DETAIL
  6
CONTINUOUS
 62
     5
100
AcDbLine
 10
2250.608433
 20
1626.311732
 30
0.0
 11
2250.608433
 21
496.321168
 31
0.0
  0
LINE
  5
2BF
100
AcDbEntity
  8
DETAIL
  6
CONTINUOUS
 62
     5
100
AcDbLine
 10
1740.356466
 20
1626.484784
 30
0.0
 11
1740.356466
 21
496.148116
 31
0.0
  0
LINE
  5
2C0
100
AcDbEntity
  8
DETAIL
  6
CONTINUOUS
 62
     5
100
AcDbLine
 10
2240.505424
 20
1626.484784
 30
0.0
 11
2240.505424
 21
496.148116
 31
0.0
  0
LINE
  5
2C1
100
AcDbEntity
  8
DETAIL
  6
CONTINUOUS
 62
     5
100
AcDbLine
 10
2198.492911
 20
1366.951114
 30
0.0
 11
2198.492911
 21
755.681786
 31
0.0
  0
LINE
  5
2C2
100
AcDbEntity
  8
DETAIL
  6
CONTINUOUS
 62
     5
100
AcDbLine
 10
1782.368703
 20
1366.951114
 30
0.0
 11
1782.368703
 21
755.681786
 31
0.0
  0
LINE
  5
2C3
100
AcDbEntity
  8
ARRANGE
  6
CONTINUOUS
 62
     1
100
AcDbLine
 10
2032.900144
 20
1103.473632
 30
0.0
 11
1947.961746
 21
1019.15942
 31
0.0
  0
LINE
  5
2C4
100
AcDbEntity
  8
ARRANGE
  6
CONTINUOUS
 62
     1
100
AcDbLine
 10
2032.962693
 20
1019.222526
 30
0.0
 11
1947.899197
 21
1103.410526
 31
0.0
  0
LINE
  5
2C5
100
AcDbEntity
  8
DETAIL
  6
CONTINUOUS
 62
     5
100
AcDbLine
 10
2345.430945
 20
1831.316526
 30
0.0
 11
2345.430945
 21
291.316526
 31
0.0
  0
TEXT
  5
2C6
100
AcDbEntity
  8
SIZE
  6
CONTINUOUS
 62
    30
100
AcDbText
 10
2585.65432
 20
765.85224
 30
0.0
 40
55.0
  1
466
 50
90.0
 41
0.9
 72
     1
 11
2585.65432
 21
828.316526
 31
0.0
100
AcDbText
  0
LINE
  5
2C7
100
AcDbEntity
  8
SIZE
  6
CONTINUOUS
 62
    30
100
AcDbLine
 10
2199.430945
 20
595.316526
 30
0.0
 11
2630.65432
 21
595.316526
 31
0.0
  0
LINE
  5
2C8
100
AcDbEntity
  8
NOTE
  6
CONTINUOUS
 62
     4
100
AcDbLine
 10
2667.055828
 20
108.164057
 30
0.0
 11
2161.431339
 21
595.315992
 31
0.0
  0
LINE
  5
2C9
100
AcDbEntity
  8
SIZE
  6
CONTINUOUS
 62
    30
100
AcDbLine
 10
2161.430945
 20
557.316526
 30
0.0
 11
2161.430945
 21
0.000007
 31
0.0
  0
LINE
  5
2CA
100
AcDbEntity
  8
SIZE
  6
CONTINUOUS
 62
    30
100
AcDbLine
 10
2091.430945
 20
568.316526
 30
0.0
 11
2091.430945
 21
135.520107
 31
0.0
  0
TEXT
  5
2CB
100
AcDbEntity
  8
SIZE
  6
CONTINUOUS
 62
    30
100
AcDbText
 10
2027.609517
 20
45.000007
 30
0.0
 40
55.0
  1
171
 41
0.9
 72
     1
 11
2075.930945
 21
45.000007
 31
0.0
100
AcDbText
  0
LINE
  5
2CC
100
AcDbEntity
  8
SIZE
  6
CONTINUOUS
 62
    30
100
AcDbLine
 10
2000.430945
 20
30.000007
 30
0.0
 11
2151.430945
 21
30.000007
 31
0.0
  0
LINE
  5
2CD
100
AcDbEntity
  8
SIZE
  6
CONTINUOUS
 62
    30
100
AcDbLine
 10
1990.430945
 20
243.205535
 30
0.0
 11
1990.430945
 21
0.000007
 31
0.0
  0
LINE
  5
2CE
100
AcDbEntity
  8
SIZE
  6
CONTINUOUS
 62
    30
100
AcDbLine
 10
1990.430945
 20
243.205535
 30
0.0
 11
1990.430945
 21
135.520107
 31
0.0
  0
LINE
  5
2CF
100
AcDbEntity
  8
SIZE
  6
CONTINUOUS
 62
    30
100
AcDbLine
 10
1995.430945
 20
30.000007
 30
0.0
 11
2000.430945
 21
30.000007
 31
0.0
  0
CIRCLE
  5
2D0
100
AcDbEntity
  8
SIZE
  6
CONTINUOUS
 62
    30
100
AcDbCircle
 10
1990.430945
 20
30.000007
 30
0.0
 40
5.0
  0
TEXT
  5
2D1
100
AcDbEntity
  8
SIZE
  6
CONTINUOUS
 62
    30
100
AcDbText
 10
1868.788088
 20
180.520107
 30
0.0
 40
55.0
  1
101
 41
0.9
 72
     1
 11
1917.109516
 21
180.520107
 31
0.0
100
AcDbText
  0
LINE
  5
2D2
100
AcDbEntity
  8
SIZE
  6
CONTINUOUS
 62
    30
100
AcDbLine
 10
1990.430945
 20
165.520107
 30
0.0
 11
1853.788088
 21
165.520107
 31
0.0
  0
LINE
  5
2D3
100
AcDbEntity
  8
SIZE
  6
CONTINUOUS
 62
    30
100
AcDbLine
 10
1995.430945
 20
165.520107
 30
0.0
 11
2000.430945
 21
165.520107
 31
0.0
  0
POINT
  5
2D4
100
AcDbEntity
  8
DEFPOINTS
  6
CONTINUOUS
 62
     7
100
AcDbPoint
 10
1990.430945
 20
263.205535
 30
0.0
  0
POINT
  5
2D5
100
AcDbEntity
  8
DEFPOINTS
  6
CONTINUOUS
 62
     7
100
AcDbPoint
 10
1990.430945
 20
263.205535
 30
0.0
  0
CIRCLE
  5
2D6
100
AcDbEntity
  8
SIZE
  6
CONTINUOUS
 62
    30
100
AcDbCircle
 10
1990.430945
 20
165.520107
 30
0.0
 40
5.0
  0
POINT
  5
2D7
100
AcDbEntity
  8
DEFPOINTS
  6
CONTINUOUS
 62
     7
100
AcDbPoint
 10
2091.430945
 20
165.520107
 30
0.0
  0
LINE
  5
2D8
100
AcDbEntity
  8
SIZE
  6
CONTINUOUS
 62
    30
100
AcDbLine
 10
2086.430945
 20
165.520107
 30
0.0
 11
2081.430945
 21
165.520107
 31
0.0
  0
CIRCLE
  5
2D9
100
AcDbEntity
  8
SIZE
  6
CONTINUOUS
 62
    30
100
AcDbCircle
 10
2091.430945
 20
165.520107
 30
0.0
 40
5.0
  0
LINE
  5
2DA
100
AcDbEntity
  8
SIZE
  6
CONTINUOUS
 62
    30
100
AcDbLine
 10
2081.430945
 20
165.520107
 30
0.0
 11
2000.430945
 21
165.520107
 31
0.0
  0
POINT
  5
2DB
100
AcDbEntity
  8
DEFPOINTS
  6
CONTINUOUS
 62
     7
100
AcDbPoint
 10
2161.430945
 20
30.000007
 30
0.0
  0
LINE
  5
2DC
100
AcDbEntity
  8
SIZE
  6
CONTINUOUS
 62
    30
100
AcDbLine
 10
2156.430945
 20
30.000007
 30
0.0
 11
2151.430945
 21
30.000007
 31
0.0
  0
CIRCLE
  5
2DD
100
AcDbEntity
  8
SIZE
  6
CONTINUOUS
 62
    30
100
AcDbCircle
 10
2161.430945
 20
30.000007
 30
0.0
 40
5.0
  0
LINE
  5
2DE
100
AcDbEntity
  8
DETAIL
  6
CONTINUOUS
 62
     5
100
AcDbLine
 10
1810.37732
 20
493.747413
 30
0.0
 11
2170.48457
 21
493.747413
 31
0.0
  0
LINE
  5
2DF
100
AcDbEntity
  8
DETAIL
  6
CONTINUOUS
 62
     5
100
AcDbLine
 10
1750.359438
 20
486.145149
 30
0.0
 11
2230.502452
 21
486.145149
 31
0.0
  0
POINT
  5
2E0
100
AcDbEntity
  8
DEFPOINTS
  6
CONTINUOUS
 62
     7
100
AcDbPoint
 10
1685.430945
 20
564.316526
 30
0.0
  0
POINT
  5
2E1
100
AcDbEntity
  8
DEFPOINTS
  6
CONTINUOUS
 62
     7
100
AcDbPoint
 10
1685.430945
 20
564.316526
 30
0.0
  0
LINE
  5
2E2
100
AcDbEntity
  8
DETAIL
  6
CONTINUOUS
 62
     5
100
AcDbLine
 10
1691.599523
 20
501.528054
 30
0.0
 11
1691.544467
 21
502.093063
 31
0.0
  0
LINE
  5
2E3
100
AcDbEntity
  8
DETAIL
  6
CONTINUOUS
 62
     5
100
AcDbLine
 10
1701.080597
 20
494.147533
 30
0.0
 11
1720.006976
 21
494.147533
 31
0.0
  0
LINE
  5
2E4
100
AcDbEntity
  8
DETAIL
  6
CONTINUOUS
 62
     5
100
AcDbLine
 10
1701.080597
 20
494.147533
 30
0.0
 11
1700.313686
 21
494.244926
 31
0.0
  0
LINE
  5
2E5
100
AcDbEntity
  8
DETAIL
  6
CONTINUOUS
 62
     5
100
AcDbLine
 10
1700.313686
 20
494.244926
 30
0.0
 11
1699.621477
 21
494.504726
 31
0.0
  0
LINE
  5
2E6
100
AcDbEntity
  8
DETAIL
  6
CONTINUOUS
 62
     5
100
AcDbLine
 10
1699.621477
 20
494.504726
 30
0.0
 11
1698.999143
 21
494.888876
 31
0.0
  0
LINE
  5
2E7
100
AcDbEntity
  8
DETAIL
  6
CONTINUOUS
 62
     5
100
AcDbLine
 10
1698.999143
 20
494.888876
 30
0.0
 11
1698.441296
 21
495.370037
 31
0.0
  0
LINE
  5
2E8
100
AcDbEntity
  8
DETAIL
  6
CONTINUOUS
 62
     5
100
AcDbLine
 10
1698.441296
 20
495.370037
 30
0.0
 11
1697.942595
 21
495.928604
 31
0.0
  0
LINE
  5
2E9
100
AcDbEntity
  8
DETAIL
  6
CONTINUOUS
 62
     5
100
AcDbLine
 10
1697.942595
 20
495.928604
 30
0.0
 11
1697.49791
 21
496.551408
 31
0.0
  0
LINE
  5
2EA
100
AcDbEntity
  8
DETAIL
  6
CONTINUOUS
 62
     5
100
AcDbLine
 10
1697.49791
 20
496.551395
 30
0.0
 11
1696.0083
 21
497.281726
 31
0.0
  0
LINE
  5
2EB
100
AcDbEntity
  8
DETAIL
  6
CONTINUOUS
 62
     5
100
AcDbLine
 10
1696.0083
 20
497.281726
 30
0.0
 11
1694.700334
 21
498.047714
 31
0.0
  0
LINE
  5
2EC
100
AcDbEntity
  8
DETAIL
  6
CONTINUOUS
 62
     5
100
AcDbLine
 10
1693.570686
 20
498.837997
 30
0.0
 11
1692.613758
 21
499.646405
 31
0.0
  0
LINE
  5
2ED
100
AcDbEntity
  8
DETAIL
  6
CONTINUOUS
 62
     5
100
AcDbLine
 10
1692.613758
 20
499.646405
 30
0.0
 11
1692.362851
 21
499.907224
 31
0.0
  0
LINE
  5
2EE
100
AcDbEntity
  8
DETAIL
  6
CONTINUOUS
 62
     5
100
AcDbLine
 10
1692.362851
 20
499.907224
 30
0.0
 11
1692.120043
 21
500.22447
 31
0.0
  0
LINE
  5
2EF
100
AcDbEntity
  8
DETAIL
  6
CONTINUOUS
 62
     5
100
AcDbLine
 10
1692.120043
 20
500.22447
 30
0.0
 11
1691.901648
 21
500.599545
 31
0.0
  0
LINE
  5
2F0
100
AcDbEntity
  8
DETAIL
  6
CONTINUOUS
 62
     5
100
AcDbLine
 10
1691.901648
 20
500.599545
 30
0.0
 11
1691.723683
 21
501.032187
 31
0.0
  0
LINE
  5
2F1
100
AcDbEntity
  8
DETAIL
  6
CONTINUOUS
 62
     5
100
AcDbLine
 10
1691.723683
 20
501.032187
 30
0.0
 11
1691.599523
 21
501.528054
 31
0.0
  0
LINE
  5
2F2
100
AcDbEntity
  8
DETAIL
  6
CONTINUOUS
 62
     5
100
AcDbLine
 10
1691.544467
 20
502.093063
 30
0.0
 11
1691.543191
 21
502.19444
 31
0.0
  0
LINE
  5
2F3
100
AcDbEntity
  8
DETAIL
  6
CONTINUOUS
 62
     5
100
AcDbLine
 10
1694.700334
 20
498.047714
 30
0.0
 11
1693.570686
 21
498.837997
 31
0.0
  0
ARC
  5
2F4
100
AcDbEntity
  8
DETAIL
  6
CONTINUOUS
 62
     5
100
AcDbCircle
 10
1706.452103
 20
502.149916
 30
0.0
 40
13.003873
100
AcDbArc
 50
196.440194
 51
270.0
  0
LINE
  5
2F5
100
AcDbEntity
  8
DETAIL
  6
CONTINUOUS
 62
     5
100
AcDbLine
 10
1706.452103
 20
489.146043
 30
0.0
 11
1720.181205
 21
489.146043
 31
0.0
  0
ARC
  5
2F6
100
AcDbEntity
  8
DETAIL
  6
CONTINUOUS
 62
     5
100
AcDbCircle
 10
1720.181205
 20
495.14783
 30
0.0
 40
6.001787
100
AcDbArc
 50
270.0
 51
0.0
  0
LINE
  5
2F7
100
AcDbEntity
  8
DETAIL
  6
CONTINUOUS
 62
     5
100
AcDbLine
 10
1718.750031
 20
484.817742
 30
0.0
 11
1703.895606
 21
484.817742
 31
0.0
  0
POLYLINE
  5
2F8
100
AcDbEntity
  8
DETAIL
  6
CONTINUOUS
 62
     5
100
AcDb2dPolyline
 66
     1
 10
0.0
 20
0.0
 30
0.0
  0
VERTEX
  5
2F9
100
AcDbEntity
  8
DETAIL
  6
CONTINUOUS
 62
     5
100
AcDbVertex
100
AcDb2dVertex
 10
1703.895609
 20
484.817742
 30
0.0
  0
VERTEX
  5
2FA
100
AcDbEntity
  8
DETAIL
  6
CONTINUOUS
 62
     5
100
AcDbVertex
100
AcDb2dVertex
 10
1699.318616
 20
485.080646
 30
0.0
  0
VERTEX
  5
2FB
100
AcDbEntity
  8
DETAIL
  6
CONTINUOUS
 62
     5
100
AcDbVertex
100
AcDb2dVertex
 10
1694.880693
 20
485.86137
 30
0.0
  0
VERTEX
  5
2FC
100
AcDbEntity
  8
DETAIL
  6
CONTINUOUS
 62
     5
100
AcDbVertex
100
AcDb2dVertex
 10
1690.716683
 20
487.136192
 30
0.0
  0
VERTEX
  5
2FD
100
AcDbEntity
  8
DETAIL
  6
CONTINUOUS
 62
     5
100
AcDbVertex
100
AcDb2dVertex
 10
1686.953109
 20
488.866378
 30
0.0
  0
VERTEX
  5
2FE
100
AcDbEntity
  8
DETAIL
  6
CONTINUOUS
 62
     5
100
AcDbVertex
100
AcDb2dVertex
 10
1683.704323
 20
490.999357
 30
0.0
  0
VERTEX
  5
2FF
100
AcDbEntity
  8
DETAIL
  6
CONTINUOUS
 62
     5
100
AcDbVertex
100
AcDb2dVertex
 10
1681.06904
 20
493.470318
 30
0.0
  0
VERTEX
  5
300
100
AcDbEntity
  8
DETAIL
  6
CONTINUOUS
 62
     5
100
AcDbVertex
100
AcDb2dVertex
 10
1679.12733
 20
496.204184
 30
0.0
  0
VERTEX
  5
301
100
AcDbEntity
  8
DETAIL
  6
CONTINUOUS
 62
     5
100
AcDbVertex
100
AcDb2dVertex
 10
1677.938192
 20
499.117887
 30
0.0
  0
VERTEX
  5
302
100
AcDbEntity
  8
DETAIL
  6
CONTINUOUS
 62
     5
100
AcDbVertex
100
AcDb2dVertex
 10
1677.537757
 20
502.122896
 30
0.0
  0
SEQEND
  5
303
100
AcDbEntity
  8
DETAIL
  6
CONTINUOUS
 62
     5
  0
ARC
  5
304
100
AcDbEntity
  8
DETAIL
  6
CONTINUOUS
 62
     5
100
AcDbCircle
 10
1718.750031
 20
496.321168
 30
0.0
 40
11.503426
100
AcDbArc
 50
270.0
 51
0.0
  0
LINE
  5
305
100
AcDbEntity
  8
DETAIL
  6
CONTINUOUS
 62
     5
100
AcDbLine
 10
1744.11676
 20
488.332215
 30
0.0
 11
1743.691663
 21
488.691618
 31
0.0
  0
LINE
  5
306
100
AcDbEntity
  8
DETAIL
  6
CONTINUOUS
 62
     5
100
AcDbLine
 10
1743.691663
 20
488.691618
 30
0.0
 11
1743.286313
 21
489.075003
 31
0.0
  0
LINE
  5
307
100
AcDbEntity
  8
DETAIL
  6
CONTINUOUS
 62
     5
100
AcDbLine
 10
1743.286313
 20
489.075003
 30
0.0
 11
1742.902928
 21
489.480354
 31
0.0
  0
LINE
  5
308
100
AcDbEntity
  8
DETAIL
  6
CONTINUOUS
 62
     5
100
AcDbLine
 10
1742.902928
 20
489.480354
 30
0.0
 11
1742.543557
 21
489.905413
 31
0.0
  0
LINE
  5
309
100
AcDbEntity
  8
DETAIL
  6
CONTINUOUS
 62
     5
100
AcDbLine
 10
1750.359438
 20
486.145149
 30
0.0
 11
1749.698429
 21
486.16715
 31
0.0
  0
LINE
  5
30A
100
AcDbEntity
  8
DETAIL
  6
CONTINUOUS
 62
     5
100
AcDbLine
 10
1749.698429
 20
486.16715
 30
0.0
 11
1749.032041
 21
486.23393
 31
0.0
  0
LINE
  5
30B
100
AcDbEntity
  8
DETAIL
  6
CONTINUOUS
 62
     5
100
AcDbLine
 10
1749.032041
 20
486.23393
 30
0.0
 11
1748.365379
 21
486.346245
 31
0.0
  0
LINE
  5
30C
100
AcDbEntity
  8
DETAIL
  6
CONTINUOUS
 62
     5
100
AcDbLine
 10
1748.365379
 20
486.346245
 30
0.0
 11
1747.703674
 21
486.50429
 31
0.0
  0
LINE
  5
30D
100
AcDbEntity
  8
DETAIL
  6
CONTINUOUS
 62
     5
100
AcDbLine
 10
1747.703674
 20
486.50429
 30
0.0
 11
1747.052229
 21
486.707688
 31
0.0
  0
LINE
  5
30E
100
AcDbEntity
  8
DETAIL
  6
CONTINUOUS
 62
     5
100
AcDbLine
 10
1747.052229
 20
486.707688
 30
0.0
 11
1746.41626
 21
486.955304
 31
0.0
  0
LINE
  5
30F
100
AcDbEntity
  8
DETAIL
  6
CONTINUOUS
 62
     5
100
AcDbLine
 10
1746.41626
 20
486.955304
 30
0.0
 11
1745.800553
 21
487.244774
 31
0.0
  0
LINE
  5
310
100
AcDbEntity
  8
DETAIL
  6
CONTINUOUS
 62
     5
100
AcDbLine
 10
1745.800553
 20
487.244774
 30
0.0
 11
1745.209491
 21
487.573089
 31
0.0
  0
LINE
  5
311
100
AcDbEntity
  8
DETAIL
  6
CONTINUOUS
 62
     5
100
AcDbLine
 10
1745.209491
 20
487.573089
 30
0.0
 11
1744.647042
 21
487.936836
 31
0.0
  0
LINE
  5
312
100
AcDbEntity
  8
DETAIL
  6
CONTINUOUS
 62
     5
100
AcDbLine
 10
1744.647042
 20
487.936836
 30
0.0
 11
1744.11676
 21
488.332215
 31
0.0
  0
LINE
  5
313
100
AcDbEntity
  8
DETAIL
  6
CONTINUOUS
 62
     5
100
AcDbLine
 10
1742.543557
 20
489.905413
 30
0.0
 11
1742.148213
 21
490.435638
 31
0.0
  0
LINE
  5
314
100
AcDbEntity
  8
DETAIL
  6
CONTINUOUS
 62
     5
100
AcDbLine
 10
1742.148213
 20
490.435638
 30
0.0
 11
1741.784509
 21
490.998002
 31
0.0
  0
LINE
  5
315
100
AcDbEntity
  8
DETAIL
  6
CONTINUOUS
 62
     5
100
AcDbLine
 10
1741.784509
 20
490.998002
 30
0.0
 11
1741.456213
 21
491.588997
 31
0.0
  0
LINE
  5
316
100
AcDbEntity
  8
DETAIL
  6
CONTINUOUS
 62
     5
100
AcDbLine
 10
1741.456213
 20
491.588997
 30
0.0
 11
1741.166743
 21
492.204659
 31
0.0
  0
LINE
  5
317
100
AcDbEntity
  8
DETAIL
  6
CONTINUOUS
 62
     5
100
AcDbLine
 10
1741.166743
 20
492.204659
 30
0.0
 11
1740.919112
 21
492.840608
 31
0.0
  0
LINE
  5
318
100
AcDbEntity
  8
DETAIL
  6
CONTINUOUS
 62
     5
100
AcDbLine
 10
1740.919112
 20
492.840608
 30
0.0
 11
1740.715689
 21
493.49206
 31
0.0
  0
LINE
  5
319
100
AcDbEntity
  8
DETAIL
  6
CONTINUOUS
 62
     5
100
AcDbLine
 10
1740.715689
 20
493.49206
 30
0.0
 11
1740.557615
 21
494.153801
 31
0.0
  0
LINE
  5
31A
100
AcDbEntity
  8
DETAIL
  6
CONTINUOUS
 62
     5
100
AcDbLine
 10
1740.557615
 20
494.153801
 30
0.0
 11
1740.445274
 21
494.820528
 31
0.0
  0
LINE
  5
31B
100
AcDbEntity
  8
DETAIL
  6
CONTINUOUS
 62
     5
100
AcDbLine
 10
1740.445274
 20
494.820528
 30
0.0
 11
1740.378474
 21
495.487011
 31
0.0
  0
LINE
  5
31C
100
AcDbEntity
  8
DETAIL
  6
CONTINUOUS
 62
     5
100
AcDbLine
 10
1740.378474
 20
495.487011
 30
0.0
 11
1740.356466
 21
496.148116
 31
0.0
  0
CIRCLE
  5
31D
100
AcDbEntity
  8
FIX
  6
CONTINUOUS
 62
    11
100
AcDbCircle
 10
1703.430945
 20
564.316526
 30
0.0
 40
14.940051
  0
LINE
  5
31E
100
AcDbEntity
  8
NOTE
  6
CONTINUOUS
 62
     4
100
AcDbLine
 10
1721.430945
 20
564.316526
 30
0.0
 11
1685.430945
 21
564.316526
 31
0.0
  0
LINE
  5
31F
100
AcDbEntity
  8
NOTE
  6
CONTINUOUS
 62
     4
100
AcDbLine
 10
1703.430945
 20
582.316526
 30
0.0
 11
1703.430945
 21
546.316526
 31
0.0
  0
LINE
  5
320
100
AcDbEntity
  8
DETAIL
  6
CONTINUOUS
 62
     5
100
AcDbLine
 10
1866.894153
 20
486.145149
 30
0.0
 11
1866.894153
 21
493.747413
 31
0.0
  0
LINE
  5
321
100
AcDbEntity
  8
DETAIL
  6
CONTINUOUS
 62
     5
100
AcDbLine
 10
1870.895344
 20
486.145149
 30
0.0
 11
1870.895344
 21
493.747413
 31
0.0
  0
LINE
  5
322
100
AcDbEntity
  8
NOTE
  6
CONTINUOUS
 62
     4
100
AcDbLine
 10
2091.431196
 20
606.316576
 30
0.0
 11
2076.900564
 21
575.152327
 31
0.0
  0
LINE
  5
323
100
AcDbEntity
  8
NOTE
  6
CONTINUOUS
 62
     4
100
AcDbLine
 10
2091.431196
 20
606.316576
 30
0.0
 11
2063.265174
 21
586.592861
 31
0.0
  0
LINE
  5
324
100
AcDbEntity
  8
NOTE
  6
CONTINUOUS
 62
     4
100
AcDbLine
 10
2091.430945
 20
624.316526
 30
0.0
 11
2091.430945
 21
588.316526
 31
0.0
  0
POINT
  5
325
100
AcDbEntity
  8
DEFPOINTS
  6
CONTINUOUS
 62
     7
100
AcDbPoint
 10
2091.430945
 20
588.316526
 30
0.0
  0
POINT
  5
326
100
AcDbEntity
  8
DEFPOINTS
  6
CONTINUOUS
 62
     7
100
AcDbPoint
 10
2109.430945
 20
606.316526
 30
0.0
  0
LINE
  5
327
100
AcDbEntity
  8
NOTE
  6
CONTINUOUS
 62
     4
100
AcDbLine
 10
2109.430945
 20
606.316526
 30
0.0
 11
2073.430945
 21
606.316526
 31
0.0
  0
LINE
  5
328
100
AcDbEntity
  8
DETAIL
  6
CONTINUOUS
 62
     5
100
AcDbLine
 10
1810.37732
 20
755.681786
 30
0.0
 11
1782.368703
 21
755.681786
 31
0.0
  0
LINE
  5
329
100
AcDbEntity
  8
SIZE
  6
CONTINUOUS
 62
    30
100
AcDbLine
 10
2487.162948
 20
1051.316526
 30
0.0
 11
2487.162948
 21
616.316526
 31
0.0
  0
LINE
  5
32A
100
AcDbEntity
  8
SIZE
  6
CONTINUOUS
 62
    30
100
AcDbLine
 10
2129.430945
 20
606.316526
 30
0.0
 11
2517.162948
 21
606.316526
 31
0.0
  0
LINE
  5
32B
100
AcDbEntity
  8
NOTE
  6
CONTINUOUS
 62
     4
100
AcDbLine
 10
2161.430945
 20
613.316526
 30
0.0
 11
2161.430945
 21
577.316526
 31
0.0
  0
POINT
  5
32C
100
AcDbEntity
  8
DEFPOINTS
  6
CONTINUOUS
 62
     7
100
AcDbPoint
 10
2161.430945
 20
577.316526
 30
0.0
  0
POINT
  5
32D
100
AcDbEntity
  8
DEFPOINTS
  6
CONTINUOUS
 62
     7
100
AcDbPoint
 10
2179.430945
 20
595.316526
 30
0.0
  0
LINE
  5
32E
100
AcDbEntity
  8
DETAIL
  6
CONTINUOUS
 62
     5
100
AcDbLine
 10
2113.967737
 20
493.747413
 30
0.0
 11
2113.967737
 21
486.145149
 31
0.0
  0
LINE
  5
32F
100
AcDbEntity
  8
DETAIL
  6
CONTINUOUS
 62
     5
100
AcDbLine
 10
2109.966546
 20
493.747413
 30
0.0
 11
2109.966546
 21
486.145149
 31
0.0
  0
LINE
  5
330
100
AcDbEntity
  8
NOTE
  6
CONTINUOUS
 62
     4
100
AcDbLine
 10
2161.43175
 20
595.315568
 30
0.0
 11
2191.560471
 21
578.744212
 31
0.0
  0
LINE
  5
331
100
AcDbEntity
  8
NOTE
  6
CONTINUOUS
 62
     4
100
AcDbLine
 10
2161.43175
 20
595.315568
 30
0.0
 11
2179.238309
 21
565.899992
 31
0.0
  0
LINE
  5
332
100
AcDbEntity
  8
NOTE
  6
CONTINUOUS
 62
     4
100
AcDbLine
 10
2179.430945
 20
595.316526
 30
0.0
 11
2143.430945
 21
595.316526
 31
0.0
  0
LINE
  5
333
100
AcDbEntity
  8
DETAIL
  6
CONTINUOUS
 62
     5
100
AcDbLine
 10
2289.262367
 20
501.528054
 30
0.0
 11
2289.317423
 21
502.093063
 31
0.0
  0
LINE
  5
334
100
AcDbEntity
  8
DETAIL
  6
CONTINUOUS
 62
     5
100
AcDbLine
 10
2279.781293
 20
494.147533
 30
0.0
 11
2260.854914
 21
494.147533
 31
0.0
  0
LINE
  5
335
100
AcDbEntity
  8
DETAIL
  6
CONTINUOUS
 62
     5
100
AcDbLine
 10
2279.781293
 20
494.147533
 30
0.0
 11
2280.548204
 21
494.244926
 31
0.0
  0
LINE
  5
336
100
AcDbEntity
  8
DETAIL
  6
CONTINUOUS
 62
     5
100
AcDbLine
 10
2280.548204
 20
494.244926
 30
0.0
 11
2281.240413
 21
494.504726
 31
0.0
  0
LINE
  5
337
100
AcDbEntity
  8
DETAIL
  6
CONTINUOUS
 62
     5
100
AcDbLine
 10
2281.240413
 20
494.504726
 30
0.0
 11
2281.862747
 21
494.888876
 31
0.0
  0
LINE
  5
338
100
AcDbEntity
  8
DETAIL
  6
CONTINUOUS
 62
     5
100
AcDbLine
 10
2281.862747
 20
494.888876
 30
0.0
 11
2282.420594
 21
495.370037
 31
0.0
  0
LINE
  5
339
100
AcDbEntity
  8
DETAIL
  6
CONTINUOUS
 62
     5
100
AcDbLine
 10
2282.420594
 20
495.370037
 30
0.0
 11
2282.919295
 21
495.928604
 31
0.0
  0
LINE
  5
33A
100
AcDbEntity
  8
DETAIL
  6
CONTINUOUS
 62
     5
100
AcDbLine
 10
2282.919295
 20
495.928604
 30
0.0
 11
2283.36398
 21
496.551408
 31
0.0
  0
LINE
  5
33B
100
AcDbEntity
  8
DETAIL
  6
CONTINUOUS
 62
     5
100
AcDbLine
 10
2283.36398
 20
496.551395
 30
0.0
 11
2284.85359
 21
497.281726
 31
0.0
  0
LINE
  5
33C
100
AcDbEntity
  8
DETAIL
  6
CONTINUOUS
 62
     5
100
AcDbLine
 10
2284.85359
 20
497.281726
 30
0.0
 11
2286.161556
 21
498.047714
 31
0.0
  0
LINE
  5
33D
100
AcDbEntity
  8
DETAIL
  6
CONTINUOUS
 62
     5
100
AcDbLine
 10
2287.291204
 20
498.837997
 30
0.0
 11
2288.248132
 21
499.646405
 31
0.0
  0
LINE
  5
33E
100
AcDbEntity
  8
DETAIL
  6
CONTINUOUS
 62
     5
100
AcDbLine
 10
2288.248132
 20
499.646405
 30
0.0
 11
2288.499039
 21
499.907224
 31
0.0
  0
LINE
  5
33F
100
AcDbEntity
  8
DETAIL
  6
CONTINUOUS
 62
     5
100
AcDbLine
 10
2288.499039
 20
499.907224
 30
0.0
 11
2288.741847
 21
500.22447
 31
0.0
  0
LINE
  5
340
100
AcDbEntity
  8
DETAIL
  6
CONTINUOUS
 62
     5
100
AcDbLine
 10
2288.741847
 20
500.22447
 30
0.0
 11
2288.960242
 21
500.599545
 31
0.0
  0
LINE
  5
341
100
AcDbEntity
  8
DETAIL
  6
CONTINUOUS
 62
     5
100
AcDbLine
 10
2288.960242
 20
500.599545
 30
0.0
 11
2289.138207
 21
501.032187
 31
0.0
  0
LINE
  5
342
100
AcDbEntity
  8
DETAIL
  6
CONTINUOUS
 62
     5
100
AcDbLine
 10
2289.138207
 20
501.032187
 30
0.0
 11
2289.262367
 21
501.528054
 31
0.0
  0
LINE
  5
343
100
AcDbEntity
  8
DETAIL
  6
CONTINUOUS
 62
     5
100
AcDbLine
 10
2289.317423
 20
502.093063
 30
0.0
 11
2289.318699
 21
502.19444
 31
0.0
  0
LINE
  5
344
100
AcDbEntity
  8
DETAIL
  6
CONTINUOUS
 62
     5
100
AcDbLine
 10
2286.161556
 20
498.047714
 30
0.0
 11
2287.291204
 21
498.837997
 31
0.0
  0
ARC
  5
345
100
AcDbEntity
  8
DETAIL
  6
CONTINUOUS
 62
     5
100
AcDbCircle
 10
2274.409787
 20
502.149916
 30
0.0
 40
13.003873
100
AcDbArc
 50
270.0
 51
343.559806
  0
LINE
  5
346
100
AcDbEntity
  8
DETAIL
  6
CONTINUOUS
 62
     5
100
AcDbLine
 10
2274.409787
 20
489.146043
 30
0.0
 11
2260.680685
 21
489.146043
 31
0.0
  0
ARC
  5
347
100
AcDbEntity
  8
DETAIL
  6
CONTINUOUS
 62
     5
100
AcDbCircle
 10
2260.680685
 20
495.14783
 30
0.0
 40
6.001787
100
AcDbArc
 50
180.0
 51
270.0
  0
LINE
  5
348
100
AcDbEntity
  8
DETAIL
  6
CONTINUOUS
 62
     5
100
AcDbLine
 10
2262.111859
 20
484.817742
 30
0.0
 11
2276.966284
 21
484.817742
 31
0.0
  0
POLYLINE
  5
349
100
AcDbEntity
  8
DETAIL
  6
CONTINUOUS
 62
     5
100
AcDb2dPolyline
 66
     1
 10
0.0
 20
0.0
 30
0.0
  0
VERTEX
  5
34A
100
AcDbEntity
  8
DETAIL
  6
CONTINUOUS
 62
     5
100
AcDbVertex
100
AcDb2dVertex
 10
2276.966281
 20
484.817742
 30
0.0
  0
VERTEX
  5
34B
100
AcDbEntity
  8
DETAIL
  6
CONTINUOUS
 62
     5
100
AcDbVertex
100
AcDb2dVertex
 10
2281.543274
 20
485.080646
 30
0.0
  0
VERTEX
  5
34C
100
AcDbEntity
  8
DETAIL
  6
CONTINUOUS
 62
     5
100
AcDbVertex
100
AcDb2dVertex
 10
2285.981197
 20
485.86137
 30
0.0
  0
VERTEX
  5
34D
100
AcDbEntity
  8
DETAIL
  6
CONTINUOUS
 62
     5
100
AcDbVertex
100
AcDb2dVertex
 10
2290.145207
 20
487.136192
 30
0.0
  0
VERTEX
  5
34E
100
AcDbEntity
  8
DETAIL
  6
CONTINUOUS
 62
     5
100
AcDbVertex
100
AcDb2dVertex
 10
2293.908781
 20
488.866378
 30
0.0
  0
VERTEX
  5
34F
100
AcDbEntity
  8
DETAIL
  6
CONTINUOUS
 62
     5
100
AcDbVertex
100
AcDb2dVertex
 10
2297.157567
 20
490.999357
 30
0.0
  0
VERTEX
  5
350
100
AcDbEntity
  8
DETAIL
  6
CONTINUOUS
 62
     5
100
AcDbVertex
100
AcDb2dVertex
 10
2299.79285
 20
493.470318
 30
0.0
  0
VERTEX
  5
351
100
AcDbEntity
  8
DETAIL
  6
CONTINUOUS
 62
     5
100
AcDbVertex
100
AcDb2dVertex
 10
2301.73456
 20
496.204184
 30
0.0
  0
VERTEX
  5
352
100
AcDbEntity
  8
DETAIL
  6
CONTINUOUS
 62
     5
100
AcDbVertex
100
AcDb2dVertex
 10
2302.923698
 20
499.117887
 30
0.0
  0
VERTEX
  5
353
100
AcDbEntity
  8
DETAIL
  6
CONTINUOUS
 62
     5
100
AcDbVertex
100
AcDb2dVertex
 10
2303.324133
 20
502.122896
 30
0.0
  0
SEQEND
  5
354
100
AcDbEntity
  8
DETAIL
  6
CONTINUOUS
 62
     5
  0
ARC
  5
355
100
AcDbEntity
  8
DETAIL
  6
CONTINUOUS
 62
     5
100
AcDbCircle
 10
2262.111859
 20
496.321168
 30
0.0
 40
11.503426
100
AcDbArc
 50
180.0
 51
270.0
  0
LINE
  5
356
100
AcDbEntity
  8
DETAIL
  6
CONTINUOUS
 62
     5
100
AcDbLine
 10
2236.74513
 20
488.332215
 30
0.0
 11
2237.170227
 21
488.691618
 31
0.0
  0
LINE
  5
357
100
AcDbEntity
  8
DETAIL
  6
CONTINUOUS
 62
     5
100
AcDbLine
 10
2237.170227
 20
488.691618
 30
0.0
 11
2237.575577
 21
489.075003
 31
0.0
  0
LINE
  5
358
100
AcDbEntity
  8
DETAIL
  6
CONTINUOUS
 62
     5
100
AcDbLine
 10
2237.575577
 20
489.075003
 30
0.0
 11
2237.958962
 21
489.480354
 31
0.0
  0
LINE
  5
359
100
AcDbEntity
  8
DETAIL
  6
CONTINUOUS
 62
     5
100
AcDbLine
 10
2237.958962
 20
489.480354
 30
0.0
 11
2238.318333
 21
489.905413
 31
0.0
  0
LINE
  5
35A
100
AcDbEntity
  8
DETAIL
  6
CONTINUOUS
 62
     5
100
AcDbLine
 10
2233.158216
 20
486.50429
 30
0.0
 11
2233.809661
 21
486.707688
 31
0.0
  0
LINE
  5
35B
100
AcDbEntity
  8
DETAIL
  6
CONTINUOUS
 62
     5
100
AcDbLine
 10
2233.809661
 20
486.707688
 30
0.0
 11
2234.44563
 21
486.955304
 31
0.0
  0
LINE
  5
35C
100
AcDbEntity
  8
DETAIL
  6
CONTINUOUS
 62
     5
100
AcDbLine
 10
2234.44563
 20
486.955304
 30
0.0
 11
2235.061337
 21
487.244774
 31
0.0
  0
LINE
  5
35D
100
AcDbEntity
  8
DETAIL
  6
CONTINUOUS
 62
     5
100
AcDbLine
 10
2235.061337
 20
487.244774
 30
0.0
 11
2235.652399
 21
487.573089
 31
0.0
  0
LINE
  5
35E
100
AcDbEntity
  8
DETAIL
  6
CONTINUOUS
 62
     5
100
AcDbLine
 10
2235.652399
 20
487.573089
 30
0.0
 11
2236.214848
 21
487.936836
 31
0.0
  0
LINE
  5
35F
100
AcDbEntity
  8
DETAIL
  6
CONTINUOUS
 62
     5
100
AcDbLine
 10
2236.214848
 20
487.936836
 30
0.0
 11
2236.74513
 21
488.332215
 31
0.0
  0
LINE
  5
360
100
AcDbEntity
  8
DETAIL
  6
CONTINUOUS
 62
     5
100
AcDbLine
 10
2238.318333
 20
489.905413
 30
0.0
 11
2238.713677
 21
490.435638
 31
0.0
  0
LINE
  5
361
100
AcDbEntity
  8
DETAIL
  6
CONTINUOUS
 62
     5
100
AcDbLine
 10
2238.713677
 20
490.435638
 30
0.0
 11
2239.077381
 21
490.998002
 31
0.0
  0
LINE
  5
362
100
AcDbEntity
  8
DETAIL
  6
CONTINUOUS
 62
     5
100
AcDbLine
 10
2239.077381
 20
490.998002
 30
0.0
 11
2239.405677
 21
491.588997
 31
0.0
  0
LINE
  5
363
100
AcDbEntity
  8
DETAIL
  6
CONTINUOUS
 62
     5
100
AcDbLine
 10
2239.405677
 20
491.588997
 30
0.0
 11
2239.695147
 21
492.204659
 31
0.0
  0
LINE
  5
364
100
AcDbEntity
  8
DETAIL
  6
CONTINUOUS
 62
     5
100
AcDbLine
 10
2239.695147
 20
492.204659
 30
0.0
 11
2239.942778
 21
492.840608
 31
0.0
  0
LINE
  5
365
100
AcDbEntity
  8
DETAIL
  6
CONTINUOUS
 62
     5
100
AcDbLine
 10
2239.942778
 20
492.840608
 30
0.0
 11
2240.146201
 21
493.49206
 31
0.0
  0
LINE
  5
366
100
AcDbEntity
  8
DETAIL
  6
CONTINUOUS
 62
     5
100
AcDbLine
 10
2240.146201
 20
493.49206
 30
0.0
 11
2240.304275
 21
494.153801
 31
0.0
  0
LINE
  5
367
100
AcDbEntity
  8
DETAIL
  6
CONTINUOUS
 62
     5
100
AcDbLine
 10
2240.304275
 20
494.153801
 30
0.0
 11
2240.416616
 21
494.820528
 31
0.0
  0
LINE
  5
368
100
AcDbEntity
  8
DETAIL
  6
CONTINUOUS
 62
     5
100
AcDbLine
 10
2240.416616
 20
494.820528
 30
0.0
 11
2240.483416
 21
495.487011
 31
0.0
  0
LINE
  5
369
100
AcDbEntity
  8
DETAIL
  6
CONTINUOUS
 62
     5
100
AcDbLine
 10
2240.483416
 20
495.487011
 30
0.0
 11
2240.505424
 21
496.148116
 31
0.0
  0
LINE
  5
36A
100
AcDbEntity
  8
DETAIL
  6
CONTINUOUS
 62
     5
100
AcDbLine
 10
2230.502452
 20
486.145149
 30
0.0
 11
2231.163461
 21
486.16715
 31
0.0
  0
LINE
  5
36B
100
AcDbEntity
  8
DETAIL
  6
CONTINUOUS
 62
     5
100
AcDbLine
 10
2231.163461
 20
486.16715
 30
0.0
 11
2231.829849
 21
486.23393
 31
0.0
  0
LINE
  5
36C
100
AcDbEntity
  8
DETAIL
  6
CONTINUOUS
 62
     5
100
AcDbLine
 10
2231.829849
 20
486.23393
 30
0.0
 11
2232.496511
 21
486.346245
 31
0.0
  0
LINE
  5
36D
100
AcDbEntity
  8
DETAIL
  6
CONTINUOUS
 62
     5
100
AcDbLine
 10
2232.496511
 20
486.346245
 30
0.0
 11
2233.158216
 21
486.50429
 31
0.0
  0
LINE
  5
36E
100
AcDbEntity
  8
NOTE
  6
CONTINUOUS
 62
     4
100
AcDbLine
 10
2277.430945
 20
582.316526
 30
0.0
 11
2277.430945
 21
546.316526
 31
0.0
  0
CIRCLE
  5
36F
100
AcDbEntity
  8
FIX
  6
CONTINUOUS
 62
    11
100
AcDbCircle
 10
2277.430945
 20
563.304026
 30
0.0
 40
14.940051
  0
LINE
  5
370
100
AcDbEntity
  8
NOTE
  6
CONTINUOUS
 62
     4
100
AcDbLine
 10
2295.430945
 20
563.304026
 30
0.0
 11
2259.430945
 21
563.304026
 31
0.0
  0
LINE
  5
371
100
AcDbEntity
  8
NOTE
  6
CONTINUOUS
 62
     4
100
AcDbLine
 10
2277.430945
 20
581.304026
 30
0.0
 11
2277.430945
 21
545.304026
 31
0.0
  0
POINT
  5
372
100
AcDbEntity
  8
DEFPOINTS
  6
CONTINUOUS
 62
     7
100
AcDbPoint
 10
2487.162948
 20
606.316526
 30
0.0
  0
LINE
  5
373
100
AcDbEntity
  8
SIZE
  6
CONTINUOUS
 62
    30
100
AcDbLine
 10
2487.162948
 20
611.316526
 30
0.0
 11
2487.162948
 21
616.316526
 31
0.0
  0
CIRCLE
  5
374
100
AcDbEntity
  8
SIZE
  6
CONTINUOUS
 62
    30
100
AcDbCircle
 10
2487.162948
 20
606.316526
 30
0.0
 40
5.0
  0
LINE
  5
375
100
AcDbEntity
  8
DETAIL
  6
CONTINUOUS
 62
     5
100
AcDbLine
 10
2170.48457
 20
755.681786
 30
0.0
 11
2198.492911
 21
755.681786
 31
0.0
  0
TEXT
  5
376
100
AcDbEntity
  8
SIZE
  6
CONTINUOUS
 62
    30
100
AcDbText
 10
2472.162948
 20
770.173669
 30
0.0
 40
55.0
  1
455
 50
90.0
 41
0.9
 72
     1
 11
2472.162948
 21
833.816526
 31
0.0
100
AcDbText
  0
LINE
  5
377
100
AcDbEntity
  8
SIZE
  6
CONTINUOUS
 62
    30
100
AcDbLine
 10
2487.162948
 20
1056.316526
 30
0.0
 11
2487.162948
 21
1051.316526
 31
0.0
  0
LINE
  5
378
100
AcDbEntity
  8
NOTE
  6
CONTINUOUS
 62
     4
100
AcDbLine
 10
2667.055828
 20
108.164057
 30
0.0
 11
3067.591912
 21
108.164057
 31
0.0
  0
TEXT
  5
379
100
AcDbEntity
  8
NOTE
  6
CONTINUOUS
 62
     4
100
AcDbText
 10
2683.290705
 20
128.034645
 30
0.0
 40
64.0
  1
RG %%C12.7
 41
0.9
100
AcDbText
  0
LINE
  5
37A
100
AcDbEntity
  8
SIZE
  6
CONTINUOUS
 62
    30
100
AcDbLine
 10
2600.65432
 20
1051.316526
 30
0.0
 11
2600.65432
 21
605.316526
 31
0.0
  0
CIRCLE
  5
37B
100
AcDbEntity
  8
SIZE
  6
CONTINUOUS
 62
    30
100
AcDbCircle
 10
2600.65432
 20
595.316526
 30
0.0
 40
5.0
  0
POINT
  5
37C
100
AcDbEntity
  8
DEFPOINTS
  6
CONTINUOUS
 62
     7
100
AcDbPoint
 10
2600.65432
 20
595.316526
 30
0.0
  0
LINE
  5
37D
100
AcDbEntity
  8
SIZE
  6
CONTINUOUS
 62
    30
100
AcDbLine
 10
2600.65432
 20
600.316526
 30
0.0
 11
2600.65432
 21
605.316526
 31
0.0
  0
LINE
  5
37E
100
AcDbEntity
  8
SIZE
  6
CONTINUOUS
 62
    30
100
AcDbLine
 10
2600.65432
 20
1056.316526
 30
0.0
 11
2600.65432
 21
1051.316526
 31
0.0
  0
LINE
  5
37F
100
AcDbEntity
  8
SIZE
  6
CONTINUOUS
 62
    30
100
AcDbLine
 10
2391.451319
 20
1061.316526
 30
0.0
 11
2630.65432
 21
1061.316526
 31
0.0
  0
LINE
  5
380
100
AcDbEntity
  8
SIZE
  6
CONTINUOUS
 62
    30
100
AcDbLine
 10
2277.430945
 20
1596.316526
 30
0.0
 11
2277.430945
 21
2069.475841
 31
0.0
  0
LINE
  5
381
100
AcDbEntity
  8
SIZE
  6
CONTINUOUS
 62
    30
100
AcDbLine
 10
2277.430945
 20
1596.316526
 30
0.0
 11
2277.430945
 21
2069.475841
 31
0.0
  0
LINE
  5
382
100
AcDbEntity
  8
SIZE
  6
CONTINUOUS
 62
    30
100
AcDbLine
 10
1703.430945
 20
1596.316526
 30
0.0
 11
1703.430945
 21
2069.475841
 31
0.0
  0
LINE
  5
383
100
AcDbEntity
  8
SIZE
  6
CONTINUOUS
 62
    30
100
AcDbLine
 10
1703.430945
 20
1596.316526
 30
0.0
 11
1703.430945
 21
2069.475841
 31
0.0
  0
LINE
  5
384
100
AcDbEntity
  8
DETAIL
  6
CONTINUOUS
 62
     5
100
AcDbLine
 10
1810.37732
 20
1628.885487
 30
0.0
 11
2170.48457
 21
1628.885487
 31
0.0
  0
LINE
  5
385
100
AcDbEntity
  8
DETAIL
  6
CONTINUOUS
 62
     5
100
AcDbLine
 10
2230.502452
 20
1636.487751
 30
0.0
 11
1750.359438
 21
1636.487751
 31
0.0
  0
LINE
  5
386
100
AcDbEntity
  8
DETAIL
  6
CONTINUOUS
 62
     5
100
AcDbLine
 10
1810.37732
 20
1366.951114
 30
0.0
 11
1782.368703
 21
1366.951114
 31
0.0
  0
POINT
  5
387
100
AcDbEntity
  8
DEFPOINTS
  6
CONTINUOUS
 62
     7
100
AcDbPoint
 10
1703.430945
 20
1576.316526
 30
0.0
  0
POINT
  5
388
100
AcDbEntity
  8
DEFPOINTS
  6
CONTINUOUS
 62
     7
100
AcDbPoint
 10
1703.430945
 20
1576.316526
 30
0.0
  0
POINT
  5
389
100
AcDbEntity
  8
DEFPOINTS
  6
CONTINUOUS
 62
     7
100
AcDbPoint
 10
1685.430945
 20
1558.316526
 30
0.0
  0
POINT
  5
38A
100
AcDbEntity
  8
DEFPOINTS
  6
CONTINUOUS
 62
     7
100
AcDbPoint
 10
1685.430945
 20
1558.316526
 30
0.0
  0
LINE
  5
38B
100
AcDbEntity
  8
DETAIL
  6
CONTINUOUS
 62
     5
100
AcDbLine
 10
1706.452103
 20
1633.486857
 30
0.0
 11
1720.181205
 21
1633.486857
 31
0.0
  0
LINE
  5
38C
100
AcDbEntity
  8
DETAIL
  6
CONTINUOUS
 62
     5
100
AcDbLine
 10
1703.895606
 20
1637.815158
 30
0.0
 11
1718.750031
 21
1637.815158
 31
0.0
  0
LINE
  5
38D
100
AcDbEntity
  8
DETAIL
  6
CONTINUOUS
 62
     5
100
AcDbLine
 10
1700.313686
 20
1628.387974
 30
0.0
 11
1699.621477
 21
1628.128175
 31
0.0
  0
LINE
  5
38E
100
AcDbEntity
  8
DETAIL
  6
CONTINUOUS
 62
     5
100
AcDbLine
 10
1701.080597
 20
1628.485368
 30
0.0
 11
1700.313686
 21
1628.387974
 31
0.0
  0
LINE
  5
38F
100
AcDbEntity
  8
DETAIL
  6
CONTINUOUS
 62
     5
100
AcDbLine
 10
1701.080597
 20
1628.485368
 30
0.0
 11
1720.006976
 21
1628.485368
 31
0.0
  0
LINE
  5
390
100
AcDbEntity
  8
DETAIL
  6
CONTINUOUS
 62
     5
100
AcDbLine
 10
1691.599523
 20
1621.104846
 30
0.0
 11
1691.544467
 21
1620.539837
 31
0.0
  0
LINE
  5
391
100
AcDbEntity
  8
DETAIL
  6
CONTINUOUS
 62
     5
100
AcDbLine
 10
1691.723683
 20
1621.600713
 30
0.0
 11
1691.599523
 21
1621.104846
 31
0.0
  0
LINE
  5
392
100
AcDbEntity
  8
DETAIL
  6
CONTINUOUS
 62
     5
100
AcDbLine
 10
1691.901648
 20
1622.033355
 30
0.0
 11
1691.723683
 21
1621.600713
 31
0.0
  0
LINE
  5
393
100
AcDbEntity
  8
DETAIL
  6
CONTINUOUS
 62
     5
100
AcDbLine
 10
1698.441296
 20
1627.262863
 30
0.0
 11
1697.942595
 21
1626.704296
 31
0.0
  0
LINE
  5
394
100
AcDbEntity
  8
DETAIL
  6
CONTINUOUS
 62
     5
100
AcDbLine
 10
1698.999143
 20
1627.744024
 30
0.0
 11
1698.441296
 21
1627.262863
 31
0.0
  0
LINE
  5
395
100
AcDbEntity
  8
DETAIL
  6
CONTINUOUS
 62
     5
100
AcDbLine
 10
1699.621477
 20
1628.128175
 30
0.0
 11
1698.999143
 21
1627.744024
 31
0.0
  0
LINE
  5
396
100
AcDbEntity
  8
DETAIL
  6
CONTINUOUS
 62
     5
100
AcDbLine
 10
1697.49791
 20
1626.081505
 30
0.0
 11
1696.0083
 21
1625.351174
 31
0.0
  0
LINE
  5
397
100
AcDbEntity
  8
DETAIL
  6
CONTINUOUS
 62
     5
100
AcDbLine
 10
1697.942595
 20
1626.704296
 30
0.0
 11
1697.49791
 21
1626.081492
 31
0.0
  0
LINE
  5
398
100
AcDbEntity
  8
DETAIL
  6
CONTINUOUS
 62
     5
100
AcDbLine
 10
1696.0083
 20
1625.351174
 30
0.0
 11
1694.700334
 21
1624.585186
 31
0.0
  0
LINE
  5
399
100
AcDbEntity
  8
DETAIL
  6
CONTINUOUS
 62
     5
100
AcDbLine
 10
1692.120043
 20
1622.40843
 30
0.0
 11
1691.901648
 21
1622.033355
 31
0.0
  0
LINE
  5
39A
100
AcDbEntity
  8
DETAIL
  6
CONTINUOUS
 62
     5
100
AcDbLine
 10
1692.362851
 20
1622.725676
 30
0.0
 11
1692.120043
 21
1622.40843
 31
0.0
  0
LINE
  5
39B
100
AcDbEntity
  8
DETAIL
  6
CONTINUOUS
 62
     5
100
AcDbLine
 10
1692.613758
 20
1622.986495
 30
0.0
 11
1692.362851
 21
1622.725676
 31
0.0
  0
LINE
  5
39C
100
AcDbEntity
  8
DETAIL
  6
CONTINUOUS
 62
     5
100
AcDbLine
 10
1693.570686
 20
1623.794904
 30
0.0
 11
1692.613758
 21
1622.986495
 31
0.0
  0
LINE
  5
39D
100
AcDbEntity
  8
DETAIL
  6
CONTINUOUS
 62
     5
100
AcDbLine
 10
1694.700334
 20
1624.585186
 30
0.0
 11
1693.570686
 21
1623.794904
 31
0.0
  0
ARC
  5
39E
100
AcDbEntity
  8
DETAIL
  6
CONTINUOUS
 62
     5
100
AcDbCircle
 10
1706.452103
 20
1620.482984
 30
0.0
 40
13.003873
100
AcDbArc
 50
90.0
 51
163.698304
  0
ARC
  5
39F
100
AcDbEntity
  8
DETAIL
  6
CONTINUOUS
 62
     5
100
AcDbCircle
 10
1720.181205
 20
1627.48507
 30
0.0
 40
6.001787
100
AcDbArc
 50
0.0
 51
90.0
  0
ARC
  5
3A0
100
AcDbEntity
  8
DETAIL
  6
CONTINUOUS
 62
     5
100
AcDbCircle
 10
1718.750031
 20
1626.311732
 30
0.0
 40
11.503426
100
AcDbArc
 50
0.0
 51
90.0
  0
POLYLINE
  5
3A1
100
AcDbEntity
  8
DETAIL
  6
CONTINUOUS
 62
     5
100
AcDb2dPolyline
 66
     1
 10
0.0
 20
0.0
 30
0.0
  0
VERTEX
  5
3A2
100
AcDbEntity
  8
DETAIL
  6
CONTINUOUS
 62
     5
100
AcDbVertex
100
AcDb2dVertex
 10
1677.537757
 20
1620.510004
 30
0.0
  0
VERTEX
  5
3A3
100
AcDbEntity
  8
DETAIL
  6
CONTINUOUS
 62
     5
100
AcDbVertex
100
AcDb2dVertex
 10
1677.938192
 20
1623.515013
 30
0.0
  0
VERTEX
  5
3A4
100
AcDbEntity
  8
DETAIL
  6
CONTINUOUS
 62
     5
100
AcDbVertex
100
AcDb2dVertex
 10
1679.12733
 20
1626.428716
 30
0.0
  0
VERTEX
  5
3A5
100
AcDbEntity
  8
DETAIL
  6
CONTINUOUS
 62
     5
100
AcDbVertex
100
AcDb2dVertex
 10
1681.06904
 20
1629.162582
 30
0.0
  0
VERTEX
  5
3A6
100
AcDbEntity
  8
DETAIL
  6
CONTINUOUS
 62
     5
100
AcDbVertex
100
AcDb2dVertex
 10
1683.704323
 20
1631.633543
 30
0.0
  0
VERTEX
  5
3A7
100
AcDbEntity
  8
DETAIL
  6
CONTINUOUS
 62
     5
100
AcDbVertex
100
AcDb2dVertex
 10
1686.953108
 20
1633.766522
 30
0.0
  0
VERTEX
  5
3A8
100
AcDbEntity
  8
DETAIL
  6
CONTINUOUS
 62
     5
100
AcDbVertex
100
AcDb2dVertex
 10
1690.716683
 20
1635.496708
 30
0.0
  0
VERTEX
  5
3A9
100
AcDbEntity
  8
DETAIL
  6
CONTINUOUS
 62
     5
100
AcDbVertex
100
AcDb2dVertex
 10
1694.880693
 20
1636.77153
 30
0.0
  0
VERTEX
  5
3AA
100
AcDbEntity
  8
DETAIL
  6
CONTINUOUS
 62
     5
100
AcDbVertex
100
AcDb2dVertex
 10
1699.318616
 20
1637.552254
 30
0.0
  0
VERTEX
  5
3AB
100
AcDbEntity
  8
DETAIL
  6
CONTINUOUS
 62
     5
100
AcDbVertex
100
AcDb2dVertex
 10
1703.895608
 20
1637.815158
 30
0.0
  0
SEQEND
  5
3AC
100
AcDbEntity
  8
DETAIL
  6
CONTINUOUS
 62
     5
  0
LINE
  5
3AD
100
AcDbEntity
  8
DETAIL
  6
CONTINUOUS
 62
     5
100
AcDbLine
 10
1744.11676
 20
1634.300685
 30
0.0
 11
1743.691663
 21
1633.941283
 31
0.0
  0
LINE
  5
3AE
100
AcDbEntity
  8
DETAIL
  6
CONTINUOUS
 62
     5
100
AcDbLine
 10
1743.691663
 20
1633.941283
 30
0.0
 11
1743.286313
 21
1633.557897
 31
0.0
  0
LINE
  5
3AF
100
AcDbEntity
  8
DETAIL
  6
CONTINUOUS
 62
     5
100
AcDbLine
 10
1742.543557
 20
1632.727487
 30
0.0
 11
1742.148213
 21
1632.197262
 31
0.0
  0
LINE
  5
3B0
100
AcDbEntity
  8
DETAIL
  6
CONTINUOUS
 62
     5
100
AcDbLine
 10
1742.148213
 20
1632.197262
 30
0.0
 11
1741.784509
 21
1631.634898
 31
0.0
  0
LINE
  5
3B1
100
AcDbEntity
  8
DETAIL
  6
CONTINUOUS
 62
     5
100
AcDbLine
 10
1743.286313
 20
1633.557897
 30
0.0
 11
1742.902928
 21
1633.152546
 31
0.0
  0
LINE
  5
3B2
100
AcDbEntity
  8
DETAIL
  6
CONTINUOUS
 62
     5
100
AcDbLine
 10
1742.902928
 20
1633.152546
 30
0.0
 11
1742.543557
 21
1632.727487
 31
0.0
  0
LINE
  5
3B3
100
AcDbEntity
  8
DETAIL
  6
CONTINUOUS
 62
     5
100
AcDbLine
 10
1750.359438
 20
1636.487751
 30
0.0
 11
1749.698429
 21
1636.46575
 31
0.0
  0
LINE
  5
3B4
100
AcDbEntity
  8
DETAIL
  6
CONTINUOUS
 62
     5
100
AcDbLine
 10
1749.698429
 20
1636.46575
 30
0.0
 11
1749.032041
 21
1636.39897
 31
0.0
  0
LINE
  5
3B5
100
AcDbEntity
  8
DETAIL
  6
CONTINUOUS
 62
     5
100
AcDbLine
 10
1749.032041
 20
1636.39897
 30
0.0
 11
1748.365379
 21
1636.286655
 31
0.0
  0
LINE
  5
3B6
100
AcDbEntity
  8
DETAIL
  6
CONTINUOUS
 62
     5
100
AcDbLine
 10
1748.365379
 20
1636.286655
 30
0.0
 11
1747.703674
 21
1636.12861
 31
0.0
  0
LINE
  5
3B7
100
AcDbEntity
  8
DETAIL
  6
CONTINUOUS
 62
     5
100
AcDbLine
 10
1747.703674
 20
1636.12861
 30
0.0
 11
1747.052229
 21
1635.925212
 31
0.0
  0
LINE
  5
3B8
100
AcDbEntity
  8
DETAIL
  6
CONTINUOUS
 62
     5
100
AcDbLine
 10
1747.052229
 20
1635.925212
 30
0.0
 11
1746.41626
 21
1635.677597
 31
0.0
  0
LINE
  5
3B9
100
AcDbEntity
  8
DETAIL
  6
CONTINUOUS
 62
     5
100
AcDbLine
 10
1746.41626
 20
1635.677597
 30
0.0
 11
1745.800553
 21
1635.388126
 31
0.0
  0
LINE
  5
3BA
100
AcDbEntity
  8
DETAIL
  6
CONTINUOUS
 62
     5
100
AcDbLine
 10
1745.800553
 20
1635.388126
 30
0.0
 11
1745.209491
 21
1635.059811
 31
0.0
  0
LINE
  5
3BB
100
AcDbEntity
  8
DETAIL
  6
CONTINUOUS
 62
     5
100
AcDbLine
 10
1745.209491
 20
1635.059811
 30
0.0
 11
1744.647042
 21
1634.696064
 31
0.0
  0
LINE
  5
3BC
100
AcDbEntity
  8
DETAIL
  6
CONTINUOUS
 62
     5
100
AcDbLine
 10
1744.647042
 20
1634.696064
 30
0.0
 11
1744.11676
 21
1634.300685
 31
0.0
  0
LINE
  5
3BD
100
AcDbEntity
  8
DETAIL
  6
CONTINUOUS
 62
     5
100
AcDbLine
 10
1741.456213
 20
1631.043903
 30
0.0
 11
1741.166743
 21
1630.428241
 31
0.0
  0
LINE
  5
3BE
100
AcDbEntity
  8
DETAIL
  6
CONTINUOUS
 62
     5
100
AcDbLine
 10
1741.166743
 20
1630.428241
 30
0.0
 11
1740.919112
 21
1629.792292
 31
0.0
  0
LINE
  5
3BF
100
AcDbEntity
  8
DETAIL
  6
CONTINUOUS
 62
     5
100
AcDbLine
 10
1740.919112
 20
1629.792292
 30
0.0
 11
1740.715689
 21
1629.14084
 31
0.0
  0
LINE
  5
3C0
100
AcDbEntity
  8
DETAIL
  6
CONTINUOUS
 62
     5
100
AcDbLine
 10
1740.715689
 20
1629.14084
 30
0.0
 11
1740.557615
 21
1628.479099
 31
0.0
  0
LINE
  5
3C1
100
AcDbEntity
  8
DETAIL
  6
CONTINUOUS
 62
     5
100
AcDbLine
 10
1740.557615
 20
1628.479099
 30
0.0
 11
1740.445274
 21
1627.812372
 31
0.0
  0
LINE
  5
3C2
100
AcDbEntity
  8
DETAIL
  6
CONTINUOUS
 62
     5
100
AcDbLine
 10
1740.445274
 20
1627.812372
 30
0.0
 11
1740.378474
 21
1627.14589
 31
0.0
  0
LINE
  5
3C3
100
AcDbEntity
  8
DETAIL
  6
CONTINUOUS
 62
     5
100
AcDbLine
 10
1740.378474
 20
1627.14589
 30
0.0
 11
1740.356466
 21
1626.484784
 31
0.0
  0
LINE
  5
3C4
100
AcDbEntity
  8
DETAIL
  6
CONTINUOUS
 62
     5
100
AcDbLine
 10
1741.784509
 20
1631.634898
 30
0.0
 11
1741.456213
 21
1631.043903
 31
0.0
  0
CIRCLE
  5
3C5
100
AcDbEntity
  8
FIX
  6
CONTINUOUS
 62
    11
100
AcDbCircle
 10
1703.430945
 20
1558.316526
 30
0.0
 40
14.940051
  0
LINE
  5
3C6
100
AcDbEntity
  8
NOTE
  6
CONTINUOUS
 62
     4
100
AcDbLine
 10
1721.430945
 20
1558.316526
 30
0.0
 11
1685.430945
 21
1558.316526
 31
0.0
  0
LINE
  5
3C7
100
AcDbEntity
  8
NOTE
  6
CONTINUOUS
 62
     4
100
AcDbLine
 10
1703.430945
 20
1576.316526
 30
0.0
 11
1703.430945
 21
1540.316526
 31
0.0
  0
LINE
  5
3C8
100
AcDbEntity
  8
NOTE
  6
CONTINUOUS
 62
     4
100
AcDbLine
 10
1703.430569
 20
1558.317724
 30
0.0
 11
1681.89653
 21
1585.125089
 31
0.0
  0
LINE
  5
3C9
100
AcDbEntity
  8
NOTE
  6
CONTINUOUS
 62
     4
100
AcDbLine
 10
1703.430569
 20
1558.317724
 30
0.0
 11
1698.185228
 21
1592.300603
 31
0.0
  0
LINE
  5
3CA
100
AcDbEntity
  8
DETAIL
  6
CONTINUOUS
 62
     5
100
AcDbLine
 10
1866.894153
 20
1636.487751
 30
0.0
 11
1866.894153
 21
1628.885487
 31
0.0
  0
LINE
  5
3CB
100
AcDbEntity
  8
DETAIL
  6
CONTINUOUS
 62
     5
100
AcDbLine
 10
1870.895344
 20
1636.487751
 30
0.0
 11
1870.895344
 21
1628.885487
 31
0.0
  0
LINE
  5
3CC
100
AcDbEntity
  8
SIZE
  6
CONTINUOUS
 62
    30
100
AcDbLine
 10
2391.451319
 20
1061.316526
 30
0.0
 11
2517.162948
 21
1061.316526
 31
0.0
  0
POINT
  5
3CD
100
AcDbEntity
  8
DEFPOINTS
  6
CONTINUOUS
 62
     7
100
AcDbPoint
 10
2371.451319
 20
1061.316526
 30
0.0
  0
POINT
  5
3CE
100
AcDbEntity
  8
DEFPOINTS
  6
CONTINUOUS
 62
     7
100
AcDbPoint
 10
2371.451319
 20
1061.316526
 30
0.0
  0
LINE
  5
3CF
100
AcDbEntity
  8
DETAIL
  6
CONTINUOUS
 62
     5
100
AcDbLine
 10
2170.48457
 20
1401.951114
 30
0.0
 11
2198.492911
 21
1401.951114
 31
0.0
  0
LINE
  5
3D0
100
AcDbEntity
  8
DETAIL
  6
CONTINUOUS
 62
     5
100
AcDbLine
 10
2113.967737
 20
1628.885487
 30
0.0
 11
2113.967737
 21
1636.487751
 31
0.0
  0
LINE
  5
3D1
100
AcDbEntity
  8
DETAIL
  6
CONTINUOUS
 62
     5
100
AcDbLine
 10
2109.966546
 20
1628.885487
 30
0.0
 11
2109.966546
 21
1636.487751
 31
0.0
  0
POINT
  5
3D2
100
AcDbEntity
  8
DEFPOINTS
  6
CONTINUOUS
 62
     7
100
AcDbPoint
 10
2277.430945
 20
1576.316526
 30
0.0
  0
POINT
  5
3D3
100
AcDbEntity
  8
DEFPOINTS
  6
CONTINUOUS
 62
     7
100
AcDbPoint
 10
2277.430945
 20
1576.316526
 30
0.0
  0
LINE
  5
3D4
100
AcDbEntity
  8
DETAIL
  6
CONTINUOUS
 62
     5
100
AcDbLine
 10
2274.409787
 20
1633.486857
 30
0.0
 11
2260.680685
 21
1633.486857
 31
0.0
  0
LINE
  5
3D5
100
AcDbEntity
  8
DETAIL
  6
CONTINUOUS
 62
     5
100
AcDbLine
 10
2276.966284
 20
1637.815158
 30
0.0
 11
2262.111859
 21
1637.815158
 31
0.0
  0
LINE
  5
3D6
100
AcDbEntity
  8
DETAIL
  6
CONTINUOUS
 62
     5
100
AcDbLine
 10
2235.652399
 20
1635.059811
 30
0.0
 11
2236.214848
 21
1634.696064
 31
0.0
  0
LINE
  5
3D7
100
AcDbEntity
  8
DETAIL
  6
CONTINUOUS
 62
     5
100
AcDbLine
 10
2236.214848
 20
1634.696064
 30
0.0
 11
2236.74513
 21
1634.300685
 31
0.0
  0
LINE
  5
3D8
100
AcDbEntity
  8
DETAIL
  6
CONTINUOUS
 62
     5
100
AcDbLine
 10
2238.318333
 20
1632.727487
 30
0.0
 11
2238.713677
 21
1632.197262
 31
0.0
  0
LINE
  5
3D9
100
AcDbEntity
  8
DETAIL
  6
CONTINUOUS
 62
     5
100
AcDbLine
 10
2238.713677
 20
1632.197262
 30
0.0
 11
2239.077381
 21
1631.634898
 31
0.0
  0
LINE
  5
3DA
100
AcDbEntity
  8
DETAIL
  6
CONTINUOUS
 62
     5
100
AcDbLine
 10
2236.74513
 20
1634.300685
 30
0.0
 11
2237.170227
 21
1633.941283
 31
0.0
  0
LINE
  5
3DB
100
AcDbEntity
  8
DETAIL
  6
CONTINUOUS
 62
     5
100
AcDbLine
 10
2237.170227
 20
1633.941283
 30
0.0
 11
2237.575577
 21
1633.557897
 31
0.0
  0
LINE
  5
3DC
100
AcDbEntity
  8
DETAIL
  6
CONTINUOUS
 62
     5
100
AcDbLine
 10
2237.575577
 20
1633.557897
 30
0.0
 11
2237.958962
 21
1633.152546
 31
0.0
  0
LINE
  5
3DD
100
AcDbEntity
  8
DETAIL
  6
CONTINUOUS
 62
     5
100
AcDbLine
 10
2237.958962
 20
1633.152546
 30
0.0
 11
2238.318333
 21
1632.727487
 31
0.0
  0
LINE
  5
3DE
100
AcDbEntity
  8
DETAIL
  6
CONTINUOUS
 62
     5
100
AcDbLine
 10
2230.502452
 20
1636.487751
 30
0.0
 11
2231.163461
 21
1636.46575
 31
0.0
  0
LINE
  5
3DF
100
AcDbEntity
  8
DETAIL
  6
CONTINUOUS
 62
     5
100
AcDbLine
 10
2231.163461
 20
1636.46575
 30
0.0
 11
2231.829849
 21
1636.39897
 31
0.0
  0
LINE
  5
3E0
100
AcDbEntity
  8
DETAIL
  6
CONTINUOUS
 62
     5
100
AcDbLine
 10
2231.829849
 20
1636.39897
 30
0.0
 11
2232.496511
 21
1636.286655
 31
0.0
  0
LINE
  5
3E1
100
AcDbEntity
  8
DETAIL
  6
CONTINUOUS
 62
     5
100
AcDbLine
 10
2232.496511
 20
1636.286655
 30
0.0
 11
2233.158216
 21
1636.12861
 31
0.0
  0
LINE
  5
3E2
100
AcDbEntity
  8
DETAIL
  6
CONTINUOUS
 62
     5
100
AcDbLine
 10
2233.158216
 20
1636.12861
 30
0.0
 11
2233.809661
 21
1635.925212
 31
0.0
  0
LINE
  5
3E3
100
AcDbEntity
  8
DETAIL
  6
CONTINUOUS
 62
     5
100
AcDbLine
 10
2233.809661
 20
1635.925212
 30
0.0
 11
2234.44563
 21
1635.677597
 31
0.0
  0
LINE
  5
3E4
100
AcDbEntity
  8
DETAIL
  6
CONTINUOUS
 62
     5
100
AcDbLine
 10
2234.44563
 20
1635.677597
 30
0.0
 11
2235.061337
 21
1635.388126
 31
0.0
  0
LINE
  5
3E5
100
AcDbEntity
  8
DETAIL
  6
CONTINUOUS
 62
     5
100
AcDbLine
 10
2235.061337
 20
1635.388126
 30
0.0
 11
2235.652399
 21
1635.059811
 31
0.0
  0
LINE
  5
3E6
100
AcDbEntity
  8
DETAIL
  6
CONTINUOUS
 62
     5
100
AcDbLine
 10
2280.548204
 20
1628.387974
 30
0.0
 11
2281.240413
 21
1628.128175
 31
0.0
  0
LINE
  5
3E7
100
AcDbEntity
  8
DETAIL
  6
CONTINUOUS
 62
     5
100
AcDbLine
 10
2279.781293
 20
1628.485368
 30
0.0
 11
2280.548204
 21
1628.387974
 31
0.0
  0
LINE
  5
3E8
100
AcDbEntity
  8
DETAIL
  6
CONTINUOUS
 62
     5
100
AcDbLine
 10
2279.781293
 20
1628.485368
 30
0.0
 11
2260.854914
 21
1628.485368
 31
0.0
  0
LINE
  5
3E9
100
AcDbEntity
  8
DETAIL
  6
CONTINUOUS
 62
     5
100
AcDbLine
 10
2289.262367
 20
1621.104846
 30
0.0
 11
2289.317423
 21
1620.539837
 31
0.0
  0
LINE
  5
3EA
100
AcDbEntity
  8
DETAIL
  6
CONTINUOUS
 62
     5
100
AcDbLine
 10
2289.138207
 20
1621.600713
 30
0.0
 11
2289.262367
 21
1621.104846
 31
0.0
  0
LINE
  5
3EB
100
AcDbEntity
  8
DETAIL
  6
CONTINUOUS
 62
     5
100
AcDbLine
 10
2288.960242
 20
1622.033355
 30
0.0
 11
2289.138207
 21
1621.600713
 31
0.0
  0
LINE
  5
3EC
100
AcDbEntity
  8
DETAIL
  6
CONTINUOUS
 62
     5
100
AcDbLine
 10
2282.420594
 20
1627.262863
 30
0.0
 11
2282.919295
 21
1626.704296
 31
0.0
  0
LINE
  5
3ED
100
AcDbEntity
  8
DETAIL
  6
CONTINUOUS
 62
     5
100
AcDbLine
 10
2281.862747
 20
1627.744024
 30
0.0
 11
2282.420594
 21
1627.262863
 31
0.0
  0
LINE
  5
3EE
100
AcDbEntity
  8
DETAIL
  6
CONTINUOUS
 62
     5
100
AcDbLine
 10
2281.240413
 20
1628.128175
 30
0.0
 11
2281.862747
 21
1627.744024
 31
0.0
  0
LINE
  5
3EF
100
AcDbEntity
  8
DETAIL
  6
CONTINUOUS
 62
     5
100
AcDbLine
 10
2283.36398
 20
1626.081505
 30
0.0
 11
2284.85359
 21
1625.351174
 31
0.0
  0
LINE
  5
3F0
100
AcDbEntity
  8
DETAIL
  6
CONTINUOUS
 62
     5
100
AcDbLine
 10
2282.919295
 20
1626.704296
 30
0.0
 11
2283.36398
 21
1626.081492
 31
0.0
  0
LINE
  5
3F1
100
AcDbEntity
  8
DETAIL
  6
CONTINUOUS
 62
     5
100
AcDbLine
 10
2284.85359
 20
1625.351174
 30
0.0
 11
2286.161556
 21
1624.585186
 31
0.0
  0
LINE
  5
3F2
100
AcDbEntity
  8
DETAIL
  6
CONTINUOUS
 62
     5
100
AcDbLine
 10
2288.741847
 20
1622.40843
 30
0.0
 11
2288.960242
 21
1622.033355
 31
0.0
  0
LINE
  5
3F3
100
AcDbEntity
  8
DETAIL
  6
CONTINUOUS
 62
     5
100
AcDbLine
 10
2288.499039
 20
1622.725676
 30
0.0
 11
2288.741847
 21
1622.40843
 31
0.0
  0
LINE
  5
3F4
100
AcDbEntity
  8
DETAIL
  6
CONTINUOUS
 62
     5
100
AcDbLine
 10
2288.248132
 20
1622.986495
 30
0.0
 11
2288.499039
 21
1622.725676
 31
0.0
  0
LINE
  5
3F5
100
AcDbEntity
  8
DETAIL
  6
CONTINUOUS
 62
     5
100
AcDbLine
 10
2287.291204
 20
1623.794904
 30
0.0
 11
2288.248132
 21
1622.986495
 31
0.0
  0
LINE
  5
3F6
100
AcDbEntity
  8
DETAIL
  6
CONTINUOUS
 62
     5
100
AcDbLine
 10
2286.161556
 20
1624.585186
 30
0.0
 11
2287.291204
 21
1623.794904
 31
0.0
  0
LINE
  5
3F7
100
AcDbEntity
  8
DETAIL
  6
CONTINUOUS
 62
     5
100
AcDbLine
 10
2239.405677
 20
1631.043903
 30
0.0
 11
2239.695147
 21
1630.428241
 31
0.0
  0
LINE
  5
3F8
100
AcDbEntity
  8
DETAIL
  6
CONTINUOUS
 62
     5
100
AcDbLine
 10
2239.695147
 20
1630.428241
 30
0.0
 11
2239.942778
 21
1629.792292
 31
0.0
  0
LINE
  5
3F9
100
AcDbEntity
  8
DETAIL
  6
CONTINUOUS
 62
     5
100
AcDbLine
 10
2239.942778
 20
1629.792292
 30
0.0
 11
2240.146201
 21
1629.14084
 31
0.0
  0
LINE
  5
3FA
100
AcDbEntity
  8
DETAIL
  6
CONTINUOUS
 62
     5
100
AcDbLine
 10
2240.146201
 20
1629.14084
 30
0.0
 11
2240.304275
 21
1628.479099
 31
0.0
  0
LINE
  5
3FB
100
AcDbEntity
  8
DETAIL
  6
CONTINUOUS
 62
     5
100
AcDbLine
 10
2240.304275
 20
1628.479099
 30
0.0
 11
2240.416616
 21
1627.812372
 31
0.0
  0
LINE
  5
3FC
100
AcDbEntity
  8
DETAIL
  6
CONTINUOUS
 62
     5
100
AcDbLine
 10
2240.416616
 20
1627.812372
 30
0.0
 11
2240.483416
 21
1627.14589
 31
0.0
  0
LINE
  5
3FD
100
AcDbEntity
  8
DETAIL
  6
CONTINUOUS
 62
     5
100
AcDbLine
 10
2240.483416
 20
1627.14589
 30
0.0
 11
2240.505424
 21
1626.484784
 31
0.0
  0
ARC
  5
3FE
100
AcDbEntity
  8
DETAIL
  6
CONTINUOUS
 62
     5
100
AcDbCircle
 10
2274.409787
 20
1620.482984
 30
0.0
 40
13.003873
100
AcDbArc
 50
16.301696
 51
90.0
  0
ARC
  5
3FF
100
AcDbEntity
  8
DETAIL
  6
CONTINUOUS
 62
     5
100
AcDbCircle
 10
2260.680685
 20
1627.48507
 30
0.0
 40
6.001787
100
AcDbArc
 50
90.0
 51
180.0
  0
ARC
  5
400
100
AcDbEntity
  8
DETAIL
  6
CONTINUOUS
 62
     5
100
AcDbCircle
 10
2262.111859
 20
1626.311732
 30
0.0
 40
11.503426
100
AcDbArc
 50
90.0
 51
180.0
  0
POLYLINE
  5
401
100
AcDbEntity
  8
DETAIL
  6
CONTINUOUS
 62
     5
100
AcDb2dPolyline
 66
     1
 10
0.0
 20
0.0
 30
0.0
  0
VERTEX
  5
402
100
AcDbEntity
  8
DETAIL
  6
CONTINUOUS
 62
     5
100
AcDbVertex
100
AcDb2dVertex
 10
2303.324133
 20
1620.510004
 30
0.0
  0
VERTEX
  5
403
100
AcDbEntity
  8
DETAIL
  6
CONTINUOUS
 62
     5
100
AcDbVertex
100
AcDb2dVertex
 10
2302.923698
 20
1623.515013
 30
0.0
  0
VERTEX
  5
404
100
AcDbEntity
  8
DETAIL
  6
CONTINUOUS
 62
     5
100
AcDbVertex
100
AcDb2dVertex
 10
2301.73456
 20
1626.428716
 30
0.0
  0
VERTEX
  5
405
100
AcDbEntity
  8
DETAIL
  6
CONTINUOUS
 62
     5
100
AcDbVertex
100
AcDb2dVertex
 10
2299.79285
 20
1629.162582
 30
0.0
  0
VERTEX
  5
406
100
AcDbEntity
  8
DETAIL
  6
CONTINUOUS
 62
     5
100
AcDbVertex
100
AcDb2dVertex
 10
2297.157567
 20
1631.633543
 30
0.0
  0
VERTEX
  5
407
100
AcDbEntity
  8
DETAIL
  6
CONTINUOUS
 62
     5
100
AcDbVertex
100
AcDb2dVertex
 10
2293.908782
 20
1633.766522
 30
0.0
  0
VERTEX
  5
408
100
AcDbEntity
  8
DETAIL
  6
CONTINUOUS
 62
     5
100
AcDbVertex
100
AcDb2dVertex
 10
2290.145207
 20
1635.496708
 30
0.0
  0
VERTEX
  5
409
100
AcDbEntity
  8
DETAIL
  6
CONTINUOUS
 62
     5
100
AcDbVertex
100
AcDb2dVertex
 10
2285.981197
 20
1636.77153
 30
0.0
  0
VERTEX
  5
40A
100
AcDbEntity
  8
DETAIL
  6
CONTINUOUS
 62
     5
100
AcDbVertex
100
AcDb2dVertex
 10
2281.543274
 20
1637.552254
 30
0.0
  0
VERTEX
  5
40B
100
AcDbEntity
  8
DETAIL
  6
CONTINUOUS
 62
     5
100
AcDbVertex
100
AcDb2dVertex
 10
2276.966282
 20
1637.815158
 30
0.0
  0
SEQEND
  5
40C
100
AcDbEntity
  8
DETAIL
  6
CONTINUOUS
 62
     5
  0
LINE
  5
40D
100
AcDbEntity
  8
DETAIL
  6
CONTINUOUS
 62
     5
100
AcDbLine
 10
2239.077381
 20
1631.634898
 30
0.0
 11
2239.405677
 21
1631.043903
 31
0.0
  0
LINE
  5
40E
100
AcDbEntity
  8
NOTE
  6
CONTINUOUS
 62
     4
100
AcDbLine
 10
2277.430945
 20
1576.316526
 30
0.0
 11
2277.430945
 21
1540.316526
 31
0.0
  0
CIRCLE
  5
40F
100
AcDbEntity
  8
FIX
  6
CONTINUOUS
 62
    11
100
AcDbCircle
 10
2277.430945
 20
1558.316526
 30
0.0
 40
14.940051
  0
LINE
  5
410
100
AcDbEntity
  8
NOTE
  6
CONTINUOUS
 62
     4
100
AcDbLine
 10
2295.430945
 20
1558.316526
 30
0.0
 11
2259.430945
 21
1558.316526
 31
0.0
  0
LINE
  5
411
100
AcDbEntity
  8
NOTE
  6
CONTINUOUS
 62
     4
100
AcDbLine
 10
2277.430945
 20
1576.316526
 30
0.0
 11
2277.430945
 21
1540.316526
 31
0.0
  0
TEXT
  5
412
100
AcDbEntity
  8
SIZE
  6
CONTINUOUS
 62
    30
100
AcDbText
 10
1731.61666
 20
2058.880603
 30
0.0
 40
55.0
  1
574(吊りﾎﾞﾙﾄﾋﾟｯﾁ)
 41
0.9
 72
     1
 11
1990.430945
 21
2058.880603
 31
0.0
100
AcDbText
  0
LINE
  5
413
100
AcDbEntity
  8
SIZE
  6
CONTINUOUS
 62
    30
100
AcDbLine
 10
1713.430945
 20
2039.475841
 30
0.0
 11
2267.430945
 21
2039.475841
 31
0.0
  0
LINE
  5
414
100
AcDbEntity
  8
SIZE
  6
CONTINUOUS
 62
    30
100
AcDbLine
 10
1708.430945
 20
2039.475841
 30
0.0
 11
1713.430945
 21
2039.475841
 31
0.0
  0
CIRCLE
  5
415
100
AcDbEntity
  8
SIZE
  6
CONTINUOUS
 62
    30
100
AcDbCircle
 10
1703.430945
 20
2039.475841
 30
0.0
 40
5.0
  0
POINT
  5
416
100
AcDbEntity
  8
DEFPOINTS
  6
CONTINUOUS
 62
     7
100
AcDbPoint
 10
1703.430945
 20
2039.475841
 30
0.0
  0
LINE
  5
417
100
AcDbEntity
  8
SIZE
  6
CONTINUOUS
 62
    30
100
AcDbLine
 10
1698.430945
 20
2039.475841
 30
0.0
 11
1693.430945
 21
2039.475841
 31
0.0
  0
CIRCLE
  5
418
100
AcDbEntity
  8
SIZE
  6
CONTINUOUS
 62
    30
100
AcDbCircle
 10
1703.430945
 20
2039.475841
 30
0.0
 40
5.0
  0
TEXT
  5
419
100
AcDbEntity
  8
SIZE
  6
CONTINUOUS
 62
    30
100
AcDbText
 10
1931.502374
 20
2198.124047
 30
0.0
 40
55.0
  1
710
 41
0.9
 72
     1
 11
1990.430945
 21
2198.124047
 31
0.0
100
AcDbText
  0
LINE
  5
41A
100
AcDbEntity
  8
SIZE
  6
CONTINUOUS
 62
    30
100
AcDbLine
 10
2345.430945
 20
1851.316526
 30
0.0
 11
2345.430945
 21
2069.475841
 31
0.0
  0
LINE
  5
41B
100
AcDbEntity
  8
SIZE
  6
CONTINUOUS
 62
    30
100
AcDbLine
 10
2345.430945
 20
1851.316526
 30
0.0
 11
2345.430945
 21
2213.124047
 31
0.0
  0
POINT
  5
41C
100
AcDbEntity
  8
DEFPOINTS
  6
CONTINUOUS
 62
     7
100
AcDbPoint
 10
2345.430945
 20
1831.316526
 30
0.0
  0
POINT
  5
41D
100
AcDbEntity
  8
DEFPOINTS
  6
CONTINUOUS
 62
     7
100
AcDbPoint
 10
2345.430945
 20
1831.316526
 30
0.0
  0
LINE
  5
41E
100
AcDbEntity
  8
SIZE
  6
CONTINUOUS
 62
    30
100
AcDbLine
 10
2287.430945
 20
2039.475841
 30
0.0
 11
2335.430945
 21
2039.475841
 31
0.0
  0
LINE
  5
41F
100
AcDbEntity
  8
SIZE
  6
CONTINUOUS
 62
    30
100
AcDbLine
 10
2282.430945
 20
2039.475841
 30
0.0
 11
2287.430945
 21
2039.475841
 31
0.0
  0
CIRCLE
  5
420
100
AcDbEntity
  8
SIZE
  6
CONTINUOUS
 62
    30
100
AcDbCircle
 10
2277.430945
 20
2039.475841
 30
0.0
 40
5.0
  0
POINT
  5
421
100
AcDbEntity
  8
DEFPOINTS
  6
CONTINUOUS
 62
     7
100
AcDbPoint
 10
2277.430945
 20
2039.475841
 30
0.0
  0
LINE
  5
422
100
AcDbEntity
  8
SIZE
  6
CONTINUOUS
 62
    30
100
AcDbLine
 10
2272.430945
 20
2039.475841
 30
0.0
 11
2267.430945
 21
2039.475841
 31
0.0
  0
CIRCLE
  5
423
100
AcDbEntity
  8
SIZE
  6
CONTINUOUS
 62
    30
100
AcDbCircle
 10
2277.430945
 20
2039.475841
 30
0.0
 40
5.0
  0
TEXT
  5
424
100
AcDbEntity
  8
SIZE
  6
CONTINUOUS
 62
    30
100
AcDbText
 10
2373.216775
 20
2054.475841
 30
0.0
 40
55.0
  1
68
 41
0.9
 72
     1
 11
2413.288203
 21
2054.475841
 31
0.0
100
AcDbText
  0
LINE
  5
425
100
AcDbEntity
  8
SIZE
  6
CONTINUOUS
 62
    30
100
AcDbLine
 10
2468.359631
 20
2039.475841
 30
0.0
 11
2345.430945
 21
2039.475841
 31
0.0
  0
POINT
  5
426
100
AcDbEntity
  8
DEFPOINTS
  6
CONTINUOUS
 62
     7
100
AcDbPoint
 10
2345.430945
 20
2039.475841
 30
0.0
  0
LINE
  5
427
100
AcDbEntity
  8
SIZE
  6
CONTINUOUS
 62
    30
100
AcDbLine
 10
2340.430945
 20
2039.475841
 30
0.0
 11
2335.430945
 21
2039.475841
 31
0.0
  0
CIRCLE
  5
428
100
AcDbEntity
  8
SIZE
  6
CONTINUOUS
 62
    30
100
AcDbCircle
 10
2345.430945
 20
2039.475841
 30
0.0
 40
5.0
  0
POINT
  5
429
100
AcDbEntity
  8
DEFPOINTS
  6
CONTINUOUS
 62
     7
100
AcDbPoint
 10
2345.430945
 20
2183.124047
 30
0.0
  0
LINE
  5
42A
100
AcDbEntity
  8
SIZE
  6
CONTINUOUS
 62
    30
100
AcDbLine
 10
2340.430945
 20
2183.124047
 30
0.0
 11
2335.430945
 21
2183.124047
 31
0.0
  0
CIRCLE
  5
42B
100
AcDbEntity
  8
SIZE
  6
CONTINUOUS
 62
    30
100
AcDbCircle
 10
2345.430945
 20
2183.124047
 30
0.0
 40
5.0
  0
ENDBLK
  5
42D
100
AcDbEntity
  8
0
 62
     7
100
AcDbBlockEnd
  0
ENDSEC
  0
SECTION
  2
ENTITIES
  0
LINE
  5
42F
100
AcDbEntity
  8
BASIS
  6
DASHDOT
 62
     6
100
AcDbLine
 10
381.020374
 20
-1.889009
 30
0.0
 11
-381.020374
 21
-1.889009
 31
0.0
  0
LINE
  5
430
100
AcDbEntity
  8
SIZE
  6
CONTINUOUS
 62
    30
100
AcDbLine
 10
-297.0
 20
976.270306
 30
0.0
 11
-345.0
 21
976.270306
 31
0.0
  0
LINE
  5
432
100
AcDbEntity
  8
SIZE
  6
CONTINUOUS
 62
    30
100
AcDbLine
 10
-325.0
 20
-498.889009
 30
0.0
 11
-629.946436
 21
-498.889009
 31
0.0
  0
LINE
  5
434
100
AcDbEntity
  8
SIZE
  6
CONTINUOUS
 62
    30
100
AcDbLine
 10
-325.0
 20
495.110991
 30
0.0
 11
-629.946436
 21
495.110991
 31
0.0
  0
LINE
  5
435
100
AcDbEntity
  8
SIZE
  6
CONTINUOUS
 62
    30
100
AcDbLine
 10
-345.0
 20
1119.918512
 30
0.0
 11
345.0
 21
1119.918512
 31
0.0
  0
POLYLINE
  5
436
100
AcDbEntity
  8
OUTLINE
  6
CONTINUOUS
 62
     3
100
AcDb2dPolyline
 66
     1
 10
0.0
 20
0.0
 30
0.0
 70
     1
  0
VERTEX
  5
437
100
AcDbEntity
  8
OUTLINE
  6
CONTINUOUS
 62
     3
100
AcDbVertex
100
AcDb2dVertex
 10
-355.0
 20
768.110991
 30
0.0
  0
VERTEX
  5
438
100
AcDbEntity
  8
OUTLINE
  6
CONTINUOUS
 62
     3
100
AcDbVertex
100
AcDb2dVertex
 10
355.0
 20
768.110991
 30
0.0
  0
VERTEX
  5
439
100
AcDbEntity
  8
OUTLINE
  6
CONTINUOUS
 62
     3
100
AcDbVertex
100
AcDb2dVertex
 10
355.0
 20
-771.889009
 30
0.0
  0
VERTEX
  5
43A
100
AcDbEntity
  8
OUTLINE
  6
CONTINUOUS
 62
     3
100
AcDbVertex
100
AcDb2dVertex
 10
-355.0
 20
-771.889009
 30
0.0
  0
SEQEND
  5
43B
100
AcDbEntity
  8
OUTLINE
  6
CONTINUOUS
 62
     3
  0
LINE
  5
43C
100
AcDbEntity
  8
DETAIL
  6
CONTINUOUS
 62
     5
100
AcDbLine
 10
-355.0
 20
768.110991
 30
0.0
 11
355.0
 21
768.110991
 31
0.0
  0
LINE
  5
43D
100
AcDbEntity
  8
DETAIL
  6
CONTINUOUS
 62
     5
100
AcDbLine
 10
-355.0
 20
-771.889009
 30
0.0
 11
355.0
 21
-771.889009
 31
0.0
  0
LINE
  5
43E
100
AcDbEntity
  8
NOTE
  6
CONTINUOUS
 62
     4
100
AcDbLine
 10
-329.353969
 20
-967.586355
 30
0.0
 11
101.000646
 21
-456.888522
 31
0.0
  0
LINE
  5
43F
100
AcDbEntity
  8
NOTE
  6
CONTINUOUS
 62
     4
100
AcDbLine
 10
-437.430547
 20
838.581735
 30
0.0
 11
-287.000158
 21
495.111641
 31
0.0
  0
TEXT
  5
440
100
AcDbEntity
  8
SIZE
  6
CONTINUOUS
 62
    30
100
AcDbText
 10
-619.351198
 20
-260.703295
 30
0.0
 40
55.0
  1
994(吊りﾎﾞﾙﾄﾋﾟｯﾁ)
 50
90.0
 41
0.9
 72
     1
 11
-619.351198
 21
-1.889009
 31
0.0
100
AcDbText
  0
LINE
  5
441
100
AcDbEntity
  8
SIZE
  6
CONTINUOUS
 62
    30
100
AcDbLine
 10
-599.946436
 20
485.110991
 30
0.0
 11
-599.946436
 21
-488.889009
 31
0.0
  0
TEXT
  5
442
100
AcDbEntity
  8
SIZE
  6
CONTINUOUS
 62
    30
100
AcDbText
 10
-858.558525
 20
-84.389009
 30
0.0
 40
55.0
  1
1540
 50
90.0
 41
0.9
 72
     1
 11
-858.558525
 21
-1.889009
 31
0.0
100
AcDbText
  0
LINE
  5
443
100
AcDbEntity
  8
SIZE
  6
CONTINUOUS
 62
    30
100
AcDbLine
 10
-843.558525
 20
758.110991
 30
0.0
 11
-843.558525
 21
-761.889009
 31
0.0
  0
LINE
  5
444
100
AcDbEntity
  8
DETAIL
  6
CONTINUOUS
 62
     5
100
AcDbLine
 10
-355.0
 20
-771.889009
 30
0.0
 11
-355.0
 21
768.110991
 31
0.0
  0
TEXT
  5
445
100
AcDbEntity
  8
SIZE
  6
CONTINUOUS
 62
    30
100
AcDbText
 10
-614.946436
 20
-699.031866
 30
0.0
 40
55.0
  1
273
 50
90.0
 41
0.9
 72
     1
 11
-614.946436
 21
-635.389009
 31
0.0
100
AcDbText
  0
LINE
  5
446
100
AcDbEntity
  8
SIZE
  6
CONTINUOUS
 62
    30
100
AcDbLine
 10
-599.946436
 20
-508.889009
 30
0.0
 11
-599.946436
 21
-761.889009
 31
0.0
  0
LINE
  5
447
100
AcDbEntity
  8
SIZE
  6
CONTINUOUS
 62
    30
100
AcDbLine
 10
-375.0
 20
-771.889009
 30
0.0
 11
-873.558525
 21
-771.889009
 31
0.0
  0
CIRCLE
  5
448
100
AcDbEntity
  8
SIZE
  6
CONTINUOUS
 62
    30
100
AcDbCircle
 10
-843.558525
 20
-771.889009
 30
0.0
 40
5.0
  0
POINT
  5
449
100
AcDbEntity
  8
DEFPOINTS
  6
CONTINUOUS
 62
     7
100
AcDbPoint
 10
-843.558525
 20
-771.889009
 30
0.0
  0
LINE
  5
44A
100
AcDbEntity
  8
SIZE
  6
CONTINUOUS
 62
    30
100
AcDbLine
 10
-843.558525
 20
-766.889009
 30
0.0
 11
-843.558525
 21
-761.889009
 31
0.0
  0
TEXT
  5
44B
100
AcDbEntity
  8
NOTE
  6
CONTINUOUS
 62
     4
100
AcDbText
 10
-707.518428
 20
-947.715767
 30
0.0
 40
64.0
  1
RL %%C6.35
 41
0.9
100
AcDbText
  0
LINE
  5
44C
100
AcDbEntity
  8
NOTE
  6
CONTINUOUS
 62
     4
100
AcDbLine
 10
-723.753305
 20
-967.586355
 30
0.0
 11
-329.353969
 21
-967.586355
 31
0.0
  0
LINE
  5
44D
100
AcDbEntity
  8
SIZE
  6
CONTINUOUS
 62
    30
100
AcDbLine
 10
-375.0
 20
-771.889009
 30
0.0
 11
-629.946436
 21
-771.889009
 31
0.0
  0
CIRCLE
  5
44E
100
AcDbEntity
  8
SIZE
  6
CONTINUOUS
 62
    30
100
AcDbCircle
 10
-599.946436
 20
-771.889009
 30
0.0
 40
5.0
  0
POINT
  5
44F
100
AcDbEntity
  8
DEFPOINTS
  6
CONTINUOUS
 62
     7
100
AcDbPoint
 10
-599.946436
 20
-771.889009
 30
0.0
  0
LINE
  5
450
100
AcDbEntity
  8
SIZE
  6
CONTINUOUS
 62
    30
100
AcDbLine
 10
-599.946436
 20
-766.889009
 30
0.0
 11
-599.946436
 21
-761.889009
 31
0.0
  0
POINT
  5
451
100
AcDbEntity
  8
DEFPOINTS
  6
CONTINUOUS
 62
     7
100
AcDbPoint
 10
-355.0
 20
-771.889009
 30
0.0
  0
POINT
  5
452
100
AcDbEntity
  8
DEFPOINTS
  6
CONTINUOUS
 62
     7
100
AcDbPoint
 10
-355.0
 20
-771.889009
 30
0.0
  0
LINE
  5
453
100
AcDbEntity
  8
SIZE
  6
CONTINUOUS
 62
    30
100
AcDbLine
 10
-599.946436
 20
-503.889009
 30
0.0
 11
-599.946436
 21
-508.889009
 31
0.0
  0
CIRCLE
  5
454
100
AcDbEntity
  8
SIZE
  6
CONTINUOUS
 62
    30
100
AcDbCircle
 10
-599.946436
 20
-498.889009
 30
0.0
 40
5.0
  0
POINT
  5
455
100
AcDbEntity
  8
DEFPOINTS
  6
CONTINUOUS
 62
     7
100
AcDbPoint
 10
-599.946436
 20
-498.889009
 30
0.0
  0
LINE
  5
456
100
AcDbEntity
  8
SIZE
  6
CONTINUOUS
 62
    30
100
AcDbLine
 10
-599.946436
 20
-493.889009
 30
0.0
 11
-599.946436
 21
-488.889009
 31
0.0
  0
CIRCLE
  5
457
100
AcDbEntity
  8
SIZE
  6
CONTINUOUS
 62
    30
100
AcDbCircle
 10
-599.946436
 20
-498.889009
 30
0.0
 40
5.0
  0
TEXT
  5
458
100
AcDbEntity
  8
ETC
  6
CONTINUOUS
 62
    61
100
AcDbText
 10
-1990.430952
 20
1088.09399
 30
0.0
 40
80.0
  1
MPL-RP63LA(ﾘﾌﾟﾚｽﾊﾟﾈﾙ)_6
 50
0.000003
 41
0.8
100
AcDbText
  0
TEXT
  5
459
100
AcDbEntity
  8
SIZE
  6
CONTINUOUS
 62
    30
100
AcDbText
 10
-614.946436
 20
567.968134
 30
0.0
 40
55.0
  1
273
 50
90.0
 41
0.9
 72
     1
 11
-614.946436
 21
631.610991
 31
0.0
100
AcDbText
  0
LINE
  5
45A
100
AcDbEntity
  8
SIZE
  6
CONTINUOUS
 62
    30
100
AcDbLine
 10
-599.946436
 20
758.110991
 30
0.0
 11
-599.946436
 21
505.110991
 31
0.0
  0
LINE
  5
45B
100
AcDbEntity
  8
SIZE
  6
CONTINUOUS
 62
    30
100
AcDbLine
 10
-599.946436
 20
490.110991
 30
0.0
 11
-599.946436
 21
485.110991
 31
0.0
  0
CIRCLE
  5
45C
100
AcDbEntity
  8
SIZE
  6
CONTINUOUS
 62
    30
100
AcDbCircle
 10
-599.946436
 20
495.110991
 30
0.0
 40
5.0
  0
POINT
  5
45D
100
AcDbEntity
  8
DEFPOINTS
  6
CONTINUOUS
 62
     7
100
AcDbPoint
 10
-599.946436
 20
495.110991
 30
0.0
  0
LINE
  5
45E
100
AcDbEntity
  8
SIZE
  6
CONTINUOUS
 62
    30
100
AcDbLine
 10
-599.946436
 20
500.110991
 30
0.0
 11
-599.946436
 21
505.110991
 31
0.0
  0
CIRCLE
  5
45F
100
AcDbEntity
  8
SIZE
  6
CONTINUOUS
 62
    30
100
AcDbCircle
 10
-599.946436
 20
495.110991
 30
0.0
 40
5.0
  0
LINE
  5
460
100
AcDbEntity
  8
SIZE
  6
CONTINUOUS
 62
    30
100
AcDbLine
 10
-375.0
 20
768.110991
 30
0.0
 11
-873.558525
 21
768.110991
 31
0.0
  0
LINE
  5
461
100
AcDbEntity
  8
NOTE
  6
CONTINUOUS
 62
     4
100
AcDbLine
 10
-1120.599399
 20
838.581735
 30
0.0
 11
-437.430547
 21
838.581735
 31
0.0
  0
TEXT
  5
462
100
AcDbEntity
  8
NOTE
  6
CONTINUOUS
 62
     4
100
AcDbText
 10
-1101.019763
 20
858.452323
 30
0.0
 40
64.0
  1
AH4-14×30長穴
 41
0.9
100
AcDbText
  0
LINE
  5
463
100
AcDbEntity
  8
SIZE
  6
CONTINUOUS
 62
    30
100
AcDbLine
 10
-843.558525
 20
763.110991
 30
0.0
 11
-843.558525
 21
758.110991
 31
0.0
  0
CIRCLE
  5
464
100
AcDbEntity
  8
SIZE
  6
CONTINUOUS
 62
    30
100
AcDbCircle
 10
-843.558525
 20
768.110991
 30
0.0
 40
5.0
  0
LINE
  5
465
100
AcDbEntity
  8
SIZE
  6
CONTINUOUS
 62
    30
100
AcDbLine
 10
-355.0
 20
788.110991
 30
0.0
 11
-355.0
 21
1006.270306
 31
0.0
  0
LINE
  5
466
100
AcDbEntity
  8
SIZE
  6
CONTINUOUS
 62
    30
100
AcDbLine
 10
-355.0
 20
788.110991
 30
0.0
 11
-355.0
 21
1149.918512
 31
0.0
  0
LINE
  5
467
100
AcDbEntity
  8
SIZE
  6
CONTINUOUS
 62
    30
100
AcDbLine
 10
-375.0
 20
768.110991
 30
0.0
 11
-629.946436
 21
768.110991
 31
0.0
  0
LINE
  5
468
100
AcDbEntity
  8
SIZE
  6
CONTINUOUS
 62
    30
100
AcDbLine
 10
-599.946436
 20
763.110991
 30
0.0
 11
-599.946436
 21
758.110991
 31
0.0
  0
CIRCLE
  5
469
100
AcDbEntity
  8
SIZE
  6
CONTINUOUS
 62
    30
100
AcDbCircle
 10
-599.946436
 20
768.110991
 30
0.0
 40
5.0
  0
POINT
  5
46A
100
AcDbEntity
  8
DEFPOINTS
  6
CONTINUOUS
 62
     7
100
AcDbPoint
 10
-355.0
 20
768.110991
 30
0.0
  0
POINT
  5
46B
100
AcDbEntity
  8
DEFPOINTS
  6
CONTINUOUS
 62
     7
100
AcDbPoint
 10
-355.0
 20
768.110991
 30
0.0
  0
POINT
  5
46C
100
AcDbEntity
  8
DEFPOINTS
  6
CONTINUOUS
 62
     7
100
AcDbPoint
 10
-355.0
 20
768.110991
 30
0.0
  0
POINT
  5
46D
100
AcDbEntity
  8
DEFPOINTS
  6
CONTINUOUS
 62
     7
100
AcDbPoint
 10
-355.0
 20
768.110991
 30
0.0
  0
TEXT
  5
46E
100
AcDbEntity
  8
SIZE
  6
CONTINUOUS
 62
    30
100
AcDbText
 10
-460.142858
 20
991.270306
 30
0.0
 40
55.0
  1
68
 41
0.9
 72
     1
 11
-420.071429
 21
991.270306
 31
0.0
100
AcDbText
  0
LINE
  5
46F
100
AcDbEntity
  8
SIZE
  6
CONTINUOUS
 62
    30
100
AcDbLine
 10
-355.0
 20
976.270306
 30
0.0
 11
-475.142857
 21
976.270306
 31
0.0
  0
LINE
  5
470
100
AcDbEntity
  8
SIZE
  6
CONTINUOUS
 62
    30
100
AcDbLine
 10
-350.0
 20
976.270306
 30
0.0
 11
-345.0
 21
976.270306
 31
0.0
  0
CIRCLE
  5
471
100
AcDbEntity
  8
SIZE
  6
CONTINUOUS
 62
    30
100
AcDbCircle
 10
-355.0
 20
976.270306
 30
0.0
 40
5.0
  0
LINE
  5
472
100
AcDbEntity
  8
SIZE
  6
CONTINUOUS
 62
    30
100
AcDbLine
 10
-350.0
 20
1119.918512
 30
0.0
 11
-345.0
 21
1119.918512
 31
0.0
  0
CIRCLE
  5
473
100
AcDbEntity
  8
SIZE
  6
CONTINUOUS
 62
    30
100
AcDbCircle
 10
-355.0
 20
1119.918512
 30
0.0
 40
5.0
  0
CIRCLE
  5
474
100
AcDbEntity
  8
ARRANGE
  6
CONTINUOUS
 62
     1
100
AcDbCircle
 10
0.0
 20
0.0
 30
0.0
 40
42.5
  0
LINE
  5
475
100
AcDbEntity
  8
BASIS
  6
DASHDOT
 62
     6
100
AcDbLine
 10
0.0
 20
800.0
 30
0.0
 11
0.0
 21
-800.0
 31
0.0
  0
CIRCLE
  5
476
100
AcDbEntity
  8
SIZE
  6
CONTINUOUS
 62
    30
100
AcDbCircle
 10
496.732003
 20
-1.889009
 30
0.0
 40
5.0
  0
CIRCLE
  5
477
100
AcDbEntity
  8
SIZE
  6
CONTINUOUS
 62
    30
100
AcDbCircle
 10
610.223375
 20
-1.889009
 30
0.0
 40
5.0
  0
LINE
  5
478
100
AcDbEntity
  8
DETAIL
  6
CONTINUOUS
 62
     5
100
AcDbLine
 10
-270.423959
 20
565.279833
 30
0.0
 11
-270.423959
 21
-569.058002
 31
0.0
  0
LINE
  5
479
100
AcDbEntity
  8
DETAIL
  6
CONTINUOUS
 62
     5
100
AcDbLine
 10
-298.887755
 20
557.321199
 30
0.0
 11
-298.887755
 21
-561.006702
 31
0.0
  0
LINE
  5
47B
100
AcDbEntity
  8
DETAIL
  6
CONTINUOUS
 62
     5
100
AcDbLine
 10
-312.893188
 20
-561.082639
 30
0.0
 11
-312.893188
 21
557.304469
 31
0.0
  0
LINE
  5
47C
100
AcDbEntity
  8
DETAIL
  6
CONTINUOUS
 62
     5
100
AcDbLine
 10
-260.177488
 20
563.106197
 30
0.0
 11
-260.177488
 21
-566.884367
 31
0.0
  0
LINE
  5
47D
100
AcDbEntity
  8
DETAIL
  6
CONTINUOUS
 62
     5
100
AcDbLine
 10
-180.053625
 20
-569.458122
 30
0.0
 11
-180.053625
 21
565.679952
 31
0.0
  0
LINE
  5
47E
100
AcDbEntity
  8
DETAIL
  6
CONTINUOUS
 62
     5
100
AcDbLine
 10
180.053625
 20
565.679952
 30
0.0
 11
180.053625
 21
-569.458122
 31
0.0
  0
LINE
  5
47F
100
AcDbEntity
  8
DETAIL
  6
CONTINUOUS
 62
     5
100
AcDbLine
 10
270.423959
 20
565.279833
 30
0.0
 11
270.423959
 21
-569.058002
 31
0.0
  0
LINE
  5
480
100
AcDbEntity
  8
DETAIL
  6
CONTINUOUS
 62
     5
100
AcDbLine
 10
298.887755
 20
557.321199
 30
0.0
 11
298.887755
 21
-561.006702
 31
0.0
  0
LINE
  5
482
100
AcDbEntity
  8
DETAIL
  6
CONTINUOUS
 62
     5
100
AcDbLine
 10
312.893188
 20
-561.082639
 30
0.0
 11
312.893188
 21
557.304469
 31
0.0
  0
LINE
  5
483
100
AcDbEntity
  8
DETAIL
  6
CONTINUOUS
 62
     5
100
AcDbLine
 10
260.177488
 20
563.106197
 30
0.0
 11
260.177488
 21
-566.884367
 31
0.0
  0
LINE
  5
484
100
AcDbEntity
  8
DETAIL
  6
CONTINUOUS
 62
     5
100
AcDbLine
 10
-250.074479
 20
563.279249
 30
0.0
 11
-250.074479
 21
-567.057419
 31
0.0
  0
LINE
  5
485
100
AcDbEntity
  8
DETAIL
  6
CONTINUOUS
 62
     5
100
AcDbLine
 10
250.074479
 20
563.279249
 30
0.0
 11
250.074479
 21
-567.057419
 31
0.0
  0
LINE
  5
488
100
AcDbEntity
  8
ARRANGE
  6
CONTINUOUS
 62
     1
100
AcDbLine
 10
42.469199
 20
40.268097
 30
0.0
 11
-42.469199
 21
-44.046115
 31
0.0
  0
LINE
  5
489
100
AcDbEntity
  8
ARRANGE
  6
CONTINUOUS
 62
     1
100
AcDbLine
 10
42.531748
 20
-43.983009
 30
0.0
 11
-42.531748
 21
40.204991
 31
0.0
  0
LINE
  5
48A
100
AcDbEntity
  8
DETAIL
  6
CONTINUOUS
 62
     5
100
AcDbLine
 10
355.0
 20
768.110991
 30
0.0
 11
355.0
 21
-771.889009
 31
0.0
  0
TEXT
  5
48B
100
AcDbEntity
  8
SIZE
  6
CONTINUOUS
 62
    30
100
AcDbText
 10
595.223375
 20
-297.353295
 30
0.0
 40
55.0
  1
466
 50
90.0
 41
0.9
 72
     1
 11
595.223375
 21
-234.889009
 31
0.0
100
AcDbText
  0
LINE
  5
48C
100
AcDbEntity
  8
SIZE
  6
CONTINUOUS
 62
    30
100
AcDbLine
 10
209.0
 20
-467.889009
 30
0.0
 11
640.223375
 21
-467.889009
 31
0.0
  0
LINE
  5
48D
100
AcDbEntity
  8
NOTE
  6
CONTINUOUS
 62
     4
100
AcDbLine
 10
676.624883
 20
-955.041478
 30
0.0
 11
171.000394
 21
-467.889543
 31
0.0
  0
LINE
  5
48E
100
AcDbEntity
  8
SIZE
  6
CONTINUOUS
 62
    30
100
AcDbLine
 10
171.0
 20
-505.889009
 30
0.0
 11
171.0
 21
-1063.205528
 31
0.0
  0
LINE
  5
48F
100
AcDbEntity
  8
SIZE
  6
CONTINUOUS
 62
    30
100
AcDbLine
 10
101.0
 20
-494.889009
 30
0.0
 11
101.0
 21
-927.685428
 31
0.0
  0
TEXT
  5
490
100
AcDbEntity
  8
SIZE
  6
CONTINUOUS
 62
    30
100
AcDbText
 10
37.178571
 20
-1018.205528
 30
0.0
 40
55.0
  1
171
 41
0.9
 72
     1
 11
85.5
 21
-1018.205528
 31
0.0
100
AcDbText
  0
LINE
  5
491
100
AcDbEntity
  8
SIZE
  6
CONTINUOUS
 62
    30
100
AcDbLine
 10
10.0
 20
-1033.205528
 30
0.0
 11
161.0
 21
-1033.205528
 31
0.0
  0
LINE
  5
492
100
AcDbEntity
  8
SIZE
  6
CONTINUOUS
 62
    30
100
AcDbLine
 10
0.0
 20
-820.0
 30
0.0
 11
0.0
 21
-1063.205528
 31
0.0
  0
LINE
  5
494
100
AcDbEntity
  8
SIZE
  6
CONTINUOUS
 62
    30
100
AcDbLine
 10
5.0
 20
-1033.205528
 30
0.0
 11
10.0
 21
-1033.205528
 31
0.0
  0
CIRCLE
  5
495
100
AcDbEntity
  8
SIZE
  6
CONTINUOUS
 62
    30
100
AcDbCircle
 10
0.0
 20
-1033.205528
 30
0.0
 40
5.0
  0
TEXT
  5
496
100
AcDbEntity
  8
SIZE
  6
CONTINUOUS
 62
    30
100
AcDbText
 10
-121.642858
 20
-882.685428
 30
0.0
 40
55.0
  1
101
 41
0.9
 72
     1
 11
-73.321429
 21
-882.685428
 31
0.0
100
AcDbText
  0
LINE
  5
497
100
AcDbEntity
  8
SIZE
  6
CONTINUOUS
 62
    30
100
AcDbLine
 10
0.0
 20
-897.685428
 30
0.0
 11
-136.642857
 21
-897.685428
 31
0.0
  0
LINE
  5
498
100
AcDbEntity
  8
SIZE
  6
CONTINUOUS
 62
    30
100
AcDbLine
 10
5.0
 20
-897.685428
 30
0.0
 11
10.0
 21
-897.685428
 31
0.0
  0
POINT
  5
499
100
AcDbEntity
  8
DEFPOINTS
  6
CONTINUOUS
 62
     7
100
AcDbPoint
 10
0.0
 20
-800.0
 30
0.0
  0
POINT
  5
49A
100
AcDbEntity
  8
DEFPOINTS
  6
CONTINUOUS
 62
     7
100
AcDbPoint
 10
0.0
 20
-800.0
 30
0.0
  0
CIRCLE
  5
49B
100
AcDbEntity
  8
SIZE
  6
CONTINUOUS
 62
    30
100
AcDbCircle
 10
0.0
 20
-897.685428
 30
0.0
 40
5.0
  0
POINT
  5
49C
100
AcDbEntity
  8
DEFPOINTS
  6
CONTINUOUS
 62
     7
100
AcDbPoint
 10
101.0
 20
-897.685428
 30
0.0
  0
LINE
  5
49D
100
AcDbEntity
  8
SIZE
  6
CONTINUOUS
 62
    30
100
AcDbLine
 10
96.0
 20
-897.685428
 30
0.0
 11
91.0
 21
-897.685428
 31
0.0
  0
CIRCLE
  5
49E
100
AcDbEntity
  8
SIZE
  6
CONTINUOUS
 62
    30
100
AcDbCircle
 10
101.0
 20
-897.685428
 30
0.0
 40
5.0
  0
LINE
  5
49F
100
AcDbEntity
  8
SIZE
  6
CONTINUOUS
 62
    30
100
AcDbLine
 10
91.0
 20
-897.685428
 30
0.0
 11
10.0
 21
-897.685428
 31
0.0
  0
POINT
  5
4A0
100
AcDbEntity
  8
DEFPOINTS
  6
CONTINUOUS
 62
     7
100
AcDbPoint
 10
171.0
 20
-1033.205528
 30
0.0
  0
LINE
  5
4A1
100
AcDbEntity
  8
SIZE
  6
CONTINUOUS
 62
    30
100
AcDbLine
 10
166.0
 20
-1033.205528
 30
0.0
 11
161.0
 21
-1033.205528
 31
0.0
  0
CIRCLE
  5
4A2
100
AcDbEntity
  8
SIZE
  6
CONTINUOUS
 62
    30
100
AcDbCircle
 10
171.0
 20
-1033.205528
 30
0.0
 40
5.0
  0
LINE
  5
4A3
100
AcDbEntity
  8
DETAIL
  6
CONTINUOUS
 62
     5
100
AcDbLine
 10
-180.053625
 20
-569.458122
 30
0.0
 11
180.053625
 21
-569.458122
 31
0.0
  0
LINE
  5
4A4
100
AcDbEntity
  8
DETAIL
  6
CONTINUOUS
 62
     5
100
AcDbLine
 10
-240.071507
 20
-577.060386
 30
0.0
 11
240.071507
 21
-577.060386
 31
0.0
  0
POINT
  5
4A5
100
AcDbEntity
  8
DEFPOINTS
  6
CONTINUOUS
 62
     7
100
AcDbPoint
 10
-305.0
 20
-498.889009
 30
0.0
  0
POINT
  5
4A6
100
AcDbEntity
  8
DEFPOINTS
  6
CONTINUOUS
 62
     7
100
AcDbPoint
 10
-305.0
 20
-498.889009
 30
0.0
  0
LINE
  5
4A7
100
AcDbEntity
  8
DETAIL
  6
CONTINUOUS
 62
     5
100
AcDbLine
 10
-298.831422
 20
-561.677481
 30
0.0
 11
-298.886478
 21
-561.112472
 31
0.0
  0
LINE
  5
4A8
100
AcDbEntity
  8
DETAIL
  6
CONTINUOUS
 62
     5
100
AcDbLine
 10
-289.350348
 20
-569.058002
 30
0.0
 11
-270.423969
 21
-569.058002
 31
0.0
  0
LINE
  5
4A9
100
AcDbEntity
  8
DETAIL
  6
CONTINUOUS
 62
     5
100
AcDbLine
 10
-289.350348
 20
-569.058002
 30
0.0
 11
-290.117259
 21
-568.960609
 31
0.0
  0
LINE
  5
4AA
100
AcDbEntity
  8
DETAIL
  6
CONTINUOUS
 62
     5
100
AcDbLine
 10
-290.117259
 20
-568.960609
 30
0.0
 11
-290.809468
 21
-568.700809
 31
0.0
  0
LINE
  5
4AB
100
AcDbEntity
  8
DETAIL
  6
CONTINUOUS
 62
     5
100
AcDbLine
 10
-290.809468
 20
-568.700809
 30
0.0
 11
-291.431802
 21
-568.316659
 31
0.0
  0
LINE
  5
4AC
100
AcDbEntity
  8
DETAIL
  6
CONTINUOUS
 62
     5
100
AcDbLine
 10
-291.431802
 20
-568.316659
 30
0.0
 11
-291.989649
 21
-567.835498
 31
0.0
  0
LINE
  5
4AD
100
AcDbEntity
  8
DETAIL
  6
CONTINUOUS
 62
     5
100
AcDbLine
 10
-291.989649
 20
-567.835498
 30
0.0
 11
-292.48835
 21
-567.276931
 31
0.0
  0
LINE
  5
4AE
100
AcDbEntity
  8
DETAIL
  6
CONTINUOUS
 62
     5
100
AcDbLine
 10
-292.48835
 20
-567.276931
 30
0.0
 11
-292.933035
 21
-566.654127
 31
0.0
  0
LINE
  5
4AF
100
AcDbEntity
  8
DETAIL
  6
CONTINUOUS
 62
     5
100
AcDbLine
 10
-292.933035
 20
-566.65414
 30
0.0
 11
-294.422645
 21
-565.923809
 31
0.0
  0
LINE
  5
4B0
100
AcDbEntity
  8
DETAIL
  6
CONTINUOUS
 62
     5
100
AcDbLine
 10
-294.422645
 20
-565.923809
 30
0.0
 11
-295.730611
 21
-565.157821
 31
0.0
  0
LINE
  5
4B1
100
AcDbEntity
  8
DETAIL
  6
CONTINUOUS
 62
     5
100
AcDbLine
 10
-296.860259
 20
-564.367538
 30
0.0
 11
-297.817187
 21
-563.55913
 31
0.0
  0
LINE
  5
4B2
100
AcDbEntity
  8
DETAIL
  6
CONTINUOUS
 62
     5
100
AcDbLine
 10
-297.817187
 20
-563.55913
 30
0.0
 11
-298.068094
 21
-563.298311
 31
0.0
  0
LINE
  5
4B3
100
AcDbEntity
  8
DETAIL
  6
CONTINUOUS
 62
     5
100
AcDbLine
 10
-298.068094
 20
-563.298311
 30
0.0
 11
-298.310902
 21
-562.981065
 31
0.0
  0
LINE
  5
4B4
100
AcDbEntity
  8
DETAIL
  6
CONTINUOUS
 62
     5
100
AcDbLine
 10
-298.310902
 20
-562.981065
 30
0.0
 11
-298.529297
 21
-562.60599
 31
0.0
  0
LINE
  5
4B5
100
AcDbEntity
  8
DETAIL
  6
CONTINUOUS
 62
     5
100
AcDbLine
 10
-298.529297
 20
-562.60599
 30
0.0
 11
-298.707262
 21
-562.173348
 31
0.0
  0
LINE
  5
4B6
100
AcDbEntity
  8
DETAIL
  6
CONTINUOUS
 62
     5
100
AcDbLine
 10
-298.707262
 20
-562.173348
 30
0.0
 11
-298.831422
 21
-561.677481
 31
0.0
  0
LINE
  5
4B7
100
AcDbEntity
  8
DETAIL
  6
CONTINUOUS
 62
     5
100
AcDbLine
 10
-298.886478
 20
-561.112472
 30
0.0
 11
-298.887754
 21
-561.011095
 31
0.0
  0
LINE
  5
4B8
100
AcDbEntity
  8
DETAIL
  6
CONTINUOUS
 62
     5
100
AcDbLine
 10
-295.730611
 20
-565.157821
 30
0.0
 11
-296.860259
 21
-564.367538
 31
0.0
  0
LINE
  5
4BC
100
AcDbEntity
  8
DETAIL
  6
CONTINUOUS
 62
     5
100
AcDbLine
 10
-271.680914
 20
-578.387793
 30
0.0
 11
-286.535339
 21
-578.387793
 31
0.0
  0
POLYLINE
  5
4BD
100
AcDbEntity
  8
DETAIL
  6
CONTINUOUS
 62
     5
100
AcDb2dPolyline
 66
     1
 10
0.0
 20
0.0
 30
0.0
  0
VERTEX
  5
4BE
100
AcDbEntity
  8
DETAIL
  6
CONTINUOUS
 62
     5
100
AcDbVertex
100
AcDb2dVertex
 10
-286.535336
 20
-578.387793
 30
0.0
  0
VERTEX
  5
4BF
100
AcDbEntity
  8
DETAIL
  6
CONTINUOUS
 62
     5
100
AcDbVertex
100
AcDb2dVertex
 10
-291.112329
 20
-578.124889
 30
0.0
  0
VERTEX
  5
4C0
100
AcDbEntity
  8
DETAIL
  6
CONTINUOUS
 62
     5
100
AcDbVertex
100
AcDb2dVertex
 10
-295.550252
 20
-577.344165
 30
0.0
  0
VERTEX
  5
4C1
100
AcDbEntity
  8
DETAIL
  6
CONTINUOUS
 62
     5
100
AcDbVertex
100
AcDb2dVertex
 10
-299.714262
 20
-576.069343
 30
0.0
  0
VERTEX
  5
4C2
100
AcDbEntity
  8
DETAIL
  6
CONTINUOUS
 62
     5
100
AcDbVertex
100
AcDb2dVertex
 10
-303.477836
 20
-574.339157
 30
0.0
  0
VERTEX
  5
4C3
100
AcDbEntity
  8
DETAIL
  6
CONTINUOUS
 62
     5
100
AcDbVertex
100
AcDb2dVertex
 10
-306.726622
 20
-572.206178
 30
0.0
  0
VERTEX
  5
4C4
100
AcDbEntity
  8
DETAIL
  6
CONTINUOUS
 62
     5
100
AcDbVertex
100
AcDb2dVertex
 10
-309.361905
 20
-569.735217
 30
0.0
  0
VERTEX
  5
4C5
100
AcDbEntity
  8
DETAIL
  6
CONTINUOUS
 62
     5
100
AcDbVertex
100
AcDb2dVertex
 10
-311.303615
 20
-567.001351
 30
0.0
  0
VERTEX
  5
4C6
100
AcDbEntity
  8
DETAIL
  6
CONTINUOUS
 62
     5
100
AcDbVertex
100
AcDb2dVertex
 10
-312.492753
 20
-564.087648
 30
0.0
  0
VERTEX
  5
4C7
100
AcDbEntity
  8
DETAIL
  6
CONTINUOUS
 62
     5
100
AcDbVertex
100
AcDb2dVertex
 10
-312.893188
 20
-561.082639
 30
0.0
  0
SEQEND
  5
4C8
100
AcDbEntity
  8
DETAIL
  6
CONTINUOUS
 62
     5
  0
ARC
  5
4C9
100
AcDbEntity
  8
DETAIL
  6
CONTINUOUS
 62
     5
100
AcDbCircle
 10
-271.680914
 20
-566.884367
 30
0.0
 40
11.503426
100
AcDbArc
 50
270.0
 51
0.0
  0
LINE
  5
4CA
100
AcDbEntity
  8
DETAIL
  6
CONTINUOUS
 62
     5
100
AcDbLine
 10
-246.314185
 20
-574.87332
 30
0.0
 11
-246.739282
 21
-574.513917
 31
0.0
  0
LINE
  5
4CB
100
AcDbEntity
  8
DETAIL
  6
CONTINUOUS
 62
     5
100
AcDbLine
 10
-246.739282
 20
-574.513917
 30
0.0
 11
-247.144632
 21
-574.130532
 31
0.0
  0
LINE
  5
4CC
100
AcDbEntity
  8
DETAIL
  6
CONTINUOUS
 62
     5
100
AcDbLine
 10
-247.144632
 20
-574.130532
 30
0.0
 11
-247.528017
 21
-573.725181
 31
0.0
  0
LINE
  5
4CD
100
AcDbEntity
  8
DETAIL
  6
CONTINUOUS
 62
     5
100
AcDbLine
 10
-247.528017
 20
-573.725181
 30
0.0
 11
-247.887388
 21
-573.300122
 31
0.0
  0
LINE
  5
4CE
100
AcDbEntity
  8
DETAIL
  6
CONTINUOUS
 62
     5
100
AcDbLine
 10
-240.071507
 20
-577.060386
 30
0.0
 11
-240.732516
 21
-577.038385
 31
0.0
  0
LINE
  5
4CF
100
AcDbEntity
  8
DETAIL
  6
CONTINUOUS
 62
     5
100
AcDbLine
 10
-240.732516
 20
-577.038385
 30
0.0
 11
-241.398904
 21
-576.971605
 31
0.0
  0
LINE
  5
4D0
100
AcDbEntity
  8
DETAIL
  6
CONTINUOUS
 62
     5
100
AcDbLine
 10
-241.398904
 20
-576.971605
 30
0.0
 11
-242.065566
 21
-576.85929
 31
0.0
  0
LINE
  5
4D1
100
AcDbEntity
  8
DETAIL
  6
CONTINUOUS
 62
     5
100
AcDbLine
 10
-242.065566
 20
-576.85929
 30
0.0
 11
-242.727271
 21
-576.701245
 31
0.0
  0
LINE
  5
4D2
100
AcDbEntity
  8
DETAIL
  6
CONTINUOUS
 62
     5
100
AcDbLine
 10
-242.727271
 20
-576.701245
 30
0.0
 11
-243.378716
 21
-576.497847
 31
0.0
  0
LINE
  5
4D3
100
AcDbEntity
  8
DETAIL
  6
CONTINUOUS
 62
     5
100
AcDbLine
 10
-243.378716
 20
-576.497847
 30
0.0
 11
-244.014685
 21
-576.250231
 31
0.0
  0
LINE
  5
4D4
100
AcDbEntity
  8
DETAIL
  6
CONTINUOUS
 62
     5
100
AcDbLine
 10
-244.014685
 20
-576.250231
 30
0.0
 11
-244.630392
 21
-575.960761
 31
0.0
  0
LINE
  5
4D5
100
AcDbEntity
  8
DETAIL
  6
CONTINUOUS
 62
     5
100
AcDbLine
 10
-244.630392
 20
-575.960761
 30
0.0
 11
-245.221454
 21
-575.632446
 31
0.0
  0
LINE
  5
4D6
100
AcDbEntity
  8
DETAIL
  6
CONTINUOUS
 62
     5
100
AcDbLine
 10
-245.221454
 20
-575.632446
 30
0.0
 11
-245.783903
 21
-575.268699
 31
0.0
  0
LINE
  5
4D7
100
AcDbEntity
  8
DETAIL
  6
CONTINUOUS
 62
     5
100
AcDbLine
 10
-245.783903
 20
-575.268699
 30
0.0
 11
-246.314185
 21
-574.87332
 31
0.0
  0
LINE
  5
4D8
100
AcDbEntity
  8
DETAIL
  6
CONTINUOUS
 62
     5
100
AcDbLine
 10
-247.887388
 20
-573.300122
 30
0.0
 11
-248.282732
 21
-572.769897
 31
0.0
  0
LINE
  5
4D9
100
AcDbEntity
  8
DETAIL
  6
CONTINUOUS
 62
     5
100
AcDbLine
 10
-248.282732
 20
-572.769897
 30
0.0
 11
-248.646436
 21
-572.207533
 31
0.0
  0
LINE
  5
4DA
100
AcDbEntity
  8
DETAIL
  6
CONTINUOUS
 62
     5
100
AcDbLine
 10
-248.646436
 20
-572.207533
 30
0.0
 11
-248.974732
 21
-571.616538
 31
0.0
  0
LINE
  5
4DB
100
AcDbEntity
  8
DETAIL
  6
CONTINUOUS
 62
     5
100
AcDbLine
 10
-248.974732
 20
-571.616538
 30
0.0
 11
-249.264202
 21
-571.000876
 31
0.0
  0
LINE
  5
4DC
100
AcDbEntity
  8
DETAIL
  6
CONTINUOUS
 62
     5
100
AcDbLine
 10
-249.264202
 20
-571.000876
 30
0.0
 11
-249.511833
 21
-570.364927
 31
0.0
  0
LINE
  5
4DD
100
AcDbEntity
  8
DETAIL
  6
CONTINUOUS
 62
     5
100
AcDbLine
 10
-249.511833
 20
-570.364927
 30
0.0
 11
-249.715256
 21
-569.713475
 31
0.0
  0
LINE
  5
4DE
100
AcDbEntity
  8
DETAIL
  6
CONTINUOUS
 62
     5
100
AcDbLine
 10
-249.715256
 20
-569.713475
 30
0.0
 11
-249.87333
 21
-569.051734
 31
0.0
  0
LINE
  5
4DF
100
AcDbEntity
  8
DETAIL
  6
CONTINUOUS
 62
     5
100
AcDbLine
 10
-249.87333
 20
-569.051734
 30
0.0
 11
-249.985671
 21
-568.385007
 31
0.0
  0
LINE
  5
4E0
100
AcDbEntity
  8
DETAIL
  6
CONTINUOUS
 62
     5
100
AcDbLine
 10
-249.985671
 20
-568.385007
 30
0.0
 11
-250.052471
 21
-567.718524
 31
0.0
  0
LINE
  5
4E1
100
AcDbEntity
  8
DETAIL
  6
CONTINUOUS
 62
     5
100
AcDbLine
 10
-250.052471
 20
-567.718524
 30
0.0
 11
-250.074479
 21
-567.057419
 31
0.0
  0
CIRCLE
  5
4E2
100
AcDbEntity
  8
FIX
  6
CONTINUOUS
 62
    11
100
AcDbCircle
 10
-287.0
 20
-498.889009
 30
0.0
 40
14.940051
  0
LINE
  5
4E3
100
AcDbEntity
  8
NOTE
  6
CONTINUOUS
 62
     4
100
AcDbLine
 10
-269.0
 20
-498.889009
 30
0.0
 11
-305.0
 21
-498.889009
 31
0.0
  0
LINE
  5
4E4
100
AcDbEntity
  8
NOTE
  6
CONTINUOUS
 62
     4
100
AcDbLine
 10
-287.0
 20
-480.889009
 30
0.0
 11
-287.0
 21
-516.889009
 31
0.0
  0
LINE
  5
4E7
100
AcDbEntity
  8
NOTE
  6
CONTINUOUS
 62
     4
100
AcDbLine
 10
101.000251
 20
-456.888959
 30
0.0
 11
86.469619
 21
-488.053208
 31
0.0
  0
LINE
  5
4E8
100
AcDbEntity
  8
NOTE
  6
CONTINUOUS
 62
     4
100
AcDbLine
 10
101.000251
 20
-456.888959
 30
0.0
 11
72.834229
 21
-476.612674
 31
0.0
  0
LINE
  5
4E9
100
AcDbEntity
  8
NOTE
  6
CONTINUOUS
 62
     4
100
AcDbLine
 10
101.0
 20
-438.889009
 30
0.0
 11
101.0
 21
-474.889009
 31
0.0
  0
POINT
  5
4EA
100
AcDbEntity
  8
DEFPOINTS
  6
CONTINUOUS
 62
     7
100
AcDbPoint
 10
101.0
 20
-474.889009
 30
0.0
  0
POINT
  5
4EB
100
AcDbEntity
  8
DEFPOINTS
  6
CONTINUOUS
 62
     7
100
AcDbPoint
 10
119.0
 20
-456.889009
 30
0.0
  0
LINE
  5
4EC
100
AcDbEntity
  8
NOTE
  6
CONTINUOUS
 62
     4
100
AcDbLine
 10
119.0
 20
-456.889009
 30
0.0
 11
83.0
 21
-456.889009
 31
0.0
  0
LINE
  5
4EE
100
AcDbEntity
  8
SIZE
  6
CONTINUOUS
 62
    30
100
AcDbLine
 10
496.732003
 20
-11.889009
 30
0.0
 11
496.732003
 21
-446.889009
 31
0.0
  0
LINE
  5
4EF
100
AcDbEntity
  8
SIZE
  6
CONTINUOUS
 62
    30
100
AcDbLine
 10
139.0
 20
-456.889009
 30
0.0
 11
526.732003
 21
-456.889009
 31
0.0
  0
LINE
  5
4F0
100
AcDbEntity
  8
NOTE
  6
CONTINUOUS
 62
     4
100
AcDbLine
 10
171.0
 20
-449.889009
 30
0.0
 11
171.0
 21
-485.889009
 31
0.0
  0
POINT
  5
4F1
100
AcDbEntity
  8
DEFPOINTS
  6
CONTINUOUS
 62
     7
100
AcDbPoint
 10
171.0
 20
-485.889009
 30
0.0
  0
POINT
  5
4F2
100
AcDbEntity
  8
DEFPOINTS
  6
CONTINUOUS
 62
     7
100
AcDbPoint
 10
189.0
 20
-467.889009
 30
0.0
  0
LINE
  5
4F5
100
AcDbEntity
  8
NOTE
  6
CONTINUOUS
 62
     4
100
AcDbLine
 10
171.000805
 20
-467.889967
 30
0.0
 11
201.129526
 21
-484.461323
 31
0.0
  0
LINE
  5
4F6
100
AcDbEntity
  8
NOTE
  6
CONTINUOUS
 62
     4
100
AcDbLine
 10
171.000805
 20
-467.889967
 30
0.0
 11
188.807364
 21
-497.305543
 31
0.0
  0
LINE
  5
4F7
100
AcDbEntity
  8
NOTE
  6
CONTINUOUS
 62
     4
100
AcDbLine
 10
189.0
 20
-467.889009
 30
0.0
 11
153.0
 21
-467.889009
 31
0.0
  0
LINE
  5
4F8
100
AcDbEntity
  8
DETAIL
  6
CONTINUOUS
 62
     5
100
AcDbLine
 10
298.831422
 20
-561.677481
 30
0.0
 11
298.886478
 21
-561.112472
 31
0.0
  0
LINE
  5
4F9
100
AcDbEntity
  8
DETAIL
  6
CONTINUOUS
 62
     5
100
AcDbLine
 10
289.350348
 20
-569.058002
 30
0.0
 11
270.423969
 21
-569.058002
 31
0.0
  0
LINE
  5
4FA
100
AcDbEntity
  8
DETAIL
  6
CONTINUOUS
 62
     5
100
AcDbLine
 10
289.350348
 20
-569.058002
 30
0.0
 11
290.117259
 21
-568.960609
 31
0.0
  0
LINE
  5
4FB
100
AcDbEntity
  8
DETAIL
  6
CONTINUOUS
 62
     5
100
AcDbLine
 10
290.117259
 20
-568.960609
 30
0.0
 11
290.809468
 21
-568.700809
 31
0.0
  0
LINE
  5
4FC
100
AcDbEntity
  8
DETAIL
  6
CONTINUOUS
 62
     5
100
AcDbLine
 10
290.809468
 20
-568.700809
 30
0.0
 11
291.431802
 21
-568.316659
 31
0.0
  0
LINE
  5
4FD
100
AcDbEntity
  8
DETAIL
  6
CONTINUOUS
 62
     5
100
AcDbLine
 10
291.431802
 20
-568.316659
 30
0.0
 11
291.989649
 21
-567.835498
 31
0.0
  0
LINE
  5
4FE
100
AcDbEntity
  8
DETAIL
  6
CONTINUOUS
 62
     5
100
AcDbLine
 10
291.989649
 20
-567.835498
 30
0.0
 11
292.48835
 21
-567.276931
 31
0.0
  0
LINE
  5
4FF
100
AcDbEntity
  8
DETAIL
  6
CONTINUOUS
 62
     5
100
AcDbLine
 10
292.48835
 20
-567.276931
 30
0.0
 11
292.933035
 21
-566.654127
 31
0.0
  0
LINE
  5
500
100
AcDbEntity
  8
DETAIL
  6
CONTINUOUS
 62
     5
100
AcDbLine
 10
292.933035
 20
-566.65414
 30
0.0
 11
294.422645
 21
-565.923809
 31
0.0
  0
LINE
  5
501
100
AcDbEntity
  8
DETAIL
  6
CONTINUOUS
 62
     5
100
AcDbLine
 10
294.422645
 20
-565.923809
 30
0.0
 11
295.730611
 21
-565.157821
 31
0.0
  0
LINE
  5
502
100
AcDbEntity
  8
DETAIL
  6
CONTINUOUS
 62
     5
100
AcDbLine
 10
296.860259
 20
-564.367538
 30
0.0
 11
297.817187
 21
-563.55913
 31
0.0
  0
LINE
  5
503
100
AcDbEntity
  8
DETAIL
  6
CONTINUOUS
 62
     5
100
AcDbLine
 10
297.817187
 20
-563.55913
 30
0.0
 11
298.068094
 21
-563.298311
 31
0.0
  0
LINE
  5
504
100
AcDbEntity
  8
DETAIL
  6
CONTINUOUS
 62
     5
100
AcDbLine
 10
298.068094
 20
-563.298311
 30
0.0
 11
298.310902
 21
-562.981065
 31
0.0
  0
LINE
  5
505
100
AcDbEntity
  8
DETAIL
  6
CONTINUOUS
 62
     5
100
AcDbLine
 10
298.310902
 20
-562.981065
 30
0.0
 11
298.529297
 21
-562.60599
 31
0.0
  0
LINE
  5
506
100
AcDbEntity
  8
DETAIL
  6
CONTINUOUS
 62
     5
100
AcDbLine
 10
298.529297
 20
-562.60599
 30
0.0
 11
298.707262
 21
-562.173348
 31
0.0
  0
LINE
  5
507
100
AcDbEntity
  8
DETAIL
  6
CONTINUOUS
 62
     5
100
AcDbLine
 10
298.707262
 20
-562.173348
 30
0.0
 11
298.831422
 21
-561.677481
 31
0.0
  0
LINE
  5
508
100
AcDbEntity
  8
DETAIL
  6
CONTINUOUS
 62
     5
100
AcDbLine
 10
298.886478
 20
-561.112472
 30
0.0
 11
298.887754
 21
-561.011095
 31
0.0
  0
LINE
  5
509
100
AcDbEntity
  8
DETAIL
  6
CONTINUOUS
 62
     5
100
AcDbLine
 10
295.730611
 20
-565.157821
 30
0.0
 11
296.860259
 21
-564.367538
 31
0.0
  0
LINE
  5
50D
100
AcDbEntity
  8
DETAIL
  6
CONTINUOUS
 62
     5
100
AcDbLine
 10
271.680914
 20
-578.387793
 30
0.0
 11
286.535339
 21
-578.387793
 31
0.0
  0
POLYLINE
  5
50E
100
AcDbEntity
  8
DETAIL
  6
CONTINUOUS
 62
     5
100
AcDb2dPolyline
 66
     1
 10
0.0
 20
0.0
 30
0.0
  0
VERTEX
  5
50F
100
AcDbEntity
  8
DETAIL
  6
CONTINUOUS
 62
     5
100
AcDbVertex
100
AcDb2dVertex
 10
286.535336
 20
-578.387793
 30
0.0
  0
VERTEX
  5
510
100
AcDbEntity
  8
DETAIL
  6
CONTINUOUS
 62
     5
100
AcDbVertex
100
AcDb2dVertex
 10
291.112329
 20
-578.124889
 30
0.0
  0
VERTEX
  5
511
100
AcDbEntity
  8
DETAIL
  6
CONTINUOUS
 62
     5
100
AcDbVertex
100
AcDb2dVertex
 10
295.550252
 20
-577.344165
 30
0.0
  0
VERTEX
  5
512
100
AcDbEntity
  8
DETAIL
  6
CONTINUOUS
 62
     5
100
AcDbVertex
100
AcDb2dVertex
 10
299.714262
 20
-576.069343
 30
0.0
  0
VERTEX
  5
513
100
AcDbEntity
  8
DETAIL
  6
CONTINUOUS
 62
     5
100
AcDbVertex
100
AcDb2dVertex
 10
303.477836
 20
-574.339157
 30
0.0
  0
VERTEX
  5
514
100
AcDbEntity
  8
DETAIL
  6
CONTINUOUS
 62
     5
100
AcDbVertex
100
AcDb2dVertex
 10
306.726622
 20
-572.206178
 30
0.0
  0
VERTEX
  5
515
100
AcDbEntity
  8
DETAIL
  6
CONTINUOUS
 62
     5
100
AcDbVertex
100
AcDb2dVertex
 10
309.361905
 20
-569.735217
 30
0.0
  0
VERTEX
  5
516
100
AcDbEntity
  8
DETAIL
  6
CONTINUOUS
 62
     5
100
AcDbVertex
100
AcDb2dVertex
 10
311.303615
 20
-567.001351
 30
0.0
  0
VERTEX
  5
517
100
AcDbEntity
  8
DETAIL
  6
CONTINUOUS
 62
     5
100
AcDbVertex
100
AcDb2dVertex
 10
312.492753
 20
-564.087648
 30
0.0
  0
VERTEX
  5
518
100
AcDbEntity
  8
DETAIL
  6
CONTINUOUS
 62
     5
100
AcDbVertex
100
AcDb2dVertex
 10
312.893188
 20
-561.082639
 30
0.0
  0
SEQEND
  5
519
100
AcDbEntity
  8
DETAIL
  6
CONTINUOUS
 62
     5
  0
ARC
  5
51A
100
AcDbEntity
  8
DETAIL
  6
CONTINUOUS
 62
     5
100
AcDbCircle
 10
271.680914
 20
-566.884367
 30
0.0
 40
11.503426
100
AcDbArc
 50
180.0
 51
270.0
  0
LINE
  5
51B
100
AcDbEntity
  8
DETAIL
  6
CONTINUOUS
 62
     5
100
AcDbLine
 10
246.314185
 20
-574.87332
 30
0.0
 11
246.739282
 21
-574.513917
 31
0.0
  0
LINE
  5
51C
100
AcDbEntity
  8
DETAIL
  6
CONTINUOUS
 62
     5
100
AcDbLine
 10
246.739282
 20
-574.513917
 30
0.0
 11
247.144632
 21
-574.130532
 31
0.0
  0
LINE
  5
51D
100
AcDbEntity
  8
DETAIL
  6
CONTINUOUS
 62
     5
100
AcDbLine
 10
247.144632
 20
-574.130532
 30
0.0
 11
247.528017
 21
-573.725181
 31
0.0
  0
LINE
  5
51E
100
AcDbEntity
  8
DETAIL
  6
CONTINUOUS
 62
     5
100
AcDbLine
 10
247.528017
 20
-573.725181
 30
0.0
 11
247.887388
 21
-573.300122
 31
0.0
  0
LINE
  5
51F
100
AcDbEntity
  8
DETAIL
  6
CONTINUOUS
 62
     5
100
AcDbLine
 10
242.727271
 20
-576.701245
 30
0.0
 11
243.378716
 21
-576.497847
 31
0.0
  0
LINE
  5
520
100
AcDbEntity
  8
DETAIL
  6
CONTINUOUS
 62
     5
100
AcDbLine
 10
243.378716
 20
-576.497847
 30
0.0
 11
244.014685
 21
-576.250231
 31
0.0
  0
LINE
  5
521
100
AcDbEntity
  8
DETAIL
  6
CONTINUOUS
 62
     5
100
AcDbLine
 10
244.014685
 20
-576.250231
 30
0.0
 11
244.630392
 21
-575.960761
 31
0.0
  0
LINE
  5
522
100
AcDbEntity
  8
DETAIL
  6
CONTINUOUS
 62
     5
100
AcDbLine
 10
244.630392
 20
-575.960761
 30
0.0
 11
245.221454
 21
-575.632446
 31
0.0
  0
LINE
  5
523
100
AcDbEntity
  8
DETAIL
  6
CONTINUOUS
 62
     5
100
AcDbLine
 10
245.221454
 20
-575.632446
 30
0.0
 11
245.783903
 21
-575.268699
 31
0.0
  0
LINE
  5
524
100
AcDbEntity
  8
DETAIL
  6
CONTINUOUS
 62
     5
100
AcDbLine
 10
245.783903
 20
-575.268699
 30
0.0
 11
246.314185
 21
-574.87332
 31
0.0
  0
LINE
  5
525
100
AcDbEntity
  8
DETAIL
  6
CONTINUOUS
 62
     5
100
AcDbLine
 10
247.887388
 20
-573.300122
 30
0.0
 11
248.282732
 21
-572.769897
 31
0.0
  0
LINE
  5
526
100
AcDbEntity
  8
DETAIL
  6
CONTINUOUS
 62
     5
100
AcDbLine
 10
248.282732
 20
-572.769897
 30
0.0
 11
248.646436
 21
-572.207533
 31
0.0
  0
LINE
  5
527
100
AcDbEntity
  8
DETAIL
  6
CONTINUOUS
 62
     5
100
AcDbLine
 10
248.646436
 20
-572.207533
 30
0.0
 11
248.974732
 21
-571.616538
 31
0.0
  0
LINE
  5
528
100
AcDbEntity
  8
DETAIL
  6
CONTINUOUS
 62
     5
100
AcDbLine
 10
248.974732
 20
-571.616538
 30
0.0
 11
249.264202
 21
-571.000876
 31
0.0
  0
LINE
  5
529
100
AcDbEntity
  8
DETAIL
  6
CONTINUOUS
 62
     5
100
AcDbLine
 10
249.264202
 20
-571.000876
 30
0.0
 11
249.511833
 21
-570.364927
 31
0.0
  0
LINE
  5
52A
100
AcDbEntity
  8
DETAIL
  6
CONTINUOUS
 62
     5
100
AcDbLine
 10
249.511833
 20
-570.364927
 30
0.0
 11
249.715256
 21
-569.713475
 31
0.0
  0
LINE
  5
52B
100
AcDbEntity
  8
DETAIL
  6
CONTINUOUS
 62
     5
100
AcDbLine
 10
249.715256
 20
-569.713475
 30
0.0
 11
249.87333
 21
-569.051734
 31
0.0
  0
LINE
  5
52C
100
AcDbEntity
  8
DETAIL
  6
CONTINUOUS
 62
     5
100
AcDbLine
 10
249.87333
 20
-569.051734
 30
0.0
 11
249.985671
 21
-568.385007
 31
0.0
  0
LINE
  5
52D
100
AcDbEntity
  8
DETAIL
  6
CONTINUOUS
 62
     5
100
AcDbLine
 10
249.985671
 20
-568.385007
 30
0.0
 11
250.052471
 21
-567.718524
 31
0.0
  0
LINE
  5
52E
100
AcDbEntity
  8
DETAIL
  6
CONTINUOUS
 62
     5
100
AcDbLine
 10
250.052471
 20
-567.718524
 30
0.0
 11
250.074479
 21
-567.057419
 31
0.0
  0
LINE
  5
52F
100
AcDbEntity
  8
DETAIL
  6
CONTINUOUS
 62
     5
100
AcDbLine
 10
240.071507
 20
-577.060386
 30
0.0
 11
240.732516
 21
-577.038385
 31
0.0
  0
LINE
  5
530
100
AcDbEntity
  8
DETAIL
  6
CONTINUOUS
 62
     5
100
AcDbLine
 10
240.732516
 20
-577.038385
 30
0.0
 11
241.398904
 21
-576.971605
 31
0.0
  0
LINE
  5
531
100
AcDbEntity
  8
DETAIL
  6
CONTINUOUS
 62
     5
100
AcDbLine
 10
241.398904
 20
-576.971605
 30
0.0
 11
242.065566
 21
-576.85929
 31
0.0
  0
LINE
  5
532
100
AcDbEntity
  8
DETAIL
  6
CONTINUOUS
 62
     5
100
AcDbLine
 10
242.065566
 20
-576.85929
 30
0.0
 11
242.727271
 21
-576.701245
 31
0.0
  0
LINE
  5
533
100
AcDbEntity
  8
NOTE
  6
CONTINUOUS
 62
     4
100
AcDbLine
 10
287.0
 20
-480.889009
 30
0.0
 11
287.0
 21
-516.889009
 31
0.0
  0
CIRCLE
  5
534
100
AcDbEntity
  8
FIX
  6
CONTINUOUS
 62
    11
100
AcDbCircle
 10
287.0
 20
-499.901509
 30
0.0
 40
14.940051
  0
LINE
  5
535
100
AcDbEntity
  8
NOTE
  6
CONTINUOUS
 62
     4
100
AcDbLine
 10
305.0
 20
-499.901509
 30
0.0
 11
269.0
 21
-499.901509
 31
0.0
  0
LINE
  5
536
100
AcDbEntity
  8
NOTE
  6
CONTINUOUS
 62
     4
100
AcDbLine
 10
287.0
 20
-481.901509
 30
0.0
 11
287.0
 21
-517.901509
 31
0.0
  0
POINT
  5
537
100
AcDbEntity
  8
DEFPOINTS
  6
CONTINUOUS
 62
     7
100
AcDbPoint
 10
496.732003
 20
-456.889009
 30
0.0
  0
LINE
  5
538
100
AcDbEntity
  8
SIZE
  6
CONTINUOUS
 62
    30
100
AcDbLine
 10
496.732003
 20
-451.889009
 30
0.0
 11
496.732003
 21
-446.889009
 31
0.0
  0
CIRCLE
  5
539
100
AcDbEntity
  8
SIZE
  6
CONTINUOUS
 62
    30
100
AcDbCircle
 10
496.732003
 20
-456.889009
 30
0.0
 40
5.0
  0
TEXT
  5
53B
100
AcDbEntity
  8
SIZE
  6
CONTINUOUS
 62
    30
100
AcDbText
 10
481.732003
 20
-293.031866
 30
0.0
 40
55.0
  1
455
 50
90.0
 41
0.9
 72
     1
 11
481.732003
 21
-229.389009
 31
0.0
100
AcDbText
  0
LINE
  5
53C
100
AcDbEntity
  8
SIZE
  6
CONTINUOUS
 62
    30
100
AcDbLine
 10
496.732003
 20
-6.889009
 30
0.0
 11
496.732003
 21
-11.889009
 31
0.0
  0
LINE
  5
53D
100
AcDbEntity
  8
NOTE
  6
CONTINUOUS
 62
     4
100
AcDbLine
 10
676.624883
 20
-955.041478
 30
0.0
 11
1077.160967
 21
-955.041478
 31
0.0
  0
TEXT
  5
53E
100
AcDbEntity
  8
NOTE
  6
CONTINUOUS
 62
     4
100
AcDbText
 10
692.85976
 20
-935.17089
 30
0.0
 40
64.0
  1
RG %%C12.7
 41
0.9
100
AcDbText
  0
LINE
  5
53F
100
AcDbEntity
  8
SIZE
  6
CONTINUOUS
 62
    30
100
AcDbLine
 10
610.223375
 20
-11.889009
 30
0.0
 11
610.223375
 21
-457.889009
 31
0.0
  0
CIRCLE
  5
540
100
AcDbEntity
  8
SIZE
  6
CONTINUOUS
 62
    30
100
AcDbCircle
 10
610.223375
 20
-467.889009
 30
0.0
 40
5.0
  0
POINT
  5
541
100
AcDbEntity
  8
DEFPOINTS
  6
CONTINUOUS
 62
     7
100
AcDbPoint
 10
610.223375
 20
-467.889009
 30
0.0
  0
LINE
  5
542
100
AcDbEntity
  8
SIZE
  6
CONTINUOUS
 62
    30
100
AcDbLine
 10
610.223375
 20
-462.889009
 30
0.0
 11
610.223375
 21
-457.889009
 31
0.0
  0
LINE
  5
543
100
AcDbEntity
  8
SIZE
  6
CONTINUOUS
 62
    30
100
AcDbLine
 10
610.223375
 20
-6.889009
 30
0.0
 11
610.223375
 21
-11.889009
 31
0.0
  0
LINE
  5
544
100
AcDbEntity
  8
SIZE
  6
CONTINUOUS
 62
    30
100
AcDbLine
 10
401.020374
 20
-1.889009
 30
0.0
 11
640.223375
 21
-1.889009
 31
0.0
  0
LINE
  5
546
100
AcDbEntity
  8
SIZE
  6
CONTINUOUS
 62
    30
100
AcDbLine
 10
287.0
 20
533.110991
 30
0.0
 11
287.0
 21
1006.270306
 31
0.0
  0
LINE
  5
548
100
AcDbEntity
  8
SIZE
  6
CONTINUOUS
 62
    30
100
AcDbLine
 10
-287.0
 20
533.110991
 30
0.0
 11
-287.0
 21
1006.270306
 31
0.0
  0
LINE
  5
549
100
AcDbEntity
  8
DETAIL
  6
CONTINUOUS
 62
     5
100
AcDbLine
 10
-180.053625
 20
565.679952
 30
0.0
 11
180.053625
 21
565.679952
 31
0.0
  0
LINE
  5
54A
100
AcDbEntity
  8
DETAIL
  6
CONTINUOUS
 62
     5
100
AcDbLine
 10
240.071507
 20
573.282216
 30
0.0
 11
-240.071507
 21
573.282216
 31
0.0
  0
POINT
  5
54C
100
AcDbEntity
  8
DEFPOINTS
  6
CONTINUOUS
 62
     7
100
AcDbPoint
 10
-287.0
 20
513.110991
 30
0.0
  0
POINT
  5
54D
100
AcDbEntity
  8
DEFPOINTS
  6
CONTINUOUS
 62
     7
100
AcDbPoint
 10
-287.0
 20
513.110991
 30
0.0
  0
POINT
  5
54E
100
AcDbEntity
  8
DEFPOINTS
  6
CONTINUOUS
 62
     7
100
AcDbPoint
 10
-305.0
 20
495.110991
 30
0.0
  0
POINT
  5
54F
100
AcDbEntity
  8
DEFPOINTS
  6
CONTINUOUS
 62
     7
100
AcDbPoint
 10
-305.0
 20
495.110991
 30
0.0
  0
LINE
  5
551
100
AcDbEntity
  8
DETAIL
  6
CONTINUOUS
 62
     5
100
AcDbLine
 10
-286.535339
 20
574.609623
 30
0.0
 11
-271.680914
 21
574.609623
 31
0.0
  0
LINE
  5
552
100
AcDbEntity
  8
DETAIL
  6
CONTINUOUS
 62
     5
100
AcDbLine
 10
-290.117259
 20
565.182439
 30
0.0
 11
-290.809468
 21
564.92264
 31
0.0
  0
LINE
  5
553
100
AcDbEntity
  8
DETAIL
  6
CONTINUOUS
 62
     5
100
AcDbLine
 10
-289.350348
 20
565.279833
 30
0.0
 11
-290.117259
 21
565.182439
 31
0.0
  0
LINE
  5
554
100
AcDbEntity
  8
DETAIL
  6
CONTINUOUS
 62
     5
100
AcDbLine
 10
-289.350348
 20
565.279833
 30
0.0
 11
-270.423969
 21
565.279833
 31
0.0
  0
LINE
  5
555
100
AcDbEntity
  8
DETAIL
  6
CONTINUOUS
 62
     5
100
AcDbLine
 10
-298.831422
 20
557.899311
 30
0.0
 11
-298.886478
 21
557.334302
 31
0.0
  0
LINE
  5
556
100
AcDbEntity
  8
DETAIL
  6
CONTINUOUS
 62
     5
100
AcDbLine
 10
-298.707262
 20
558.395178
 30
0.0
 11
-298.831422
 21
557.899311
 31
0.0
  0
LINE
  5
557
100
AcDbEntity
  8
DETAIL
  6
CONTINUOUS
 62
     5
100
AcDbLine
 10
-298.529297
 20
558.82782
 30
0.0
 11
-298.707262
 21
558.395178
 31
0.0
  0
LINE
  5
558
100
AcDbEntity
  8
DETAIL
  6
CONTINUOUS
 62
     5
100
AcDbLine
 10
-291.989649
 20
564.057328
 30
0.0
 11
-292.48835
 21
563.498761
 31
0.0
  0
LINE
  5
559
100
AcDbEntity
  8
DETAIL
  6
CONTINUOUS
 62
     5
100
AcDbLine
 10
-291.431802
 20
564.538489
 30
0.0
 11
-291.989649
 21
564.057328
 31
0.0
  0
LINE
  5
55A
100
AcDbEntity
  8
DETAIL
  6
CONTINUOUS
 62
     5
100
AcDbLine
 10
-290.809468
 20
564.92264
 30
0.0
 11
-291.431802
 21
564.538489
 31
0.0
  0
LINE
  5
55B
100
AcDbEntity
  8
DETAIL
  6
CONTINUOUS
 62
     5
100
AcDbLine
 10
-292.933035
 20
562.87597
 30
0.0
 11
-294.422645
 21
562.145639
 31
0.0
  0
LINE
  5
55C
100
AcDbEntity
  8
DETAIL
  6
CONTINUOUS
 62
     5
100
AcDbLine
 10
-292.48835
 20
563.498761
 30
0.0
 11
-292.933035
 21
562.875957
 31
0.0
  0
LINE
  5
55D
100
AcDbEntity
  8
DETAIL
  6
CONTINUOUS
 62
     5
100
AcDbLine
 10
-294.422645
 20
562.145639
 30
0.0
 11
-295.730611
 21
561.379651
 31
0.0
  0
LINE
  5
55E
100
AcDbEntity
  8
DETAIL
  6
CONTINUOUS
 62
     5
100
AcDbLine
 10
-298.310902
 20
559.202895
 30
0.0
 11
-298.529297
 21
558.82782
 31
0.0
  0
LINE
  5
55F
100
AcDbEntity
  8
DETAIL
  6
CONTINUOUS
 62
     5
100
AcDbLine
 10
-298.068094
 20
559.520141
 30
0.0
 11
-298.310902
 21
559.202895
 31
0.0
  0
LINE
  5
560
100
AcDbEntity
  8
DETAIL
  6
CONTINUOUS
 62
     5
100
AcDbLine
 10
-297.817187
 20
559.78096
 30
0.0
 11
-298.068094
 21
559.520141
 31
0.0
  0
LINE
  5
561
100
AcDbEntity
  8
DETAIL
  6
CONTINUOUS
 62
     5
100
AcDbLine
 10
-296.860259
 20
560.589369
 30
0.0
 11
-297.817187
 21
559.78096
 31
0.0
  0
LINE
  5
562
100
AcDbEntity
  8
DETAIL
  6
CONTINUOUS
 62
     5
100
AcDbLine
 10
-295.730611
 20
561.379651
 30
0.0
 11
-296.860259
 21
560.589369
 31
0.0
  0
ARC
  5
565
100
AcDbEntity
  8
DETAIL
  6
CONTINUOUS
 62
     5
100
AcDbCircle
 10
-271.680914
 20
563.106197
 30
0.0
 40
11.503426
100
AcDbArc
 50
0.0
 51
90.0
  0
POLYLINE
  5
566
100
AcDbEntity
  8
DETAIL
  6
CONTINUOUS
 62
     5
100
AcDb2dPolyline
 66
     1
 10
0.0
 20
0.0
 30
0.0
  0
VERTEX
  5
567
100
AcDbEntity
  8
DETAIL
  6
CONTINUOUS
 62
     5
100
AcDbVertex
100
AcDb2dVertex
 10
-312.893188
 20
557.304469
 30
0.0
  0
VERTEX
  5
568
100
AcDbEntity
  8
DETAIL
  6
CONTINUOUS
 62
     5
100
AcDbVertex
100
AcDb2dVertex
 10
-312.492753
 20
560.309478
 30
0.0
  0
VERTEX
  5
569
100
AcDbEntity
  8
DETAIL
  6
CONTINUOUS
 62
     5
100
AcDbVertex
100
AcDb2dVertex
 10
-311.303615
 20
563.223181
 30
0.0
  0
VERTEX
  5
56A
100
AcDbEntity
  8
DETAIL
  6
CONTINUOUS
 62
     5
100
AcDbVertex
100
AcDb2dVertex
 10
-309.361905
 20
565.957047
 30
0.0
  0
VERTEX
  5
56B
100
AcDbEntity
  8
DETAIL
  6
CONTINUOUS
 62
     5
100
AcDbVertex
100
AcDb2dVertex
 10
-306.726622
 20
568.428008
 30
0.0
  0
VERTEX
  5
56C
100
AcDbEntity
  8
DETAIL
  6
CONTINUOUS
 62
     5
100
AcDbVertex
100
AcDb2dVertex
 10
-303.477837
 20
570.560987
 30
0.0
  0
VERTEX
  5
56D
100
AcDbEntity
  8
DETAIL
  6
CONTINUOUS
 62
     5
100
AcDbVertex
100
AcDb2dVertex
 10
-299.714262
 20
572.291173
 30
0.0
  0
VERTEX
  5
56E
100
AcDbEntity
  8
DETAIL
  6
CONTINUOUS
 62
     5
100
AcDbVertex
100
AcDb2dVertex
 10
-295.550252
 20
573.565995
 30
0.0
  0
VERTEX
  5
56F
100
AcDbEntity
  8
DETAIL
  6
CONTINUOUS
 62
     5
100
AcDbVertex
100
AcDb2dVertex
 10
-291.112329
 20
574.346719
 30
0.0
  0
VERTEX
  5
570
100
AcDbEntity
  8
DETAIL
  6
CONTINUOUS
 62
     5
100
AcDbVertex
100
AcDb2dVertex
 10
-286.535337
 20
574.609623
 30
0.0
  0
SEQEND
  5
571
100
AcDbEntity
  8
DETAIL
  6
CONTINUOUS
 62
     5
  0
LINE
  5
572
100
AcDbEntity
  8
DETAIL
  6
CONTINUOUS
 62
     5
100
AcDbLine
 10
-246.314185
 20
571.09515
 30
0.0
 11
-246.739282
 21
570.735748
 31
0.0
  0
LINE
  5
573
100
AcDbEntity
  8
DETAIL
  6
CONTINUOUS
 62
     5
100
AcDbLine
 10
-246.739282
 20
570.735748
 30
0.0
 11
-247.144632
 21
570.352362
 31
0.0
  0
LINE
  5
574
100
AcDbEntity
  8
DETAIL
  6
CONTINUOUS
 62
     5
100
AcDbLine
 10
-247.887388
 20
569.521952
 30
0.0
 11
-248.282732
 21
568.991727
 31
0.0
  0
LINE
  5
575
100
AcDbEntity
  8
DETAIL
  6
CONTINUOUS
 62
     5
100
AcDbLine
 10
-248.282732
 20
568.991727
 30
0.0
 11
-248.646436
 21
568.429363
 31
0.0
  0
LINE
  5
576
100
AcDbEntity
  8
DETAIL
  6
CONTINUOUS
 62
     5
100
AcDbLine
 10
-247.144632
 20
570.352362
 30
0.0
 11
-247.528017
 21
569.947011
 31
0.0
  0
LINE
  5
577
100
AcDbEntity
  8
DETAIL
  6
CONTINUOUS
 62
     5
100
AcDbLine
 10
-247.528017
 20
569.947011
 30
0.0
 11
-247.887388
 21
569.521952
 31
0.0
  0
LINE
  5
578
100
AcDbEntity
  8
DETAIL
  6
CONTINUOUS
 62
     5
100
AcDbLine
 10
-240.071507
 20
573.282216
 30
0.0
 11
-240.732516
 21
573.260215
 31
0.0
  0
LINE
  5
579
100
AcDbEntity
  8
DETAIL
  6
CONTINUOUS
 62
     5
100
AcDbLine
 10
-240.732516
 20
573.260215
 30
0.0
 11
-241.398904
 21
573.193435
 31
0.0
  0
LINE
  5
57A
100
AcDbEntity
  8
DETAIL
  6
CONTINUOUS
 62
     5
100
AcDbLine
 10
-241.398904
 20
573.193435
 30
0.0
 11
-242.065566
 21
573.08112
 31
0.0
  0
LINE
  5
57B
100
AcDbEntity
  8
DETAIL
  6
CONTINUOUS
 62
     5
100
AcDbLine
 10
-242.065566
 20
573.08112
 30
0.0
 11
-242.727271
 21
572.923075
 31
0.0
  0
LINE
  5
57C
100
AcDbEntity
  8
DETAIL
  6
CONTINUOUS
 62
     5
100
AcDbLine
 10
-242.727271
 20
572.923075
 30
0.0
 11
-243.378716
 21
572.719677
 31
0.0
  0
LINE
  5
57D
100
AcDbEntity
  8
DETAIL
  6
CONTINUOUS
 62
     5
100
AcDbLine
 10
-243.378716
 20
572.719677
 30
0.0
 11
-244.014685
 21
572.472062
 31
0.0
  0
LINE
  5
57E
100
AcDbEntity
  8
DETAIL
  6
CONTINUOUS
 62
     5
100
AcDbLine
 10
-244.014685
 20
572.472062
 30
0.0
 11
-244.630392
 21
572.182591
 31
0.0
  0
LINE
  5
57F
100
AcDbEntity
  8
DETAIL
  6
CONTINUOUS
 62
     5
100
AcDbLine
 10
-244.630392
 20
572.182591
 30
0.0
 11
-245.221454
 21
571.854276
 31
0.0
  0
LINE
  5
580
100
AcDbEntity
  8
DETAIL
  6
CONTINUOUS
 62
     5
100
AcDbLine
 10
-245.221454
 20
571.854276
 30
0.0
 11
-245.783903
 21
571.490529
 31
0.0
  0
LINE
  5
581
100
AcDbEntity
  8
DETAIL
  6
CONTINUOUS
 62
     5
100
AcDbLine
 10
-245.783903
 20
571.490529
 30
0.0
 11
-246.314185
 21
571.09515
 31
0.0
  0
LINE
  5
582
100
AcDbEntity
  8
DETAIL
  6
CONTINUOUS
 62
     5
100
AcDbLine
 10
-248.974732
 20
567.838368
 30
0.0
 11
-249.264202
 21
567.222706
 31
0.0
  0
LINE
  5
583
100
AcDbEntity
  8
DETAIL
  6
CONTINUOUS
 62
     5
100
AcDbLine
 10
-249.264202
 20
567.222706
 30
0.0
 11
-249.511833
 21
566.586757
 31
0.0
  0
LINE
  5
584
100
AcDbEntity
  8
DETAIL
  6
CONTINUOUS
 62
     5
100
AcDbLine
 10
-249.511833
 20
566.586757
 30
0.0
 11
-249.715256
 21
565.935305
 31
0.0
  0
LINE
  5
585
100
AcDbEntity
  8
DETAIL
  6
CONTINUOUS
 62
     5
100
AcDbLine
 10
-249.715256
 20
565.935305
 30
0.0
 11
-249.87333
 21
565.273564
 31
0.0
  0
LINE
  5
586
100
AcDbEntity
  8
DETAIL
  6
CONTINUOUS
 62
     5
100
AcDbLine
 10
-249.87333
 20
565.273564
 30
0.0
 11
-249.985671
 21
564.606837
 31
0.0
  0
LINE
  5
587
100
AcDbEntity
  8
DETAIL
  6
CONTINUOUS
 62
     5
100
AcDbLine
 10
-249.985671
 20
564.606837
 30
0.0
 11
-250.052471
 21
563.940355
 31
0.0
  0
LINE
  5
588
100
AcDbEntity
  8
DETAIL
  6
CONTINUOUS
 62
     5
100
AcDbLine
 10
-250.052471
 20
563.940355
 30
0.0
 11
-250.074479
 21
563.279249
 31
0.0
  0
LINE
  5
589
100
AcDbEntity
  8
DETAIL
  6
CONTINUOUS
 62
     5
100
AcDbLine
 10
-248.646436
 20
568.429363
 30
0.0
 11
-248.974732
 21
567.838368
 31
0.0
  0
CIRCLE
  5
58A
100
AcDbEntity
  8
FIX
  6
CONTINUOUS
 62
    11
100
AcDbCircle
 10
-287.0
 20
495.110991
 30
0.0
 40
14.940051
  0
LINE
  5
58B
100
AcDbEntity
  8
NOTE
  6
CONTINUOUS
 62
     4
100
AcDbLine
 10
-269.0
 20
495.110991
 30
0.0
 11
-305.0
 21
495.110991
 31
0.0
  0
LINE
  5
58C
100
AcDbEntity
  8
NOTE
  6
CONTINUOUS
 62
     4
100
AcDbLine
 10
-287.0
 20
513.110991
 30
0.0
 11
-287.0
 21
477.110991
 31
0.0
  0
LINE
  5
58D
100
AcDbEntity
  8
NOTE
  6
CONTINUOUS
 62
     4
100
AcDbLine
 10
-287.000376
 20
495.112189
 30
0.0
 11
-308.534415
 21
521.919554
 31
0.0
  0
LINE
  5
58E
100
AcDbEntity
  8
NOTE
  6
CONTINUOUS
 62
     4
100
AcDbLine
 10
-287.000376
 20
495.112189
 30
0.0
 11
-292.245717
 21
529.095068
 31
0.0
  0
LINE
  5
591
100
AcDbEntity
  8
SIZE
  6
CONTINUOUS
 62
    30
100
AcDbLine
 10
401.020374
 20
-1.889009
 30
0.0
 11
526.732003
 21
-1.889009
 31
0.0
  0
POINT
  5
592
100
AcDbEntity
  8
DEFPOINTS
  6
CONTINUOUS
 62
     7
100
AcDbPoint
 10
381.020374
 20
-1.889009
 30
0.0
  0
POINT
  5
593
100
AcDbEntity
  8
DEFPOINTS
  6
CONTINUOUS
 62
     7
100
AcDbPoint
 10
381.020374
 20
-1.889009
 30
0.0
  0
POINT
  5
597
100
AcDbEntity
  8
DEFPOINTS
  6
CONTINUOUS
 62
     7
100
AcDbPoint
 10
287.0
 20
513.110991
 30
0.0
  0
POINT
  5
598
100
AcDbEntity
  8
DEFPOINTS
  6
CONTINUOUS
 62
     7
100
AcDbPoint
 10
287.0
 20
513.110991
 30
0.0
  0
LINE
  5
59A
100
AcDbEntity
  8
DETAIL
  6
CONTINUOUS
 62
     5
100
AcDbLine
 10
286.535339
 20
574.609623
 30
0.0
 11
271.680914
 21
574.609623
 31
0.0
  0
LINE
  5
59B
100
AcDbEntity
  8
DETAIL
  6
CONTINUOUS
 62
     5
100
AcDbLine
 10
245.221454
 20
571.854276
 30
0.0
 11
245.783903
 21
571.490529
 31
0.0
  0
LINE
  5
59C
100
AcDbEntity
  8
DETAIL
  6
CONTINUOUS
 62
     5
100
AcDbLine
 10
245.783903
 20
571.490529
 30
0.0
 11
246.314185
 21
571.09515
 31
0.0
  0
LINE
  5
59D
100
AcDbEntity
  8
DETAIL
  6
CONTINUOUS
 62
     5
100
AcDbLine
 10
247.887388
 20
569.521952
 30
0.0
 11
248.282732
 21
568.991727
 31
0.0
  0
LINE
  5
59E
100
AcDbEntity
  8
DETAIL
  6
CONTINUOUS
 62
     5
100
AcDbLine
 10
248.282732
 20
568.991727
 30
0.0
 11
248.646436
 21
568.429363
 31
0.0
  0
LINE
  5
59F
100
AcDbEntity
  8
DETAIL
  6
CONTINUOUS
 62
     5
100
AcDbLine
 10
246.314185
 20
571.09515
 30
0.0
 11
246.739282
 21
570.735748
 31
0.0
  0
LINE
  5
5A0
100
AcDbEntity
  8
DETAIL
  6
CONTINUOUS
 62
     5
100
AcDbLine
 10
246.739282
 20
570.735748
 30
0.0
 11
247.144632
 21
570.352362
 31
0.0
  0
LINE
  5
5A1
100
AcDbEntity
  8
DETAIL
  6
CONTINUOUS
 62
     5
100
AcDbLine
 10
247.144632
 20
570.352362
 30
0.0
 11
247.528017
 21
569.947011
 31
0.0
  0
LINE
  5
5A2
100
AcDbEntity
  8
DETAIL
  6
CONTINUOUS
 62
     5
100
AcDbLine
 10
247.528017
 20
569.947011
 30
0.0
 11
247.887388
 21
569.521952
 31
0.0
  0
LINE
  5
5A3
100
AcDbEntity
  8
DETAIL
  6
CONTINUOUS
 62
     5
100
AcDbLine
 10
240.071507
 20
573.282216
 30
0.0
 11
240.732516
 21
573.260215
 31
0.0
  0
LINE
  5
5A4
100
AcDbEntity
  8
DETAIL
  6
CONTINUOUS
 62
     5
100
AcDbLine
 10
240.732516
 20
573.260215
 30
0.0
 11
241.398904
 21
573.193435
 31
0.0
  0
LINE
  5
5A5
100
AcDbEntity
  8
DETAIL
  6
CONTINUOUS
 62
     5
100
AcDbLine
 10
241.398904
 20
573.193435
 30
0.0
 11
242.065566
 21
573.08112
 31
0.0
  0
LINE
  5
5A6
100
AcDbEntity
  8
DETAIL
  6
CONTINUOUS
 62
     5
100
AcDbLine
 10
242.065566
 20
573.08112
 30
0.0
 11
242.727271
 21
572.923075
 31
0.0
  0
LINE
  5
5A7
100
AcDbEntity
  8
DETAIL
  6
CONTINUOUS
 62
     5
100
AcDbLine
 10
242.727271
 20
572.923075
 30
0.0
 11
243.378716
 21
572.719677
 31
0.0
  0
LINE
  5
5A8
100
AcDbEntity
  8
DETAIL
  6
CONTINUOUS
 62
     5
100
AcDbLine
 10
243.378716
 20
572.719677
 30
0.0
 11
244.014685
 21
572.472062
 31
0.0
  0
LINE
  5
5A9
100
AcDbEntity
  8
DETAIL
  6
CONTINUOUS
 62
     5
100
AcDbLine
 10
244.014685
 20
572.472062
 30
0.0
 11
244.630392
 21
572.182591
 31
0.0
  0
LINE
  5
5AA
100
AcDbEntity
  8
DETAIL
  6
CONTINUOUS
 62
     5
100
AcDbLine
 10
244.630392
 20
572.182591
 30
0.0
 11
245.221454
 21
571.854276
 31
0.0
  0
LINE
  5
5AB
100
AcDbEntity
  8
DETAIL
  6
CONTINUOUS
 62
     5
100
AcDbLine
 10
290.117259
 20
565.182439
 30
0.0
 11
290.809468
 21
564.92264
 31
0.0
  0
LINE
  5
5AC
100
AcDbEntity
  8
DETAIL
  6
CONTINUOUS
 62
     5
100
AcDbLine
 10
289.350348
 20
565.279833
 30
0.0
 11
290.117259
 21
565.182439
 31
0.0
  0
LINE
  5
5AD
100
AcDbEntity
  8
DETAIL
  6
CONTINUOUS
 62
     5
100
AcDbLine
 10
289.350348
 20
565.279833
 30
0.0
 11
270.423969
 21
565.279833
 31
0.0
  0
LINE
  5
5AE
100
AcDbEntity
  8
DETAIL
  6
CONTINUOUS
 62
     5
100
AcDbLine
 10
298.831422
 20
557.899311
 30
0.0
 11
298.886478
 21
557.334302
 31
0.0
  0
LINE
  5
5AF
100
AcDbEntity
  8
DETAIL
  6
CONTINUOUS
 62
     5
100
AcDbLine
 10
298.707262
 20
558.395178
 30
0.0
 11
298.831422
 21
557.899311
 31
0.0
  0
LINE
  5
5B0
100
AcDbEntity
  8
DETAIL
  6
CONTINUOUS
 62
     5
100
AcDbLine
 10
298.529297
 20
558.82782
 30
0.0
 11
298.707262
 21
558.395178
 31
0.0
  0
LINE
  5
5B1
100
AcDbEntity
  8
DETAIL
  6
CONTINUOUS
 62
     5
100
AcDbLine
 10
291.989649
 20
564.057328
 30
0.0
 11
292.48835
 21
563.498761
 31
0.0
  0
LINE
  5
5B2
100
AcDbEntity
  8
DETAIL
  6
CONTINUOUS
 62
     5
100
AcDbLine
 10
291.431802
 20
564.538489
 30
0.0
 11
291.989649
 21
564.057328
 31
0.0
  0
LINE
  5
5B3
100
AcDbEntity
  8
DETAIL
  6
CONTINUOUS
 62
     5
100
AcDbLine
 10
290.809468
 20
564.92264
 30
0.0
 11
291.431802
 21
564.538489
 31
0.0
  0
LINE
  5
5B4
100
AcDbEntity
  8
DETAIL
  6
CONTINUOUS
 62
     5
100
AcDbLine
 10
292.933035
 20
562.87597
 30
0.0
 11
294.422645
 21
562.145639
 31
0.0
  0
LINE
  5
5B5
100
AcDbEntity
  8
DETAIL
  6
CONTINUOUS
 62
     5
100
AcDbLine
 10
292.48835
 20
563.498761
 30
0.0
 11
292.933035
 21
562.875957
 31
0.0
  0
LINE
  5
5B6
100
AcDbEntity
  8
DETAIL
  6
CONTINUOUS
 62
     5
100
AcDbLine
 10
294.422645
 20
562.145639
 30
0.0
 11
295.730611
 21
561.379651
 31
0.0
  0
LINE
  5
5B7
100
AcDbEntity
  8
DETAIL
  6
CONTINUOUS
 62
     5
100
AcDbLine
 10
298.310902
 20
559.202895
 30
0.0
 11
298.529297
 21
558.82782
 31
0.0
  0
LINE
  5
5B8
100
AcDbEntity
  8
DETAIL
  6
CONTINUOUS
 62
     5
100
AcDbLine
 10
298.068094
 20
559.520141
 30
0.0
 11
298.310902
 21
559.202895
 31
0.0
  0
LINE
  5
5B9
100
AcDbEntity
  8
DETAIL
  6
CONTINUOUS
 62
     5
100
AcDbLine
 10
297.817187
 20
559.78096
 30
0.0
 11
298.068094
 21
559.520141
 31
0.0
  0
LINE
  5
5BA
100
AcDbEntity
  8
DETAIL
  6
CONTINUOUS
 62
     5
100
AcDbLine
 10
296.860259
 20
560.589369
 30
0.0
 11
297.817187
 21
559.78096
 31
0.0
  0
LINE
  5
5BB
100
AcDbEntity
  8
DETAIL
  6
CONTINUOUS
 62
     5
100
AcDbLine
 10
295.730611
 20
561.379651
 30
0.0
 11
296.860259
 21
560.589369
 31
0.0
  0
LINE
  5
5BC
100
AcDbEntity
  8
DETAIL
  6
CONTINUOUS
 62
     5
100
AcDbLine
 10
248.974732
 20
567.838368
 30
0.0
 11
249.264202
 21
567.222706
 31
0.0
  0
LINE
  5
5BD
100
AcDbEntity
  8
DETAIL
  6
CONTINUOUS
 62
     5
100
AcDbLine
 10
249.264202
 20
567.222706
 30
0.0
 11
249.511833
 21
566.586757
 31
0.0
  0
LINE
  5
5BE
100
AcDbEntity
  8
DETAIL
  6
CONTINUOUS
 62
     5
100
AcDbLine
 10
249.511833
 20
566.586757
 30
0.0
 11
249.715256
 21
565.935305
 31
0.0
  0
LINE
  5
5BF
100
AcDbEntity
  8
DETAIL
  6
CONTINUOUS
 62
     5
100
AcDbLine
 10
249.715256
 20
565.935305
 30
0.0
 11
249.87333
 21
565.273564
 31
0.0
  0
LINE
  5
5C0
100
AcDbEntity
  8
DETAIL
  6
CONTINUOUS
 62
     5
100
AcDbLine
 10
249.87333
 20
565.273564
 30
0.0
 11
249.985671
 21
564.606837
 31
0.0
  0
LINE
  5
5C1
100
AcDbEntity
  8
DETAIL
  6
CONTINUOUS
 62
     5
100
AcDbLine
 10
249.985671
 20
564.606837
 30
0.0
 11
250.052471
 21
563.940355
 31
0.0
  0
LINE
  5
5C2
100
AcDbEntity
  8
DETAIL
  6
CONTINUOUS
 62
     5
100
AcDbLine
 10
250.052471
 20
563.940355
 30
0.0
 11
250.074479
 21
563.279249
 31
0.0
  0
ARC
  5
5C5
100
AcDbEntity
  8
DETAIL
  6
CONTINUOUS
 62
     5
100
AcDbCircle
 10
271.680914
 20
563.106197
 30
0.0
 40
11.503426
100
AcDbArc
 50
90.0
 51
180.0
  0
POLYLINE
  5
5C6
100
AcDbEntity
  8
DETAIL
  6
CONTINUOUS
 62
     5
100
AcDb2dPolyline
 66
     1
 10
0.0
 20
0.0
 30
0.0
  0
VERTEX
  5
5C7
100
AcDbEntity
  8
DETAIL
  6
CONTINUOUS
 62
     5
100
AcDbVertex
100
AcDb2dVertex
 10
312.893188
 20
557.304469
 30
0.0
  0
VERTEX
  5
5C8
100
AcDbEntity
  8
DETAIL
  6
CONTINUOUS
 62
     5
100
AcDbVertex
100
AcDb2dVertex
 10
312.492753
 20
560.309478
 30
0.0
  0
VERTEX
  5
5C9
100
AcDbEntity
  8
DETAIL
  6
CONTINUOUS
 62
     5
100
AcDbVertex
100
AcDb2dVertex
 10
311.303615
 20
563.223181
 30
0.0
  0
VERTEX
  5
5CA
100
AcDbEntity
  8
DETAIL
  6
CONTINUOUS
 62
     5
100
AcDbVertex
100
AcDb2dVertex
 10
309.361905
 20
565.957047
 30
0.0
  0
VERTEX
  5
5CB
100
AcDbEntity
  8
DETAIL
  6
CONTINUOUS
 62
     5
100
AcDbVertex
100
AcDb2dVertex
 10
306.726622
 20
568.428008
 30
0.0
  0
VERTEX
  5
5CC
100
AcDbEntity
  8
DETAIL
  6
CONTINUOUS
 62
     5
100
AcDbVertex
100
AcDb2dVertex
 10
303.477837
 20
570.560987
 30
0.0
  0
VERTEX
  5
5CD
100
AcDbEntity
  8
DETAIL
  6
CONTINUOUS
 62
     5
100
AcDbVertex
100
AcDb2dVertex
 10
299.714262
 20
572.291173
 30
0.0
  0
VERTEX
  5
5CE
100
AcDbEntity
  8
DETAIL
  6
CONTINUOUS
 62
     5
100
AcDbVertex
100
AcDb2dVertex
 10
295.550252
 20
573.565995
 30
0.0
  0
VERTEX
  5
5CF
100
AcDbEntity
  8
DETAIL
  6
CONTINUOUS
 62
     5
100
AcDbVertex
100
AcDb2dVertex
 10
291.112329
 20
574.346719
 30
0.0
  0
VERTEX
  5
5D0
100
AcDbEntity
  8
DETAIL
  6
CONTINUOUS
 62
     5
100
AcDbVertex
100
AcDb2dVertex
 10
286.535337
 20
574.609623
 30
0.0
  0
SEQEND
  5
5D1
100
AcDbEntity
  8
DETAIL
  6
CONTINUOUS
 62
     5
  0
LINE
  5
5D2
100
AcDbEntity
  8
DETAIL
  6
CONTINUOUS
 62
     5
100
AcDbLine
 10
248.646436
 20
568.429363
 30
0.0
 11
248.974732
 21
567.838368
 31
0.0
  0
LINE
  5
5D3
100
AcDbEntity
  8
NOTE
  6
CONTINUOUS
 62
     4
100
AcDbLine
 10
287.0
 20
513.110991
 30
0.0
 11
287.0
 21
477.110991
 31
0.0
  0
CIRCLE
  5
5D4
100
AcDbEntity
  8
FIX
  6
CONTINUOUS
 62
    11
100
AcDbCircle
 10
287.0
 20
495.110991
 30
0.0
 40
14.940051
  0
LINE
  5
5D5
100
AcDbEntity
  8
NOTE
  6
CONTINUOUS
 62
     4
100
AcDbLine
 10
305.0
 20
495.110991
 30
0.0
 11
269.0
 21
495.110991
 31
0.0
  0
LINE
  5
5D6
100
AcDbEntity
  8
NOTE
  6
CONTINUOUS
 62
     4
100
AcDbLine
 10
287.0
 20
513.110991
 30
0.0
 11
287.0
 21
477.110991
 31
0.0
  0
TEXT
  5
5D7
100
AcDbEntity
  8
SIZE
  6
CONTINUOUS
 62
    30
100
AcDbText
 10
-258.814286
 20
995.675068
 30
0.0
 40
55.0
  1
574(吊りﾎﾞﾙﾄﾋﾟｯﾁ)
 41
0.9
 72
     1
 11
0.0
 21
995.675068
 31
0.0
100
AcDbText
  0
LINE
  5
5D8
100
AcDbEntity
  8
SIZE
  6
CONTINUOUS
 62
    30
100
AcDbLine
 10
-277.0
 20
976.270306
 30
0.0
 11
277.0
 21
976.270306
 31
0.0
  0
LINE
  5
5D9
100
AcDbEntity
  8
SIZE
  6
CONTINUOUS
 62
    30
100
AcDbLine
 10
-282.0
 20
976.270306
 30
0.0
 11
-277.0
 21
976.270306
 31
0.0
  0
CIRCLE
  5
5DA
100
AcDbEntity
  8
SIZE
  6
CONTINUOUS
 62
    30
100
AcDbCircle
 10
-287.0
 20
976.270306
 30
0.0
 40
5.0
  0
POINT
  5
5DB
100
AcDbEntity
  8
DEFPOINTS
  6
CONTINUOUS
 62
     7
100
AcDbPoint
 10
-287.0
 20
976.270306
 30
0.0
  0
LINE
  5
5DC
100
AcDbEntity
  8
SIZE
  6
CONTINUOUS
 62
    30
100
AcDbLine
 10
-292.0
 20
976.270306
 30
0.0
 11
-297.0
 21
976.270306
 31
0.0
  0
CIRCLE
  5
5DD
100
AcDbEntity
  8
SIZE
  6
CONTINUOUS
 62
    30
100
AcDbCircle
 10
-287.0
 20
976.270306
 30
0.0
 40
5.0
  0
TEXT
  5
5DE
100
AcDbEntity
  8
SIZE
  6
CONTINUOUS
 62
    30
100
AcDbText
 10
-58.928571
 20
1134.918512
 30
0.0
 40
55.0
  1
710
 41
0.9
 72
     1
 11
0.0
 21
1134.918512
 31
0.0
100
AcDbText
  0
LINE
  5
5DF
100
AcDbEntity
  8
SIZE
  6
CONTINUOUS
 62
    30
100
AcDbLine
 10
355.0
 20
788.110991
 30
0.0
 11
355.0
 21
1006.270306
 31
0.0
  0
LINE
  5
5E0
100
AcDbEntity
  8
SIZE
  6
CONTINUOUS
 62
    30
100
AcDbLine
 10
355.0
 20
788.110991
 30
0.0
 11
355.0
 21
1149.918512
 31
0.0
  0
POINT
  5
5E1
100
AcDbEntity
  8
DEFPOINTS
  6
CONTINUOUS
 62
     7
100
AcDbPoint
 10
355.0
 20
768.110991
 30
0.0
  0
POINT
  5
5E2
100
AcDbEntity
  8
DEFPOINTS
  6
CONTINUOUS
 62
     7
100
AcDbPoint
 10
355.0
 20
768.110991
 30
0.0
  0
LINE
  5
5E3
100
AcDbEntity
  8
SIZE
  6
CONTINUOUS
 62
    30
100
AcDbLine
 10
297.0
 20
976.270306
 30
0.0
 11
345.0
 21
976.270306
 31
0.0
  0
LINE
  5
5E4
100
AcDbEntity
  8
SIZE
  6
CONTINUOUS
 62
    30
100
AcDbLine
 10
292.0
 20
976.270306
 30
0.0
 11
297.0
 21
976.270306
 31
0.0
  0
CIRCLE
  5
5E5
100
AcDbEntity
  8
SIZE
  6
CONTINUOUS
 62
    30
100
AcDbCircle
 10
287.0
 20
976.270306
 30
0.0
 40
5.0
  0
POINT
  5
5E6
100
AcDbEntity
  8
DEFPOINTS
  6
CONTINUOUS
 62
     7
100
AcDbPoint
 10
287.0
 20
976.270306
 30
0.0
  0
LINE
  5
5E7
100
AcDbEntity
  8
SIZE
  6
CONTINUOUS
 62
    30
100
AcDbLine
 10
282.0
 20
976.270306
 30
0.0
 11
277.0
 21
976.270306
 31
0.0
  0
CIRCLE
  5
5E8
100
AcDbEntity
  8
SIZE
  6
CONTINUOUS
 62
    30
100
AcDbCircle
 10
287.0
 20
976.270306
 30
0.0
 40
5.0
  0
TEXT
  5
5E9
100
AcDbEntity
  8
SIZE
  6
CONTINUOUS
 62
    30
100
AcDbText
 10
382.785829
 20
991.270306
 30
0.0
 40
55.0
  1
68
 41
0.9
 72
     1
 11
422.857258
 21
991.270306
 31
0.0
100
AcDbText
  0
LINE
  5
5EA
100
AcDbEntity
  8
SIZE
  6
CONTINUOUS
 62
    30
100
AcDbLine
 10
477.928686
 20
976.270306
 30
0.0
 11
355.0
 21
976.270306
 31
0.0
  0
POINT
  5
5EB
100
AcDbEntity
  8
DEFPOINTS
  6
CONTINUOUS
 62
     7
100
AcDbPoint
 10
355.0
 20
976.270306
 30
0.0
  0
LINE
  5
5EC
100
AcDbEntity
  8
SIZE
  6
CONTINUOUS
 62
    30
100
AcDbLine
 10
350.0
 20
976.270306
 30
0.0
 11
345.0
 21
976.270306
 31
0.0
  0
CIRCLE
  5
5ED
100
AcDbEntity
  8
SIZE
  6
CONTINUOUS
 62
    30
100
AcDbCircle
 10
355.0
 20
976.270306
 30
0.0
 40
5.0
  0
POINT
  5
5EE
100
AcDbEntity
  8
DEFPOINTS
  6
CONTINUOUS
 62
     7
100
AcDbPoint
 10
355.0
 20
1119.918512
 30
0.0
  0
LINE
  5
5EF
100
AcDbEntity
  8
SIZE
  6
CONTINUOUS
 62
    30
100
AcDbLine
 10
350.0
 20
1119.918512
 30
0.0
 11
345.0
 21
1119.918512
 31
0.0
  0
CIRCLE
  5
5F0
100
AcDbEntity
  8
SIZE
  6
CONTINUOUS
 62
    30
100
AcDbCircle
 10
355.0
 20
1119.918512
 30
0.0
 40
5.0
  0
ENDSEC
  0
SECTION
  2
OBJECTS
  0
DICTIONARY
  5
23D
100
AcDbDictionary
  3
ACAD_GROUP
350
23E
  3
ACAD_MLINESTYLE
350
24C
  0
DICTIONARY
  5
23E
102
{ACAD_REACTORS
330
23D
102
}
100
AcDbDictionary
  0
DICTIONARY
  5
24C
102
{ACAD_REACTORS
330
23D
102
}
100
AcDbDictionary
  3
STANDARD
350
24D
  0
MLINESTYLE
  5
24D
102
{ACAD_REACTORS
330
24C
102
}
100
AcDbMlineStyle
  2
STANDARD
 70
     0
  3

 62
   256
 51
90.0
 52
90.0
 71
     2
 49
0.5
 62
   256
  6
BYLAYER
 49
-0.5
 62
   256
  6
BYLAYER
  0
ENDSEC
  0
EOF
