  0
SECTION
  2
HEADER
  9
$ACADVER
  1
AC1009
  9
$INSBASE
 10
0.0
 20
0.0
 30
0.0
  9
$EXTMIN
 10
-1066.5893217858279
 20
-302.1239975957688
 30
-0.0000000349181948
  9
$EXTMAX
 10
1368.713401454399
 20
1095.1996019519861
 30
0.0000000814935747
  9
$LIMMIN
 10
-6000.0
 20
-4500.0
  9
$LIMMAX
 10
6000.0
 20
4500.0
  9
$ORTHOMODE
 70
     0
  9
$REGENMODE
 70
     1
  9
$FILLMODE
 70
     1
  9
$QTEXTMODE
 70
     0
  9
$MIRRTEXT
 70
     0
  9
$DRAGMODE
 70
     2
  9
$LTSCALE
 40
20.0
  9
$OSMODE
 70
   959
  9
$ATTMODE
 70
     1
  9
$TEXTSIZE
 40
64.0
  9
$TRACEWID
 40
0.05
  9
$TEXTSTYLE
  7
STANDARD
  9
$CLAYER
  8
SYMBOLLINE
  9
$CELTYPE
  6
CONTINUOUS
  9
$CECOLOR
 62
     7
  9
$DIMSCALE
 40
1.0
  9
$DIMASZ
 40
10.0
  9
$DIMEXO
 40
20.0
  9
$DIMDLI
 40
200.0
  9
$DIMRND
 40
0.0
  9
$DIMDLE
 40
0.0
  9
$DIMEXE
 40
30.0
  9
$DIMTP
 40
0.0
  9
$DIMTM
 40
0.0
  9
$DIMTXT
 40
64.0
  9
$DIMCEN
 40
0.0
  9
$DIMTSZ
 40
0.0
  9
$DIMTOL
 70
     0
  9
$DIMLIM
 70
     0
  9
$DIMTIH
 70
     0
  9
$DIMTOH
 70
     0
  9
$DIMSE1
 70
     0
  9
$DIMSE2
 70
     0
  9
$DIMTAD
 70
     1
  9
$DIMZIN
 70
     8
  9
$DIMBLK
  1

  9
$DIMASO
 70
     1
  9
$DIMSHO
 70
     0
  9
$DIMPOST
  1

  9
$DIMAPOST
  1

  9
$DIMALT
 70
     0
  9
$DIMALTD
 70
     2
  9
$DIMALTF
 40
25.399999999999999
  9
$DIMLFAC
 40
1.0
  9
$DIMTOFL
 70
     1
  9
$DIMTVP
 40
0.0
  9
$DIMTIX
 70
     1
  9
$DIMSOXD
 70
     0
  9
$DIMSAH
 70
     1
  9
$DIMBLK1
  1
DOTBLANK
  9
$DIMBLK2
  1
DOTBLANK
  9
$DIMSTYLE
  2
STANDARD
  9
$DIMCLRD
 70
     0
  9
$DIMCLRE
 70
     0
  9
$DIMCLRT
 70
     0
  9
$DIMTFAC
 40
1.0
  9
$DIMGAP
 40
0.09
  9
$LUNITS
 70
     2
  9
$LUPREC
 70
     4
  9
$SKETCHINC
 40
0.1
  9
$FILLETRAD
 40
20.0
  9
$AUNITS
 70
     1
  9
$AUPREC
 70
     3
  9
$MENU
  1
ACAD
  9
$ELEVATION
 40
0.0
  9
$PELEVATION
 40
0.0
  9
$THICKNESS
 40
0.0
  9
$LIMCHECK
 70
     0
  9
$BLIPMODE
 70
     0
  9
$CHAMFERA
 40
0.0
  9
$CHAMFERB
 40
0.0
  9
$SKPOLY
 70
     0
  9
$TDCREATE
 40
2450330.4399309959
  9
$TDUPDATE
 40
2455575.6338819331
  9
$TDINDWG
 40
1.3960044907
  9
$TDUSRTIMER
 40
1.3960041204
  9
$USRTIMER
 70
     1
  9
$ANGBASE
 50
0.0
  9
$ANGDIR
 70
     0
  9
$PDMODE
 70
     3
  9
$PDSIZE
 40
-2.0
  9
$PLINEWID
 40
0.0
  9
$COORDS
 70
     0
  9
$SPLFRAME
 70
     0
  9
$SPLINETYPE
 70
     6
  9
$SPLINESEGS
 70
     8
  9
$ATTDIA
 70
     0
  9
$ATTREQ
 70
     1
  9
$HANDLING
 70
     1
  9
$HANDSEED
  5
52F
  9
$SURFTAB1
 70
     6
  9
$SURFTAB2
 70
     6
  9
$SURFTYPE
 70
     6
  9
$SURFU
 70
     6
  9
$SURFV
 70
     6
  9
$UCSNAME
  2

  9
$UCSORG
 10
0.0
 20
0.0
 30
0.0
  9
$UCSXDIR
 10
1.0
 20
0.0
 30
0.0
  9
$UCSYDIR
 10
0.0
 20
1.0
 30
0.0
  9
$PUCSNAME
  2

  9
$PUCSORG
 10
0.0
 20
0.0
 30
0.0
  9
$PUCSXDIR
 10
1.0
 20
0.0
 30
0.0
  9
$PUCSYDIR
 10
0.0
 20
1.0
 30
0.0
  9
$USERI1
 70
     0
  9
$USERI2
 70
     0
  9
$USERI3
 70
     0
  9
$USERI4
 70
     0
  9
$USERI5
 70
     0
  9
$USERR1
 40
20.0
  9
$USERR2
 40
0.0
  9
$USERR3
 40
0.0
  9
$USERR4
 40
0.0
  9
$USERR5
 40
0.0
  9
$WORLDVIEW
 70
     1
  9
$SHADEDGE
 70
     3
  9
$SHADEDIF
 70
    70
  9
$TILEMODE
 70
     1
  9
$MAXACTVP
 70
    48
  9
$PLIMCHECK
 70
     0
  9
$PEXTMIN
 10
1.0000000000000000E+020
 20
1.0000000000000000E+020
 30
1.0000000000000000E+020
  9
$PEXTMAX
 10
-1.0000000000000000E+020
 20
-1.0000000000000000E+020
 30
-1.0000000000000000E+020
  9
$PLIMMIN
 10
0.0
 20
0.0
  9
$PLIMMAX
 10
12.0
 20
9.0
  9
$UNITMODE
 70
     0
  9
$VISRETAIN
 70
     1
  9
$PLINEGEN
 70
     0
  9
$PSLTSCALE
 70
     1
  0
ENDSEC
  0
SECTION
  2
TABLES
  0
TABLE
  2
VPORT
 70
     1
  0
VPORT
  2
*ACTIVE
 70
     0
 10
0.0
 20
0.0
 11
1.0
 21
1.0
 12
0.0
 22
0.0
 13
0.0
 23
0.0
 14
50.0
 24
50.0
 15
100.0
 25
100.0
 16
0.0
 26
0.0
 36
1.0
 17
0.0
 27
0.0
 37
0.0
 40
9068.9655172413786
 41
1.5639386189258311
 42
50.0
 43
0.0
 44
0.0
 50
0.0
 51
0.0
 71
     0
 72
  1000
 73
     1
 74
     0
 75
     0
 76
     0
 77
     0
 78
     0
  0
ENDTAB
  0
TABLE
  2
LTYPE
 70
     2
  0
LTYPE
  2
CONTINUOUS
 70
     0
  3
実線
 72
    65
 73
     0
 40
0.0
  0
LTYPE
  2
DASHDOT
 70
     0
  3
____ _ ____ _ ____ _ ____ _ ____ _ ____ _ ____
 72
    65
 73
     4
 40
5.5
 49
4.0
 49
-0.6
 49
0.3
 49
-0.6
  0
ENDTAB
  0
TABLE
  2
LAYER
 70
    12
  0
LAYER
  2
0
 70
     0
 62
     7
  6
CONTINUOUS
  0
LAYER
  2
SYMBOLLINE
 70
     0
 62
    15
  6
CONTINUOUS
  0
LAYER
  2
DETAIL
 70
     0
 62
     5
  6
CONTINUOUS
  0
LAYER
  2
OUTLINE
 70
     0
 62
     3
  6
CONTINUOUS
  0
LAYER
  2
BASIS
 70
     0
 62
     6
  6
DASHDOT
  0
LAYER
  2
SIZE
 70
     0
 62
    30
  6
CONTINUOUS
  0
LAYER
  2
NOTE
 70
     0
 62
     4
  6
CONTINUOUS
  0
LAYER
  2
ARRANGE
 70
     0
 62
     1
  6
CONTINUOUS
  0
LAYER
  2
FIX
 70
     0
 62
    11
  6
CONTINUOUS
  0
LAYER
  2
SERVICESPACE
 70
     0
 62
     2
  6
DASHDOT
  0
LAYER
  2
ETC
 70
     0
 62
    61
  6
CONTINUOUS
  0
LAYER
  2
DEFPOINTS
 70
     0
 62
     7
  6
CONTINUOUS
  0
ENDTAB
  0
TABLE
  2
STYLE
 70
     2
  0
STYLE
  2
STANDARD
 70
     0
 40
0.0
 41
0.9
 50
0.0
 71
     0
 42
64.0
  3
SIMPLEX
  4
BIGFONT
  0
STYLE
  2
ANNOTATIVE
 70
     0
 40
0.0
 41
1.0
 50
0.0
 71
     0
 42
0.2
  3
txt
  4

  0
ENDTAB
  0
TABLE
  2
VIEW
 70
     4
  0
VIEW
  2
ALL
 70
     0
 40
9000.0
 10
241.50664699999999
 20
0.0
 41
12483.01
 11
0.0
 21
0.0
 31
1.0
 12
0.0
 22
0.0
 32
0.0
 42
50.0
 43
0.0
 44
0.0
 50
0.0
 71
     0
  0
ENDTAB
  0
TABLE
  2
UCS
 70
     0
  0
ENDTAB
  0
TABLE
  2
APPID
 70
     4
  0
APPID
  2
ACAD
 70
     0
  0
APPID
  2
ACADANNOTATIVE
 70
     0
  0
APPID
  2
ACAD_MLEADERVER
 70
     0
  0
APPID
  2
ACAD_EXEMPT_FROM_CAD_STANDARDS
 70
     0
  0
ENDTAB
  0
TABLE
  2
DIMSTYLE
 70
     2
  0
DIMSTYLE
  2
STANDARD
 70
     0
  3

  4

  5

  6

  7

 40
1.0
 41
0.18
 42
0.0625
 43
0.38
 44
0.18
 45
0.0
 46
0.0
 47
0.0
 48
0.0
140
0.18
141
0.09
142
0.0
143
25.399999999999999
144
1.0
145
0.0
146
1.0
147
0.09
 71
     0
 72
     0
 73
     1
 74
     1
 75
     0
 76
     0
 77
     0
 78
     0
170
     0
171
     2
172
     0
173
     0
174
     0
175
     0
176
     0
177
     0
178
     0
  0
DIMSTYLE
  2
ANNOTATIVE
 70
     0
  3

  4

  5

  6

  7

 40
1.0
 41
0.18
 42
0.0625
 43
0.38
 44
0.18
 45
0.0
 46
0.0
 47
0.0
 48
0.0
140
0.18
141
0.09
142
0.0
143
25.399999999999999
144
1.0
145
0.0
146
1.0
147
0.09
 71
     0
 72
     0
 73
     1
 74
     1
 75
     0
 76
     0
 77
     0
 78
     0
170
     0
171
     2
172
     0
173
     0
174
     0
175
     0
176
     0
177
     0
178
     0
  0
ENDTAB
  0
ENDSEC
  0
SECTION
  2
BLOCKS
  0
BLOCK
  8
0
  2
$MODEL_SPACE
 70
     0
 10
0.0
 20
0.0
 30
0.0
  3
$MODEL_SPACE
  1

  0
ENDBLK
  5
4B7
  8
0
  0
BLOCK
 67
     1
  8
0
  2
$PAPER_SPACE
 70
     0
 10
0.0
 20
0.0
 30
0.0
  3
$PAPER_SPACE
  1

  0
ENDBLK
  5
4B3
 67
     1
  8
0
  0
BLOCK
  8
0
  2
_DOTBLANK
 70
     0
 10
0.0
 20
0.0
 30
0.0
  3
_DOTBLANK
  1

  0
CIRCLE
  5
30
  8
0
  6
CONTINUOUS
 62
     7
 10
0.0
 20
0.0
 30
0.0
 40
0.5
  0
LINE
  5
31
  8
0
  6
CONTINUOUS
 62
     7
 10
-0.5
 20
0.0
 30
0.0
 11
-1.0
 21
0.0
 31
0.0
  0
ENDBLK
  5
32
  8
0
  0
ENDSEC
  0
SECTION
  2
ENTITIES
  0
TEXT
  5
33
  8
NOTE
  6
CONTINUOUS
 62
     4
 10
772.49579587765504
 20
432.96824291232139
 30
0.0
 40
64.0
  1
D φ32
 41
0.9
  0
LINE
  5
34
  8
NOTE
  6
CONTINUOUS
 62
     4
 10
523.0
 20
72.210874000000004
 30
0.0
 11
713.18416300000001
 21
-266.71635500000002
 31
0.0
  0
LINE
  5
35
  8
DETAIL
  6
CONTINUOUS
 62
     5
 10
473.0
 20
338.0
 30
0.0
 11
-473.0
 21
338.0
 31
0.0
  0
CIRCLE
  5
36
  8
ARRANGE
  6
CONTINUOUS
 62
     1
 10
0.0
 20
0.0
 30
0.0
 40
40.0
  0
LINE
  5
37
  8
DETAIL
  6
CONTINUOUS
 62
     5
 10
-473.0
 20
48.0
 30
0.0
 11
473.0
 21
48.0
 31
0.0
  0
LINE
  5
38
  8
DETAIL
  6
CONTINUOUS
 62
     5
 10
583.0
 20
45.0
 30
0.0
 11
-583.0
 21
45.0
 31
0.0
  0
LINE
  5
39
  8
DETAIL
  6
CONTINUOUS
 62
     5
 10
625.0
 20
0.0
 30
0.0
 11
-625.0
 21
0.0
 31
0.0
  0
POINT
  5
3A
  8
ARRANGE
  6
CONTINUOUS
 62
     1
 10
0.0
 20
0.0
 30
0.0
  0
LINE
  5
3B
  8
DETAIL
  6
CONTINUOUS
 62
     5
 10
-583.0
 20
45.0
 30
0.0
 11
-583.0
 21
0.0
 31
0.0
  0
TEXT
  5
3C
  8
NOTE
  6
CONTINUOUS
 62
     4
 10
-666.32493799999986
 20
237.37013200000001
 30
0.0
 40
64.0
  1
AH
 41
0.9
  0
LINE
  5
3D
  8
DETAIL
  6
CONTINUOUS
 62
     5
 10
-473.0
 20
338.0
 30
0.0
 11
-473.0
 21
45.0
 31
0.0
  0
LINE
  5
3E
  8
NOTE
  6
CONTINUOUS
 62
     4
 10
-545.77234699999985
 20
221.33069699999999
 30
0.0
 11
-686.72873800000002
 21
221.33069699999999
 31
0.0
  0
LINE
  5
3F
  8
NOTE
  6
CONTINUOUS
 62
     4
 10
-477.0
 20
148.0
 30
0.0
 11
-517.0
 21
148.0
 31
0.0
  0
LINE
  5
40
  8
NOTE
  6
CONTINUOUS
 62
     4
 10
-497.0
 20
128.0
 30
0.0
 11
-497.0
 21
168.0
 31
0.0
  0
POLYLINE
  5
41
  8
NOTE
  6
CONTINUOUS
 62
     4
 66
     1
 10
0.0
 20
0.0
 30
0.0
  0
VERTEX
  5
50B
  8
NOTE
  6
CONTINUOUS
 62
     4
 10
-509.78769699999992
 20
185.90085500000001
 30
0.0
  0
VERTEX
  5
50C
  8
NOTE
  6
CONTINUOUS
 62
     4
 10
-497.0
 20
148.0
 30
0.0
  0
VERTEX
  5
50D
  8
NOTE
  6
CONTINUOUS
 62
     4
 10
-527.02489799999978
 20
174.42925500000001
 30
0.0
  0
SEQEND
  5
50E
  8
NOTE
  6
CONTINUOUS
 62
     4
  0
LINE
  5
46
  8
NOTE
  6
CONTINUOUS
 62
     4
 10
-497.0
 20
148.0
 30
0.0
 11
-545.77234699999985
 21
221.33069699999999
 31
0.0
  0
CIRCLE
  5
47
  8
FIX
  6
CONTINUOUS
 62
    11
 10
-497.0
 20
148.0
 30
0.0
 40
5.0
  0
LINE
  5
48
  8
DETAIL
  6
CONTINUOUS
 62
     5
 10
-473.0
 20
148.0
 30
0.0
 11
-523.0
 21
148.0
 31
0.0
  0
LINE
  5
49
  8
DETAIL
  6
CONTINUOUS
 62
     5
 10
-473.0
 20
145.0
 30
0.0
 11
-520.0
 21
145.0
 31
0.0
  0
LINE
  5
4A
  8
DETAIL
  6
CONTINUOUS
 62
     5
 10
-520.0
 20
140.0
 30
0.0
 11
-523.0
 21
140.0
 31
0.0
  0
LINE
  5
4B
  8
DETAIL
  6
CONTINUOUS
 62
     5
 10
-520.0
 20
145.0
 30
0.0
 11
-520.0
 21
140.0
 31
0.0
  0
LINE
  5
4C
  8
DETAIL
  6
CONTINUOUS
 62
     5
 10
-523.0
 20
148.0
 30
0.0
 11
-523.0
 21
140.0
 31
0.0
  0
LINE
  5
4D
  8
DETAIL
  6
CONTINUOUS
 62
     5
 10
583.0
 20
45.0
 30
0.0
 11
583.0
 21
0.0
 31
0.0
  0
LINE
  5
4E
  8
BASIS
  6
DASHDOT
 62
     6
 10
0.0
 20
415.86406599999992
 30
0.0
 11
0.0
 21
-76.418196999999978
 31
0.0
  0
LINE
  5
4F
  8
NOTE
  6
CONTINUOUS
 62
     4
 10
1028.293254877655
 20
406.95931591232141
 30
0.0
 11
761.00584687765502
 21
406.95931591232141
 31
0.0
  0
LINE
  5
52
  8
DETAIL
  6
CONTINUOUS
 62
     5
 10
473.0
 20
338.0
 30
0.0
 11
473.0
 21
45.0
 31
0.0
  0
LINE
  5
53
  8
NOTE
  6
CONTINUOUS
 62
     4
 10
543.0
 20
72.210874000000004
 30
0.0
 11
503.0
 21
72.210874000000004
 31
0.0
  0
LINE
  5
54
  8
DETAIL
  6
CONTINUOUS
 62
     5
 10
473.0
 20
47.210873999999997
 30
0.0
 11
523.0
 21
47.210873999999997
 31
0.0
  0
LINE
  5
55
  8
DETAIL
  6
CONTINUOUS
 62
     5
 10
473.0
 20
97.210874000000004
 30
0.0
 11
523.0
 21
97.210874000000004
 31
0.0
  0
LINE
  5
56
  8
DETAIL
  6
CONTINUOUS
 62
     5
 10
520.0
 20
145.0
 30
0.0
 11
473.0
 21
145.0
 31
0.0
  0
LINE
  5
57
  8
DETAIL
  6
CONTINUOUS
 62
     5
 10
523.0
 20
148.0
 30
0.0
 11
473.0
 21
148.0
 31
0.0
  0
LINE
  5
58
  8
NOTE
  6
CONTINUOUS
 62
     4
 10
517.0
 20
148.0
 30
0.0
 11
477.0
 21
148.0
 31
0.0
  0
LINE
  5
59
  8
NOTE
  6
CONTINUOUS
 62
     4
 10
497.0
 20
128.0
 30
0.0
 11
497.0
 21
168.0
 31
0.0
  0
CIRCLE
  5
60
  8
FIX
  6
CONTINUOUS
 62
    11
 10
497.0
 20
148.0
 30
0.0
 40
5.0
  0
LINE
  5
61
  8
NOTE
  6
CONTINUOUS
 62
     4
 10
523.0
 20
52.210873999999997
 30
0.0
 11
523.0
 21
92.210874000000004
 31
0.0
  0
POLYLINE
  5
62
  8
NOTE
  6
CONTINUOUS
 62
     4
 66
     1
 10
0.0
 20
0.0
 30
0.0
  0
VERTEX
  5
50F
  8
NOTE
  6
CONTINUOUS
 62
     4
 10
532.85363299999995
 20
33.443544000000003
 30
0.0
  0
VERTEX
  5
510
  8
NOTE
  6
CONTINUOUS
 62
     4
 10
523.0
 20
72.210874000000004
 30
0.0
  0
VERTEX
  5
511
  8
NOTE
  6
CONTINUOUS
 62
     4
 10
550.91716199999996
 20
43.564197999999998
 30
0.0
  0
SEQEND
  5
512
  8
NOTE
  6
CONTINUOUS
 62
     4
  0
LINE
  5
67
  8
DETAIL
  6
CONTINUOUS
 62
     5
 10
573.0
 20
227.971373
 30
0.0
 11
573.0
 21
185.221025
 31
0.0
  0
LINE
  5
68
  8
DETAIL
  6
CONTINUOUS
 62
     5
 10
523.0
 20
97.210874000000004
 30
0.0
 11
523.0
 21
47.210873999999997
 31
0.0
  0
LINE
  5
69
  8
DETAIL
  6
CONTINUOUS
 62
     5
 10
523.0
 20
140.0
 30
0.0
 11
520.0
 21
140.0
 31
0.0
  0
LINE
  5
6A
  8
DETAIL
  6
CONTINUOUS
 62
     5
 10
520.0
 20
145.0
 30
0.0
 11
520.0
 21
140.0
 31
0.0
  0
LINE
  5
6B
  8
DETAIL
  6
CONTINUOUS
 62
     5
 10
523.0
 20
148.0
 30
0.0
 11
523.0
 21
140.0
 31
0.0
  0
LINE
  5
73
  8
NOTE
  6
CONTINUOUS
 62
     4
 10
533.0
 20
278.0
 30
0.0
 11
761.00584687765502
 21
406.95931591232141
 31
0.0
  0
TEXT
  5
77
  8
NOTE
  6
CONTINUOUS
 62
     4
 10
749.32754099999988
 20
-243.38048000000001
 30
0.0
 40
64.0
  1
D抜き
 41
0.9
  0
LINE
  5
78
  8
NOTE
  6
CONTINUOUS
 62
     4
 10
713.18416300000001
 20
-266.71635500000002
 30
0.0
 11
940.8180339999999
 21
-266.71635500000002
 31
0.0
  0
TEXT
  5
7A
  8
ETC
  6
CONTINUOUS
 62
    61
 10
419.97796144922171
 20
1030.5347868441311
 30
0.0
 40
64.0
  1
MPL-RP71_80LA_5
 41
0.9
  0
LINE
  5
7B
  8
DETAIL
  6
CONTINUOUS
 62
     5
 10
556.99999984745295
 20
-20.000000075909188
 30
0.0
 11
-557.0
 21
-20.0
 31
0.0
  0
ARC
  5
7C
  8
DETAIL
  6
CONTINUOUS
 62
     5
 10
-536.90766199999985
 20
173.91395
 30
0.0
 40
194.952102
 50
243.13649500000011
 51
264.08442400000001
  0
ARC
  5
7E
  8
DETAIL
  6
CONTINUOUS
 62
     5
 10
536.90766199999985
 20
173.91395
 30
0.0
 40
194.952102
 50
275.91557599999999
 51
296.86350499999992
  0
LINE
  5
7F
  8
DETAIL
  6
CONTINUOUS
 62
     5
 10
473.0
 20
72.0
 30
0.0
 11
-473.0
 21
72.0
 31
0.0
  0
LINE
  5
80
  8
DETAIL
  6
CONTINUOUS
 62
     5
 10
473.0
 20
227.971373
 30
0.0
 11
573.0
 21
227.971373
 31
0.0
  0
LINE
  5
81
  8
DETAIL
  6
CONTINUOUS
 62
     5
 10
573.0
 20
185.221025
 30
0.0
 11
473.0
 21
162.971373
 31
0.0
  0
LINE
  5
83
  8
NOTE
  6
CONTINUOUS
 62
     4
 10
-106.0
 20
304.0
 30
0.0
 11
-146.0
 21
304.0
 31
0.0
  0
LINE
  5
84
  8
DETAIL
  6
CONTINUOUS
 62
     5
 10
252.0
 20
286.0
 30
0.0
 11
252.0
 21
176.0
 31
0.0
  0
POLYLINE
  5
85
  8
NOTE
  6
CONTINUOUS
 62
     4
 66
     1
 10
0.0
 20
0.0
 30
0.0
  0
VERTEX
  5
513
  8
NOTE
  6
CONTINUOUS
 62
     4
 10
-153.80080100000001
 20
332.759615
 30
0.0
  0
VERTEX
  5
514
  8
NOTE
  6
CONTINUOUS
 62
     4
 10
-126.0
 20
304.0
 30
0.0
  0
VERTEX
  5
515
  8
NOTE
  6
CONTINUOUS
 62
     4
 10
-164.456007
 20
315.00615800000008
 30
0.0
  0
SEQEND
  5
516
  8
NOTE
  6
CONTINUOUS
 62
     4
  0
LINE
  5
8A
  8
NOTE
  6
CONTINUOUS
 62
     4
 10
-126.0
 20
304.0
 30
0.0
 11
-437.43318899999991
 21
499.56117499999999
 31
0.0
  0
TEXT
  5
8B
  8
NOTE
  6
CONTINUOUS
 62
     4
 10
-1021.947915
 20
521.05639400000007
 30
0.0
 40
64.0
  1
6-%%C2.9取付穴
 41
0.9
  0
LINE
  5
8C
  8
NOTE
  6
CONTINUOUS
 62
     4
 10
-437.43318899999991
 20
499.56117499999999
 30
0.0
 11
-1066.3182650000001
 21
499.56117499999999
 31
0.0
  0
LINE
  5
8D
  8
NOTE
  6
CONTINUOUS
 62
     4
 10
-485.16081099999991
 20
-153.072731
 30
0.0
 11
17.478463000000001
 21
202.171606
 31
0.0
  0
TEXT
  5
8E
  8
NOTE
  6
CONTINUOUS
 62
     4
 10
-379.82350000000002
 20
-143.4497529999999
 30
0.0
 40
55.0
  1
分ﾀﾞｸﾄ接続口､別売加湿器接続口
 41
0.9
  0
LINE
  5
8F
  8
NOTE
  6
CONTINUOUS
 62
     4
 10
477.36591900000002
 20
-153.072731
 30
0.0
 11
-485.16081099999991
 21
-153.072731
 31
0.0
  0
CIRCLE
  5
90
  8
NOTE
  6
CONTINUOUS
 62
     4
 10
17.478463000000001
 20
202.171606
 30
0.0
 40
5.0
  0
LINE
  5
91
  8
NOTE
  6
CONTINUOUS
 62
     4
 10
20.315376000000001
 20
198.05433400000001
 30
0.0
 11
21.595735000000001
 21
199.33469400000001
 31
0.0
  0
LINE
  5
92
  8
NOTE
  6
CONTINUOUS
 62
     4
 10
19.858858999999999
 20
197.77459400000001
 30
0.0
 11
21.875475999999999
 21
199.791211
 31
0.0
  0
LINE
  5
93
  8
NOTE
  6
CONTINUOUS
 62
     4
 10
19.510742
 20
197.60325399999999
 30
0.0
 11
22.046816
 21
200.13932800000001
 31
0.0
  0
LINE
  5
94
  8
NOTE
  6
CONTINUOUS
 62
     4
 10
19.212714999999999
 20
197.48200399999999
 30
0.0
 11
22.168066
 21
200.437354
 31
0.0
  0
LINE
  5
95
  8
NOTE
  6
CONTINUOUS
 62
     4
 10
18.945649
 20
197.39171400000001
 30
0.0
 11
22.258355000000002
 21
200.704421
 31
0.0
  0
LINE
  5
96
  8
NOTE
  6
CONTINUOUS
 62
     4
 10
18.700368000000001
 20
197.32320999999999
 30
0.0
 11
22.32686
 21
200.949702
 31
0.0
  0
LINE
  5
97
  8
NOTE
  6
CONTINUOUS
 62
     4
 10
18.471615
 20
197.27123399999999
 30
0.0
 11
22.378836
 21
201.17845399999999
 31
0.0
  0
LINE
  5
98
  8
NOTE
  6
CONTINUOUS
 62
     4
 10
18.256043999999999
 20
197.23244
 30
0.0
 11
22.417629999999999
 21
201.394026
 31
0.0
  0
LINE
  5
99
  8
NOTE
  6
CONTINUOUS
 62
     4
 10
18.051364
 20
197.20453599999999
 30
0.0
 11
22.445533000000001
 21
201.59870599999999
 31
0.0
  0
LINE
  5
9A
  8
NOTE
  6
CONTINUOUS
 62
     4
 10
17.855926
 20
197.18587400000001
 30
0.0
 11
22.464195
 21
201.79414399999999
 31
0.0
  0
LINE
  5
9B
  8
NOTE
  6
CONTINUOUS
 62
     4
 10
17.668493000000002
 20
197.175219
 30
0.0
 11
22.474851000000001
 21
201.98157599999999
 31
0.0
  0
LINE
  5
9C
  8
NOTE
  6
CONTINUOUS
 62
     4
 10
17.488112999999998
 20
197.171616
 30
0.0
 11
22.478453999999999
 21
202.161956
 31
0.0
  0
LINE
  5
9D
  8
NOTE
  6
CONTINUOUS
 62
     4
 10
17.314032000000001
 20
197.17431099999999
 30
0.0
 11
22.475759
 21
202.336038
 31
0.0
  0
LINE
  5
9E
  8
NOTE
  6
CONTINUOUS
 62
     4
 10
17.14564
 20
197.18269599999999
 30
0.0
 11
22.467374
 21
202.50443000000001
 31
0.0
  0
LINE
  5
9F
  8
NOTE
  6
CONTINUOUS
 62
     4
 10
16.982438999999999
 20
197.196271
 30
0.0
 11
22.453799
 21
202.667631
 31
0.0
  0
LINE
  5
A0
  8
NOTE
  6
CONTINUOUS
 62
     4
 10
16.824013000000001
 20
197.21462199999999
 30
0.0
 11
22.435448000000001
 21
202.82605699999999
 31
0.0
  0
LINE
  5
A1
  8
NOTE
  6
CONTINUOUS
 62
     4
 10
16.670013000000001
 20
197.23739800000001
 30
0.0
 11
22.412671
 21
202.98005699999999
 31
0.0
  0
LINE
  5
A2
  8
NOTE
  6
CONTINUOUS
 62
     4
 10
16.520140999999999
 20
197.26430400000001
 30
0.0
 11
22.385766
 21
203.12992800000001
 31
0.0
  0
LINE
  5
A3
  8
NOTE
  6
CONTINUOUS
 62
     4
 10
16.374144000000001
 20
197.29508300000001
 30
0.0
 11
22.354987000000001
 21
203.275926
 31
0.0
  0
LINE
  5
A4
  8
NOTE
  6
CONTINUOUS
 62
     4
 10
16.231801000000001
 20
197.32951700000001
 30
0.0
 11
22.320553
 21
203.41826900000001
 31
0.0
  0
LINE
  5
A5
  8
NOTE
  6
CONTINUOUS
 62
     4
 10
16.092921
 20
197.367413
 30
0.0
 11
22.282657
 21
203.55714900000001
 31
0.0
  0
LINE
  5
A6
  8
NOTE
  6
CONTINUOUS
 62
     4
 10
15.957337000000001
 20
197.40860599999999
 30
0.0
 11
22.241464000000001
 21
203.692733
 31
0.0
  0
LINE
  5
A7
  8
NOTE
  6
CONTINUOUS
 62
     4
 10
15.824902
 20
197.45294799999999
 30
0.0
 11
22.197122
 21
203.82516699999999
 31
0.0
  0
LINE
  5
A8
  8
NOTE
  6
CONTINUOUS
 62
     4
 10
15.695487999999999
 20
197.50031100000001
 30
0.0
 11
22.149759
 21
203.95458099999999
 31
0.0
  0
LINE
  5
A9
  8
NOTE
  6
CONTINUOUS
 62
     4
 10
15.568981000000001
 20
197.55058099999999
 30
0.0
 11
22.099488999999998
 21
204.08108799999999
 31
0.0
  0
LINE
  5
AA
  8
NOTE
  6
CONTINUOUS
 62
     4
 10
15.44528
 20
197.603656
 30
0.0
 11
22.046413000000001
 21
204.20478900000001
 31
0.0
  0
LINE
  5
AB
  8
NOTE
  6
CONTINUOUS
 62
     4
 10
15.324296
 20
197.659449
 30
0.0
 11
21.990621000000001
 21
204.325773
 31
0.0
  0
LINE
  5
AC
  8
NOTE
  6
CONTINUOUS
 62
     4
 10
15.20595
 20
197.71787900000001
 30
0.0
 11
21.932189999999999
 21
204.44412
 31
0.0
  0
LINE
  5
AD
  8
NOTE
  6
CONTINUOUS
 62
     4
 10
15.090172000000001
 20
197.77887799999999
 30
0.0
 11
21.871192000000001
 21
204.559898
 31
0.0
  0
LINE
  5
AE
  8
NOTE
  6
CONTINUOUS
 62
     4
 10
14.976900000000001
 20
197.84238199999999
 30
0.0
 11
21.807687000000001
 21
204.67317
 31
0.0
  0
LINE
  5
AF
  8
NOTE
  6
CONTINUOUS
 62
     4
 10
14.866078999999999
 20
197.9083389999999
 30
0.0
 11
21.741731000000001
 21
204.78398999999999
 31
0.0
  0
LINE
  5
B0
  8
NOTE
  6
CONTINUOUS
 62
     4
 10
14.757663000000001
 20
197.976699
 30
0.0
 11
21.673370999999999
 21
204.89240699999999
 31
0.0
  0
LINE
  5
B1
  8
NOTE
  6
CONTINUOUS
 62
     4
 10
14.651609000000001
 20
198.0474219999999
 30
0.0
 11
21.602647999999999
 21
204.99845999999999
 31
0.0
  0
LINE
  5
B2
  8
NOTE
  6
CONTINUOUS
 62
     4
 10
14.547882
 20
198.12047200000001
 30
0.0
 11
21.529598
 21
205.10218800000001
 31
0.0
  0
LINE
  5
B3
  8
NOTE
  6
CONTINUOUS
 62
     4
 10
14.446451
 20
198.19581700000001
 30
0.0
 11
21.454253000000001
 21
205.203619
 31
0.0
  0
LINE
  5
B4
  8
NOTE
  6
CONTINUOUS
 62
     4
 10
14.347289999999999
 20
198.27343300000001
 30
0.0
 11
21.376636999999999
 21
205.30277899999999
 31
0.0
  0
LINE
  5
B5
  8
NOTE
  6
CONTINUOUS
 62
     4
 10
14.250379000000001
 20
198.35329899999999
 30
0.0
 11
21.296771
 21
205.39968999999999
 31
0.0
  0
LINE
  5
B6
  8
NOTE
  6
CONTINUOUS
 62
     4
 10
14.155702
 20
198.43539799999999
 30
0.0
 11
21.214672
 21
205.49436800000001
 31
0.0
  0
LINE
  5
B7
  8
NOTE
  6
CONTINUOUS
 62
     4
 10
14.063245
 20
198.51971800000001
 30
0.0
 11
21.130351000000001
 21
205.58682400000001
 31
0.0
  0
LINE
  5
B8
  8
NOTE
  6
CONTINUOUS
 62
     4
 10
13.973003
 20
198.60625300000001
 30
0.0
 11
21.043817000000001
 21
205.67706699999999
 31
0.0
  0
LINE
  5
B9
  8
NOTE
  6
CONTINUOUS
 62
     4
 10
13.884971
 20
198.694997
 30
0.0
 11
20.955072999999999
 21
205.76509899999999
 31
0.0
  0
LINE
  5
BA
  8
NOTE
  6
CONTINUOUS
 62
     4
 10
13.799149999999999
 20
198.78595300000001
 30
0.0
 11
20.864117
 21
205.85092
 31
0.0
  0
LINE
  5
BB
  8
NOTE
  6
CONTINUOUS
 62
     4
 10
13.715544
 20
198.87912399999999
 30
0.0
 11
20.770945999999999
 21
205.93452500000001
 31
0.0
  0
LINE
  5
BC
  8
NOTE
  6
CONTINUOUS
 62
     4
 10
13.634164
 20
198.97452000000001
 30
0.0
 11
20.675550000000001
 21
206.015906
 31
0.0
  0
LINE
  5
BD
  8
NOTE
  6
CONTINUOUS
 62
     4
 10
13.555021
 20
199.07215400000001
 30
0.0
 11
20.577915000000001
 21
206.09504799999999
 31
0.0
  0
LINE
  5
BE
  8
NOTE
  6
CONTINUOUS
 62
     4
 10
13.478135
 20
199.172045
 30
0.0
 11
20.478024999999999
 21
206.17193499999999
 31
0.0
  0
LINE
  5
BF
  8
NOTE
  6
CONTINUOUS
 62
     4
 10
13.403525999999999
 20
199.274213
 30
0.0
 11
20.375857
 21
206.246543
 31
0.0
  0
LINE
  5
C0
  8
NOTE
  6
CONTINUOUS
 62
     4
 10
13.331223
 20
199.37868700000001
 30
0.0
 11
20.271383
 21
206.31884600000001
 31
0.0
  0
LINE
  5
C1
  8
NOTE
  6
CONTINUOUS
 62
     4
 10
13.261258
 20
199.48549800000001
 30
0.0
 11
20.164572
 21
206.388812
 31
0.0
  0
LINE
  5
C2
  8
NOTE
  6
CONTINUOUS
 62
     4
 10
13.193668000000001
 20
199.594684
 30
0.0
 11
20.055385000000001
 21
206.456402
 31
0.0
  0
LINE
  5
C3
  8
NOTE
  6
CONTINUOUS
 62
     4
 10
13.128496
 20
199.70629
 30
0.0
 11
19.94378
 21
206.52157299999999
 31
0.0
  0
LINE
  5
C4
  8
NOTE
  6
CONTINUOUS
 62
     4
 10
13.065792999999999
 20
199.82036299999999
 30
0.0
 11
19.829705999999991
 21
206.58427599999999
 31
0.0
  0
LINE
  5
C5
  8
NOTE
  6
CONTINUOUS
 62
     4
 10
13.005616
 20
199.93696199999999
 30
0.0
 11
19.713107000000001
 21
206.644454
 31
0.0
  0
LINE
  5
C6
  8
NOTE
  6
CONTINUOUS
 62
     4
 10
12.948028000000001
 20
200.056151
 30
0.0
 11
19.593919
 21
206.70204200000001
 31
0.0
  0
LINE
  5
C7
  8
NOTE
  6
CONTINUOUS
 62
     4
 10
12.893102000000001
 20
200.17800199999999
 30
0.0
 11
19.472068
 21
206.756968
 31
0.0
  0
LINE
  5
C8
  8
NOTE
  6
CONTINUOUS
 62
     4
 10
12.840920000000001
 20
200.30259699999999
 30
0.0
 11
19.347473000000001
 21
206.80914899999999
 31
0.0
  0
LINE
  5
C9
  8
NOTE
  6
CONTINUOUS
 62
     4
 10
12.791575999999999
 20
200.43002999999999
 30
0.0
 11
19.220040000000001
 21
206.85849300000001
 31
0.0
  0
LINE
  5
CA
  8
NOTE
  6
CONTINUOUS
 62
     4
 10
12.745174
 20
200.56040400000001
 30
0.0
 11
19.089666000000001
 21
206.90489600000001
 31
0.0
  0
LINE
  5
CB
  8
NOTE
  6
CONTINUOUS
 62
     4
 10
12.701832
 20
200.693839
 30
0.0
 11
18.956230999999999
 21
206.94823700000001
 31
0.0
  0
LINE
  5
CC
  8
NOTE
  6
CONTINUOUS
 62
     4
 10
12.661685
 20
200.83046899999999
 30
0.0
 11
18.819600999999999
 21
206.988384
 31
0.0
  0
LINE
  5
CD
  8
NOTE
  6
CONTINUOUS
 62
     4
 10
12.624886
 20
200.97044600000001
 30
0.0
 11
18.679624
 21
207.025184
 31
0.0
  0
LINE
  5
CE
  8
NOTE
  6
CONTINUOUS
 62
     4
 10
12.591608000000001
 20
201.113945
 30
0.0
 11
18.536124999999998
 21
207.05846099999999
 31
0.0
  0
LINE
  5
CF
  8
NOTE
  6
CONTINUOUS
 62
     4
 10
12.562052
 20
201.261166
 30
0.0
 11
18.388904
 21
207.08801700000001
 31
0.0
  0
LINE
  5
D0
  8
NOTE
  6
CONTINUOUS
 62
     4
 10
12.536448
 20
201.412339
 30
0.0
 11
18.237731
 21
207.11362099999999
 31
0.0
  0
LINE
  5
D1
  8
NOTE
  6
CONTINUOUS
 62
     4
 10
12.515064000000001
 20
201.56773100000001
 30
0.0
 11
18.082339000000001
 21
207.135006
 31
0.0
  0
LINE
  5
D2
  8
NOTE
  6
CONTINUOUS
 62
     4
 10
12.498212000000001
 20
201.727655
 30
0.0
 11
17.922414
 21
207.151858
 31
0.0
  0
LINE
  5
D3
  8
NOTE
  6
CONTINUOUS
 62
     4
 10
12.486261000000001
 20
201.892481
 30
0.0
 11
17.757588999999999
 21
207.16380899999999
 31
0.0
  0
LINE
  5
D4
  8
NOTE
  6
CONTINUOUS
 62
     4
 10
12.479651
 20
202.062648
 30
0.0
 11
17.587422
 21
207.17041900000001
 31
0.0
  0
LINE
  5
D5
  8
NOTE
  6
CONTINUOUS
 62
     4
 10
12.478913
 20
202.238687
 30
0.0
 11
17.411383000000001
 21
207.171156
 31
0.0
  0
LINE
  5
D6
  8
NOTE
  6
CONTINUOUS
 62
     4
 10
12.4847
 20
202.42124999999999
 30
0.0
 11
17.228819999999999
 21
207.16537
 31
0.0
  0
LINE
  5
D7
  8
NOTE
  6
CONTINUOUS
 62
     4
 10
12.497821
 20
202.61114799999999
 30
0.0
 11
17.038921999999999
 21
207.15224900000001
 31
0.0
  0
LINE
  5
D8
  8
NOTE
  6
CONTINUOUS
 62
     4
 10
12.519310000000001
 20
202.809414
 30
0.0
 11
16.840655999999999
 21
207.13076000000001
 31
0.0
  0
LINE
  5
D9
  8
NOTE
  6
CONTINUOUS
 62
     4
 10
12.550519
 20
203.01740000000001
 30
0.0
 11
16.632670000000001
 21
207.09954999999999
 31
0.0
  0
LINE
  5
DA
  8
NOTE
  6
CONTINUOUS
 62
     4
 10
12.593273
 20
203.23693
 30
0.0
 11
16.413139000000001
 21
207.05679699999999
 31
0.0
  0
LINE
  5
DB
  8
NOTE
  6
CONTINUOUS
 62
     4
 10
12.650143
 20
203.47057699999999
 30
0.0
 11
16.179492
 21
206.99992599999999
 31
0.0
  0
LINE
  5
DC
  8
NOTE
  6
CONTINUOUS
 62
     4
 10
12.724966999999999
 20
203.72217800000001
 30
0.0
 11
15.927892
 21
206.92510300000001
 31
0.0
  0
LINE
  5
DD
  8
NOTE
  6
CONTINUOUS
 62
     4
 10
12.823947
 20
203.99793399999999
 30
0.0
 11
15.652136
 21
206.826123
 31
0.0
  0
LINE
  5
DE
  8
NOTE
  6
CONTINUOUS
 62
     4
 10
12.958427
 20
204.309191
 30
0.0
 11
15.340878999999999
 21
206.691643
 31
0.0
  0
LINE
  5
DF
  8
NOTE
  6
CONTINUOUS
 62
     4
 10
13.154208000000001
 20
204.681749
 30
0.0
 11
14.968321
 21
206.49586199999999
 31
0.0
  0
LINE
  5
E0
  8
NOTE
  6
CONTINUOUS
 62
     4
 10
13.513684
 20
205.21800099999999
 30
0.0
 11
14.432069
 21
206.13638599999999
 31
0.0
  0
LINE
  5
E1
  8
OUTLINE
  6
CONTINUOUS
 62
     3
 10
473.0
 20
338.0
 30
0.0
 11
-473.0
 21
338.0
 31
0.0
  0
LINE
  5
E4
  8
OUTLINE
  6
CONTINUOUS
 62
     3
 10
-583.0
 20
45.0
 30
0.0
 11
-583.0
 21
0.0
 31
0.0
  0
LINE
  5
E5
  8
OUTLINE
  6
CONTINUOUS
 62
     3
 10
-473.0
 20
338.0
 30
0.0
 11
-473.0
 21
45.0
 31
0.0
  0
LINE
  5
EB
  8
OUTLINE
  6
CONTINUOUS
 62
     3
 10
583.0
 20
45.0
 30
0.0
 11
583.0
 21
0.0
 31
0.0
  0
LINE
  5
EC
  8
OUTLINE
  6
CONTINUOUS
 62
     3
 10
473.0
 20
338.0
 30
0.0
 11
473.0
 21
45.0
 31
0.0
  0
LINE
  5
F7
  8
OUTLINE
  6
CONTINUOUS
 62
     3
 10
556.99999984745295
 20
-20.000000075909188
 30
0.0
 11
-557.0
 21
-20.0
 31
0.0
  0
ARC
  5
F8
  8
OUTLINE
  6
CONTINUOUS
 62
     3
 10
-536.90766199999985
 20
173.91395
 30
0.0
 40
194.952102
 50
243.13649500000011
 51
264.08442400000001
  0
ARC
  5
FA
  8
OUTLINE
  6
CONTINUOUS
 62
     3
 10
536.90766199999985
 20
173.91395
 30
0.0
 40
194.952102
 50
275.91557599999999
 51
296.86350499999992
  0
LINE
  5
FF
  8
OUTLINE
  6
CONTINUOUS
 62
     3
 10
583.0
 20
45.0
 30
0.0
 11
-583.0
 21
45.0
 31
0.0
  0
LINE
  5
100
  8
OUTLINE
  6
CONTINUOUS
 62
     3
 10
625.0
 20
0.0
 30
0.0
 11
-625.0
 21
0.0
 31
0.0
  0
LINE
  5
101
  8
NOTE
  6
CONTINUOUS
 62
     4
 10
272.0
 20
304.0
 30
0.0
 11
232.0
 21
304.0
 31
0.0
  0
LINE
  5
102
  8
NOTE
  6
CONTINUOUS
 62
     4
 10
252.0
 20
284.0
 30
0.0
 11
252.0
 21
324.0
 31
0.0
  0
LINE
  5
103
  8
NOTE
  6
CONTINUOUS
 62
     4
 10
272.0
 20
145.0
 30
0.0
 11
232.0
 21
145.0
 31
0.0
  0
LINE
  5
104
  8
NOTE
  6
CONTINUOUS
 62
     4
 10
252.0
 20
125.0
 30
0.0
 11
252.0
 21
165.0
 31
0.0
  0
LINE
  5
105
  8
NOTE
  6
CONTINUOUS
 62
     4
 10
54.5
 20
304.0
 30
0.0
 11
14.5
 21
304.0
 31
0.0
  0
LINE
  5
106
  8
NOTE
  6
CONTINUOUS
 62
     4
 10
34.5
 20
284.0
 30
0.0
 11
34.5
 21
324.0
 31
0.0
  0
LINE
  5
107
  8
NOTE
  6
CONTINUOUS
 62
     4
 10
54.5
 20
145.0
 30
0.0
 11
14.5
 21
145.0
 31
0.0
  0
LINE
  5
108
  8
NOTE
  6
CONTINUOUS
 62
     4
 10
34.5
 20
125.0
 30
0.0
 11
34.5
 21
165.0
 31
0.0
  0
LINE
  5
109
  8
NOTE
  6
CONTINUOUS
 62
     4
 10
-163.0
 20
304.0
 30
0.0
 11
-203.0
 21
304.0
 31
0.0
  0
LINE
  5
10A
  8
NOTE
  6
CONTINUOUS
 62
     4
 10
-183.0
 20
284.0
 30
0.0
 11
-183.0
 21
324.0
 31
0.0
  0
LINE
  5
10B
  8
NOTE
  6
CONTINUOUS
 62
     4
 10
-163.0
 20
145.0
 30
0.0
 11
-203.0
 21
145.0
 31
0.0
  0
LINE
  5
10C
  8
NOTE
  6
CONTINUOUS
 62
     4
 10
-183.0
 20
125.0
 30
0.0
 11
-183.0
 21
165.0
 31
0.0
  0
LINE
  5
10D
  8
DETAIL
  6
CONTINUOUS
 62
     5
 10
252.0
 20
286.0
 30
0.0
 11
-183.0
 21
286.0
 31
0.0
  0
LINE
  5
10E
  8
DETAIL
  6
CONTINUOUS
 62
     5
 10
252.0
 20
176.0
 30
0.0
 11
-183.0
 21
176.0
 31
0.0
  0
CIRCLE
  5
10F
  8
DETAIL
  6
CONTINUOUS
 62
     5
 10
252.0
 20
304.0
 30
0.0
 40
1.45
  0
CIRCLE
  5
110
  8
DETAIL
  6
CONTINUOUS
 62
     5
 10
34.5
 20
304.0
 30
0.0
 40
1.45
  0
CIRCLE
  5
111
  8
DETAIL
  6
CONTINUOUS
 62
     5
 10
-183.0
 20
304.0
 30
0.0
 40
1.45
  0
CIRCLE
  5
112
  8
DETAIL
  6
CONTINUOUS
 62
     5
 10
-183.0
 20
145.0
 30
0.0
 40
1.45
  0
CIRCLE
  5
113
  8
DETAIL
  6
CONTINUOUS
 62
     5
 10
34.5
 20
145.0
 30
0.0
 40
1.45
  0
CIRCLE
  5
114
  8
DETAIL
  6
CONTINUOUS
 62
     5
 10
252.0
 20
145.0
 30
0.0
 40
1.45
  0
CIRCLE
  5
115
  8
NOTE
  6
CONTINUOUS
 62
     4
 10
17.478463000000001
 20
202.171606
 30
0.0
 40
5.0
  0
LINE
  5
116
  8
NOTE
  6
CONTINUOUS
 62
     4
 10
20.315376000000001
 20
198.05433400000001
 30
0.0
 11
21.595735000000001
 21
199.33469400000001
 31
0.0
  0
LINE
  5
117
  8
NOTE
  6
CONTINUOUS
 62
     4
 10
19.858858999999999
 20
197.77459400000001
 30
0.0
 11
21.875475999999999
 21
199.791211
 31
0.0
  0
LINE
  5
118
  8
NOTE
  6
CONTINUOUS
 62
     4
 10
19.510742
 20
197.60325399999999
 30
0.0
 11
22.046816
 21
200.13932800000001
 31
0.0
  0
LINE
  5
119
  8
NOTE
  6
CONTINUOUS
 62
     4
 10
19.212714999999999
 20
197.48200399999999
 30
0.0
 11
22.168066
 21
200.437354
 31
0.0
  0
LINE
  5
11A
  8
NOTE
  6
CONTINUOUS
 62
     4
 10
18.945649
 20
197.39171400000001
 30
0.0
 11
22.258355000000002
 21
200.704421
 31
0.0
  0
LINE
  5
11B
  8
NOTE
  6
CONTINUOUS
 62
     4
 10
18.700368000000001
 20
197.32320999999999
 30
0.0
 11
22.32686
 21
200.949702
 31
0.0
  0
LINE
  5
11C
  8
NOTE
  6
CONTINUOUS
 62
     4
 10
18.471615
 20
197.27123399999999
 30
0.0
 11
22.378836
 21
201.17845399999999
 31
0.0
  0
LINE
  5
11D
  8
NOTE
  6
CONTINUOUS
 62
     4
 10
18.256043999999999
 20
197.23244
 30
0.0
 11
22.417629999999999
 21
201.394026
 31
0.0
  0
LINE
  5
11E
  8
NOTE
  6
CONTINUOUS
 62
     4
 10
18.051364
 20
197.20453599999999
 30
0.0
 11
22.445533000000001
 21
201.59870599999999
 31
0.0
  0
LINE
  5
11F
  8
NOTE
  6
CONTINUOUS
 62
     4
 10
17.855926
 20
197.18587400000001
 30
0.0
 11
22.464195
 21
201.79414399999999
 31
0.0
  0
LINE
  5
120
  8
NOTE
  6
CONTINUOUS
 62
     4
 10
17.668493000000002
 20
197.175219
 30
0.0
 11
22.474851000000001
 21
201.98157599999999
 31
0.0
  0
LINE
  5
121
  8
NOTE
  6
CONTINUOUS
 62
     4
 10
17.488112999999998
 20
197.171616
 30
0.0
 11
22.478453999999999
 21
202.161956
 31
0.0
  0
LINE
  5
122
  8
NOTE
  6
CONTINUOUS
 62
     4
 10
17.314032000000001
 20
197.17431099999999
 30
0.0
 11
22.475759
 21
202.336038
 31
0.0
  0
LINE
  5
123
  8
NOTE
  6
CONTINUOUS
 62
     4
 10
17.14564
 20
197.18269599999999
 30
0.0
 11
22.467374
 21
202.50443000000001
 31
0.0
  0
LINE
  5
124
  8
NOTE
  6
CONTINUOUS
 62
     4
 10
16.982438999999999
 20
197.196271
 30
0.0
 11
22.453799
 21
202.667631
 31
0.0
  0
LINE
  5
125
  8
NOTE
  6
CONTINUOUS
 62
     4
 10
16.824013000000001
 20
197.21462199999999
 30
0.0
 11
22.435448000000001
 21
202.82605699999999
 31
0.0
  0
LINE
  5
126
  8
NOTE
  6
CONTINUOUS
 62
     4
 10
16.670013000000001
 20
197.23739800000001
 30
0.0
 11
22.412671
 21
202.98005699999999
 31
0.0
  0
LINE
  5
127
  8
NOTE
  6
CONTINUOUS
 62
     4
 10
16.520140999999999
 20
197.26430400000001
 30
0.0
 11
22.385766
 21
203.12992800000001
 31
0.0
  0
LINE
  5
128
  8
NOTE
  6
CONTINUOUS
 62
     4
 10
16.374144000000001
 20
197.29508300000001
 30
0.0
 11
22.354987000000001
 21
203.275926
 31
0.0
  0
LINE
  5
129
  8
NOTE
  6
CONTINUOUS
 62
     4
 10
16.231801000000001
 20
197.32951700000001
 30
0.0
 11
22.320553
 21
203.41826900000001
 31
0.0
  0
LINE
  5
12A
  8
NOTE
  6
CONTINUOUS
 62
     4
 10
16.092921
 20
197.367413
 30
0.0
 11
22.282657
 21
203.55714900000001
 31
0.0
  0
LINE
  5
12B
  8
NOTE
  6
CONTINUOUS
 62
     4
 10
15.957337000000001
 20
197.40860599999999
 30
0.0
 11
22.241464000000001
 21
203.692733
 31
0.0
  0
LINE
  5
12C
  8
NOTE
  6
CONTINUOUS
 62
     4
 10
15.824902
 20
197.45294799999999
 30
0.0
 11
22.197122
 21
203.82516699999999
 31
0.0
  0
LINE
  5
12D
  8
NOTE
  6
CONTINUOUS
 62
     4
 10
15.695487999999999
 20
197.50031100000001
 30
0.0
 11
22.149759
 21
203.95458099999999
 31
0.0
  0
LINE
  5
12E
  8
NOTE
  6
CONTINUOUS
 62
     4
 10
15.568981000000001
 20
197.55058099999999
 30
0.0
 11
22.099488999999998
 21
204.08108799999999
 31
0.0
  0
LINE
  5
12F
  8
NOTE
  6
CONTINUOUS
 62
     4
 10
15.44528
 20
197.603656
 30
0.0
 11
22.046413000000001
 21
204.20478900000001
 31
0.0
  0
LINE
  5
130
  8
NOTE
  6
CONTINUOUS
 62
     4
 10
15.324296
 20
197.659449
 30
0.0
 11
21.990621000000001
 21
204.325773
 31
0.0
  0
LINE
  5
131
  8
NOTE
  6
CONTINUOUS
 62
     4
 10
15.20595
 20
197.71787900000001
 30
0.0
 11
21.932189999999999
 21
204.44412
 31
0.0
  0
LINE
  5
132
  8
NOTE
  6
CONTINUOUS
 62
     4
 10
15.090172000000001
 20
197.77887799999999
 30
0.0
 11
21.871192000000001
 21
204.559898
 31
0.0
  0
LINE
  5
133
  8
NOTE
  6
CONTINUOUS
 62
     4
 10
14.976900000000001
 20
197.84238199999999
 30
0.0
 11
21.807687000000001
 21
204.67317
 31
0.0
  0
LINE
  5
134
  8
NOTE
  6
CONTINUOUS
 62
     4
 10
14.866078999999999
 20
197.9083389999999
 30
0.0
 11
21.741731000000001
 21
204.78398999999999
 31
0.0
  0
LINE
  5
135
  8
NOTE
  6
CONTINUOUS
 62
     4
 10
14.757663000000001
 20
197.976699
 30
0.0
 11
21.673370999999999
 21
204.89240699999999
 31
0.0
  0
LINE
  5
136
  8
NOTE
  6
CONTINUOUS
 62
     4
 10
14.651609000000001
 20
198.0474219999999
 30
0.0
 11
21.602647999999999
 21
204.99845999999999
 31
0.0
  0
LINE
  5
137
  8
NOTE
  6
CONTINUOUS
 62
     4
 10
14.547882
 20
198.12047200000001
 30
0.0
 11
21.529598
 21
205.10218800000001
 31
0.0
  0
LINE
  5
138
  8
NOTE
  6
CONTINUOUS
 62
     4
 10
14.446451
 20
198.19581700000001
 30
0.0
 11
21.454253000000001
 21
205.203619
 31
0.0
  0
LINE
  5
139
  8
NOTE
  6
CONTINUOUS
 62
     4
 10
14.347289999999999
 20
198.27343300000001
 30
0.0
 11
21.376636999999999
 21
205.30277899999999
 31
0.0
  0
LINE
  5
13A
  8
NOTE
  6
CONTINUOUS
 62
     4
 10
14.250379000000001
 20
198.35329899999999
 30
0.0
 11
21.296771
 21
205.39968999999999
 31
0.0
  0
LINE
  5
13B
  8
NOTE
  6
CONTINUOUS
 62
     4
 10
14.155702
 20
198.43539799999999
 30
0.0
 11
21.214672
 21
205.49436800000001
 31
0.0
  0
LINE
  5
13C
  8
NOTE
  6
CONTINUOUS
 62
     4
 10
14.063245
 20
198.51971800000001
 30
0.0
 11
21.130351000000001
 21
205.58682400000001
 31
0.0
  0
LINE
  5
13D
  8
NOTE
  6
CONTINUOUS
 62
     4
 10
13.973003
 20
198.60625300000001
 30
0.0
 11
21.043817000000001
 21
205.67706699999999
 31
0.0
  0
LINE
  5
13E
  8
NOTE
  6
CONTINUOUS
 62
     4
 10
13.884971
 20
198.694997
 30
0.0
 11
20.955072999999999
 21
205.76509899999999
 31
0.0
  0
LINE
  5
13F
  8
NOTE
  6
CONTINUOUS
 62
     4
 10
13.799149999999999
 20
198.78595300000001
 30
0.0
 11
20.864117
 21
205.85092
 31
0.0
  0
LINE
  5
140
  8
NOTE
  6
CONTINUOUS
 62
     4
 10
13.715544
 20
198.87912399999999
 30
0.0
 11
20.770945999999999
 21
205.93452500000001
 31
0.0
  0
LINE
  5
141
  8
NOTE
  6
CONTINUOUS
 62
     4
 10
13.634164
 20
198.97452000000001
 30
0.0
 11
20.675550000000001
 21
206.015906
 31
0.0
  0
LINE
  5
142
  8
NOTE
  6
CONTINUOUS
 62
     4
 10
13.555021
 20
199.07215400000001
 30
0.0
 11
20.577915000000001
 21
206.09504799999999
 31
0.0
  0
LINE
  5
143
  8
NOTE
  6
CONTINUOUS
 62
     4
 10
13.478135
 20
199.172045
 30
0.0
 11
20.478024999999999
 21
206.17193499999999
 31
0.0
  0
LINE
  5
144
  8
NOTE
  6
CONTINUOUS
 62
     4
 10
13.403525999999999
 20
199.274213
 30
0.0
 11
20.375857
 21
206.246543
 31
0.0
  0
LINE
  5
145
  8
NOTE
  6
CONTINUOUS
 62
     4
 10
13.331223
 20
199.37868700000001
 30
0.0
 11
20.271383
 21
206.31884600000001
 31
0.0
  0
LINE
  5
146
  8
NOTE
  6
CONTINUOUS
 62
     4
 10
13.261258
 20
199.48549800000001
 30
0.0
 11
20.164572
 21
206.388812
 31
0.0
  0
LINE
  5
147
  8
NOTE
  6
CONTINUOUS
 62
     4
 10
13.193668000000001
 20
199.594684
 30
0.0
 11
20.055385000000001
 21
206.456402
 31
0.0
  0
LINE
  5
148
  8
NOTE
  6
CONTINUOUS
 62
     4
 10
13.128496
 20
199.70629
 30
0.0
 11
19.94378
 21
206.52157299999999
 31
0.0
  0
LINE
  5
149
  8
NOTE
  6
CONTINUOUS
 62
     4
 10
13.065792999999999
 20
199.82036299999999
 30
0.0
 11
19.829705999999991
 21
206.58427599999999
 31
0.0
  0
LINE
  5
14A
  8
NOTE
  6
CONTINUOUS
 62
     4
 10
13.005616
 20
199.93696199999999
 30
0.0
 11
19.713107000000001
 21
206.644454
 31
0.0
  0
LINE
  5
14B
  8
NOTE
  6
CONTINUOUS
 62
     4
 10
12.948028000000001
 20
200.056151
 30
0.0
 11
19.593919
 21
206.70204200000001
 31
0.0
  0
LINE
  5
14C
  8
NOTE
  6
CONTINUOUS
 62
     4
 10
12.893102000000001
 20
200.17800199999999
 30
0.0
 11
19.472068
 21
206.756968
 31
0.0
  0
LINE
  5
14D
  8
NOTE
  6
CONTINUOUS
 62
     4
 10
12.840920000000001
 20
200.30259699999999
 30
0.0
 11
19.347473000000001
 21
206.80914899999999
 31
0.0
  0
LINE
  5
14E
  8
NOTE
  6
CONTINUOUS
 62
     4
 10
12.791575999999999
 20
200.43002999999999
 30
0.0
 11
19.220040000000001
 21
206.85849300000001
 31
0.0
  0
LINE
  5
14F
  8
NOTE
  6
CONTINUOUS
 62
     4
 10
12.745174
 20
200.56040400000001
 30
0.0
 11
19.089666000000001
 21
206.90489600000001
 31
0.0
  0
LINE
  5
150
  8
NOTE
  6
CONTINUOUS
 62
     4
 10
12.701832
 20
200.693839
 30
0.0
 11
18.956230999999999
 21
206.94823700000001
 31
0.0
  0
LINE
  5
151
  8
NOTE
  6
CONTINUOUS
 62
     4
 10
12.661685
 20
200.83046899999999
 30
0.0
 11
18.819600999999999
 21
206.988384
 31
0.0
  0
LINE
  5
152
  8
NOTE
  6
CONTINUOUS
 62
     4
 10
12.624886
 20
200.97044600000001
 30
0.0
 11
18.679624
 21
207.025184
 31
0.0
  0
LINE
  5
153
  8
NOTE
  6
CONTINUOUS
 62
     4
 10
12.591608000000001
 20
201.113945
 30
0.0
 11
18.536124999999998
 21
207.05846099999999
 31
0.0
  0
LINE
  5
154
  8
NOTE
  6
CONTINUOUS
 62
     4
 10
12.562052
 20
201.261166
 30
0.0
 11
18.388904
 21
207.08801700000001
 31
0.0
  0
LINE
  5
155
  8
NOTE
  6
CONTINUOUS
 62
     4
 10
12.536448
 20
201.412339
 30
0.0
 11
18.237731
 21
207.11362099999999
 31
0.0
  0
LINE
  5
156
  8
NOTE
  6
CONTINUOUS
 62
     4
 10
12.515064000000001
 20
201.56773100000001
 30
0.0
 11
18.082339000000001
 21
207.135006
 31
0.0
  0
LINE
  5
157
  8
NOTE
  6
CONTINUOUS
 62
     4
 10
12.498212000000001
 20
201.727655
 30
0.0
 11
17.922414
 21
207.151858
 31
0.0
  0
LINE
  5
158
  8
NOTE
  6
CONTINUOUS
 62
     4
 10
12.486261000000001
 20
201.892481
 30
0.0
 11
17.757588999999999
 21
207.16380899999999
 31
0.0
  0
LINE
  5
159
  8
NOTE
  6
CONTINUOUS
 62
     4
 10
12.479651
 20
202.062648
 30
0.0
 11
17.587422
 21
207.17041900000001
 31
0.0
  0
LINE
  5
15A
  8
NOTE
  6
CONTINUOUS
 62
     4
 10
12.478913
 20
202.238687
 30
0.0
 11
17.411383000000001
 21
207.171156
 31
0.0
  0
LINE
  5
15B
  8
NOTE
  6
CONTINUOUS
 62
     4
 10
12.4847
 20
202.42124999999999
 30
0.0
 11
17.228819999999999
 21
207.16537
 31
0.0
  0
LINE
  5
15C
  8
NOTE
  6
CONTINUOUS
 62
     4
 10
12.497821
 20
202.61114799999999
 30
0.0
 11
17.038921999999999
 21
207.15224900000001
 31
0.0
  0
LINE
  5
15D
  8
NOTE
  6
CONTINUOUS
 62
     4
 10
12.519310000000001
 20
202.809414
 30
0.0
 11
16.840655999999999
 21
207.13076000000001
 31
0.0
  0
LINE
  5
15E
  8
NOTE
  6
CONTINUOUS
 62
     4
 10
12.550519
 20
203.01740000000001
 30
0.0
 11
16.632670000000001
 21
207.09954999999999
 31
0.0
  0
LINE
  5
15F
  8
NOTE
  6
CONTINUOUS
 62
     4
 10
12.593273
 20
203.23693
 30
0.0
 11
16.413139000000001
 21
207.05679699999999
 31
0.0
  0
LINE
  5
160
  8
NOTE
  6
CONTINUOUS
 62
     4
 10
12.650143
 20
203.47057699999999
 30
0.0
 11
16.179492
 21
206.99992599999999
 31
0.0
  0
LINE
  5
161
  8
NOTE
  6
CONTINUOUS
 62
     4
 10
12.724966999999999
 20
203.72217800000001
 30
0.0
 11
15.927892
 21
206.92510300000001
 31
0.0
  0
LINE
  5
162
  8
NOTE
  6
CONTINUOUS
 62
     4
 10
12.823947
 20
203.99793399999999
 30
0.0
 11
15.652136
 21
206.826123
 31
0.0
  0
LINE
  5
163
  8
NOTE
  6
CONTINUOUS
 62
     4
 10
12.958427
 20
204.309191
 30
0.0
 11
15.340878999999999
 21
206.691643
 31
0.0
  0
LINE
  5
164
  8
NOTE
  6
CONTINUOUS
 62
     4
 10
13.154208000000001
 20
204.681749
 30
0.0
 11
14.968321
 21
206.49586199999999
 31
0.0
  0
LINE
  5
165
  8
NOTE
  6
CONTINUOUS
 62
     4
 10
13.513684
 20
205.21800099999999
 30
0.0
 11
14.432069
 21
206.13638599999999
 31
0.0
  0
LINE
  5
166
  8
DETAIL
  6
CONTINUOUS
 62
     5
 10
-183.0
 20
286.0
 30
0.0
 11
-183.0
 21
176.0
 31
0.0
  0
LINE
  5
167
  8
DETAIL
  6
CONTINUOUS
 62
     5
 10
252.0
 20
286.0
 30
0.0
 11
252.0
 21
176.0
 31
0.0
  0
LINE
  5
16D
  8
SIZE
  6
CONTINUOUS
 62
    30
 10
-183.0
 20
304.0
 30
0.0
 11
-183.0
 21
708.45758599999999
 31
0.0
  0
LINE
  5
16E
  8
SIZE
  6
CONTINUOUS
 62
    30
 10
252.0
 20
306.0
 30
0.0
 11
252.0
 21
708.45758599999999
 31
0.0
  0
LINE
  5
16F
  8
SIZE
  6
CONTINUOUS
 62
    30
 10
-173.0
 20
678.45758599999999
 30
0.0
 11
242.0
 21
678.45758599999999
 31
0.0
  0
CIRCLE
  5
170
  8
SIZE
  6
CONTINUOUS
 62
    30
 10
-183.0
 20
678.45758599999999
 30
0.0
 40
5.0
  0
LINE
  5
171
  8
SIZE
  6
CONTINUOUS
 62
    30
 10
-178.0
 20
678.45758599999999
 30
0.0
 11
-173.0
 21
678.45758599999999
 31
0.0
  0
CIRCLE
  5
172
  8
SIZE
  6
CONTINUOUS
 62
    30
 10
252.0
 20
678.45758599999999
 30
0.0
 40
5.0
  0
LINE
  5
173
  8
SIZE
  6
CONTINUOUS
 62
    30
 10
247.0
 20
678.45758599999999
 30
0.0
 11
242.0
 21
678.45758599999999
 31
0.0
  0
TEXT
  5
174
  8
SIZE
  6
CONTINUOUS
 62
    30
 10
-39.55714285714285
 20
698.45758599999976
 30
0.0
 40
64.0
  1
435
 41
0.9
 72
     1
 11
34.5
 21
698.45758599999976
 31
0.0
  0
LINE
  5
175
  8
SIZE
  6
CONTINUOUS
 62
    30
 10
-203.0
 20
286.0
 30
0.0
 11
-301.63817599999999
 21
286.0
 31
0.0
  0
LINE
  5
176
  8
SIZE
  6
CONTINUOUS
 62
    30
 10
-203.0
 20
176.0
 30
0.0
 11
-301.63817599999999
 21
176.0
 31
0.0
  0
LINE
  5
177
  8
SIZE
  6
CONTINUOUS
 62
    30
 10
-271.63817599999999
 20
296.0
 30
0.0
 11
-271.63817599999999
 21
306.0
 31
0.0
  0
LINE
  5
178
  8
SIZE
  6
CONTINUOUS
 62
    30
 10
-271.63817599999999
 20
166.0
 30
0.0
 11
-271.63817599999999
 21
156.0
 31
0.0
  0
LINE
  5
179
  8
SIZE
  6
CONTINUOUS
 62
    30
 10
-271.63817599999999
 20
286.0
 30
0.0
 11
-271.63817599999999
 21
176.0
 31
0.0
  0
CIRCLE
  5
17A
  8
SIZE
  6
CONTINUOUS
 62
    30
 10
-271.63817599999999
 20
286.0
 30
0.0
 40
5.0
  0
LINE
  5
17B
  8
SIZE
  6
CONTINUOUS
 62
    30
 10
-271.63817599999999
 20
291.0
 30
0.0
 11
-271.63817599999999
 21
296.0
 31
0.0
  0
CIRCLE
  5
17C
  8
SIZE
  6
CONTINUOUS
 62
    30
 10
-271.63817599999999
 20
176.0
 30
0.0
 40
5.0
  0
LINE
  5
17D
  8
SIZE
  6
CONTINUOUS
 62
    30
 10
-271.63817599999999
 20
171.0
 30
0.0
 11
-271.63817599999999
 21
166.0
 31
0.0
  0
TEXT
  5
17E
  8
SIZE
  6
CONTINUOUS
 62
    30
 10
-291.63817599999999
 20
167.91428571428571
 30
0.0
 40
64.0
  1
110
 50
90.0
 41
0.9
 72
     1
 11
-291.63817599999999
 21
231.0
 31
0.0
  0
LINE
  5
17F
  8
SIZE
  6
CONTINUOUS
 62
    30
 10
232.0
 20
338.0
 30
0.0
 11
116.75919500000001
 21
338.0
 31
0.0
  0
LINE
  5
180
  8
SIZE
  6
CONTINUOUS
 62
    30
 10
232.0
 20
286.0
 30
0.0
 11
116.75919500000001
 21
286.0
 31
0.0
  0
LINE
  5
181
  8
SIZE
  6
CONTINUOUS
 62
    30
 10
146.75919500000001
 20
276.0
 30
0.0
 11
146.75919500000001
 21
266.0
 31
0.0
  0
LINE
  5
182
  8
SIZE
  6
CONTINUOUS
 62
    30
 10
146.75919500000001
 20
348.0
 30
0.0
 11
146.75919500000001
 21
491.25714299999981
 31
0.0
  0
LINE
  5
183
  8
SIZE
  6
CONTINUOUS
 62
    30
 10
146.75919500000001
 20
286.0
 30
0.0
 11
146.75919500000001
 21
338.0
 31
0.0
  0
CIRCLE
  5
184
  8
SIZE
  6
CONTINUOUS
 62
    30
 10
146.75919500000001
 20
286.0
 30
0.0
 40
5.0
  0
LINE
  5
185
  8
SIZE
  6
CONTINUOUS
 62
    30
 10
146.75919500000001
 20
281.0
 30
0.0
 11
146.75919500000001
 21
276.0
 31
0.0
  0
CIRCLE
  5
186
  8
SIZE
  6
CONTINUOUS
 62
    30
 10
146.75919500000001
 20
338.0
 30
0.0
 40
5.0
  0
LINE
  5
187
  8
SIZE
  6
CONTINUOUS
 62
    30
 10
146.75919500000001
 20
343.0
 30
0.0
 11
146.75919500000001
 21
348.0
 31
0.0
  0
TEXT
  5
188
  8
SIZE
  6
CONTINUOUS
 62
    30
 10
126.75919500000001
 20
377.99999957142859
 30
0.0
 40
64.0
  1
52
 50
90.0
 41
0.9
 72
     1
 11
126.75919500000001
 21
424.62857100000002
 31
0.0
  0
LINE
  5
189
  8
SIZE
  6
CONTINUOUS
 62
    30
 10
14.5
 20
338.0
 30
0.0
 11
-66.680160999999998
 21
338.0
 31
0.0
  0
LINE
  5
18A
  8
SIZE
  6
CONTINUOUS
 62
    30
 10
14.5
 20
304.0
 30
0.0
 11
-66.680160999999998
 21
304.0
 31
0.0
  0
LINE
  5
18B
  8
SIZE
  6
CONTINUOUS
 62
    30
 10
-36.680160999999998
 20
294.0
 30
0.0
 11
-36.680160999999998
 21
284.0
 31
0.0
  0
LINE
  5
18C
  8
SIZE
  6
CONTINUOUS
 62
    30
 10
-36.680160999999998
 20
348.0
 30
0.0
 11
-36.680160999999998
 21
494.0
 31
0.0
  0
LINE
  5
18D
  8
SIZE
  6
CONTINUOUS
 62
    30
 10
-36.680160999999998
 20
304.0
 30
0.0
 11
-36.680160999999998
 21
338.0
 31
0.0
  0
CIRCLE
  5
18E
  8
SIZE
  6
CONTINUOUS
 62
    30
 10
-36.680160999999998
 20
304.0
 30
0.0
 40
5.0
  0
LINE
  5
18F
  8
SIZE
  6
CONTINUOUS
 62
    30
 10
-36.680160999999998
 20
299.0
 30
0.0
 11
-36.680160999999998
 21
294.0
 31
0.0
  0
CIRCLE
  5
190
  8
SIZE
  6
CONTINUOUS
 62
    30
 10
-36.680160999999998
 20
338.0
 30
0.0
 40
5.0
  0
LINE
  5
191
  8
SIZE
  6
CONTINUOUS
 62
    30
 10
-36.680160999999998
 20
343.0
 30
0.0
 11
-36.680160999999998
 21
348.0
 31
0.0
  0
TEXT
  5
192
  8
SIZE
  6
CONTINUOUS
 62
    30
 10
-56.680160999999998
 20
378.0
 30
0.0
 40
64.0
  1
34
 50
90.0
 41
0.9
 72
     1
 11
-56.680160999999998
 21
426.0
 31
0.0
  0
LINE
  5
193
  8
SIZE
  6
CONTINUOUS
 62
    30
 10
34.5
 20
324.0
 30
0.0
 11
34.5
 21
598.27527399999985
 31
0.0
  0
LINE
  5
194
  8
SIZE
  6
CONTINUOUS
 62
    30
 10
-183.0
 20
324.0
 30
0.0
 11
-183.0
 21
598.27527399999985
 31
0.0
  0
LINE
  5
195
  8
SIZE
  6
CONTINUOUS
 62
    30
 10
44.5
 20
568.27527399999985
 30
0.0
 11
54.5
 21
568.27527399999985
 31
0.0
  0
LINE
  5
196
  8
SIZE
  6
CONTINUOUS
 62
    30
 10
-193.0
 20
568.27527399999985
 30
0.0
 11
-203.0
 21
568.27527399999985
 31
0.0
  0
LINE
  5
197
  8
SIZE
  6
CONTINUOUS
 62
    30
 10
34.5
 20
568.27527399999985
 30
0.0
 11
-183.0
 21
568.27527399999985
 31
0.0
  0
CIRCLE
  5
198
  8
SIZE
  6
CONTINUOUS
 62
    30
 10
34.5
 20
568.27527399999985
 30
0.0
 40
5.0
  0
LINE
  5
199
  8
SIZE
  6
CONTINUOUS
 62
    30
 10
39.5
 20
568.27527399999985
 30
0.0
 11
44.5
 21
568.27527399999985
 31
0.0
  0
CIRCLE
  5
19A
  8
SIZE
  6
CONTINUOUS
 62
    30
 10
-183.0
 20
568.27527399999985
 30
0.0
 40
5.0
  0
LINE
  5
19B
  8
SIZE
  6
CONTINUOUS
 62
    30
 10
-188.0
 20
568.27527399999985
 30
0.0
 11
-193.0
 21
568.27527399999985
 31
0.0
  0
TEXT
  5
19C
  8
SIZE
  6
CONTINUOUS
 62
    30
 10
-183.96428571428569
 20
588.27527399999985
 30
0.0
 40
64.0
  1
217.5
 41
0.9
 72
     1
 11
-74.25
 21
588.27527399999985
 31
0.0
  0
LINE
  5
19D
  8
SIZE
  6
CONTINUOUS
 62
    30
 10
252.0
 20
324.0
 30
0.0
 11
252.0
 21
597.70862
 31
0.0
  0
LINE
  5
19E
  8
SIZE
  6
CONTINUOUS
 62
    30
 10
34.5
 20
324.0
 30
0.0
 11
34.5
 21
597.70862
 31
0.0
  0
LINE
  5
19F
  8
SIZE
  6
CONTINUOUS
 62
    30
 10
262.0
 20
567.70861999999977
 30
0.0
 11
272.0
 21
567.70861999999977
 31
0.0
  0
LINE
  5
1A0
  8
SIZE
  6
CONTINUOUS
 62
    30
 10
24.5
 20
567.70861999999977
 30
0.0
 11
14.5
 21
567.70861999999977
 31
0.0
  0
LINE
  5
1A1
  8
SIZE
  6
CONTINUOUS
 62
    30
 10
252.0
 20
567.70861999999977
 30
0.0
 11
34.5
 21
567.70861999999977
 31
0.0
  0
CIRCLE
  5
1A2
  8
SIZE
  6
CONTINUOUS
 62
    30
 10
252.0
 20
567.70861999999977
 30
0.0
 40
5.0
  0
LINE
  5
1A3
  8
SIZE
  6
CONTINUOUS
 62
    30
 10
257.0
 20
567.70861999999977
 30
0.0
 11
262.0
 21
567.70861999999977
 31
0.0
  0
CIRCLE
  5
1A4
  8
SIZE
  6
CONTINUOUS
 62
    30
 10
34.5
 20
567.70861999999977
 30
0.0
 40
5.0
  0
LINE
  5
1A5
  8
SIZE
  6
CONTINUOUS
 62
    30
 10
29.5
 20
567.70861999999977
 30
0.0
 11
24.5
 21
567.70861999999977
 31
0.0
  0
TEXT
  5
1A6
  8
SIZE
  6
CONTINUOUS
 62
    30
 10
33.535714285714313
 20
587.70861999999988
 30
0.0
 40
64.0
  1
217.5
 41
0.9
 72
     1
 11
143.25
 21
587.70861999999988
 31
0.0
  0
LINE
  5
1A7
  8
SIZE
  6
CONTINUOUS
 62
    30
 10
-645.0
 20
0.0
 30
0.0
 11
-763.65244499999983
 21
0.0
 31
0.0
  0
LINE
  5
1A8
  8
SIZE
  6
CONTINUOUS
 62
    30
 10
-577.0
 20
-20.0
 30
0.0
 11
-763.65244499999983
 21
-20.0
 31
0.0
  0
LINE
  5
1A9
  8
SIZE
  6
CONTINUOUS
 62
    30
 10
-733.65244499999983
 20
10.0
 30
0.0
 11
-733.65244499999983
 21
20.0
 31
0.0
  0
LINE
  5
1AA
  8
SIZE
  6
CONTINUOUS
 62
    30
 10
-733.65244499999983
 20
-30.0
 30
0.0
 11
-733.65244499999983
 21
-173.25714300000001
 31
0.0
  0
LINE
  5
1AB
  8
SIZE
  6
CONTINUOUS
 62
    30
 10
-733.65244499999983
 20
0.0
 30
0.0
 11
-733.65244499999983
 21
-20.0
 31
0.0
  0
CIRCLE
  5
1AC
  8
SIZE
  6
CONTINUOUS
 62
    30
 10
-733.65244499999983
 20
0.0
 30
0.0
 40
5.0
  0
LINE
  5
1AD
  8
SIZE
  6
CONTINUOUS
 62
    30
 10
-733.65244499999983
 20
5.0
 30
0.0
 11
-733.65244499999983
 21
10.0
 31
0.0
  0
CIRCLE
  5
1AE
  8
SIZE
  6
CONTINUOUS
 62
    30
 10
-733.65244499999983
 20
-20.0
 30
0.0
 40
5.0
  0
LINE
  5
1AF
  8
SIZE
  6
CONTINUOUS
 62
    30
 10
-733.65244499999983
 20
-25.0
 30
0.0
 11
-733.65244499999983
 21
-30.0
 31
0.0
  0
TEXT
  5
1B0
  8
SIZE
  6
CONTINUOUS
 62
    30
 10
-753.65244499999983
 20
-153.2571424285714
 30
0.0
 40
64.0
  1
20
 50
90.0
 41
0.9
 72
     1
 11
-753.65244499999983
 21
-106.62857099999999
 31
0.0
  0
LINE
  5
1B1
  8
SIZE
  6
CONTINUOUS
 62
    30
 10
-603.0
 20
45.0
 30
0.0
 11
-763.65244499999983
 21
45.0
 31
0.0
  0
LINE
  5
1B2
  8
SIZE
  6
CONTINUOUS
 62
    30
 10
-645.0
 20
0.0
 30
0.0
 11
-763.65244499999983
 21
0.0
 31
0.0
  0
LINE
  5
1B3
  8
SIZE
  6
CONTINUOUS
 62
    30
 10
-733.65244499999983
 20
55.0
 30
0.0
 11
-733.65244499999983
 21
65.0
 31
0.0
  0
LINE
  5
1B4
  8
SIZE
  6
CONTINUOUS
 62
    30
 10
-733.65244499999983
 20
-10.0
 30
0.0
 11
-733.65244499999983
 21
-20.0
 31
0.0
  0
LINE
  5
1B5
  8
SIZE
  6
CONTINUOUS
 62
    30
 10
-733.65244499999983
 20
45.0
 30
0.0
 11
-733.65244499999983
 21
0.0
 31
0.0
  0
CIRCLE
  5
1B6
  8
SIZE
  6
CONTINUOUS
 62
    30
 10
-733.65244499999983
 20
45.0
 30
0.0
 40
5.0
  0
LINE
  5
1B7
  8
SIZE
  6
CONTINUOUS
 62
    30
 10
-733.65244499999983
 20
50.0
 30
0.0
 11
-733.65244499999983
 21
55.0
 31
0.0
  0
CIRCLE
  5
1B8
  8
SIZE
  6
CONTINUOUS
 62
    30
 10
-733.65244499999983
 20
0.0
 30
0.0
 40
5.0
  0
LINE
  5
1B9
  8
SIZE
  6
CONTINUOUS
 62
    30
 10
-733.65244499999983
 20
-5.0
 30
0.0
 11
-733.65244499999983
 21
-10.0
 31
0.0
  0
TEXT
  5
1BA
  8
SIZE
  6
CONTINUOUS
 62
    30
 10
-753.65244499999983
 20
-24.128571428571419
 30
0.0
 40
64.0
  1
45
 50
90.0
 41
0.9
 72
     1
 11
-753.65244499999983
 21
22.5
 31
0.0
  0
LINE
  5
1BB
  8
SIZE
  6
CONTINUOUS
 62
    30
 10
252.0
 20
306.0
 30
0.0
 11
252.0
 21
597.84542399999975
 31
0.0
  0
LINE
  5
1BC
  8
SIZE
  6
CONTINUOUS
 62
    30
 10
473.0
 20
358.0
 30
0.0
 11
473.0
 21
597.84542399999975
 31
0.0
  0
LINE
  5
1BD
  8
SIZE
  6
CONTINUOUS
 62
    30
 10
262.0
 20
567.84542399999975
 30
0.0
 11
463.0
 21
567.84542399999975
 31
0.0
  0
CIRCLE
  5
1BE
  8
SIZE
  6
CONTINUOUS
 62
    30
 10
252.0
 20
567.84542399999975
 30
0.0
 40
5.0
  0
LINE
  5
1BF
  8
SIZE
  6
CONTINUOUS
 62
    30
 10
257.0
 20
567.84542399999975
 30
0.0
 11
262.0
 21
567.84542399999975
 31
0.0
  0
CIRCLE
  5
1C0
  8
SIZE
  6
CONTINUOUS
 62
    30
 10
473.0
 20
567.84542399999975
 30
0.0
 40
5.0
  0
LINE
  5
1C1
  8
SIZE
  6
CONTINUOUS
 62
    30
 10
468.0
 20
567.84542399999975
 30
0.0
 11
463.0
 21
567.84542399999975
 31
0.0
  0
TEXT
  5
1C2
  8
SIZE
  6
CONTINUOUS
 62
    30
 10
290.0407042857143
 20
587.84542399999987
 30
0.0
 40
64.0
  1
221
 41
0.9
 72
     1
 11
351.75499000000002
 21
587.84542399999987
 31
0.0
  0
LINE
  5
1C3
  8
SIZE
  6
CONTINUOUS
 62
    30
 10
312.0
 20
304.0
 30
0.0
 11
462.29675800000001
 21
304.0
 31
0.0
  0
LINE
  5
1C4
  8
SIZE
  6
CONTINUOUS
 62
    30
 10
312.0
 20
145.0
 30
0.0
 11
462.29675800000001
 21
145.0
 31
0.0
  0
LINE
  5
1C5
  8
SIZE
  6
CONTINUOUS
 62
    30
 10
432.29675800000001
 20
314.0
 30
0.0
 11
432.29675800000001
 21
324.0
 31
0.0
  0
LINE
  5
1C6
  8
SIZE
  6
CONTINUOUS
 62
    30
 10
432.29675800000001
 20
135.0
 30
0.0
 11
432.29675800000001
 21
125.0
 31
0.0
  0
LINE
  5
1C7
  8
SIZE
  6
CONTINUOUS
 62
    30
 10
432.29675800000001
 20
304.0
 30
0.0
 11
432.29675800000001
 21
145.0
 31
0.0
  0
CIRCLE
  5
1C8
  8
SIZE
  6
CONTINUOUS
 62
    30
 10
432.29675800000001
 20
304.0
 30
0.0
 40
5.0
  0
LINE
  5
1C9
  8
SIZE
  6
CONTINUOUS
 62
    30
 10
432.29675800000001
 20
309.0
 30
0.0
 11
432.29675800000001
 21
314.0
 31
0.0
  0
CIRCLE
  5
1CA
  8
SIZE
  6
CONTINUOUS
 62
    30
 10
432.29675800000001
 20
145.0
 30
0.0
 40
5.0
  0
LINE
  5
1CB
  8
SIZE
  6
CONTINUOUS
 62
    30
 10
432.29675800000001
 20
140.0
 30
0.0
 11
432.29675800000001
 21
135.0
 31
0.0
  0
TEXT
  5
1CC
  8
SIZE
  6
CONTINUOUS
 62
    30
 10
412.29675800000001
 20
157.30000000000001
 30
0.0
 40
64.0
  1
159
 50
90.0
 41
0.9
 72
     1
 11
412.29675800000001
 21
224.5
 31
0.0
  0
LINE
  5
1CD
  8
SIZE
  6
CONTINUOUS
 62
    30
 10
493.0
 20
338.0
 30
0.0
 11
1250.4074579999999
 21
338.0
 31
0.0
  0
LINE
  5
1CE
  8
SIZE
  6
CONTINUOUS
 62
    30
 10
563.0
 20
72.210874000000004
 30
0.0
 11
1250.4074579999999
 21
72.210874000000004
 31
0.0
  0
LINE
  5
1CF
  8
SIZE
  6
CONTINUOUS
 62
    30
 10
1220.4074579999999
 20
328.0
 30
0.0
 11
1220.4074579999999
 21
82.210874000000004
 31
0.0
  0
CIRCLE
  5
1D0
  8
SIZE
  6
CONTINUOUS
 62
    30
 10
1220.4074579999999
 20
338.0
 30
0.0
 40
5.0
  0
LINE
  5
1D1
  8
SIZE
  6
CONTINUOUS
 62
    30
 10
1220.4074579999999
 20
333.0
 30
0.0
 11
1220.4074579999999
 21
328.0
 31
0.0
  0
CIRCLE
  5
1D2
  8
SIZE
  6
CONTINUOUS
 62
    30
 10
1220.4074579999999
 20
72.210874000000004
 30
0.0
 40
5.0
  0
LINE
  5
1D3
  8
SIZE
  6
CONTINUOUS
 62
    30
 10
1220.4074579999999
 20
77.210874000000004
 30
0.0
 11
1220.4074579999999
 21
82.210874000000004
 31
0.0
  0
TEXT
  5
1D4
  8
SIZE
  6
CONTINUOUS
 62
    30
 10
1200.4074579999999
 20
132.41972271428571
 30
0.0
 40
64.0
  1
266
 50
90.0
 41
0.9
 72
     1
 11
1200.4074579999999
 21
205.10543699999999
 31
0.0
  0
LINE
  5
1D5
  8
SIZE
  6
CONTINUOUS
 62
    30
 10
493.0
 20
338.0
 30
0.0
 11
1123.7244109999999
 21
338.0
 31
0.0
  0
LINE
  5
1D6
  8
SIZE
  6
CONTINUOUS
 62
    30
 10
543.0
 20
148.0
 30
0.0
 11
1123.7244109999999
 21
148.0
 31
0.0
  0
LINE
  5
1D7
  8
SIZE
  6
CONTINUOUS
 62
    30
 10
1093.7244109999999
 20
328.0
 30
0.0
 11
1093.7244109999999
 21
158.0
 31
0.0
  0
CIRCLE
  5
1D8
  8
SIZE
  6
CONTINUOUS
 62
    30
 10
1093.7244109999999
 20
338.0
 30
0.0
 40
5.0
  0
LINE
  5
1D9
  8
SIZE
  6
CONTINUOUS
 62
    30
 10
1093.7244109999999
 20
333.0
 30
0.0
 11
1093.7244109999999
 21
328.0
 31
0.0
  0
CIRCLE
  5
1DA
  8
SIZE
  6
CONTINUOUS
 62
    30
 10
1093.7244109999999
 20
148.0
 30
0.0
 40
5.0
  0
LINE
  5
1DB
  8
SIZE
  6
CONTINUOUS
 62
    30
 10
1093.7244109999999
 20
153.0
 30
0.0
 11
1093.7244109999999
 21
158.0
 31
0.0
  0
TEXT
  5
1DC
  8
SIZE
  6
CONTINUOUS
 62
    30
 10
1073.7244109999999
 20
174.42857142857139
 30
0.0
 40
64.0
  1
190
 50
90.0
 41
0.9
 72
     1
 11
1073.7244109999999
 21
243.0
 31
0.0
  0
LINE
  5
1DD
  8
SIZE
  6
CONTINUOUS
 62
    30
 10
493.0
 20
338.0
 30
0.0
 11
964.463032
 21
338.0
 31
0.0
  0
LINE
  5
1DE
  8
SIZE
  6
CONTINUOUS
 62
    30
 10
560.10720342188142
 20
278.0
 30
0.0
 11
964.463032
 21
278.0
 31
0.0
  0
LINE
  5
1DF
  8
SIZE
  6
CONTINUOUS
 62
    30
 10
934.463032
 20
348.0
 30
0.0
 11
934.463032
 21
358.0
 31
0.0
  0
LINE
  5
1E0
  8
SIZE
  6
CONTINUOUS
 62
    30
 10
934.463032
 20
268.0
 30
0.0
 11
934.463032
 21
258.0
 31
0.0
  0
LINE
  5
1E1
  8
SIZE
  6
CONTINUOUS
 62
    30
 10
934.463032
 20
338.0
 30
0.0
 11
934.463032
 21
278.0
 31
0.0
  0
CIRCLE
  5
1E2
  8
SIZE
  6
CONTINUOUS
 62
    30
 10
934.463032
 20
338.0
 30
0.0
 40
5.0
  0
LINE
  5
1E3
  8
SIZE
  6
CONTINUOUS
 62
    30
 10
934.463032
 20
343.0
 30
0.0
 11
934.463032
 21
348.0
 31
0.0
  0
CIRCLE
  5
1E4
  8
SIZE
  6
CONTINUOUS
 62
    30
 10
934.463032
 20
278.0
 30
0.0
 40
5.0
  0
LINE
  5
1E5
  8
SIZE
  6
CONTINUOUS
 62
    30
 10
934.463032
 20
273.0
 30
0.0
 11
934.463032
 21
268.0
 31
0.0
  0
TEXT
  5
1E6
  8
SIZE
  6
CONTINUOUS
 62
    30
 10
914.463032
 20
261.37142857142862
 30
0.0
 40
64.0
  1
60
 50
90.0
 41
0.9
 72
     1
 11
914.463032
 21
308.0
 31
0.0
  0
LINE
  5
1E7
  8
SIZE
  6
CONTINUOUS
 62
    30
 10
605.0
 20
-28.759955000000001
 30
0.0
 11
605.0
 21
-301.46994599999999
 31
0.0
  0
LINE
  5
1E8
  8
SIZE
  6
CONTINUOUS
 62
    30
 10
625.0
 20
-20.0
 30
0.0
 11
625.0
 21
-301.46994599999999
 31
0.0
  0
LINE
  5
1E9
  8
SIZE
  6
CONTINUOUS
 62
    30
 10
595.0
 20
-271.46994599999999
 30
0.0
 11
585.0
 21
-271.46994599999999
 31
0.0
  0
LINE
  5
1EA
  8
SIZE
  6
CONTINUOUS
 62
    30
 10
635.0
 20
-271.46994599999999
 30
0.0
 11
645.0
 21
-271.46994599999999
 31
0.0
  0
LINE
  5
1EB
  8
SIZE
  6
CONTINUOUS
 62
    30
 10
605.0
 20
-271.46994599999999
 30
0.0
 11
625.0
 21
-271.46994599999999
 31
0.0
  0
CIRCLE
  5
1EC
  8
SIZE
  6
CONTINUOUS
 62
    30
 10
605.0
 20
-271.46994599999999
 30
0.0
 40
5.0
  0
LINE
  5
1ED
  8
SIZE
  6
CONTINUOUS
 62
    30
 10
600.0
 20
-271.46994599999999
 30
0.0
 11
595.0
 21
-271.46994599999999
 31
0.0
  0
CIRCLE
  5
1EE
  8
SIZE
  6
CONTINUOUS
 62
    30
 10
625.0
 20
-271.46994599999999
 30
0.0
 40
5.0
  0
LINE
  5
1EF
  8
SIZE
  6
CONTINUOUS
 62
    30
 10
630.0
 20
-271.46994599999999
 30
0.0
 11
635.0
 21
-271.46994599999999
 31
0.0
  0
TEXT
  5
1F0
  8
SIZE
  6
CONTINUOUS
 62
    30
 10
568.37142857142862
 20
-251.46994599999999
 30
0.0
 40
64.0
  1
20
 41
0.9
 72
     1
 11
615.0
 21
-251.46994599999999
 31
0.0
  0
LINE
  5
1F1
  8
SIZE
  6
CONTINUOUS
 62
    30
 10
-625.0
 20
-20.0
 30
0.0
 11
-625.0
 21
-301.46994599999999
 31
0.0
  0
LINE
  5
1F2
  8
SIZE
  6
CONTINUOUS
 62
    30
 10
-605.0
 20
-28.759955000000001
 30
0.0
 11
-605.0
 21
-301.46994599999999
 31
0.0
  0
LINE
  5
1F3
  8
SIZE
  6
CONTINUOUS
 62
    30
 10
-635.0
 20
-271.46994599999999
 30
0.0
 11
-645.0
 21
-271.46994599999999
 31
0.0
  0
LINE
  5
1F4
  8
SIZE
  6
CONTINUOUS
 62
    30
 10
-595.0
 20
-271.46994599999999
 30
0.0
 11
-585.0
 21
-271.46994599999999
 31
0.0
  0
LINE
  5
1F5
  8
SIZE
  6
CONTINUOUS
 62
    30
 10
-625.0
 20
-271.46994599999999
 30
0.0
 11
-605.0
 21
-271.46994599999999
 31
0.0
  0
CIRCLE
  5
1F6
  8
SIZE
  6
CONTINUOUS
 62
    30
 10
-625.0
 20
-271.46994599999999
 30
0.0
 40
5.0
  0
LINE
  5
1F7
  8
SIZE
  6
CONTINUOUS
 62
    30
 10
-630.0
 20
-271.46994599999999
 30
0.0
 11
-635.0
 21
-271.46994599999999
 31
0.0
  0
CIRCLE
  5
1F8
  8
SIZE
  6
CONTINUOUS
 62
    30
 10
-605.0
 20
-271.46994599999999
 30
0.0
 40
5.0
  0
LINE
  5
1F9
  8
SIZE
  6
CONTINUOUS
 62
    30
 10
-600.0
 20
-271.46994599999999
 30
0.0
 11
-595.0
 21
-271.46994599999999
 31
0.0
  0
TEXT
  5
1FA
  8
SIZE
  6
CONTINUOUS
 62
    30
 10
-661.62857142857126
 20
-251.46994599999999
 30
0.0
 40
64.0
  1
20
 41
0.9
 72
     1
 11
-615.0
 21
-251.46994599999999
 31
0.0
  0
LINE
  5
1FB
  8
SIZE
  6
CONTINUOUS
 62
    30
 10
-605.0
 20
-48.759954999999998
 30
0.0
 11
-605.0
 21
-301.46994599999999
 31
0.0
  0
LINE
  5
1FC
  8
SIZE
  6
CONTINUOUS
 62
    30
 10
605.0
 20
-48.759954999999998
 30
0.0
 11
605.0
 21
-301.46994599999999
 31
0.0
  0
LINE
  5
1FD
  8
SIZE
  6
CONTINUOUS
 62
    30
 10
-595.0
 20
-271.46994599999999
 30
0.0
 11
595.0
 21
-271.46994599999999
 31
0.0
  0
CIRCLE
  5
1FE
  8
SIZE
  6
CONTINUOUS
 62
    30
 10
-605.0
 20
-271.46994599999999
 30
0.0
 40
5.0
  0
LINE
  5
1FF
  8
SIZE
  6
CONTINUOUS
 62
    30
 10
-600.0
 20
-271.46994599999999
 30
0.0
 11
-595.0
 21
-271.46994599999999
 31
0.0
  0
CIRCLE
  5
200
  8
SIZE
  6
CONTINUOUS
 62
    30
 10
605.0
 20
-271.46994599999999
 30
0.0
 40
5.0
  0
LINE
  5
201
  8
SIZE
  6
CONTINUOUS
 62
    30
 10
600.0
 20
-271.46994599999999
 30
0.0
 11
595.0
 21
-271.46994599999999
 31
0.0
  0
TEXT
  5
202
  8
SIZE
  6
CONTINUOUS
 62
    30
 10
-334.90285714285699
 20
-244.70804200000001
 30
0.0
 40
64.0
  1
1210(天井開口寸法)
 41
0.9
 72
     1
 11
0.0
 21
-244.70804200000001
 31
0.0
  0
LINE
  5
203
  8
SIZE
  6
CONTINUOUS
 62
    30
 10
-497.0
 20
186.0
 30
0.0
 11
-497.0
 21
932.94194700000014
 31
0.0
  0
LINE
  5
204
  8
SIZE
  6
CONTINUOUS
 62
    30
 10
497.0
 20
188.0
 30
0.0
 11
497.0
 21
932.94194700000014
 31
0.0
  0
LINE
  5
205
  8
SIZE
  6
CONTINUOUS
 62
    30
 10
-487.0
 20
902.94194700000003
 30
0.0
 11
487.0
 21
902.94194700000003
 31
0.0
  0
CIRCLE
  5
206
  8
SIZE
  6
CONTINUOUS
 62
    30
 10
-497.0
 20
902.94194700000003
 30
0.0
 40
5.0
  0
LINE
  5
207
  8
SIZE
  6
CONTINUOUS
 62
    30
 10
-492.0
 20
902.94194700000003
 30
0.0
 11
-487.0
 21
902.94194700000003
 31
0.0
  0
CIRCLE
  5
208
  8
SIZE
  6
CONTINUOUS
 62
    30
 10
497.0
 20
902.94194700000003
 30
0.0
 40
5.0
  0
LINE
  5
209
  8
SIZE
  6
CONTINUOUS
 62
    30
 10
492.0
 20
902.94194700000003
 30
0.0
 11
487.0
 21
902.94194700000003
 31
0.0
  0
TEXT
  5
20A
  8
SIZE
  6
CONTINUOUS
 62
    30
 10
-259.25834628571431
 20
939.70385199999998
 30
0.0
 40
64.0
  1
994(吊りﾎﾞﾙﾄﾋﾟｯﾁ)
 41
0.9
 72
     1
 11
41.907367999999977
 21
939.70385199999998
 31
0.0
  0
LINE
  5
20B
  8
SIZE
  6
CONTINUOUS
 62
    30
 10
-473.0
 20
358.0
 30
0.0
 11
-473.0
 21
823.19403599999987
 31
0.0
  0
LINE
  5
20C
  8
SIZE
  6
CONTINUOUS
 62
    30
 10
473.0
 20
358.0
 30
0.0
 11
473.0
 21
823.19403599999987
 31
0.0
  0
LINE
  5
20D
  8
SIZE
  6
CONTINUOUS
 62
    30
 10
-463.0
 20
793.19403599999976
 30
0.0
 11
463.0
 21
793.19403599999976
 31
0.0
  0
CIRCLE
  5
20E
  8
SIZE
  6
CONTINUOUS
 62
    30
 10
-473.0
 20
793.19403599999976
 30
0.0
 40
5.0
  0
LINE
  5
20F
  8
SIZE
  6
CONTINUOUS
 62
    30
 10
-468.0
 20
793.19403599999976
 30
0.0
 11
-463.0
 21
793.19403599999976
 31
0.0
  0
CIRCLE
  5
210
  8
SIZE
  6
CONTINUOUS
 62
    30
 10
473.0
 20
793.19403599999976
 30
0.0
 40
5.0
  0
LINE
  5
211
  8
SIZE
  6
CONTINUOUS
 62
    30
 10
468.0
 20
793.19403599999976
 30
0.0
 11
463.0
 21
793.19403599999976
 31
0.0
  0
TEXT
  5
212
  8
SIZE
  6
CONTINUOUS
 62
    30
 10
-80.68486728571429
 20
813.19403599999976
 30
0.0
 40
64.0
  1
946
 41
0.9
 72
     1
 11
-7.9991529999999988
 21
813.19403599999976
 31
0.0
  0
LINE
  5
33F
  8
NOTE
  6
CONTINUOUS
 62
     4
 10
533.0
 20
262.0
 30
0.0
 11
533.0
 21
294.0
 31
0.0
  0
LINE
  5
340
  8
DETAIL
  6
CONTINUOUS
 62
     5
 10
533.0
 20
294.0
 30
0.0
 11
533.0
 21
262.0
 31
0.0
  0
LINE
  5
341
  8
NOTE
  6
CONTINUOUS
 62
     4
 10
553.0
 20
278.0
 30
0.0
 11
513.0
 21
278.0
 31
0.0
  0
POLYLINE
  5
342
  8
NOTE
  6
CONTINUOUS
 62
     4
 66
     1
 10
0.0
 20
0.0
 30
0.0
  0
VERTEX
  5
517
  8
NOTE
  6
CONTINUOUS
 62
     4
 10
571.73183054223728
 20
287.99226513223027
 30
0.0
  0
VERTEX
  5
518
  8
NOTE
  6
CONTINUOUS
 62
     4
 10
533.0
 20
278.0
 30
0.0
  0
VERTEX
  5
519
  8
NOTE
  6
CONTINUOUS
 62
     4
 10
561.54661567841617
 20
306.01946980955768
 30
0.0
  0
SEQEND
  5
51A
  8
NOTE
  6
CONTINUOUS
 62
     4
  0
LINE
  5
343
  8
DETAIL
  6
CONTINUOUS
 62
     5
 10
533.0
 20
262.0
 30
0.0
 11
473.0
 21
262.0
 31
0.0
  0
LINE
  5
344
  8
DETAIL
  6
CONTINUOUS
 62
     5
 10
533.0
 20
294.0
 30
0.0
 11
473.0
 21
294.0
 31
0.0
  0
LINE
  5
34E
  8
NOTE
  6
CONTINUOUS
 62
     4
 10
551.0
 20
216.0
 30
0.0
 11
884.0042123853782
 21
-37.96391758288874
 31
0.0
  0
POLYLINE
  5
34F
  8
NOTE
  6
CONTINUOUS
 62
     4
 66
     1
 10
0.0
 20
0.0
 30
0.0
  0
VERTEX
  5
51B
  8
NOTE
  6
CONTINUOUS
 62
     4
 10
573.65009105215563
 20
183.03072034146871
 30
0.0
  0
VERTEX
  5
51C
  8
NOTE
  6
CONTINUOUS
 62
     4
 10
551.0
 20
216.0
 30
0.0
  0
VERTEX
  5
51D
  8
NOTE
  6
CONTINUOUS
 62
     4
 10
587.10019300179556
 20
198.7728128471112
 30
0.0
  0
SEQEND
  5
51E
  8
NOTE
  6
CONTINUOUS
 62
     4
  0
LINE
  5
350
  8
NOTE
  6
CONTINUOUS
 62
     4
 10
540.0
 20
216.0
 30
0.0
 11
884.00419947427145
 21
-139.08545875090559
 31
0.0
  0
POLYLINE
  5
351
  8
NOTE
  6
CONTINUOUS
 62
     4
 66
     1
 10
0.0
 20
0.0
 30
0.0
  0
VERTEX
  5
51F
  8
NOTE
  6
CONTINUOUS
 62
     4
 10
554.7098101631708
 20
178.80293734552669
 30
0.0
  0
VERTEX
  5
520
  8
NOTE
  6
CONTINUOUS
 62
     4
 10
540.0
 20
216.0
 30
0.0
  0
VERTEX
  5
521
  8
NOTE
  6
CONTINUOUS
 62
     4
 10
571.33759957398479
 20
191.141303888289
 30
0.0
  0
SEQEND
  5
522
  8
NOTE
  6
CONTINUOUS
 62
     4
  0
LINE
  5
353
  8
SIZE
  6
CONTINUOUS
 62
    30
 10
473.0
 20
358.0
 30
0.0
 11
473.0
 21
629.11652867518535
 31
0.0
  0
LINE
  5
354
  8
SIZE
  6
CONTINUOUS
 62
    30
 10
551.0
 20
235.99999999999989
 30
0.0
 11
551.0
 21
629.11652867518535
 31
0.0
  0
LINE
  5
355
  8
SIZE
  6
CONTINUOUS
 62
    30
 10
483.0
 20
599.11652867518535
 30
0.0
 11
541.0
 21
599.11652867518535
 31
0.0
  0
LINE
  5
356
  8
SIZE
  6
CONTINUOUS
 62
    30
 10
551.0
 20
599.11652867518535
 30
0.0
 11
681.39985078498808
 21
599.11652867518535
 31
0.0
  0
LINE
  5
357
  8
SIZE
  6
CONTINUOUS
 62
    30
 10
473.0
 20
358.0
 30
0.0
 11
473.0
 21
526.19287630041435
 31
0.0
  0
LINE
  5
358
  8
SIZE
  6
CONTINUOUS
 62
    30
 10
540.0
 20
239.17500000000001
 30
0.0
 11
540.0
 21
526.19287630041435
 31
0.0
  0
LINE
  5
359
  8
SIZE
  6
CONTINUOUS
 62
    30
 10
483.0
 20
496.19287630041418
 30
0.0
 11
530.0
 21
496.19287630041418
 31
0.0
  0
LINE
  5
35A
  8
SIZE
  6
CONTINUOUS
 62
    30
 10
540.0
 20
496.19287630041418
 30
0.0
 11
679.98922093274246
 21
496.19287630041418
 31
0.0
  0
LINE
  5
35B
  8
SIZE
  6
CONTINUOUS
 62
    30
 10
473.0
 20
358.0
 30
0.0
 11
473.0
 21
428.90888960621669
 31
0.0
  0
LINE
  5
35C
  8
SIZE
  6
CONTINUOUS
 62
    30
 10
533.0
 20
314.0
 30
0.0
 11
533.0
 21
428.90888960621669
 31
0.0
  0
LINE
  5
35D
  8
SIZE
  6
CONTINUOUS
 62
    30
 10
483.0
 20
398.9088896062168
 30
0.0
 11
523.0
 21
398.9088896062168
 31
0.0
  0
LINE
  5
35E
  8
SIZE
  6
CONTINUOUS
 62
    30
 10
533.0
 20
398.9088896062168
 30
0.0
 11
679.98922093274246
 21
398.9088896062168
 31
0.0
  0
TEXT
  5
35F
  8
SIZE
  6
CONTINUOUS
 62
    30
 10
575.43545767086471
 20
614.71557772039148
 30
0.0
 40
64.0
  1
78
 41
0.9
 72
     1
 11
622.06402909943597
 21
614.71557772039148
 31
0.0
  0
CIRCLE
  5
360
  8
SIZE
  6
CONTINUOUS
 62
    30
 10
551.0
 20
599.11652867518535
 30
0.0
 40
5.0
  0
LINE
  5
361
  8
SIZE
  6
CONTINUOUS
 62
    30
 10
546.0
 20
599.11652867518535
 30
0.0
 11
541.0
 21
599.11652867518535
 31
0.0
  0
CIRCLE
  5
362
  8
SIZE
  6
CONTINUOUS
 62
    30
 10
473.0
 20
599.11652867518535
 30
0.0
 40
5.0
  0
LINE
  5
363
  8
SIZE
  6
CONTINUOUS
 62
    30
 10
478.0
 20
599.11652867518535
 30
0.0
 11
483.0
 21
599.11652867518535
 31
0.0
  0
TEXT
  5
364
  8
SIZE
  6
CONTINUOUS
 62
    30
 10
574.02482781861886
 20
511.79192534561992
 30
0.0
 40
64.0
  1
67
 41
0.9
 72
     1
 11
620.65339924719035
 21
511.79192534561992
 31
0.0
  0
CIRCLE
  5
365
  8
SIZE
  6
CONTINUOUS
 62
    30
 10
540.0
 20
496.19287630041418
 30
0.0
 40
5.0
  0
LINE
  5
366
  8
SIZE
  6
CONTINUOUS
 62
    30
 10
535.0
 20
496.19287630041418
 30
0.0
 11
530.0
 21
496.19287630041418
 31
0.0
  0
CIRCLE
  5
367
  8
SIZE
  6
CONTINUOUS
 62
    30
 10
473.0
 20
496.19287630041418
 30
0.0
 40
5.0
  0
LINE
  5
368
  8
SIZE
  6
CONTINUOUS
 62
    30
 10
478.0
 20
496.19287630041418
 30
0.0
 11
483.0
 21
496.19287630041418
 31
0.0
  0
TEXT
  5
369
  8
SIZE
  6
CONTINUOUS
 62
    30
 10
574.02482781861886
 20
414.50793865142248
 30
0.0
 40
64.0
  1
60
 41
0.9
 72
     1
 11
620.65339924719035
 21
414.50793865142248
 31
0.0
  0
CIRCLE
  5
36A
  8
SIZE
  6
CONTINUOUS
 62
    30
 10
533.0
 20
398.9088896062168
 30
0.0
 40
5.0
  0
LINE
  5
36B
  8
SIZE
  6
CONTINUOUS
 62
    30
 10
528.0
 20
398.9088896062168
 30
0.0
 11
523.0
 21
398.9088896062168
 31
0.0
  0
CIRCLE
  5
36C
  8
SIZE
  6
CONTINUOUS
 62
    30
 10
473.0
 20
398.9088896062168
 30
0.0
 40
5.0
  0
LINE
  5
36D
  8
SIZE
  6
CONTINUOUS
 62
    30
 10
478.0
 20
398.9088896062168
 30
0.0
 11
483.0
 21
398.9088896062168
 31
0.0
  0
LINE
  5
39D
  8
NOTE
  6
CONTINUOUS
 62
     4
 10
884.00419947427145
 20
-139.08545875090559
 30
0.0
 11
1286.034962474271
 21
-139.08545875090559
 31
0.0
  0
LINE
  5
39E
  8
NOTE
  6
CONTINUOUS
 62
     4
 10
884.0042123853782
 20
-37.96391758288874
 30
0.0
 11
1367.8403249893961
 21
-37.96391758288874
 31
0.0
  0
TEXT
  5
39F
  8
NOTE
  6
CONTINUOUS
 62
     4
 10
904.50063375825255
 20
-122.18225004386839
 30
0.0
 40
64.0
  1
RL φ9.52
 41
0.9
  0
TEXT
  5
3A0
  8
NOTE
  6
CONTINUOUS
 62
     4
 10
911.74224098939601
 20
-14.318901582888801
 30
0.0
 40
64.0
  1
RG φ15.88
 41
0.9
  0
LINE
  5
4D7
  8
NOTE
  6
CONTINUOUS
 62
     4
 10
560.0
 20
216.0
 30
0.0
 11
520.0
 21
216.0
 31
0.0
  0
LINE
  5
4D8
  8
NOTE
  6
CONTINUOUS
 62
     4
 10
540.0
 20
196.0
 30
0.0
 11
540.0
 21
236.0
 31
0.0
  0
LINE
  5
4DF
  8
NOTE
  6
CONTINUOUS
 62
     4
 10
571.0
 20
216.0
 30
0.0
 11
531.0
 21
216.0
 31
0.0
  0
LINE
  5
4E0
  8
NOTE
  6
CONTINUOUS
 62
     4
 10
551.0
 20
196.0
 30
0.0
 11
551.0
 21
236.0
 31
0.0
  0
ENDSEC
  0
EOF
