  0
SECTION
  2
HEADER
  9
$ACADVER
  1
AC1009
  9
$INSBASE
 10
0.0
 20
0.0
 30
0.0
  9
$EXTMIN
 10
-648.39676544913675
 20
-688.48503895977467
 30
0.0
  9
$EXTMAX
 10
537.48794209184223
 20
298.32716555747839
 30
0.0
  9
$LIMMIN
 10
-4267.1522210604826
 20
-2696.0832101984129
  9
$LIMMAX
 10
7190.7174225864646
 20
5141.155363923066
  9
$ORTHOMODE
 70
     0
  9
$REGENMODE
 70
     1
  9
$FILLMODE
 70
     1
  9
$QTEXTMODE
 70
     0
  9
$MIRRTEXT
 70
     0
  9
$DRAGMODE
 70
     2
  9
$LTSCALE
 40
20.0
  9
$OSMODE
 70
    37
  9
$ATTMODE
 70
     1
  9
$TEXTSIZE
 40
64.0
  9
$TRACEWID
 40
0.05
  9
$TEXTSTYLE
  7
STANDARD
  9
$CLAYER
  8
FIX
  9
$CELTYPE
  6
CONTINUOUS
  9
$CECOLOR
 62
     7
  9
$DIMSCALE
 40
1.0
  9
$DIMASZ
 40
10.0
  9
$DIMEXO
 40
15.0
  9
$DIMDLI
 40
300.0
  9
$DIMRND
 40
0.0
  9
$DIMDLE
 40
0.0
  9
$DIMEXE
 40
20.0
  9
$DIMTP
 40
0.0
  9
$DIMTM
 40
0.0
  9
$DIMTXT
 40
22.0
  9
$DIMCEN
 40
0.0
  9
$DIMTSZ
 40
0.0
  9
$DIMTOL
 70
     0
  9
$DIMLIM
 70
     0
  9
$DIMTIH
 70
     0
  9
$DIMTOH
 70
     0
  9
$DIMSE1
 70
     0
  9
$DIMSE2
 70
     0
  9
$DIMTAD
 70
     1
  9
$DIMZIN
 70
     8
  9
$DIMBLK
  1
DOTBLANK
  9
$DIMASO
 70
     1
  9
$DIMSHO
 70
     0
  9
$DIMPOST
  1

  9
$DIMAPOST
  1

  9
$DIMALT
 70
     0
  9
$DIMALTD
 70
     2
  9
$DIMALTF
 40
25.399999999999999
  9
$DIMLFAC
 40
1.0
  9
$DIMTOFL
 70
     1
  9
$DIMTVP
 40
0.0
  9
$DIMTIX
 70
     1
  9
$DIMSOXD
 70
     0
  9
$DIMSAH
 70
     0
  9
$DIMBLK1
  1

  9
$DIMBLK2
  1

  9
$DIMSTYLE
  2
STANDARD
  9
$DIMCLRD
 70
     0
  9
$DIMCLRE
 70
     0
  9
$DIMCLRT
 70
     0
  9
$DIMTFAC
 40
1.0
  9
$DIMGAP
 40
0.09
  9
$LUNITS
 70
     2
  9
$LUPREC
 70
     4
  9
$SKETCHINC
 40
0.1
  9
$FILLETRAD
 40
70.0
  9
$AUNITS
 70
     1
  9
$AUPREC
 70
     3
  9
$MENU
  1
ACAD
  9
$ELEVATION
 40
0.0
  9
$PELEVATION
 40
0.0
  9
$THICKNESS
 40
0.0
  9
$LIMCHECK
 70
     0
  9
$BLIPMODE
 70
     0
  9
$CHAMFERA
 40
0.0
  9
$CHAMFERB
 40
0.0
  9
$SKPOLY
 70
     0
  9
$TDCREATE
 40
2450330.4399309959
  9
$TDUPDATE
 40
2454797.752768842
  9
$TDINDWG
 40
3.9244579281999998
  9
$TDUSRTIMER
 40
3.9244570255000002
  9
$USRTIMER
 70
     1
  9
$ANGBASE
 50
0.0
  9
$ANGDIR
 70
     0
  9
$PDMODE
 70
     3
  9
$PDSIZE
 40
-2.0
  9
$PLINEWID
 40
0.0
  9
$COORDS
 70
     1
  9
$SPLFRAME
 70
     0
  9
$SPLINETYPE
 70
     6
  9
$SPLINESEGS
 70
     8
  9
$ATTDIA
 70
     0
  9
$ATTREQ
 70
     1
  9
$HANDLING
 70
     1
  9
$HANDSEED
  5
215
  9
$SURFTAB1
 70
     6
  9
$SURFTAB2
 70
     6
  9
$SURFTYPE
 70
     6
  9
$SURFU
 70
     6
  9
$SURFV
 70
     6
  9
$UCSNAME
  2

  9
$UCSORG
 10
0.0
 20
0.0
 30
0.0
  9
$UCSXDIR
 10
1.0
 20
0.0
 30
0.0
  9
$UCSYDIR
 10
0.0
 20
1.0
 30
0.0
  9
$PUCSNAME
  2

  9
$PUCSORG
 10
0.0
 20
0.0
 30
0.0
  9
$PUCSXDIR
 10
1.0
 20
0.0
 30
0.0
  9
$PUCSYDIR
 10
0.0
 20
1.0
 30
0.0
  9
$USERI1
 70
     0
  9
$USERI2
 70
     0
  9
$USERI3
 70
     0
  9
$USERI4
 70
     0
  9
$USERI5
 70
     0
  9
$USERR1
 40
20.0
  9
$USERR2
 40
0.0
  9
$USERR3
 40
0.0
  9
$USERR4
 40
0.0
  9
$USERR5
 40
0.0
  9
$WORLDVIEW
 70
     1
  9
$SHADEDGE
 70
     3
  9
$SHADEDIF
 70
    70
  9
$TILEMODE
 70
     1
  9
$MAXACTVP
 70
    64
  9
$PLIMCHECK
 70
     0
  9
$PEXTMIN
 10
1.0000000000000000E+020
 20
1.0000000000000000E+020
 30
1.0000000000000000E+020
  9
$PEXTMAX
 10
-1.0000000000000000E+020
 20
-1.0000000000000000E+020
 30
-1.0000000000000000E+020
  9
$PLIMMIN
 10
0.0
 20
0.0
  9
$PLIMMAX
 10
12.0
 20
9.0
  9
$UNITMODE
 70
     0
  9
$VISRETAIN
 70
     1
  9
$PLINEGEN
 70
     0
  9
$PSLTSCALE
 70
     1
  0
ENDSEC
  0
SECTION
  2
TABLES
  0
TABLE
  2
VPORT
 70
     1
  0
VPORT
  2
*ACTIVE
 70
     0
 10
0.0
 20
0.0
 11
1.0
 21
1.0
 12
1461.782600762991
 22
1222.5360768623259
 13
0.0
 23
0.0
 14
50.0
 24
50.0
 15
100.0
 25
100.0
 16
0.0
 26
0.0
 36
1.0
 17
0.0
 27
0.0
 37
0.0
 40
7898.0709563268201
 41
1.568652849740932
 42
50.0
 43
0.0
 44
0.0
 50
0.0
 51
0.0
 71
     0
 72
  1000
 73
     1
 74
     0
 75
     0
 76
     0
 77
     0
 78
     0
  0
ENDTAB
  0
TABLE
  2
LTYPE
 70
     3
  0
LTYPE
  2
CONTINUOUS
 70
     0
  3
実線
 72
    65
 73
     0
 40
0.0
  0
LTYPE
  2
DASHDOT
 70
     0
  3
____ _ ____ _ ____ _ ____ _ ____ _ ____ _ ____
 72
    65
 73
     4
 40
5.5
 49
4.0
 49
-0.6
 49
0.3
 49
-0.6
  0
ENDTAB
  0
TABLE
  2
LAYER
 70
    12
  0
LAYER
  2
0
 70
     0
 62
     7
  6
CONTINUOUS
  0
LAYER
  2
FIX
 70
     0
 62
    11
  6
CONTINUOUS
  0
LAYER
  2
OUTLINE
 70
     0
 62
     3
  6
CONTINUOUS
  0
LAYER
  2
DETAIL
 70
     0
 62
     5
  6
CONTINUOUS
  0
LAYER
  2
BASIS
 70
     0
 62
     6
  6
DASHDOT
  0
LAYER
  2
SIZE
 70
     0
 62
    30
  6
CONTINUOUS
  0
LAYER
  2
NOTE
 70
     0
 62
     4
  6
CONTINUOUS
  0
LAYER
  2
ARRANGE
 70
     0
 62
     1
  6
CONTINUOUS
  0
LAYER
  2
SERVICESPACE
 70
     0
 62
     2
  6
DASHDOT
  0
LAYER
  2
ETC
 70
     0
 62
    61
  6
CONTINUOUS
  0
LAYER
  2
SYMBOLLINE
 70
     0
 62
    15
  6
CONTINUOUS
  0
LAYER
  2
DEFPOINTS
 70
     0
 62
     7
  6
CONTINUOUS
  0
ENDTAB
  0
TABLE
  2
STYLE
 70
     2
  0
STYLE
  2
STANDARD
 70
     0
 40
0.0
 41
0.9
 50
0.0
 71
     0
 42
64.0
  3
SIMPLEX
  4
BIGFONT
  0
STYLE
  2
ANNOTATIVE
 70
     0
 40
0.0
 41
1.0
 50
0.0
 71
     0
 42
0.2
  3
txt
  4

  0
ENDTAB
  0
TABLE
  2
VIEW
 70
     5
  0
VIEW
  2
ALL
 70
     0
 40
9000.0
 10
241.50664699999999
 20
0.0
 41
12483.01
 11
0.0
 21
0.0
 31
1.0
 12
0.0
 22
0.0
 32
0.0
 42
50.0
 43
0.0
 44
0.0
 50
0.0
 71
     0
  0
ENDTAB
  0
TABLE
  2
UCS
 70
     0
  0
ENDTAB
  0
TABLE
  2
APPID
 70
     4
  0
APPID
  2
ACAD
 70
     0
  0
APPID
  2
ACADANNOTATIVE
 70
     0
  0
APPID
  2
ACAD_MLEADERVER
 70
     0
  0
APPID
  2
ACAD_EXEMPT_FROM_CAD_STANDARDS
 70
     0
  0
ENDTAB
  0
TABLE
  2
DIMSTYLE
 70
     3
  0
DIMSTYLE
  2
STANDARD
 70
     0
  3

  4

  5

  6

  7

 40
1.0
 41
0.18
 42
0.0625
 43
0.38
 44
0.18
 45
0.0
 46
0.0
 47
0.0
 48
0.0
140
0.18
141
0.09
142
0.0
143
25.399999999999999
144
1.0
145
0.0
146
1.0
147
0.09
 71
     0
 72
     0
 73
     1
 74
     1
 75
     0
 76
     0
 77
     0
 78
     0
170
     0
171
     2
172
     0
173
     0
174
     0
175
     0
176
     0
177
     0
178
     0
  0
DIMSTYLE
  2
ANNOTATIVE
 70
     0
  3

  4

  5

  6

  7

 40
1.0
 41
0.18
 42
0.0625
 43
0.38
 44
0.18
 45
0.0
 46
0.0
 47
0.0
 48
0.0
140
0.18
141
0.09
142
0.0
143
25.399999999999999
144
1.0
145
0.0
146
1.0
147
0.09
 71
     0
 72
     0
 73
     1
 74
     1
 75
     0
 76
     0
 77
     0
 78
     0
170
     0
171
     2
172
     0
173
     0
174
     0
175
     0
176
     0
177
     0
178
     0
  0
ENDTAB
  0
ENDSEC
  0
SECTION
  2
BLOCKS
  0
BLOCK
  8
0
  2
$MODEL_SPACE
 70
     0
 10
0.0
 20
0.0
 30
0.0
  3
$MODEL_SPACE
  1

  0
ENDBLK
  5
76
  8
0
  0
BLOCK
 67
     1
  8
0
  2
$PAPER_SPACE
 70
     0
 10
0.0
 20
0.0
 30
0.0
  3
$PAPER_SPACE
  1

  0
ENDBLK
  5
72
 67
     1
  8
0
  0
BLOCK
  8
0
  2
_DOTBLANK
 70
     0
 10
0.0
 20
0.0
 30
0.0
  3
_DOTBLANK
  1

  0
CIRCLE
  5
8A
  8
0
  6
CONTINUOUS
 62
     7
 10
0.0
 20
0.0
 30
0.0
 40
0.5
  0
LINE
  5
8B
  8
0
  6
CONTINUOUS
 62
     7
 10
-0.5
 20
0.0
 30
0.0
 11
-1.0
 21
0.0
 31
0.0
  0
ENDBLK
  5
8C
  8
0
  0
ENDSEC
  0
SECTION
  2
ENTITIES
  0
LINE
  5
8D
  8
DETAIL
  6
CONTINUOUS
 62
     5
 10
-119.9999999999997
 20
-54.000000000001371
 30
0.0
 11
-119.9999999999997
 21
-274.00000000000131
 31
0.0
  0
LINE
  5
8E
  8
DETAIL
  6
CONTINUOUS
 62
     5
 10
62.5
 20
15.99999999999865
 30
0.0
 11
-62.5
 21
15.99999999999865
 31
0.0
  0
LINE
  5
8F
  8
DETAIL
  6
CONTINUOUS
 62
     5
 10
-62.5
 20
15.99999999999865
 30
0.0
 11
-62.5
 21
-47.734616472078372
 31
0.0
  0
LINE
  5
90
  8
DETAIL
  6
CONTINUOUS
 62
     5
 10
-62.08169445997963
 20
-47.734616472078372
 30
0.0
 11
0.0
 21
-47.734616472078372
 31
0.0
  0
LINE
  5
91
  8
BASIS
  6
DASHDOT
 62
     6
 10
0.0
 20
53.059796969783292
 30
0.0
 11
0.0
 21
-592.58649936180962
 31
0.0
  0
LINE
  5
92
  8
DETAIL
  6
CONTINUOUS
 62
     5
 10
-62.08169445997963
 20
-47.734616472078372
 30
0.0
 11
-93.755887370540691
 21
-47.734616472078372
 31
0.0
  0
LINE
  5
93
  8
DETAIL
  6
CONTINUOUS
 62
     5
 10
-93.755887370540691
 20
-47.734616472078372
 30
0.0
 11
-93.755887370540691
 21
-30.419878956015491
 31
0.0
  0
LINE
  5
94
  8
DETAIL
  6
CONTINUOUS
 62
     5
 10
-90.860708828795623
 20
-31.07629382584264
 30
0.0
 11
-179.9999999999998
 21
-10.86601823595082
 31
0.0
  0
LINE
  5
95
  8
DETAIL
  6
CONTINUOUS
 62
     5
 10
-179.9999999999998
 20
-10.86601823595082
 30
0.0
 11
-179.9999999999998
 21
-0.0000000000018048
 31
0.0
  0
LINE
  5
96
  8
DETAIL
  6
CONTINUOUS
 62
     5
 10
-179.9999999999998
 20
-0.0000000000018048
 30
0.0
 11
-90.860708828795623
 21
-0.00000000000135
 31
0.0
  0
LINE
  5
97
  8
DETAIL
  6
CONTINUOUS
 62
     5
 10
-99.023472384515813
 20
-29.225575709637251
 30
0.0
 11
-99.023472384515813
 21
-274.00000000000131
 31
0.0
  0
LINE
  5
98
  8
DETAIL
  6
CONTINUOUS
 62
     5
 10
120.0
 20
-54.000000000001371
 30
0.0
 11
120.0
 21
-274.00000000000131
 31
0.0
  0
LINE
  5
9A
  8
DETAIL
  6
CONTINUOUS
 62
     5
 10
62.5
 20
15.99999999999865
 30
0.0
 11
62.5
 21
-47.734616472078372
 31
0.0
  0
LINE
  5
9B
  8
DETAIL
  6
CONTINUOUS
 62
     5
 10
62.08169445997715
 20
-47.734616472078372
 30
0.0
 11
0.0
 21
-47.734616472078372
 31
0.0
  0
LINE
  5
9C
  8
DETAIL
  6
CONTINUOUS
 62
     5
 10
62.08169445997715
 20
-47.734616472078372
 30
0.0
 11
93.755887370536385
 21
-47.734616472078372
 31
0.0
  0
LINE
  5
9D
  8
DETAIL
  6
CONTINUOUS
 62
     5
 10
93.755887370536385
 20
-47.734616472078372
 30
0.0
 11
93.755887370539327
 21
-30.419878956015062
 31
0.0
  0
LINE
  5
9E
  8
DETAIL
  6
CONTINUOUS
 62
     5
 10
90.86070882880108
 20
-31.076293825839901
 30
0.0
 11
180.0
 21
-10.86601823595082
 31
0.0
  0
LINE
  5
9F
  8
DETAIL
  6
CONTINUOUS
 62
     5
 10
180.0
 20
-0.0000000000018048
 30
0.0
 11
90.86070882880108
 21
-0.0000000000022595
 31
0.0
  0
LINE
  5
A0
  8
DETAIL
  6
CONTINUOUS
 62
     5
 10
99.023472384515131
 20
-29.225575709636349
 30
0.0
 11
99.023472384515131
 21
-329.54920804393549
 31
0.0
  0
LINE
  5
A1
  8
DETAIL
  6
CONTINUOUS
 62
     5
 10
180.0
 20
-0.0000000000018048
 30
0.0
 11
180.0
 21
-10.86601823595082
 31
0.0
  0
LINE
  5
A2
  8
DETAIL
  6
CONTINUOUS
 62
     5
 10
21.26148579057099
 20
-274.00000000000131
 30
0.0
 11
21.261485790573261
 21
-329.54920804393549
 31
0.0
  0
LINE
  5
A3
  8
DETAIL
  6
CONTINUOUS
 62
     5
 10
89.360481957548274
 20
-339.21219847090231
 30
0.0
 11
30.924476217540128
 21
-339.21219847090231
 31
0.0
  0
ARC
  5
A4
  8
DETAIL
  6
CONTINUOUS
 62
     5
 10
89.360481957548274
 20
-329.54920804393549
 30
0.0
 40
9.6629904269670241
 50
270.0
 51
0.000000000000007
  0
ARC
  5
A5
  8
DETAIL
  6
CONTINUOUS
 62
     5
 10
30.924476217540128
 20
-329.54920804393549
 30
0.0
 40
9.6629904269670241
 50
180.0
 51
270.0
  0
LINE
  5
A6
  8
DETAIL
  6
CONTINUOUS
 62
     5
 10
-93.200824852660617
 20
-274.00000000000171
 30
0.0
 11
-93.200824852657661
 21
-285.72239806248763
 31
0.0
  0
LINE
  5
A7
  8
DETAIL
  6
CONTINUOUS
 62
     5
 10
-93.200824852657661
 20
-285.72239806248763
 30
0.0
 11
-88.392270997060677
 21
-291.73017368626603
 31
0.0
  0
LINE
  5
A8
  8
DETAIL
  6
CONTINUOUS
 62
     5
 10
-88.392270997060677
 20
-291.73017368626603
 30
0.0
 11
-88.392270997060677
 21
-373.27240386159019
 31
0.0
  0
LINE
  5
A9
  8
BASIS
  6
DASHDOT
 62
     6
 10
-28.51910880878291
 20
-285.72239806248763
 30
0.0
 11
-28.51910880878291
 21
-522.64681242061215
 31
0.0
  0
LINE
  5
AA
  8
DETAIL
  6
CONTINUOUS
 62
     5
 10
31.354053379499419
 20
-339.25222298691858
 30
0.0
 11
31.354053379499419
 21
-390.21604858981618
 31
0.0
  0
LINE
  5
AB
  8
DETAIL
  6
CONTINUOUS
 62
     5
 10
76.948026498800118
 20
-339.21219847090231
 30
0.0
 11
76.948026498800118
 21
-350.49658944916609
 31
0.0
  0
LINE
  5
AC
  8
DETAIL
  6
CONTINUOUS
 62
     5
 10
76.948026498800118
 20
-350.49658944916609
 30
0.0
 11
61.222452138391191
 21
-350.49658944916609
 31
0.0
  0
LINE
  5
AD
  8
DETAIL
  6
CONTINUOUS
 62
     5
 10
61.222452138391191
 20
-350.49658944916609
 30
0.0
 11
61.222452138391191
 21
-339.21219847090231
 31
0.0
  0
ARC
  5
AE
  8
DETAIL
  6
CONTINUOUS
 62
     5
 10
-90.337420761987914
 20
-364.24417931085958
 30
0.0
 40
124.43212154653401
 50
299.78874481716281
 51
347.95246162011841
  0
LINE
  5
AF
  8
DETAIL
  6
CONTINUOUS
 62
     5
 10
-88.392270997065907
 20
-350.29459122810789
 30
0.0
 11
31.354053379499419
 21
-350.29459122810789
 31
0.0
  0
LINE
  5
B0
  8
DETAIL
  6
CONTINUOUS
 62
     5
 10
-88.392270997060677
 20
-373.27240386159019
 30
0.0
 11
-28.51910880878291
 21
-472.2342213509836
 31
0.0
  0
LINE
  5
B1
  8
DETAIL
  6
CONTINUOUS
 62
     5
 10
-220.8000242078638
 20
-564.9332586190003
 30
0.0
 11
-28.51910880878291
 21
-472.2342213509836
 31
0.0
  0
ARC
  5
B2
  8
DETAIL
  6
CONTINUOUS
 62
     5
 10
-251.19888309157071
 20
-501.87844612567449
 30
0.0
 40
70.0
 50
270.0
 51
295.73881457847813
  0
LINE
  5
B3
  8
DETAIL
  6
CONTINUOUS
 62
     5
 10
-379.85507213529758
 20
-457.58820031319192
 30
0.0
 11
-273.7391111076596
 21
-457.58820031319078
 31
0.0
  0
LINE
  5
B4
  8
DETAIL
  6
CONTINUOUS
 62
     5
 10
-379.85507213529678
 20
-571.8784461256738
 30
0.0
 11
-251.1988830915717
 21
-571.87844612567449
 31
0.0
  0
LINE
  5
B5
  8
DETAIL
  6
CONTINUOUS
 62
     5
 10
-251.92149445962571
 20
-452.57699451574058
 30
0.0
 11
-88.392270997060677
 21
-373.27240386159019
 31
0.0
  0
ARC
  5
B6
  8
DETAIL
  6
CONTINUOUS
 62
     5
 10
-273.73911110766079
 20
-407.58820031319078
 30
0.0
 40
50.0
 50
270.0
 51
295.87137618450851
  0
LINE
  5
B7
  8
DETAIL
  6
CONTINUOUS
 62
     5
 10
-93.200824852657661
 20
-285.72239806248763
 30
0.0
 11
21.26148579057099
 21
-285.72239806248763
 31
0.0
  0
LINE
  5
B8
  8
DETAIL
  6
CONTINUOUS
 62
     5
 10
90.86070882880108
 20
-0.0000000000022595
 30
0.0
 11
90.86070882880108
 21
-31.076293825839901
 31
0.0
  0
LINE
  5
B9
  8
DETAIL
  6
CONTINUOUS
 62
     5
 10
-90.860708828795623
 20
-0.00000000000135
 30
0.0
 11
-90.860708828795623
 21
-31.07629382584264
 31
0.0
  0
LINE
  5
BA
  8
NOTE
  6
CONTINUOUS
 62
     4
 10
-150.32312533726471
 20
-0.0000000000018048
 30
0.0
 11
-169.6768746627346
 21
-0.0000000000018048
 31
0.0
  0
LINE
  5
BB
  8
NOTE
  6
CONTINUOUS
 62
     4
 10
-159.9999999999998
 20
9.6768746627331144
 30
0.0
 11
-159.9999999999998
 21
-9.6768746627367221
 31
0.0
  0
LINE
  5
BC
  8
NOTE
  6
CONTINUOUS
 62
     4
 10
169.676874662735
 20
-0.0000000000018048
 30
0.0
 11
150.323125337265
 21
-0.0000000000018048
 31
0.0
  0
LINE
  5
BD
  8
NOTE
  6
CONTINUOUS
 62
     4
 10
160.0
 20
9.6768746627331144
 30
0.0
 11
160.0
 21
-9.6768746627367221
 31
0.0
  0
LINE
  5
BE
  8
NOTE
  6
CONTINUOUS
 62
     4
 10
-110.32312533726569
 20
-0.00000000000135
 30
0.0
 11
-129.6768746627346
 21
-0.00000000000135
 31
0.0
  0
LINE
  5
BF
  8
NOTE
  6
CONTINUOUS
 62
     4
 10
-120.0000000000009
 20
9.6768746627335656
 30
0.0
 11
-120.0000000000009
 21
-9.6768746627362692
 31
0.0
  0
LINE
  5
C0
  8
NOTE
  6
CONTINUOUS
 62
     4
 10
129.67687466331819
 20
-0.0000000000018048
 30
0.0
 11
110.3231253378482
 21
-0.0000000000018048
 31
0.0
  0
LINE
  5
C1
  8
NOTE
  6
CONTINUOUS
 62
     4
 10
120.0000000005832
 20
9.6768746627331144
 30
0.0
 11
120.0000000005832
 21
-9.6768746627367221
 31
0.0
  0
LINE
  5
C2
  8
DETAIL
  6
CONTINUOUS
 62
     5
 10
-428.51910880878268
 20
-576.50000000000068
 30
0.0
 11
-428.51910880878268
 21
-451.49999999999972
 31
0.0
  0
LINE
  5
C3
  8
DETAIL
  6
CONTINUOUS
 62
     5
 10
-428.51910880878268
 20
-576.50000000000068
 30
0.0
 11
-379.85509999999999
 21
-576.50000000000068
 31
0.0
  0
LINE
  5
C4
  8
DETAIL
  6
CONTINUOUS
 62
     5
 10
-428.51910880878268
 20
-451.49999999999972
 30
0.0
 11
-379.85507213529758
 21
-451.50000000000171
 31
0.0
  0
LINE
  5
C5
  8
DETAIL
  6
CONTINUOUS
 62
     5
 10
-379.85507213529758
 20
-451.50000000000171
 30
0.0
 11
-379.85507213529758
 21
-576.50000000000068
 31
0.0
  0
LINE
  5
C7
  8
DETAIL
  6
CONTINUOUS
 62
     5
 10
120.0
 20
-54.000000000001371
 30
0.0
 11
-119.9999999999997
 21
-54.000000000001371
 31
0.0
  0
LINE
  5
C8
  8
DETAIL
  6
CONTINUOUS
 62
     5
 10
120.0
 20
-274.00000000000131
 30
0.0
 11
-119.9999999999997
 21
-274.00000000000131
 31
0.0
  0
LINE
  5
C9
  8
DETAIL
  6
CONTINUOUS
 62
     5
 10
109.16626959794711
 20
-274.00000000000131
 30
0.0
 11
109.16626959794711
 21
-624.49913113284947
 31
0.0
  0
POLYLINE
  5
CA
  8
DETAIL
  6
CONTINUOUS
 62
     5
 66
     1
 10
0.0
 20
0.0
 30
0.0
 70
     1
  0
VERTEX
  5
20D
  8
DETAIL
  6
CONTINUOUS
 62
     5
 10
118.8419196148712
 20
-624.49913113284947
 30
0.0
  0
VERTEX
  5
20E
  8
DETAIL
  6
CONTINUOUS
 62
     5
 10
99.490619581021292
 20
-624.49913113284947
 30
0.0
  0
VERTEX
  5
20F
  8
DETAIL
  6
CONTINUOUS
 62
     5
 10
99.490619581021292
 20
-671.77929734898953
 30
0.0
  0
VERTEX
  5
210
  8
DETAIL
  6
CONTINUOUS
 62
     5
 10
118.8419196148712
 20
-671.77929734898953
 30
0.0
  0
SEQEND
  5
211
  8
DETAIL
  6
CONTINUOUS
 62
     5
  0
CIRCLE
  5
D0
  8
FIX
  6
CONTINUOUS
 62
    11
 10
-159.9999999999998
 20
-0.0000000000018048
 30
0.0
 40
9.6768746627349156
  0
CIRCLE
  5
D1
  8
FIX
  6
CONTINUOUS
 62
    11
 10
160.0
 20
-0.0000000000018048
 30
0.0
 40
9.6768746627349156
  0
LINE
  5
D2
  8
DETAIL
  6
CONTINUOUS
 62
     5
 10
-123.6291858125897
 20
-109.800946065462
 30
0.0
 11
-119.9999999999997
 21
-109.800946065462
 31
0.0
  0
LINE
  5
D3
  8
DETAIL
  6
CONTINUOUS
 62
     5
 10
-123.6291858125897
 20
-249.57354537730859
 30
0.0
 11
-119.9999999999997
 21
-249.57354537730859
 31
0.0
  0
LINE
  5
D4
  8
DETAIL
  6
CONTINUOUS
 62
     5
 10
-123.6291858125897
 20
-109.800946065462
 30
0.0
 11
-123.6291858125897
 21
-249.57354537730859
 31
0.0
  0
LINE
  5
D5
  8
NOTE
  6
CONTINUOUS
 62
     4
 10
37.059796969785339
 20
15.99999999999865
 30
0.0
 11
-37.059796969784649
 21
15.99999999999865
 31
0.0
  0
LINE
  5
D6
  8
NOTE
  6
CONTINUOUS
 62
     4
 10
0.0
 20
53.059796969783292
 30
0.0
 11
0.0
 21
-21.05979696978601
 31
0.0
  0
LINE
  5
D7
  8
NOTE
  6
CONTINUOUS
 62
     4
 10
-391.4593118389987
 20
-514.00000000000068
 30
0.0
 11
-465.57890577856767
 21
-514.00000000000068
 31
0.0
  0
LINE
  5
D8
  8
NOTE
  6
CONTINUOUS
 62
     4
 10
-428.51910880878268
 20
-476.94020303021608
 30
0.0
 11
-428.51910880878268
 21
-551.05979696978522
 31
0.0
  0
CIRCLE
  5
D9
  8
ARRANGE
  6
CONTINUOUS
 62
     1
 10
-0.000000000001819
 20
-0.0000000000022595
 30
0.0
 40
23.800000000000001
  0
LINE
  5
DA
  8
ARRANGE
  6
CONTINUOUS
 62
     1
 10
-23.817778614912871
 20
-23.572640099555851
 30
0.0
 11
23.817778614910139
 21
23.572640099553158
 31
0.0
  0
LINE
  5
DB
  8
ARRANGE
  6
CONTINUOUS
 62
     1
 10
-23.782751335798821
 20
23.607979123839431
 30
0.0
 11
23.782751335796309
 21
-23.607979123841211
 31
0.0
  0
LINE
  5
DC
  8
OUTLINE
  6
CONTINUOUS
 62
     3
 10
-119.9999999999997
 20
-54.000000000001371
 30
0.0
 11
-119.9999999999997
 21
-274.00000000000131
 31
0.0
  0
LINE
  5
DE
  8
OUTLINE
  6
CONTINUOUS
 62
     3
 10
-62.5
 20
15.99999999999865
 30
0.0
 11
-62.5
 21
-47.734616472078372
 31
0.0
  0
LINE
  5
DF
  8
OUTLINE
  6
CONTINUOUS
 62
     3
 10
-62.08169445997963
 20
-47.734616472078372
 30
0.0
 11
0.0
 21
-47.734616472078372
 31
0.0
  0
LINE
  5
E0
  8
OUTLINE
  6
CONTINUOUS
 62
     3
 10
-62.08169445997963
 20
-47.734616472078372
 30
0.0
 11
-93.755887370540691
 21
-47.734616472078372
 31
0.0
  0
LINE
  5
E1
  8
OUTLINE
  6
CONTINUOUS
 62
     3
 10
-93.755887370540691
 20
-47.734616472078372
 30
0.0
 11
-93.755887370540691
 21
-30.419878956015491
 31
0.0
  0
LINE
  5
E2
  8
OUTLINE
  6
CONTINUOUS
 62
     3
 10
-90.860708828795623
 20
-31.07629382584264
 30
0.0
 11
-179.9999999999998
 21
-10.86601823595082
 31
0.0
  0
LINE
  5
E3
  8
OUTLINE
  6
CONTINUOUS
 62
     3
 10
-179.9999999999998
 20
-10.86601823595082
 30
0.0
 11
-179.9999999999998
 21
-0.0000000000018048
 31
0.0
  0
LINE
  5
E4
  8
OUTLINE
  6
CONTINUOUS
 62
     3
 10
-179.9999999999998
 20
-0.0000000000018048
 30
0.0
 11
-90.860708828795623
 21
-0.00000000000135
 31
0.0
  0
LINE
  5
E5
  8
OUTLINE
  6
CONTINUOUS
 62
     3
 10
-99.023472384515813
 20
-29.225575709637251
 30
0.0
 11
-99.023472384515813
 21
-54.000000000001371
 31
0.0
  0
LINE
  5
E6
  8
OUTLINE
  6
CONTINUOUS
 62
     3
 10
120.0
 20
-54.000000000001371
 30
0.0
 11
120.0
 21
-274.00000000000131
 31
0.0
  0
LINE
  5
E7
  8
OUTLINE
  6
CONTINUOUS
 62
     3
 10
-62.5
 20
15.99999999999865
 30
0.0
 11
62.5
 21
15.99999999999865
 31
0.0
  0
LINE
  5
E8
  8
OUTLINE
  6
CONTINUOUS
 62
     3
 10
62.5
 20
15.99999999999865
 30
0.0
 11
62.5
 21
-47.734616472078372
 31
0.0
  0
LINE
  5
E9
  8
OUTLINE
  6
CONTINUOUS
 62
     3
 10
62.08169445997715
 20
-47.734616472078372
 30
0.0
 11
0.0
 21
-47.734616472078372
 31
0.0
  0
LINE
  5
EA
  8
OUTLINE
  6
CONTINUOUS
 62
     3
 10
62.08169445997715
 20
-47.734616472078372
 30
0.0
 11
93.755887370536385
 21
-47.734616472078372
 31
0.0
  0
LINE
  5
EB
  8
OUTLINE
  6
CONTINUOUS
 62
     3
 10
93.755887370536385
 20
-47.734616472078372
 30
0.0
 11
93.755887370539327
 21
-30.419878956015062
 31
0.0
  0
LINE
  5
EC
  8
OUTLINE
  6
CONTINUOUS
 62
     3
 10
90.86070882880108
 20
-31.076293825839901
 30
0.0
 11
180.0
 21
-10.86601823595082
 31
0.0
  0
LINE
  5
ED
  8
OUTLINE
  6
CONTINUOUS
 62
     3
 10
180.0
 20
-0.0000000000018048
 30
0.0
 11
90.86070882880108
 21
-0.0000000000022595
 31
0.0
  0
LINE
  5
EE
  8
OUTLINE
  6
CONTINUOUS
 62
     3
 10
99.023472384515131
 20
-29.225575709636349
 30
0.0
 11
99.023472384515131
 21
-54.000000000001791
 31
0.0
  0
LINE
  5
EF
  8
OUTLINE
  6
CONTINUOUS
 62
     3
 10
99.023472384515131
 20
-274.00000000000091
 30
0.0
 11
99.023472384515131
 21
-329.54920804393549
 31
0.0
  0
LINE
  5
F0
  8
OUTLINE
  6
CONTINUOUS
 62
     3
 10
180.0
 20
-0.0000000000018048
 30
0.0
 11
180.0
 21
-10.86601823595082
 31
0.0
  0
LINE
  5
F1
  8
OUTLINE
  6
CONTINUOUS
 62
     3
 10
21.26148579057099
 20
-274.00000000000131
 30
0.0
 11
21.261485790573261
 21
-329.54920804393549
 31
0.0
  0
LINE
  5
F2
  8
OUTLINE
  6
CONTINUOUS
 62
     3
 10
89.360481957548274
 20
-339.21219847090231
 30
0.0
 11
30.924476217540128
 21
-339.21219847090231
 31
0.0
  0
ARC
  5
F3
  8
OUTLINE
  6
CONTINUOUS
 62
     3
 10
89.360481957548274
 20
-329.54920804393549
 30
0.0
 40
9.6629904269670241
 50
270.0
 51
0.000000000000007
  0
ARC
  5
F4
  8
OUTLINE
  6
CONTINUOUS
 62
     3
 10
30.924476217540128
 20
-329.54920804393549
 30
0.0
 40
9.6629904269670241
 50
180.0
 51
270.0
  0
LINE
  5
F5
  8
OUTLINE
  6
CONTINUOUS
 62
     3
 10
-93.200824852660617
 20
-274.00000000000171
 30
0.0
 11
-93.200824852657661
 21
-285.72239806248763
 31
0.0
  0
LINE
  5
F6
  8
OUTLINE
  6
CONTINUOUS
 62
     3
 10
-93.200824852657661
 20
-285.72239806248763
 30
0.0
 11
-88.392270997060677
 21
-291.73017368626603
 31
0.0
  0
LINE
  5
F7
  8
OUTLINE
  6
CONTINUOUS
 62
     3
 10
-88.392270997060677
 20
-291.73017368626603
 30
0.0
 11
-88.392270997060677
 21
-373.27240386159019
 31
0.0
  0
LINE
  5
F8
  8
OUTLINE
  6
CONTINUOUS
 62
     3
 10
31.354053379499419
 20
-339.25222298691858
 30
0.0
 11
31.354053379499419
 21
-390.21604858981618
 31
0.0
  0
ARC
  5
F9
  8
OUTLINE
  6
CONTINUOUS
 62
     3
 10
-90.337420761987914
 20
-364.24417931085958
 30
0.0
 40
124.43212154653401
 50
299.78874481716281
 51
347.95246162011841
  0
LINE
  5
FA
  8
OUTLINE
  6
CONTINUOUS
 62
     3
 10
-220.8000242078638
 20
-564.9332586190003
 30
0.0
 11
-28.51910880878291
 21
-472.2342213509836
 31
0.0
  0
ARC
  5
FB
  8
OUTLINE
  6
CONTINUOUS
 62
     3
 10
-251.19888309157071
 20
-501.87844612567449
 30
0.0
 40
70.0
 50
270.0
 51
295.73881457847813
  0
LINE
  5
FC
  8
OUTLINE
  6
CONTINUOUS
 62
     3
 10
-379.85507213529758
 20
-457.58820031319192
 30
0.0
 11
-273.7391111076596
 21
-457.58820031319078
 31
0.0
  0
LINE
  5
FD
  8
OUTLINE
  6
CONTINUOUS
 62
     3
 10
-379.85507213529678
 20
-571.8784461256738
 30
0.0
 11
-251.1988830915717
 21
-571.87844612567449
 31
0.0
  0
LINE
  5
FE
  8
OUTLINE
  6
CONTINUOUS
 62
     3
 10
-251.92149445962571
 20
-452.57699451574058
 30
0.0
 11
-88.392270997060677
 21
-373.27240386159019
 31
0.0
  0
ARC
  5
FF
  8
OUTLINE
  6
CONTINUOUS
 62
     3
 10
-273.73911110766079
 20
-407.58820031319078
 30
0.0
 40
50.0
 50
270.0
 51
295.87137618450851
  0
LINE
  5
100
  8
OUTLINE
  6
CONTINUOUS
 62
     3
 10
90.86070882880108
 20
-0.0000000000022595
 30
0.0
 11
90.86070882880108
 21
-31.076293825839901
 31
0.0
  0
LINE
  5
101
  8
OUTLINE
  6
CONTINUOUS
 62
     3
 10
-90.860708828795623
 20
-0.00000000000135
 30
0.0
 11
-90.860708828795623
 21
-31.07629382584264
 31
0.0
  0
LINE
  5
102
  8
OUTLINE
  6
CONTINUOUS
 62
     3
 10
-428.51910880878268
 20
-576.50000000000068
 30
0.0
 11
-428.51910880878268
 21
-451.49999999999972
 31
0.0
  0
LINE
  5
103
  8
OUTLINE
  6
CONTINUOUS
 62
     3
 10
-428.51910880878268
 20
-576.50000000000068
 30
0.0
 11
-379.85509999999999
 21
-576.50000000000068
 31
0.0
  0
LINE
  5
104
  8
OUTLINE
  6
CONTINUOUS
 62
     3
 10
-428.51910880878268
 20
-451.49999999999972
 30
0.0
 11
-379.85507213529758
 21
-451.50000000000171
 31
0.0
  0
LINE
  5
105
  8
OUTLINE
  6
CONTINUOUS
 62
     3
 10
-379.85507213529758
 20
-451.50000000000171
 30
0.0
 11
-379.85507213529758
 21
-576.50000000000068
 31
0.0
  0
LINE
  5
107
  8
OUTLINE
  6
CONTINUOUS
 62
     3
 10
120.0
 20
-54.000000000001371
 30
0.0
 11
-119.9999999999997
 21
-54.000000000001371
 31
0.0
  0
LINE
  5
108
  8
OUTLINE
  6
CONTINUOUS
 62
     3
 10
120.0
 20
-274.00000000000131
 30
0.0
 11
-119.9999999999997
 21
-274.00000000000131
 31
0.0
  0
LINE
  5
109
  8
SIZE
  6
CONTINUOUS
 62
    30
 10
62.5
 20
30.99999999999865
 30
0.0
 11
62.5
 21
90.256344521289947
 31
0.0
  0
LINE
  5
10A
  8
SIZE
  6
CONTINUOUS
 62
    30
 10
-62.499999999999993
 20
30.99999999999865
 30
0.0
 11
-62.499999999999993
 21
90.256344521289947
 31
0.0
  0
LINE
  5
10B
  8
SIZE
  6
CONTINUOUS
 62
    30
 10
52.5
 20
70.256344521289975
 30
0.0
 11
-52.499999999999993
 21
70.256344521289975
 31
0.0
  0
CIRCLE
  5
10C
  8
SIZE
  6
CONTINUOUS
 62
    30
 10
62.5
 20
70.256344521289975
 30
0.0
 40
5.0
  0
LINE
  5
10D
  8
SIZE
  6
CONTINUOUS
 62
    30
 10
57.5
 20
70.256344521289975
 30
0.0
 11
52.5
 21
70.256344521289975
 31
0.0
  0
CIRCLE
  5
10E
  8
SIZE
  6
CONTINUOUS
 62
    30
 10
-62.499999999999993
 20
70.256344521289975
 30
0.0
 40
5.0
  0
LINE
  5
10F
  8
SIZE
  6
CONTINUOUS
 62
    30
 10
-57.499999999999993
 20
70.256344521289975
 30
0.0
 11
-52.499999999999993
 21
70.256344521289975
 31
0.0
  0
TEXT
  5
110
  8
SIZE
  6
CONTINUOUS
 62
    30
 10
-32.528571428571432
 20
78.256344521289975
 30
0.0
 40
22.0
  1
%%C125
 41
0.9
 72
     1
 11
0.0
 21
78.256344521289975
 31
0.0
  0
POINT
  5
111
  8
DEFPOINTS
  6
CONTINUOUS
 62
     7
 10
62.5
 20
15.99999999999865
 30
0.0
  0
POINT
  5
112
  8
DEFPOINTS
  6
CONTINUOUS
 62
     7
 10
-63.336611080043212
 20
15.99999999999865
 30
0.0
  0
POINT
  5
113
  8
DEFPOINTS
  6
CONTINUOUS
 62
     7
 10
-62.499999999999993
 20
70.256344521289975
 30
0.0
  0
LINE
  5
114
  8
SIZE
  6
CONTINUOUS
 62
    30
 10
-77.081694459979659
 20
15.99999999999865
 30
0.0
 11
-350.07330724654372
 21
15.99999999999873
 31
0.0
  0
LINE
  5
115
  8
SIZE
  6
CONTINUOUS
 62
    30
 10
-194.99999999999949
 20
-0.0000000000018006
 30
0.0
 11
-350.07330724654372
 21
-0.0000000000017566
 31
0.0
  0
LINE
  5
116
  8
SIZE
  6
CONTINUOUS
 62
    30
 10
-330.07330724654372
 20
-10.00000000000176
 30
0.0
 11
-330.07330724654372
 21
-20.000000000001759
 31
0.0
  0
LINE
  5
117
  8
SIZE
  6
CONTINUOUS
 62
    30
 10
-330.07330724654372
 20
25.999999999998732
 30
0.0
 11
-330.07330724654372
 21
79.342857142856531
 31
0.0
  0
LINE
  5
118
  8
SIZE
  6
CONTINUOUS
 62
    30
 10
-330.07330724654372
 20
-0.0000000000017623
 30
0.0
 11
-330.07330724654372
 21
15.99999999999871
 31
0.0
  0
CIRCLE
  5
119
  8
SIZE
  6
CONTINUOUS
 62
    30
 10
-330.07330724654372
 20
-0.0000000000017623
 30
0.0
 40
5.0
  0
LINE
  5
11A
  8
SIZE
  6
CONTINUOUS
 62
    30
 10
-330.07330724654372
 20
-5.0000000000017613
 30
0.0
 11
-330.07330724654372
 21
-10.00000000000176
 31
0.0
  0
CIRCLE
  5
11B
  8
SIZE
  6
CONTINUOUS
 62
    30
 10
-330.07330724654372
 20
15.99999999999871
 30
0.0
 40
5.0
  0
LINE
  5
11C
  8
SIZE
  6
CONTINUOUS
 62
    30
 10
-330.07330724654372
 20
20.99999999999871
 30
0.0
 11
-330.07330724654372
 21
25.999999999998721
 31
0.0
  0
TEXT
  5
11D
  8
SIZE
  6
CONTINUOUS
 62
    30
 10
-338.07330724654361
 20
43.999999999999332
 30
0.0
 40
22.0
  1
16
 50
90.0
 41
0.9
 72
     1
 11
-338.07330724654361
 21
57.67142857142791
 31
0.0
  0
POINT
  5
11E
  8
DEFPOINTS
  6
CONTINUOUS
 62
     7
 10
-62.5
 20
15.99999999999865
 30
0.0
  0
POINT
  5
11F
  8
DEFPOINTS
  6
CONTINUOUS
 62
     7
 10
-179.9999999999998
 20
-0.0000000000018048
 30
0.0
  0
POINT
  5
120
  8
DEFPOINTS
  6
CONTINUOUS
 62
     7
 10
-330.07330724654372
 20
-0.0000000000017623
 30
0.0
  0
LINE
  5
121
  8
SIZE
  6
CONTINUOUS
 62
    30
 10
-194.96966662897481
 20
-0.0000000000018006
 30
0.0
 11
-350.07330724654281
 21
-0.0000000000017566
 31
0.0
  0
LINE
  5
122
  8
SIZE
  6
CONTINUOUS
 62
    30
 10
-164.96966662897489
 20
-54.000000000000902
 30
0.0
 11
-350.07330724654281
 21
-54.000000000000831
 31
0.0
  0
LINE
  5
123
  8
SIZE
  6
CONTINUOUS
 62
    30
 10
-330.07330724654281
 20
-10.00000000000176
 30
0.0
 11
-330.07330724654281
 21
-44.000000000000831
 31
0.0
  0
CIRCLE
  5
124
  8
SIZE
  6
CONTINUOUS
 62
    30
 10
-330.07330724654281
 20
-0.0000000000017623
 30
0.0
 40
5.0
  0
LINE
  5
125
  8
SIZE
  6
CONTINUOUS
 62
    30
 10
-330.07330724654281
 20
-5.0000000000017613
 30
0.0
 11
-330.07330724654281
 21
-10.00000000000176
 31
0.0
  0
CIRCLE
  5
126
  8
SIZE
  6
CONTINUOUS
 62
    30
 10
-330.07330724654281
 20
-54.000000000000831
 30
0.0
 40
5.0
  0
LINE
  5
127
  8
SIZE
  6
CONTINUOUS
 62
    30
 10
-330.07330724654281
 20
-49.000000000000831
 30
0.0
 11
-330.07330724654281
 21
-44.000000000000831
 31
0.0
  0
TEXT
  5
128
  8
SIZE
  6
CONTINUOUS
 62
    30
 10
-338.0733072465427
 20
-43.50000000000135
 30
0.0
 40
22.0
  1
54
 50
90.0
 41
0.9
 72
     1
 11
-338.0733072465427
 21
-27.00000000000135
 31
0.0
  0
POINT
  5
129
  8
DEFPOINTS
  6
CONTINUOUS
 62
     7
 10
-179.96966662897481
 20
-0.0000000000018048
 30
0.0
  0
POINT
  5
12A
  8
DEFPOINTS
  6
CONTINUOUS
 62
     7
 10
-149.96966662897481
 20
-54.000000000000902
 30
0.0
  0
POINT
  5
12B
  8
DEFPOINTS
  6
CONTINUOUS
 62
     7
 10
-330.07330724654281
 20
-54.000000000000831
 30
0.0
  0
LINE
  5
12C
  8
SIZE
  6
CONTINUOUS
 62
    30
 10
-77.081694459979659
 20
15.99999999999865
 30
0.0
 11
-628.44438449675545
 21
15.99999999999881
 31
0.0
  0
LINE
  5
12D
  8
SIZE
  6
CONTINUOUS
 62
    30
 10
-134.9999999999996
 20
-54.000000000001371
 30
0.0
 11
-628.44438449675545
 21
-54.000000000001208
 31
0.0
  0
LINE
  5
12E
  8
SIZE
  6
CONTINUOUS
 62
    30
 10
-608.44438449675545
 20
5.999999999998801
 30
0.0
 11
-608.44438449675545
 21
-44.000000000001222
 31
0.0
  0
CIRCLE
  5
12F
  8
SIZE
  6
CONTINUOUS
 62
    30
 10
-608.44438449675545
 20
15.999999999998799
 30
0.0
 40
5.0
  0
LINE
  5
130
  8
SIZE
  6
CONTINUOUS
 62
    30
 10
-608.44438449675545
 20
10.999999999998799
 30
0.0
 11
-608.44438449675545
 21
5.9999999999987992
 31
0.0
  0
CIRCLE
  5
131
  8
SIZE
  6
CONTINUOUS
 62
    30
 10
-608.44438449675545
 20
-54.000000000001222
 30
0.0
 40
5.0
  0
LINE
  5
132
  8
SIZE
  6
CONTINUOUS
 62
    30
 10
-608.44438449675545
 20
-49.000000000001222
 30
0.0
 11
-608.44438449675545
 21
-44.000000000001222
 31
0.0
  0
TEXT
  5
133
  8
SIZE
  6
CONTINUOUS
 62
    30
 10
-616.44438449675545
 20
-35.028571428572732
 30
0.0
 40
22.0
  1
70
 50
90.0
 41
0.9
 72
     1
 11
-616.44438449675545
 21
-19.0000000000013
 31
0.0
  0
POINT
  5
134
  8
DEFPOINTS
  6
CONTINUOUS
 62
     7
 10
-62.5
 20
15.99999999999865
 30
0.0
  0
POINT
  5
135
  8
DEFPOINTS
  6
CONTINUOUS
 62
     7
 10
-119.9999999999997
 20
-54.000000000001371
 30
0.0
  0
POINT
  5
136
  8
DEFPOINTS
  6
CONTINUOUS
 62
     7
 10
-608.44438449675545
 20
-54.000000000001222
 30
0.0
  0
LINE
  5
137
  8
SIZE
  6
CONTINUOUS
 62
    30
 10
-134.9999999999996
 20
-54.000000000001371
 30
0.0
 11
-628.44438449675545
 21
-54.000000000001222
 31
0.0
  0
LINE
  5
138
  8
SIZE
  6
CONTINUOUS
 62
    30
 10
-134.99999999999969
 20
-274.00000000000119
 30
0.0
 11
-628.44438449675545
 21
-274.00000000000108
 31
0.0
  0
LINE
  5
139
  8
SIZE
  6
CONTINUOUS
 62
    30
 10
-608.44438449675545
 20
-64.000000000001222
 30
0.0
 11
-608.44438449675545
 21
-264.00000000000108
 31
0.0
  0
CIRCLE
  5
13A
  8
SIZE
  6
CONTINUOUS
 62
    30
 10
-608.44438449675545
 20
-54.000000000001222
 30
0.0
 40
5.0
  0
LINE
  5
13B
  8
SIZE
  6
CONTINUOUS
 62
    30
 10
-608.44438449675545
 20
-59.000000000001222
 30
0.0
 11
-608.44438449675545
 21
-64.000000000001222
 31
0.0
  0
CIRCLE
  5
13C
  8
SIZE
  6
CONTINUOUS
 62
    30
 10
-608.44438449675545
 20
-274.00000000000108
 30
0.0
 40
5.0
  0
LINE
  5
13D
  8
SIZE
  6
CONTINUOUS
 62
    30
 10
-608.44438449675545
 20
-269.00000000000108
 30
0.0
 11
-608.44438449675545
 21
-264.00000000000108
 31
0.0
  0
TEXT
  5
13E
  8
SIZE
  6
CONTINUOUS
 62
    30
 10
-616.44438449675545
 20
-189.45714285714399
 30
0.0
 40
22.0
  1
220
 50
90.0
 41
0.9
 72
     1
 11
-616.44438449675545
 21
-164.00000000000119
 31
0.0
  0
POINT
  5
13F
  8
DEFPOINTS
  6
CONTINUOUS
 62
     7
 10
-119.9999999999997
 20
-54.000000000001371
 30
0.0
  0
POINT
  5
140
  8
DEFPOINTS
  6
CONTINUOUS
 62
     7
 10
-119.9999999999997
 20
-274.00000000000131
 30
0.0
  0
POINT
  5
141
  8
DEFPOINTS
  6
CONTINUOUS
 62
     7
 10
-608.44438449675545
 20
-274.00000000000108
 30
0.0
  0
LINE
  5
142
  8
SIZE
  6
CONTINUOUS
 62
    30
 10
-134.99999999999969
 20
-274.00000000000119
 30
0.0
 11
-628.44438449675545
 21
-274.00000000000108
 31
0.0
  0
LINE
  5
143
  8
SIZE
  6
CONTINUOUS
 62
    30
 10
-443.51910880878279
 20
-514.00000000000068
 30
0.0
 11
-628.44438449675545
 21
-514.00000000000068
 31
0.0
  0
LINE
  5
144
  8
SIZE
  6
CONTINUOUS
 62
    30
 10
-608.44438449675545
 20
-284.00000000000108
 30
0.0
 11
-608.44438449675545
 21
-504.0000000000008
 31
0.0
  0
CIRCLE
  5
145
  8
SIZE
  6
CONTINUOUS
 62
    30
 10
-608.44438449675545
 20
-274.00000000000108
 30
0.0
 40
5.0
  0
LINE
  5
146
  8
SIZE
  6
CONTINUOUS
 62
    30
 10
-608.44438449675545
 20
-279.00000000000108
 30
0.0
 11
-608.44438449675545
 21
-284.00000000000108
 31
0.0
  0
CIRCLE
  5
147
  8
SIZE
  6
CONTINUOUS
 62
    30
 10
-608.44438449675545
 20
-514.00000000000068
 30
0.0
 40
5.0
  0
LINE
  5
148
  8
SIZE
  6
CONTINUOUS
 62
    30
 10
-608.44438449675545
 20
-509.00000000000068
 30
0.0
 11
-608.44438449675545
 21
-504.00000000000068
 31
0.0
  0
TEXT
  5
149
  8
SIZE
  6
CONTINUOUS
 62
    30
 10
-622.20628925866015
 20
-432.18571428571522
 30
0.0
 40
22.0
  1
(240)
 50
90.0
 41
0.9
 72
     1
 11
-622.20628925866015
 21
-394.00000000000091
 31
0.0
  0
POINT
  5
14A
  8
DEFPOINTS
  6
CONTINUOUS
 62
     7
 10
-119.9999999999997
 20
-274.00000000000131
 30
0.0
  0
POINT
  5
14B
  8
DEFPOINTS
  6
CONTINUOUS
 62
     7
 10
-428.51910880878268
 20
-514.00000000000068
 30
0.0
  0
POINT
  5
14C
  8
DEFPOINTS
  6
CONTINUOUS
 62
     7
 10
-608.44438449675545
 20
-514.00000000000068
 30
0.0
  0
LINE
  5
14D
  8
SIZE
  6
CONTINUOUS
 62
    30
 10
120.0
 20
-39.00000000000135
 30
0.0
 11
120.0
 21
148.0730989441571
 31
0.0
  0
LINE
  5
14E
  8
SIZE
  6
CONTINUOUS
 62
    30
 10
-119.9999999999997
 20
-39.00000000000135
 30
0.0
 11
-119.9999999999997
 21
148.0730989441571
 31
0.0
  0
LINE
  5
14F
  8
SIZE
  6
CONTINUOUS
 62
    30
 10
110.0
 20
128.07309894415721
 30
0.0
 11
-109.9999999999996
 21
128.07309894415721
 31
0.0
  0
CIRCLE
  5
150
  8
SIZE
  6
CONTINUOUS
 62
    30
 10
120.0
 20
128.07309894415721
 30
0.0
 40
5.0
  0
LINE
  5
151
  8
SIZE
  6
CONTINUOUS
 62
    30
 10
115.0
 20
128.07309894415721
 30
0.0
 11
110.0
 21
128.07309894415721
 31
0.0
  0
CIRCLE
  5
152
  8
SIZE
  6
CONTINUOUS
 62
    30
 10
-119.9999999999997
 20
128.07309894415721
 30
0.0
 40
5.0
  0
LINE
  5
153
  8
SIZE
  6
CONTINUOUS
 62
    30
 10
-114.9999999999997
 20
128.07309894415721
 30
0.0
 11
-109.9999999999997
 21
128.07309894415721
 31
0.0
  0
TEXT
  5
154
  8
SIZE
  6
CONTINUOUS
 62
    30
 10
-25.457142857142731
 20
136.0730989441571
 30
0.0
 40
22.0
  1
240
 41
0.9
 72
     1
 11
0.0000000000001279
 21
136.0730989441571
 31
0.0
  0
POINT
  5
155
  8
DEFPOINTS
  6
CONTINUOUS
 62
     7
 10
120.0
 20
-54.000000000001371
 30
0.0
  0
POINT
  5
156
  8
DEFPOINTS
  6
CONTINUOUS
 62
     7
 10
-119.9999999999997
 20
-54.000000000001371
 30
0.0
  0
POINT
  5
157
  8
DEFPOINTS
  6
CONTINUOUS
 62
     7
 10
-119.9999999999997
 20
128.07309894415721
 30
0.0
  0
LINE
  5
158
  8
SIZE
  6
CONTINUOUS
 62
    30
 10
160.0
 20
14.999999999998179
 30
0.0
 11
160.0
 21
209.7014702142869
 31
0.0
  0
LINE
  5
159
  8
SIZE
  6
CONTINUOUS
 62
    30
 10
-159.9999999999998
 20
14.999999999998179
 30
0.0
 11
-159.9999999999998
 21
209.7014702142869
 31
0.0
  0
LINE
  5
15A
  8
SIZE
  6
CONTINUOUS
 62
    30
 10
150.0
 20
189.7014702142869
 30
0.0
 11
-149.9999999999998
 21
189.7014702142869
 31
0.0
  0
CIRCLE
  5
15B
  8
SIZE
  6
CONTINUOUS
 62
    30
 10
160.0
 20
189.7014702142869
 30
0.0
 40
5.0
  0
LINE
  5
15C
  8
SIZE
  6
CONTINUOUS
 62
    30
 10
155.0
 20
189.7014702142869
 30
0.0
 11
150.0
 21
189.7014702142869
 31
0.0
  0
CIRCLE
  5
15D
  8
SIZE
  6
CONTINUOUS
 62
    30
 10
-159.9999999999998
 20
189.7014702142869
 30
0.0
 40
5.0
  0
LINE
  5
15E
  8
SIZE
  6
CONTINUOUS
 62
    30
 10
-154.9999999999998
 20
189.7014702142869
 30
0.0
 11
-149.9999999999998
 21
189.7014702142869
 31
0.0
  0
TEXT
  5
15F
  8
SIZE
  6
CONTINUOUS
 62
    30
 10
-25.457142857142738
 20
197.7014702142869
 30
0.0
 40
22.0
  1
320
 41
0.9
 72
     1
 11
0.0000000000001137
 21
197.7014702142869
 31
0.0
  0
POINT
  5
160
  8
DEFPOINTS
  6
CONTINUOUS
 62
     7
 10
160.0
 20
-0.0000000000018048
 30
0.0
  0
POINT
  5
161
  8
DEFPOINTS
  6
CONTINUOUS
 62
     7
 10
-159.9999999999998
 20
-0.0000000000018048
 30
0.0
  0
POINT
  5
162
  8
DEFPOINTS
  6
CONTINUOUS
 62
     7
 10
-159.9999999999998
 20
189.7014702142869
 30
0.0
  0
LINE
  5
163
  8
SIZE
  6
CONTINUOUS
 62
    30
 10
180.0
 20
14.999999999998179
 30
0.0
 11
180.0
 21
275.8119141242596
 31
0.0
  0
LINE
  5
164
  8
SIZE
  6
CONTINUOUS
 62
    30
 10
-179.9999999999998
 20
14.999999999998179
 30
0.0
 11
-179.9999999999996
 21
275.8119141242596
 31
0.0
  0
LINE
  5
165
  8
SIZE
  6
CONTINUOUS
 62
    30
 10
170.0
 20
255.8119141242596
 30
0.0
 11
-169.9999999999996
 21
255.8119141242596
 31
0.0
  0
CIRCLE
  5
166
  8
SIZE
  6
CONTINUOUS
 62
    30
 10
180.0
 20
255.8119141242596
 30
0.0
 40
5.0
  0
LINE
  5
167
  8
SIZE
  6
CONTINUOUS
 62
    30
 10
175.0
 20
255.8119141242596
 30
0.0
 11
170.0
 21
255.8119141242596
 31
0.0
  0
CIRCLE
  5
168
  8
SIZE
  6
CONTINUOUS
 62
    30
 10
-179.9999999999996
 20
255.8119141242596
 30
0.0
 40
5.0
  0
LINE
  5
169
  8
SIZE
  6
CONTINUOUS
 62
    30
 10
-174.9999999999996
 20
255.8119141242596
 30
0.0
 11
-169.9999999999996
 21
255.8119141242596
 31
0.0
  0
TEXT
  5
16A
  8
SIZE
  6
CONTINUOUS
 62
    30
 10
-25.457142857142721
 20
263.8119141242596
 30
0.0
 40
22.0
  1
360
 41
0.9
 72
     1
 11
0.0000000000001421
 21
263.8119141242596
 31
0.0
  0
POINT
  5
16B
  8
DEFPOINTS
  6
CONTINUOUS
 62
     7
 10
180.0
 20
-0.0000000000018048
 30
0.0
  0
POINT
  5
16C
  8
DEFPOINTS
  6
CONTINUOUS
 62
     7
 10
-179.9999999999998
 20
-0.0000000000018048
 30
0.0
  0
POINT
  5
16D
  8
DEFPOINTS
  6
CONTINUOUS
 62
     7
 10
-179.9999999999996
 20
255.8119141242596
 30
0.0
  0
LINE
  5
16E
  8
SIZE
  6
CONTINUOUS
 62
    30
 10
-28.51910880878291
 20
-537.64681242061215
 30
0.0
 11
-28.51910880878291
 21
-688.48503895977467
 31
0.0
  0
LINE
  5
16F
  8
SIZE
  6
CONTINUOUS
 62
    30
 10
-428.51910880878268
 20
-591.5000000000008
 30
0.0
 11
-428.51910880878268
 21
-688.48503895977467
 31
0.0
  0
LINE
  5
170
  8
SIZE
  6
CONTINUOUS
 62
    30
 10
-38.519108808782931
 20
-668.48503895977501
 30
0.0
 11
-418.5191088087829
 21
-668.48503895977501
 31
0.0
  0
CIRCLE
  5
171
  8
SIZE
  6
CONTINUOUS
 62
    30
 10
-28.51910880878291
 20
-668.48503895977501
 30
0.0
 40
5.0
  0
LINE
  5
172
  8
SIZE
  6
CONTINUOUS
 62
    30
 10
-33.51910880878291
 20
-668.48503895977501
 30
0.0
 11
-38.51910880878291
 21
-668.48503895977501
 31
0.0
  0
CIRCLE
  5
173
  8
SIZE
  6
CONTINUOUS
 62
    30
 10
-428.51910880878268
 20
-668.48503895977501
 30
0.0
 40
5.0
  0
LINE
  5
174
  8
SIZE
  6
CONTINUOUS
 62
    30
 10
-423.51910880878268
 20
-668.48503895977501
 30
0.0
 11
-418.51910880878262
 21
-668.48503895977501
 31
0.0
  0
TEXT
  5
175
  8
SIZE
  6
CONTINUOUS
 62
    30
 10
-266.70482309449721
 20
-654.72313419787008
 30
0.0
 40
22.0
  1
(400)
 41
0.9
 72
     1
 11
-228.5191088087829
 21
-654.72313419787008
 31
0.0
  0
POINT
  5
176
  8
DEFPOINTS
  6
CONTINUOUS
 62
     7
 10
-28.51910880878291
 20
-522.64681242061215
 30
0.0
  0
POINT
  5
177
  8
DEFPOINTS
  6
CONTINUOUS
 62
     7
 10
-428.51910880878268
 20
-576.50000000000068
 30
0.0
  0
POINT
  5
178
  8
DEFPOINTS
  6
CONTINUOUS
 62
     7
 10
-428.51910880878268
 20
-668.48503895977501
 30
0.0
  0
TEXT
  5
179
  8
ETC
  6
CONTINUOUS
 62
    61
 10
-594.44082462477616
 20
268.32716555747783
 30
0.0
 40
30.0
  1
PAC-CW01_02FD_4
 50
0.0000000000000799
 41
0.8
  0
LINE
  5
17A
  8
NOTE
  6
CONTINUOUS
 62
     4
 10
109.16626959794711
 20
-512.55450141044025
 30
0.0
 11
280.80214019292521
 21
-660.64612824382709
 31
0.0
  0
LINE
  5
17B
  8
NOTE
  6
CONTINUOUS
 62
     4
 10
131.381181353324
 20
-522.49855064779911
 30
0.0
 11
109.16626959794711
 21
-512.55450141044025
 31
0.0
  0
LINE
  5
17C
  8
NOTE
  6
CONTINUOUS
 62
     4
 10
122.257153279213
 20
-533.07315594668535
 30
0.0
 11
109.16626959794711
 21
-512.55450141044025
 31
0.0
  0
TEXT
  5
17D
  8
NOTE
  6
CONTINUOUS
 62
     4
 10
287.88794209184221
 20
-654.02662281295034
 30
0.0
 40
30.0
  1
プルスイッチコード
 50
0.0000000000000799
 41
0.8
  0
LINE
  5
17E
  8
NOTE
  6
CONTINUOUS
 62
     4
 10
65.738533798324454
 20
-303.0
 30
0.0
 11
68.378622207220047
 21
-303.0
 31
0.0
  0
LINE
  5
17F
  8
NOTE
  6
CONTINUOUS
 62
     4
 10
64.156496929468034
 20
-302.0
 30
0.0
 11
69.960659076076467
 21
-302.0
 31
0.0
  0
LINE
  5
180
  8
NOTE
  6
CONTINUOUS
 62
     4
 10
63.438960286719208
 20
-301.0
 30
0.0
 11
70.678195718825279
 21
-301.0
 31
0.0
  0
LINE
  5
181
  8
NOTE
  6
CONTINUOUS
 62
     4
 10
63.086023375747061
 20
-300.0
 30
0.0
 11
71.03113262979744
 21
-300.0
 31
0.0
  0
LINE
  5
182
  8
NOTE
  6
CONTINUOUS
 62
     4
 10
63.001393249888352
 20
-299.0
 30
0.0
 11
71.115762755656164
 21
-299.0
 31
0.0
  0
LINE
  5
183
  8
NOTE
  6
CONTINUOUS
 62
     4
 10
63.167523393367759
 20
-298.0
 30
0.0
 11
70.949632612176728
 21
-298.0
 31
0.0
  0
LINE
  5
184
  8
NOTE
  6
CONTINUOUS
 62
     4
 10
63.620575119163469
 20
-297.0
 30
0.0
 11
70.496580886381025
 21
-297.0
 31
0.0
  0
LINE
  5
185
  8
NOTE
  6
CONTINUOUS
 62
     4
 10
64.509181665982567
 20
-296.0
 30
0.0
 11
69.607974339561935
 21
-296.0
 31
0.0
  0
CIRCLE
  5
186
  8
NOTE
  6
CONTINUOUS
 62
     4
 10
67.058578002772251
 20
-299.16022107283271
 30
0.0
 40
4.060347141712553
  0
TEXT
  5
187
  8
NOTE
  6
CONTINUOUS
 62
     4
 10
202.3852415870893
 20
-393.71963629507331
 30
0.0
 40
30.0
  1
駆動部
 50
0.0000000000000799
 41
0.8
  0
LINE
  5
188
  8
NOTE
  6
CONTINUOUS
 62
     4
 10
67.058578002772251
 20
-299.16022107283271
 30
0.0
 11
194.39908170080909
 21
-395.84525151634318
 31
0.0
  0
LINE
  5
189
  8
NOTE
  6
CONTINUOUS
 62
     4
 10
194.39908170080909
 20
-395.84525151634318
 30
0.0
 11
283.2467215925023
 21
-395.84525151634318
 31
0.0
  0
LINE
  5
18A
  8
NOTE
  6
CONTINUOUS
 62
     4
 10
280.80214019292521
 20
-660.64612824382709
 30
0.0
 11
536.09098049796739
 21
-660.64612824382709
 31
0.0
  0
LINE
  5
18B
  8
NOTE
  6
CONTINUOUS
 62
     4
 10
-159.9999999999998
 20
-0.0000000000018048
 30
0.0
 11
-229.03676547567079
 21
117.0683906578311
 31
0.0
  0
LINE
  5
18C
  8
NOTE
  6
CONTINUOUS
 62
     4
 10
-177.85886193395169
 20
16.536247154606439
 30
0.0
 11
-159.9999999999998
 21
-0.0000000000018048
 31
0.0
  0
LINE
  5
18D
  8
NOTE
  6
CONTINUOUS
 62
     4
 10
-165.82821744047581
 20
23.630876010014742
 30
0.0
 11
-159.9999999999998
 21
-0.0000000000018048
 31
0.0
  0
TEXT
  5
18E
  8
NOTE
  6
CONTINUOUS
 62
     4
 10
-445.14416995652192
 20
123.687896088708
 30
0.0
 40
30.0
  1
AH 4-%%C12
 50
0.0000000000000799
 41
0.8
  0
LINE
  5
18F
  8
NOTE
  6
CONTINUOUS
 62
     4
 10
-452.28556951655662
 20
117.0683906578311
 30
0.0
 11
-229.03676547567079
 21
117.0683906578311
 31
0.0
  0
LINE
  5
190
  8
SIZE
  6
CONTINUOUS
 62
    30
 10
-443.5191088087829
 20
-451.49999999999972
 30
0.0
 11
-541.54590139172626
 21
-451.49999999999972
 31
0.0
  0
LINE
  5
191
  8
SIZE
  6
CONTINUOUS
 62
    30
 10
-443.5191088087829
 20
-576.50000000000068
 30
0.0
 11
-541.54590139172626
 21
-576.50000000000068
 31
0.0
  0
LINE
  5
192
  8
SIZE
  6
CONTINUOUS
 62
    30
 10
-521.54590139172615
 20
-461.5
 30
0.0
 11
-521.54590139172615
 21
-566.5000000000008
 31
0.0
  0
LINE
  5
193
  8
SIZE
  6
CONTINUOUS
 62
    30
 10
-521.54590139172615
 20
-576.50000000000068
 30
0.0
 11
-521.54590139172615
 21
-678.09884576026775
 31
0.0
  0
CIRCLE
  5
194
  8
SIZE
  6
CONTINUOUS
 62
    30
 10
-521.54590139172615
 20
-451.49999999999972
 30
0.0
 40
5.0
  0
LINE
  5
195
  8
SIZE
  6
CONTINUOUS
 62
    30
 10
-521.54590139172615
 20
-456.49999999999972
 30
0.0
 11
-521.54590139172615
 21
-461.49999999999972
 31
0.0
  0
CIRCLE
  5
196
  8
SIZE
  6
CONTINUOUS
 62
    30
 10
-521.54590139172615
 20
-576.50000000000068
 30
0.0
 40
5.0
  0
LINE
  5
197
  8
SIZE
  6
CONTINUOUS
 62
    30
 10
-521.54590139172615
 20
-571.50000000000068
 30
0.0
 11
-521.54590139172615
 21
-566.5000000000008
 31
0.0
  0
TEXT
  5
198
  8
SIZE
  6
CONTINUOUS
 62
    30
 10
-529.54590139172615
 20
-670.09884576026775
 30
0.0
 40
22.0
  1
%%C125
 50
90.0
 41
0.9
 72
     1
 11
-529.54590139172615
 21
-637.57027433169628
 31
0.0
  0
POINT
  5
199
  8
DEFPOINTS
  6
CONTINUOUS
 62
     7
 10
-428.51910880878268
 20
-451.49999999999972
 30
0.0
  0
POINT
  5
19A
  8
DEFPOINTS
  6
CONTINUOUS
 62
     7
 10
-428.51910880878268
 20
-576.50000000000068
 30
0.0
  0
POINT
  5
19B
  8
DEFPOINTS
  6
CONTINUOUS
 62
     7
 10
-521.54590139172615
 20
-576.50000000000068
 30
0.0
  0
TEXT
  5
19C
  8
NOTE
  6
CONTINUOUS
 62
     4
 10
-463.74930831292357
 20
164.34511319505941
 30
0.0
 40
30.0
  1
（吊ボルト固定時）
 41
0.8
  0
LINE
  5
19D
  8
NOTE
  6
CONTINUOUS
 62
     4
 10
-129.6768746627346
 20
-0.0000000000014992
 30
0.0
 11
-110.3231253372648
 21
-0.0000000000014992
 31
0.0
  0
LINE
  5
19E
  8
NOTE
  6
CONTINUOUS
 62
     4
 10
-119.9999999999997
 20
9.6768746627334163
 30
0.0
 11
-119.9999999999997
 21
-9.6768746627364131
 31
0.0
  0
LINE
  5
19F
  8
NOTE
  6
CONTINUOUS
 62
     4
 10
-129.6768746627346
 20
-0.0000000000014992
 30
0.0
 11
-110.3231253372648
 21
-0.0000000000014992
 31
0.0
  0
LINE
  5
1A0
  8
NOTE
  6
CONTINUOUS
 62
     4
 10
-119.9999999999997
 20
9.6768746627334163
 30
0.0
 11
-119.9999999999997
 21
-9.6768746627364131
 31
0.0
  0
LINE
  5
1A1
  8
NOTE
  6
CONTINUOUS
 62
     4
 10
-119.9999999999997
 20
6.3625409205554657
 30
0.0
 11
-119.9999999999997
 21
-12.99120840491436
 31
0.0
  0
CIRCLE
  5
1A2
  8
FIX
  6
CONTINUOUS
 62
    11
 10
-119.9999999999997
 20
-0.0000000000014992
 30
0.0
 40
6.1389882180803781
  0
LINE
  5
1A3
  8
NOTE
  6
CONTINUOUS
 62
     4
 10
110.323125337265
 20
-0.0000000000021103
 30
0.0
 11
129.676874662735
 21
-0.0000000000021103
 31
0.0
  0
LINE
  5
1A4
  8
NOTE
  6
CONTINUOUS
 62
     4
 10
120.0
 20
9.6768746627328088
 30
0.0
 11
120.0
 21
-9.6768746627370241
 31
0.0
  0
LINE
  5
1A5
  8
NOTE
  6
CONTINUOUS
 62
     4
 10
110.323125337265
 20
-0.0000000000021103
 30
0.0
 11
129.676874662735
 21
-0.0000000000021103
 31
0.0
  0
LINE
  5
1A6
  8
NOTE
  6
CONTINUOUS
 62
     4
 10
120.0
 20
9.6768746627328088
 30
0.0
 11
120.0
 21
-9.6768746627370241
 31
0.0
  0
LINE
  5
1A7
  8
NOTE
  6
CONTINUOUS
 62
     4
 10
120.0
 20
6.3625409205548564
 30
0.0
 11
120.0
 21
-12.99120840491498
 31
0.0
  0
CIRCLE
  5
1A8
  8
FIX
  6
CONTINUOUS
 62
    11
 10
120.0
 20
-0.0000000000021103
 30
0.0
 40
6.1389882180803781
  0
LINE
  5
1A9
  8
NOTE
  6
CONTINUOUS
 62
     4
 10
120.0
 20
-0.0000000000018048
 30
0.0
 11
207.91415959691611
 21
103.6445059852437
 31
0.0
  0
LINE
  5
1AA
  8
NOTE
  6
CONTINUOUS
 62
     4
 10
140.40759702428929
 20
13.263348115329279
 30
0.0
 11
120.0
 21
-0.0000000000018048
 31
0.0
  0
LINE
  5
1AB
  8
NOTE
  6
CONTINUOUS
 62
     4
 10
129.75647080478819
 20
22.297930329281101
 30
0.0
 11
120.0
 21
-0.0000000000018048
 31
0.0
  0
TEXT
  5
1AC
  8
NOTE
  6
CONTINUOUS
 62
     4
 10
214.055068301456
 20
62.053449669929712
 30
0.0
 40
30.0
  1
チャンバー取付穴
 41
0.8
  0
LINE
  5
1AD
  8
NOTE
  6
CONTINUOUS
 62
     4
 10
441.06722333260888
 20
103.6445059852437
 30
0.0
 11
207.91415959691611
 21
103.6445059852437
 31
0.0
  0
TEXT
  5
1AE
  8
NOTE
  6
CONTINUOUS
 62
     4
 10
215.56442122062501
 20
111.050601545094
 30
0.0
 40
30.0
  1
AH　4-M10
 41
0.8
  0
TEXT
  5
1AF
  8
NOTE
  6
CONTINUOUS
 62
     4
 10
195.71383218636589
 20
147.63859310626441
 30
0.0
 40
30.0
  1
（アングル固定時）
 41
0.8
  0
ENDSEC
  0
EOF
