  0
SECTION
  2
HEADER
  9
$ACADVER
  1
AC1009
  9
$INSBASE
 10
0.0
 20
0.0
 30
0.0
  9
$EXTMIN
 10
-397.05250077118831
 20
-539.77328085315855
 30
0.0
  9
$EXTMAX
 10
583.32975810943981
 20
442.02288558521178
 30
0.0
  9
$LIMMIN
 10
-4267.1522210604826
 20
-2696.0832101984129
  9
$LIMMAX
 10
7190.7174225864646
 20
5141.155363923066
  9
$ORTHOMODE
 70
     0
  9
$REGENMODE
 70
     1
  9
$FILLMODE
 70
     1
  9
$QTEXTMODE
 70
     0
  9
$MIRRTEXT
 70
     0
  9
$DRAGMODE
 70
     2
  9
$LTSCALE
 40
20.0
  9
$OSMODE
 70
    37
  9
$ATTMODE
 70
     1
  9
$TEXTSIZE
 40
64.0
  9
$TRACEWID
 40
0.05
  9
$TEXTSTYLE
  7
STANDARD
  9
$CLAYER
  8
FIX
  9
$CELTYPE
  6
CONTINUOUS
  9
$CECOLOR
 62
     7
  9
$DIMSCALE
 40
1.0
  9
$DIMASZ
 40
10.0
  9
$DIMEXO
 40
15.0
  9
$DIMDLI
 40
300.0
  9
$DIMRND
 40
0.0
  9
$DIMDLE
 40
0.0
  9
$DIMEXE
 40
20.0
  9
$DIMTP
 40
0.0
  9
$DIMTM
 40
0.0
  9
$DIMTXT
 40
22.0
  9
$DIMCEN
 40
0.0
  9
$DIMTSZ
 40
0.0
  9
$DIMTOL
 70
     0
  9
$DIMLIM
 70
     0
  9
$DIMTIH
 70
     0
  9
$DIMTOH
 70
     0
  9
$DIMSE1
 70
     0
  9
$DIMSE2
 70
     0
  9
$DIMTAD
 70
     1
  9
$DIMZIN
 70
     8
  9
$DIMBLK
  1
DOTBLANK
  9
$DIMASO
 70
     1
  9
$DIMSHO
 70
     0
  9
$DIMPOST
  1

  9
$DIMAPOST
  1

  9
$DIMALT
 70
     0
  9
$DIMALTD
 70
     2
  9
$DIMALTF
 40
25.399999999999999
  9
$DIMLFAC
 40
1.0
  9
$DIMTOFL
 70
     1
  9
$DIMTVP
 40
0.0
  9
$DIMTIX
 70
     1
  9
$DIMSOXD
 70
     0
  9
$DIMSAH
 70
     0
  9
$DIMBLK1
  1

  9
$DIMBLK2
  1

  9
$DIMSTYLE
  2
STANDARD
  9
$DIMCLRD
 70
     0
  9
$DIMCLRE
 70
     0
  9
$DIMCLRT
 70
     0
  9
$DIMTFAC
 40
1.0
  9
$DIMGAP
 40
0.09
  9
$LUNITS
 70
     2
  9
$LUPREC
 70
     4
  9
$SKETCHINC
 40
0.1
  9
$FILLETRAD
 40
70.0
  9
$AUNITS
 70
     1
  9
$AUPREC
 70
     3
  9
$MENU
  1
ACAD
  9
$ELEVATION
 40
0.0
  9
$PELEVATION
 40
0.0
  9
$THICKNESS
 40
0.0
  9
$LIMCHECK
 70
     0
  9
$BLIPMODE
 70
     0
  9
$CHAMFERA
 40
0.0
  9
$CHAMFERB
 40
0.0
  9
$SKPOLY
 70
     0
  9
$TDCREATE
 40
2450330.4399309959
  9
$TDUPDATE
 40
2454797.7557139471
  9
$TDINDWG
 40
3.9214135995000001
  9
$TDUSRTIMER
 40
3.9214123380000001
  9
$USRTIMER
 70
     1
  9
$ANGBASE
 50
0.0
  9
$ANGDIR
 70
     0
  9
$PDMODE
 70
     3
  9
$PDSIZE
 40
-2.0
  9
$PLINEWID
 40
0.0
  9
$COORDS
 70
     1
  9
$SPLFRAME
 70
     0
  9
$SPLINETYPE
 70
     6
  9
$SPLINESEGS
 70
     8
  9
$ATTDIA
 70
     0
  9
$ATTREQ
 70
     1
  9
$HANDLING
 70
     1
  9
$HANDSEED
  5
1D3
  9
$SURFTAB1
 70
     6
  9
$SURFTAB2
 70
     6
  9
$SURFTYPE
 70
     6
  9
$SURFU
 70
     6
  9
$SURFV
 70
     6
  9
$UCSNAME
  2

  9
$UCSORG
 10
0.0
 20
0.0
 30
0.0
  9
$UCSXDIR
 10
1.0
 20
0.0
 30
0.0
  9
$UCSYDIR
 10
0.0
 20
1.0
 30
0.0
  9
$PUCSNAME
  2

  9
$PUCSORG
 10
0.0
 20
0.0
 30
0.0
  9
$PUCSXDIR
 10
1.0
 20
0.0
 30
0.0
  9
$PUCSYDIR
 10
0.0
 20
1.0
 30
0.0
  9
$USERI1
 70
     0
  9
$USERI2
 70
     0
  9
$USERI3
 70
     0
  9
$USERI4
 70
     0
  9
$USERI5
 70
     0
  9
$USERR1
 40
20.0
  9
$USERR2
 40
0.0
  9
$USERR3
 40
0.0
  9
$USERR4
 40
0.0
  9
$USERR5
 40
0.0
  9
$WORLDVIEW
 70
     1
  9
$SHADEDGE
 70
     3
  9
$SHADEDIF
 70
    70
  9
$TILEMODE
 70
     1
  9
$MAXACTVP
 70
    64
  9
$PLIMCHECK
 70
     0
  9
$PEXTMIN
 10
1.0000000000000000E+020
 20
1.0000000000000000E+020
 30
1.0000000000000000E+020
  9
$PEXTMAX
 10
-1.0000000000000000E+020
 20
-1.0000000000000000E+020
 30
-1.0000000000000000E+020
  9
$PLIMMIN
 10
0.0
 20
0.0
  9
$PLIMMAX
 10
12.0
 20
9.0
  9
$UNITMODE
 70
     0
  9
$VISRETAIN
 70
     1
  9
$PLINEGEN
 70
     0
  9
$PSLTSCALE
 70
     1
  0
ENDSEC
  0
SECTION
  2
TABLES
  0
TABLE
  2
VPORT
 70
     1
  0
VPORT
  2
*ACTIVE
 70
     0
 10
0.0
 20
0.0
 11
1.0
 21
1.0
 12
1461.782600762991
 22
1222.5360768623259
 13
0.0
 23
0.0
 14
50.0
 24
50.0
 15
100.0
 25
100.0
 16
0.0
 26
0.0
 36
1.0
 17
0.0
 27
0.0
 37
0.0
 40
7898.0709563268201
 41
1.568652849740932
 42
50.0
 43
0.0
 44
0.0
 50
0.0
 51
0.0
 71
     0
 72
  1000
 73
     1
 74
     0
 75
     0
 76
     0
 77
     0
 78
     0
  0
ENDTAB
  0
TABLE
  2
LTYPE
 70
     3
  0
LTYPE
  2
CONTINUOUS
 70
     0
  3
実線
 72
    65
 73
     0
 40
0.0
  0
LTYPE
  2
DASHDOT
 70
     0
  3
____ _ ____ _ ____ _ ____ _ ____ _ ____ _ ____
 72
    65
 73
     4
 40
5.5
 49
4.0
 49
-0.6
 49
0.3
 49
-0.6
  0
ENDTAB
  0
TABLE
  2
LAYER
 70
    12
  0
LAYER
  2
0
 70
     0
 62
     7
  6
CONTINUOUS
  0
LAYER
  2
FIX
 70
     0
 62
    11
  6
CONTINUOUS
  0
LAYER
  2
OUTLINE
 70
     0
 62
     3
  6
CONTINUOUS
  0
LAYER
  2
DETAIL
 70
     0
 62
     5
  6
CONTINUOUS
  0
LAYER
  2
BASIS
 70
     0
 62
     6
  6
DASHDOT
  0
LAYER
  2
SIZE
 70
     0
 62
    30
  6
CONTINUOUS
  0
LAYER
  2
NOTE
 70
     0
 62
     4
  6
CONTINUOUS
  0
LAYER
  2
ARRANGE
 70
     0
 62
     1
  6
CONTINUOUS
  0
LAYER
  2
SERVICESPACE
 70
     0
 62
     2
  6
DASHDOT
  0
LAYER
  2
ETC
 70
     0
 62
    61
  6
CONTINUOUS
  0
LAYER
  2
SYMBOLLINE
 70
     0
 62
    15
  6
CONTINUOUS
  0
LAYER
  2
DEFPOINTS
 70
     0
 62
     7
  6
CONTINUOUS
  0
ENDTAB
  0
TABLE
  2
STYLE
 70
     2
  0
STYLE
  2
STANDARD
 70
     0
 40
0.0
 41
0.9
 50
0.0
 71
     0
 42
64.0
  3
SIMPLEX
  4
BIGFONT
  0
STYLE
  2
ANNOTATIVE
 70
     0
 40
0.0
 41
1.0
 50
0.0
 71
     0
 42
0.2
  3
txt
  4

  0
ENDTAB
  0
TABLE
  2
VIEW
 70
     5
  0
VIEW
  2
ALL
 70
     0
 40
9000.0
 10
241.50664699999999
 20
0.0
 41
12483.01
 11
0.0
 21
0.0
 31
1.0
 12
0.0
 22
0.0
 32
0.0
 42
50.0
 43
0.0
 44
0.0
 50
0.0
 71
     0
  0
ENDTAB
  0
TABLE
  2
UCS
 70
     0
  0
ENDTAB
  0
TABLE
  2
APPID
 70
     3
  0
APPID
  2
ACAD
 70
     0
  0
APPID
  2
ACADANNOTATIVE
 70
     0
  0
APPID
  2
ACAD_MLEADERVER
 70
     0
  0
ENDTAB
  0
TABLE
  2
DIMSTYLE
 70
     3
  0
DIMSTYLE
  2
STANDARD
 70
     0
  3

  4

  5

  6

  7

 40
1.0
 41
0.18
 42
0.0625
 43
0.38
 44
0.18
 45
0.0
 46
0.0
 47
0.0
 48
0.0
140
0.18
141
0.09
142
0.0
143
25.399999999999999
144
1.0
145
0.0
146
1.0
147
0.09
 71
     0
 72
     0
 73
     1
 74
     1
 75
     0
 76
     0
 77
     0
 78
     0
170
     0
171
     2
172
     0
173
     0
174
     0
175
     0
176
     0
177
     0
178
     0
  0
DIMSTYLE
  2
ANNOTATIVE
 70
     0
  3

  4

  5

  6

  7

 40
1.0
 41
0.18
 42
0.0625
 43
0.38
 44
0.18
 45
0.0
 46
0.0
 47
0.0
 48
0.0
140
0.18
141
0.09
142
0.0
143
25.399999999999999
144
1.0
145
0.0
146
1.0
147
0.09
 71
     0
 72
     0
 73
     1
 74
     1
 75
     0
 76
     0
 77
     0
 78
     0
170
     0
171
     2
172
     0
173
     0
174
     0
175
     0
176
     0
177
     0
178
     0
  0
ENDTAB
  0
ENDSEC
  0
SECTION
  2
BLOCKS
  0
BLOCK
  8
0
  2
$MODEL_SPACE
 70
     0
 10
0.0
 20
0.0
 30
0.0
  3
$MODEL_SPACE
  1

  0
ENDBLK
  5
76
  8
0
  0
BLOCK
 67
     1
  8
0
  2
$PAPER_SPACE
 70
     0
 10
0.0
 20
0.0
 30
0.0
  3
$PAPER_SPACE
  1

  0
ENDBLK
  5
72
 67
     1
  8
0
  0
BLOCK
  8
0
  2
_DOTBLANK
 70
     0
 10
0.0
 20
0.0
 30
0.0
  3
_DOTBLANK
  1

  0
CIRCLE
  5
8A
  8
0
  6
CONTINUOUS
 62
     7
 10
0.0
 20
0.0
 30
0.0
 40
0.5
  0
LINE
  5
8B
  8
0
  6
CONTINUOUS
 62
     7
 10
-0.5
 20
0.0
 30
0.0
 11
-1.0
 21
0.0
 31
0.0
  0
ENDBLK
  5
8C
  8
0
  0
ENDSEC
  0
SECTION
  2
ENTITIES
  0
LINE
  5
8D
  8
BASIS
  6
DASHDOT
 62
     6
 10
0.0
 20
-449.26433022876768
 30
0.0
 11
0.0
 21
206.1209568565564
 31
0.0
  0
LINE
  5
8E
  8
DETAIL
  6
CONTINUOUS
 62
     5
 10
139.9310602557525
 20
-90.860708828803581
 30
0.0
 11
110.0172388933569
 21
-90.860708828803581
 31
0.0
  0
LINE
  5
8F
  8
DETAIL
  6
CONTINUOUS
 62
     5
 10
139.9310602557525
 20
90.860708828798124
 30
0.0
 11
110.0172388945783
 21
90.860708828798124
 31
0.0
  0
LINE
  5
90
  8
DETAIL
  6
CONTINUOUS
 62
     5
 10
140.0
 20
-180.0
 30
0.0
 11
56.01970037396859
 21
-180.0
 31
0.0
  0
LINE
  5
91
  8
DETAIL
  6
CONTINUOUS
 62
     5
 10
-140.0
 20
-90.860708828799034
 30
0.0
 11
-140.0
 21
-180.0
 31
0.0
  0
LINE
  5
92
  8
DETAIL
  6
CONTINUOUS
 62
     5
 10
140.0
 20
-90.860708828803581
 30
0.0
 11
140.0
 21
-180.0
 31
0.0
  0
LINE
  5
93
  8
DETAIL
  6
CONTINUOUS
 62
     5
 10
140.0
 20
180.0
 30
0.0
 11
-140.0
 21
180.0
 31
0.0
  0
LINE
  5
94
  8
DETAIL
  6
CONTINUOUS
 62
     5
 10
-140.0
 20
90.860708828799915
 30
0.0
 11
-140.0
 21
180.0
 31
0.0
  0
LINE
  5
95
  8
DETAIL
  6
CONTINUOUS
 62
     5
 10
140.0
 20
90.860708828798124
 30
0.0
 11
140.0
 21
180.0
 31
0.0
  0
LINE
  5
96
  8
DETAIL
  6
CONTINUOUS
 62
     5
 10
-110.0
 20
0.0
 30
0.0
 11
-110.0
 21
0.0000000012323653
 31
0.0
  0
LINE
  5
97
  8
NOTE
  6
CONTINUOUS
 62
     4
 10
-120.0
 20
-150.323125337265
 30
0.0
 11
-120.0
 21
-169.6768746627348
 31
0.0
  0
LINE
  5
98
  8
NOTE
  6
CONTINUOUS
 62
     4
 10
-110.323125337265
 20
-160.0
 30
0.0
 11
-129.6768746627348
 21
-160.0
 31
0.0
  0
LINE
  5
99
  8
NOTE
  6
CONTINUOUS
 62
     4
 10
-120.0
 20
169.6768746627348
 30
0.0
 11
-120.0
 21
150.323125337265
 31
0.0
  0
LINE
  5
9A
  8
NOTE
  6
CONTINUOUS
 62
     4
 10
-110.323125337265
 20
160.0
 30
0.0
 11
-129.6768746627348
 21
160.0
 31
0.0
  0
LINE
  5
9B
  8
NOTE
  6
CONTINUOUS
 62
     4
 10
120.0
 20
169.6768746627348
 30
0.0
 11
120.0
 21
150.323125337265
 31
0.0
  0
LINE
  5
9C
  8
NOTE
  6
CONTINUOUS
 62
     4
 10
129.6768746627348
 20
160.0
 30
0.0
 11
110.323125337265
 21
160.0
 31
0.0
  0
LINE
  5
9D
  8
NOTE
  6
CONTINUOUS
 62
     4
 10
120.0
 20
-150.323125337265
 30
0.0
 11
120.0
 21
-169.6768746627348
 31
0.0
  0
LINE
  5
9E
  8
NOTE
  6
CONTINUOUS
 62
     4
 10
129.6768746627348
 20
-160.0
 30
0.0
 11
110.323125337265
 21
-160.0
 31
0.0
  0
LINE
  5
9F
  8
DETAIL
  6
CONTINUOUS
 62
     5
 10
109.96552221340779
 20
-0.0417242145704222
 30
0.0
 11
109.96552221340779
 21
-0.0417242145704222
 31
0.0
  0
LINE
  5
A0
  8
DETAIL
  6
CONTINUOUS
 62
     5
 10
91.638911599360625
 20
-120.0000000000009
 30
0.0
 11
56.01970037396859
 21
-120.0000000000009
 31
0.0
  0
LINE
  5
A1
  8
DETAIL
  6
CONTINUOUS
 62
     5
 10
110.0172388932959
 20
-99.971004259198736
 30
0.0
 11
91.638911599360625
 21
-120.0000000000009
 31
0.0
  0
LINE
  5
A2
  8
DETAIL
  6
CONTINUOUS
 62
     5
 10
110.0172388932959
 20
-99.971004259198736
 30
0.0
 11
110.0172388946402
 21
99.971004258705776
 31
0.0
  0
LINE
  5
A3
  8
DETAIL
  6
CONTINUOUS
 62
     5
 10
91.638911600974083
 20
119.9999999997535
 30
0.0
 11
0.0000000016134436
 21
120.00000000098591
 31
0.0
  0
LINE
  5
A4
  8
DETAIL
  6
CONTINUOUS
 62
     5
 10
110.0172388946402
 20
99.971004258705776
 30
0.0
 11
91.638911600974083
 21
119.9999999997535
 31
0.0
  0
LINE
  5
A5
  8
DETAIL
  6
CONTINUOUS
 62
     5
 10
-91.638911599360625
 20
-120.0000000000009
 30
0.0
 11
-56.189930941133738
 21
-120.0000000000009
 31
0.0
  0
LINE
  5
A6
  8
DETAIL
  6
CONTINUOUS
 62
     5
 10
-110.0172388932959
 20
-99.971004259198736
 30
0.0
 11
-91.638911599360625
 21
-120.0000000000009
 31
0.0
  0
LINE
  5
A7
  8
DETAIL
  6
CONTINUOUS
 62
     5
 10
-110.0172388932959
 20
-99.971004259198736
 30
0.0
 11
-110.0172388946402
 21
99.971004258705776
 31
0.0
  0
LINE
  5
A8
  8
DETAIL
  6
CONTINUOUS
 62
     5
 10
-91.638911600974083
 20
119.9999999997535
 30
0.0
 11
-0.0000000016134436
 21
120.00000000098591
 31
0.0
  0
LINE
  5
A9
  8
DETAIL
  6
CONTINUOUS
 62
     5
 10
-110.0172388946402
 20
99.971004258705776
 30
0.0
 11
-91.638911600974083
 21
119.9999999997535
 31
0.0
  0
LINE
  5
AA
  8
DETAIL
  6
CONTINUOUS
 62
     5
 10
-110.0172388933579
 20
-90.860708828799915
 30
0.0
 11
-140.0
 21
-90.860708828799034
 31
0.0
  0
LINE
  5
AB
  8
DETAIL
  6
CONTINUOUS
 62
     5
 10
-110.0172388945783
 20
90.860708828799915
 30
0.0
 11
-140.0
 21
90.860708828799915
 31
0.0
  0
LINE
  5
AC
  8
DETAIL
  6
CONTINUOUS
 62
     5
 10
-62.5
 20
-428.51910880878398
 30
0.0
 11
-62.5
 21
-379.88968400658808
 31
0.0
  0
LINE
  5
AD
  8
DETAIL
  6
CONTINUOUS
 62
     5
 10
62.5
 20
-428.51910880878307
 30
0.0
 11
62.5
 21
-379.85507213529758
 31
0.0
  0
LINE
  5
AE
  8
DETAIL
  6
CONTINUOUS
 62
     5
 10
56.01970037396859
 20
-28.51910880878404
 30
0.0
 11
56.01970037396859
 21
-379.85507213529951
 31
0.0
  0
LINE
  5
AF
  8
DETAIL
  6
CONTINUOUS
 62
     5
 10
62.5
 20
-379.85507213529843
 30
0.0
 11
0.0
 21
-379.85507213529758
 31
0.0
  0
LINE
  5
B0
  8
DETAIL
  6
CONTINUOUS
 62
     5
 10
-56.24060306556202
 20
-28.51910880878404
 30
0.0
 11
-56.045994777228778
 21
-379.85507213529758
 31
0.0
  0
LINE
  5
B1
  8
DETAIL
  6
CONTINUOUS
 62
     5
 10
-62.5
 20
-379.88968400658717
 30
0.0
 11
-0.0269554626247555
 21
-379.85507960073568
 31
0.0
  0
LINE
  5
B2
  8
NOTE
  6
CONTINUOUS
 62
     4
 10
30.0
 20
129.67687466331779
 30
0.0
 11
30.0
 21
110.323125337848
 31
0.0
  0
LINE
  5
B3
  8
NOTE
  6
CONTINUOUS
 62
     4
 10
39.676874662734917
 20
120.0000000005829
 30
0.0
 11
20.323125337265068
 21
120.0000000005829
 31
0.0
  0
LINE
  5
B4
  8
NOTE
  6
CONTINUOUS
 62
     4
 10
-30.0
 20
129.67687466331779
 30
0.0
 11
-30.0
 21
110.323125337848
 31
0.0
  0
LINE
  5
B5
  8
NOTE
  6
CONTINUOUS
 62
     4
 10
-20.323125337265068
 20
120.0000000005829
 30
0.0
 11
-39.676874662734917
 21
120.0000000005829
 31
0.0
  0
LINE
  5
B6
  8
DETAIL
  6
CONTINUOUS
 62
     5
 10
62.5
 20
-428.51910880878398
 30
0.0
 11
-62.5
 21
-428.51910880878398
 31
0.0
  0
LINE
  5
B7
  8
DETAIL
  6
CONTINUOUS
 62
     5
 10
82.0
 20
21.26148579057099
 30
0.0
 11
82.0
 21
99.023472384515131
 31
0.0
  0
LINE
  5
B8
  8
DETAIL
  6
CONTINUOUS
 62
     5
 10
-82.0
 20
21.26148579057099
 30
0.0
 11
-82.0
 21
99.023472384515131
 31
0.0
  0
LINE
  5
B9
  8
DETAIL
  6
CONTINUOUS
 62
     5
 10
-82.0
 20
21.26148579057099
 30
0.0
 11
-26.042792802337321
 21
21.26148579057099
 31
0.0
  0
LINE
  5
BA
  8
DETAIL
  6
CONTINUOUS
 62
     5
 10
-82.0
 20
99.023472384515131
 30
0.0
 11
82.0
 21
99.023472384515131
 31
0.0
  0
ARC
  5
BB
  8
DETAIL
  6
CONTINUOUS
 62
     5
 10
-0.1104513457967187
 20
-28.51910880878404
 30
0.0
 40
56.130151719765301
 50
0.0
 51
180.0
  0
LINE
  5
BC
  8
DETAIL
  6
CONTINUOUS
 62
     5
 10
25.82189011074388
 20
21.26148579057099
 30
0.0
 11
82.0
 21
21.26148579057099
 31
0.0
  0
LINE
  5
BD
  8
DETAIL
  6
CONTINUOUS
 62
     5
 10
-56.156696377869586
 20
-180.0
 30
0.0
 11
-140.0
 21
-180.0
 31
0.0
  0
ARC
  5
BE
  8
DETAIL
  6
CONTINUOUS
 62
     5
 10
5.1088562079676194
 20
69.0852393185951
 30
0.0
 40
7.8627871802045748
 50
270.0
 51
90.0
  0
ARC
  5
BF
  8
DETAIL
  6
CONTINUOUS
 62
     5
 10
-5.1088562079676194
 20
69.0852393185951
 30
0.0
 40
7.8627871802045748
 50
90.0
 51
270.0
  0
LINE
  5
C0
  8
DETAIL
  6
CONTINUOUS
 62
     5
 10
5.1088562079676194
 20
76.948026498800559
 30
0.0
 11
-5.1088562079676194
 21
76.948026498800559
 31
0.0
  0
LINE
  5
C1
  8
DETAIL
  6
CONTINUOUS
 62
     5
 10
5.1088562079676194
 20
61.222452138391418
 30
0.0
 11
-5.1088562079676194
 21
61.222452138391418
 31
0.0
  0
LINE
  5
C2
  8
BASIS
  6
DASHDOT
 62
     6
 10
186.97563357499169
 20
0.0
 30
0.0
 11
-169.0518452385476
 21
0.0
 31
0.0
  0
CIRCLE
  5
C3
  8
FIX
  6
CONTINUOUS
 62
    11
 10
120.0
 20
-160.0
 30
0.0
 40
9.6768746627349156
  0
CIRCLE
  5
C4
  8
FIX
  6
CONTINUOUS
 62
    11
 10
-120.0
 20
-160.0
 30
0.0
 40
9.6768746627349156
  0
CIRCLE
  5
C5
  8
FIX
  6
CONTINUOUS
 62
    11
 10
-120.0
 20
160.0
 30
0.0
 40
9.6768746627349156
  0
CIRCLE
  5
C6
  8
FIX
  6
CONTINUOUS
 62
    11
 10
120.12981257781939
 20
160.0
 30
0.0
 40
9.6768746627349156
  0
LINE
  5
C7
  8
DETAIL
  6
CONTINUOUS
 62
     5
 10
42.5
 20
120.0000000004147
 30
0.0
 11
42.5
 21
99.023472384515131
 31
0.0
  0
LINE
  5
C8
  8
DETAIL
  6
CONTINUOUS
 62
     5
 10
-42.499999996773113
 20
120.0000000004147
 30
0.0
 11
-42.499999996773113
 21
99.023472384515131
 31
0.0
  0
LINE
  5
C9
  8
NOTE
  6
CONTINUOUS
 62
     4
 10
0.0
 20
-391.45931183899933
 30
0.0
 11
0.0
 21
-465.57890577856853
 31
0.0
  0
LINE
  5
CA
  8
NOTE
  6
CONTINUOUS
 62
     4
 10
37.059796969784649
 20
-428.51910880878398
 30
0.0
 11
-37.059796969784649
 21
-428.51910880878398
 31
0.0
  0
LINE
  5
CB
  8
NOTE
  6
CONTINUOUS
 62
     4
 10
0.0
 20
8.5406881610006167
 30
0.0
 11
0.0
 21
-65.578905778568711
 31
0.0
  0
LINE
  5
CC
  8
NOTE
  6
CONTINUOUS
 62
     4
 10
37.059796969784649
 20
-28.51910880878404
 30
0.0
 11
-37.059796969784649
 21
-28.51910880878404
 31
0.0
  0
CIRCLE
  5
CD
  8
ARRANGE
  6
CONTINUOUS
 62
     1
 10
-0.0000000000009095
 20
0.0000000000009095
 30
0.0
 40
23.800000000000001
  0
LINE
  5
CE
  8
ARRANGE
  6
CONTINUOUS
 62
     1
 10
-23.572640099554508
 20
-23.817778614910821
 30
0.0
 11
23.572640099554508
 21
23.817778614910821
 31
0.0
  0
LINE
  5
CF
  8
ARRANGE
  6
CONTINUOUS
 62
     1
 10
23.607979123840781
 20
-23.782751335796089
 30
0.0
 11
-23.607979123839861
 21
23.782751335797911
 31
0.0
  0
LINE
  5
D0
  8
OUTLINE
  6
CONTINUOUS
 62
     3
 10
-110.0
 20
-90.860708828799915
 30
0.0
 11
-110.0
 21
90.860708828799915
 31
0.0
  0
LINE
  5
D1
  8
OUTLINE
  6
CONTINUOUS
 62
     3
 10
-62.5
 20
-428.51910880878398
 30
0.0
 11
-62.5
 21
-379.88968400658808
 31
0.0
  0
LINE
  5
D2
  8
OUTLINE
  6
CONTINUOUS
 62
     3
 10
62.5
 20
-428.51910880878307
 30
0.0
 11
62.499999999999091
 21
-379.85507213529758
 31
0.0
  0
LINE
  5
D3
  8
OUTLINE
  6
CONTINUOUS
 62
     3
 10
110.0
 20
-90.860708828803581
 30
0.0
 11
110.0
 21
90.860708828798124
 31
0.0
  0
LINE
  5
D4
  8
OUTLINE
  6
CONTINUOUS
 62
     3
 10
139.9310602557525
 20
-90.860708828803581
 30
0.0
 11
110.0172388933573
 21
-90.860708828803368
 31
0.0
  0
LINE
  5
D5
  8
OUTLINE
  6
CONTINUOUS
 62
     3
 10
139.9310602557525
 20
90.860708828798124
 30
0.0
 11
110.0172388945789
 21
90.860708828798124
 31
0.0
  0
LINE
  5
D6
  8
OUTLINE
  6
CONTINUOUS
 62
     3
 10
140.0
 20
-180.00000000000091
 30
0.0
 11
56.019700373968597
 21
-180.00000000000091
 31
0.0
  0
LINE
  5
D7
  8
OUTLINE
  6
CONTINUOUS
 62
     3
 10
-140.00000000000091
 20
-90.860708828799034
 30
0.0
 11
-140.0
 21
-180.00000000000091
 31
0.0
  0
LINE
  5
D8
  8
OUTLINE
  6
CONTINUOUS
 62
     3
 10
140.0
 20
-90.860708828803581
 30
0.0
 11
140.0
 21
-180.00000000000091
 31
0.0
  0
LINE
  5
D9
  8
OUTLINE
  6
CONTINUOUS
 62
     3
 10
140.0
 20
179.99999999999901
 30
0.0
 11
-140.0
 21
179.99999999999901
 31
0.0
  0
LINE
  5
DA
  8
OUTLINE
  6
CONTINUOUS
 62
     3
 10
-140.0
 20
90.860708828799915
 30
0.0
 11
-140.0
 21
179.99999999999901
 31
0.0
  0
LINE
  5
DB
  8
OUTLINE
  6
CONTINUOUS
 62
     3
 10
140.0
 20
90.860708828798124
 30
0.0
 11
140.0
 21
179.99999999999901
 31
0.0
  0
LINE
  5
DC
  8
OUTLINE
  6
CONTINUOUS
 62
     3
 10
56.01970037396859
 20
-180.00000000000091
 30
0.0
 11
56.01970037396859
 21
-379.85507213529758
 31
0.0
  0
LINE
  5
DD
  8
OUTLINE
  6
CONTINUOUS
 62
     3
 10
62.499999999999091
 20
-379.85507213529843
 30
0.0
 11
0.0
 21
-379.85507213529758
 31
0.0
  0
LINE
  5
DE
  8
OUTLINE
  6
CONTINUOUS
 62
     3
 10
-56.156696377869586
 20
-180.0
 30
0.0
 11
-56.045994777228778
 21
-379.85507213529758
 31
0.0
  0
LINE
  5
DF
  8
OUTLINE
  6
CONTINUOUS
 62
     3
 10
-62.5
 20
-379.88968400658717
 30
0.0
 11
-0.0269554626247555
 21
-379.85507960073568
 31
0.0
  0
LINE
  5
E0
  8
OUTLINE
  6
CONTINUOUS
 62
     3
 10
-62.5
 20
-428.51910880878398
 30
0.0
 11
62.5
 21
-428.51910880878398
 31
0.0
  0
LINE
  5
E1
  8
OUTLINE
  6
CONTINUOUS
 62
     3
 10
91.638911599360625
 20
-120.0000000000009
 30
0.0
 11
56.01970037396859
 21
-120.0
 31
0.0
  0
LINE
  5
E2
  8
OUTLINE
  6
CONTINUOUS
 62
     3
 10
110.0172388932959
 20
-99.971004259198736
 30
0.0
 11
91.638911599360625
 21
-120.0
 31
0.0
  0
LINE
  5
E3
  8
OUTLINE
  6
CONTINUOUS
 62
     3
 10
110.0172388932959
 20
-99.971004259198736
 30
0.0
 11
110.0172388946402
 21
99.971004258705776
 31
0.0
  0
LINE
  5
E4
  8
OUTLINE
  6
CONTINUOUS
 62
     3
 10
91.638911600974083
 20
119.99999999975439
 30
0.0
 11
0.0000000016134436
 21
120.0000000009868
 31
0.0
  0
LINE
  5
E5
  8
OUTLINE
  6
CONTINUOUS
 62
     3
 10
110.0172388946402
 20
99.971004258705776
 30
0.0
 11
91.638911600974083
 21
119.9999999997535
 31
0.0
  0
LINE
  5
E6
  8
OUTLINE
  6
CONTINUOUS
 62
     3
 10
-91.638911599360625
 20
-120.0000000000009
 30
0.0
 11
-56.189930941133738
 21
-120.0000000000009
 31
0.0
  0
LINE
  5
E7
  8
OUTLINE
  6
CONTINUOUS
 62
     3
 10
-110.0172388932959
 20
-99.971004259198736
 30
0.0
 11
-91.638911599360625
 21
-120.0
 31
0.0
  0
LINE
  5
E8
  8
OUTLINE
  6
CONTINUOUS
 62
     3
 10
-110.0172388932959
 20
-99.971004259198736
 30
0.0
 11
-110.0172388946402
 21
99.971004258705776
 31
0.0
  0
LINE
  5
E9
  8
OUTLINE
  6
CONTINUOUS
 62
     3
 10
-91.638911600974083
 20
119.99999999975439
 30
0.0
 11
-0.0000000016134436
 21
120.0000000009868
 31
0.0
  0
LINE
  5
EA
  8
OUTLINE
  6
CONTINUOUS
 62
     3
 10
-110.0172388946402
 20
99.971004258705776
 30
0.0
 11
-91.638911600974083
 21
119.9999999997535
 31
0.0
  0
LINE
  5
EB
  8
OUTLINE
  6
CONTINUOUS
 62
     3
 10
56.01970037396859
 20
-28.51910880878313
 30
0.0
 11
56.01970037396859
 21
-379.85507213529951
 31
0.0
  0
LINE
  5
EC
  8
OUTLINE
  6
CONTINUOUS
 62
     3
 10
-56.24060306556202
 20
-28.51910880878313
 30
0.0
 11
-56.045994777228778
 21
-379.85507213529758
 31
0.0
  0
ARC
  5
ED
  8
OUTLINE
  6
CONTINUOUS
 62
     3
 10
-0.1104513457967187
 20
-28.51910880878313
 30
0.0
 40
56.130151719765301
 50
0.0
 51
180.0
  0
LINE
  5
EE
  8
SIZE
  6
CONTINUOUS
 62
    30
 10
-30.000000000000909
 20
144.6768746633179
 30
0.0
 11
-30.000000000000909
 21
259.8402989766264
 31
0.0
  0
LINE
  5
EF
  8
SIZE
  6
CONTINUOUS
 62
    30
 10
29.999999999999091
 20
144.6768746633179
 30
0.0
 11
29.999999999999108
 21
259.8402989766264
 31
0.0
  0
LINE
  5
F0
  8
SIZE
  6
CONTINUOUS
 62
    30
 10
-20.000000000000899
 20
239.84029897662629
 30
0.0
 11
19.999999999999101
 21
239.84029897662629
 31
0.0
  0
CIRCLE
  5
F1
  8
SIZE
  6
CONTINUOUS
 62
    30
 10
-30.000000000000909
 20
239.84029897662629
 30
0.0
 40
5.0
  0
LINE
  5
F2
  8
SIZE
  6
CONTINUOUS
 62
    30
 10
-25.000000000000909
 20
239.84029897662629
 30
0.0
 11
-20.000000000000909
 21
239.84029897662629
 31
0.0
  0
CIRCLE
  5
F3
  8
SIZE
  6
CONTINUOUS
 62
    30
 10
29.999999999999108
 20
239.84029897662629
 30
0.0
 40
5.0
  0
LINE
  5
F4
  8
SIZE
  6
CONTINUOUS
 62
    30
 10
24.999999999999108
 20
239.84029897662629
 30
0.0
 11
19.999999999999101
 21
239.84029897662629
 31
0.0
  0
TEXT
  5
F5
  8
SIZE
  6
CONTINUOUS
 62
    30
 10
-16.028571428572331
 20
247.84029897662629
 30
0.0
 40
22.0
  1
60
 41
0.9
 72
     1
 11
-0.0000000000009024
 21
247.84029897662629
 31
0.0
  0
POINT
  5
F6
  8
DEFPOINTS
  6
CONTINUOUS
 62
     7
 10
-30.000000000000909
 20
129.67687466331779
 30
0.0
  0
POINT
  5
F7
  8
DEFPOINTS
  6
CONTINUOUS
 62
     7
 10
29.999999999999091
 20
129.67687466331779
 30
0.0
  0
POINT
  5
F8
  8
DEFPOINTS
  6
CONTINUOUS
 62
     7
 10
29.999999999999108
 20
239.84029897662629
 30
0.0
  0
LINE
  5
F9
  8
SIZE
  6
CONTINUOUS
 62
    30
 10
-120.0000000000009
 20
184.6768746627348
 30
0.0
 11
-120.0000000000009
 21
372.2397555682046
 31
0.0
  0
LINE
  5
FA
  8
SIZE
  6
CONTINUOUS
 62
    30
 10
119.99999999999901
 20
184.6768746627348
 30
0.0
 11
119.99999999999901
 21
372.2397555682046
 31
0.0
  0
LINE
  5
FB
  8
SIZE
  6
CONTINUOUS
 62
    30
 10
-110.0000000000009
 20
352.23975556820471
 30
0.0
 11
109.99999999999901
 21
352.23975556820471
 31
0.0
  0
CIRCLE
  5
FC
  8
SIZE
  6
CONTINUOUS
 62
    30
 10
-120.0000000000009
 20
352.23975556820471
 30
0.0
 40
5.0
  0
LINE
  5
FD
  8
SIZE
  6
CONTINUOUS
 62
    30
 10
-115.0000000000009
 20
352.23975556820471
 30
0.0
 11
-110.0000000000009
 21
352.23975556820471
 31
0.0
  0
CIRCLE
  5
FE
  8
SIZE
  6
CONTINUOUS
 62
    30
 10
119.99999999999901
 20
352.23975556820471
 30
0.0
 40
5.0
  0
LINE
  5
FF
  8
SIZE
  6
CONTINUOUS
 62
    30
 10
114.99999999999901
 20
352.23975556820471
 30
0.0
 11
109.99999999999901
 21
352.23975556820471
 31
0.0
  0
TEXT
  5
100
  8
SIZE
  6
CONTINUOUS
 62
    30
 10
-25.457142857143751
 20
360.2397555682046
 30
0.0
 40
22.0
  1
240
 41
0.9
 72
     1
 11
-0.0000000000008953
 21
360.2397555682046
 31
0.0
  0
POINT
  5
101
  8
DEFPOINTS
  6
CONTINUOUS
 62
     7
 10
-120.0000000000009
 20
169.6768746627348
 30
0.0
  0
POINT
  5
102
  8
DEFPOINTS
  6
CONTINUOUS
 62
     7
 10
119.99999999999901
 20
169.6768746627348
 30
0.0
  0
POINT
  5
103
  8
DEFPOINTS
  6
CONTINUOUS
 62
     7
 10
119.99999999999901
 20
352.23975556820471
 30
0.0
  0
LINE
  5
104
  8
SIZE
  6
CONTINUOUS
 62
    30
 10
-110.0000000000004
 20
105.8607088287999
 30
0.0
 11
-110.0000000000004
 21
311.49236286944961
 31
0.0
  0
LINE
  5
105
  8
SIZE
  6
CONTINUOUS
 62
    30
 10
109.99999999999901
 20
105.860708828798
 30
0.0
 11
109.99999999999901
 21
311.49236286944961
 31
0.0
  0
LINE
  5
106
  8
SIZE
  6
CONTINUOUS
 62
    30
 10
-100.0000000000003
 20
291.49236286944949
 30
0.0
 11
99.999999999999133
 21
291.49236286944949
 31
0.0
  0
CIRCLE
  5
107
  8
SIZE
  6
CONTINUOUS
 62
    30
 10
-110.0000000000004
 20
291.49236286944949
 30
0.0
 40
5.0
  0
LINE
  5
108
  8
SIZE
  6
CONTINUOUS
 62
    30
 10
-105.0000000000004
 20
291.49236286944949
 30
0.0
 11
-100.0000000000004
 21
291.49236286944949
 31
0.0
  0
CIRCLE
  5
109
  8
SIZE
  6
CONTINUOUS
 62
    30
 10
109.99999999999901
 20
291.49236286944949
 30
0.0
 40
5.0
  0
LINE
  5
10A
  8
SIZE
  6
CONTINUOUS
 62
    30
 10
104.99999999999901
 20
291.49236286944949
 30
0.0
 11
99.999999999999005
 21
291.49236286944949
 31
0.0
  0
TEXT
  5
10B
  8
SIZE
  6
CONTINUOUS
 62
    30
 10
-25.45714285714352
 20
299.49236286944961
 30
0.0
 40
22.0
  1
220
 41
0.9
 72
     1
 11
-0.0000000000006679
 21
299.49236286944961
 31
0.0
  0
POINT
  5
10C
  8
DEFPOINTS
  6
CONTINUOUS
 62
     7
 10
-110.0000000000004
 20
90.860708828799915
 30
0.0
  0
POINT
  5
10D
  8
DEFPOINTS
  6
CONTINUOUS
 62
     7
 10
109.99999999999901
 20
90.860708828798124
 30
0.0
  0
POINT
  5
10E
  8
DEFPOINTS
  6
CONTINUOUS
 62
     7
 10
109.99999999999901
 20
291.49236286944949
 30
0.0
  0
LINE
  5
10F
  8
SIZE
  6
CONTINUOUS
 62
    30
 10
-140.00000000000091
 20
195.0
 30
0.0
 11
-140.00000000000091
 21
432.02288558521201
 31
0.0
  0
LINE
  5
110
  8
SIZE
  6
CONTINUOUS
 62
    30
 10
139.99999999999909
 20
195.0
 30
0.0
 11
139.99999999999909
 21
432.02288558521201
 31
0.0
  0
LINE
  5
111
  8
SIZE
  6
CONTINUOUS
 62
    30
 10
-130.00000000000091
 20
412.02288558521172
 30
0.0
 11
129.99999999999901
 21
412.02288558521172
 31
0.0
  0
CIRCLE
  5
112
  8
SIZE
  6
CONTINUOUS
 62
    30
 10
-140.00000000000091
 20
412.02288558521172
 30
0.0
 40
5.0
  0
LINE
  5
113
  8
SIZE
  6
CONTINUOUS
 62
    30
 10
-135.00000000000091
 20
412.02288558521172
 30
0.0
 11
-130.00000000000091
 21
412.02288558521172
 31
0.0
  0
CIRCLE
  5
114
  8
SIZE
  6
CONTINUOUS
 62
    30
 10
139.99999999999909
 20
412.02288558521172
 30
0.0
 40
5.0
  0
LINE
  5
115
  8
SIZE
  6
CONTINUOUS
 62
    30
 10
134.99999999999909
 20
412.02288558521172
 30
0.0
 11
129.99999999999909
 21
412.02288558521172
 31
0.0
  0
TEXT
  5
116
  8
SIZE
  6
CONTINUOUS
 62
    30
 10
-25.457142857143769
 20
420.0228855852119
 30
0.0
 40
22.0
  1
280
 41
0.9
 72
     1
 11
-0.0000000000009095
 21
420.0228855852119
 31
0.0
  0
POINT
  5
117
  8
DEFPOINTS
  6
CONTINUOUS
 62
     7
 10
-140.00000000000091
 20
180.0
 30
0.0
  0
POINT
  5
118
  8
DEFPOINTS
  6
CONTINUOUS
 62
     7
 10
139.99999999999909
 20
180.0
 30
0.0
  0
POINT
  5
119
  8
DEFPOINTS
  6
CONTINUOUS
 62
     7
 10
139.99999999999909
 20
412.02288558521172
 30
0.0
  0
LINE
  5
11A
  8
SIZE
  6
CONTINUOUS
 62
    30
 10
144.67687466273381
 20
160.0
 30
0.0
 11
331.95594113531479
 21
159.9999999999998
 31
0.0
  0
LINE
  5
11B
  8
SIZE
  6
CONTINUOUS
 62
    30
 10
144.67687466273301
 20
-160.0
 30
0.0
 11
331.95594113531479
 21
-160.0
 31
0.0
  0
LINE
  5
11C
  8
SIZE
  6
CONTINUOUS
 62
    30
 10
311.9559411353149
 20
150.0
 30
0.0
 11
311.9559411353149
 21
-150.0
 31
0.0
  0
CIRCLE
  5
11D
  8
SIZE
  6
CONTINUOUS
 62
    30
 10
311.9559411353149
 20
159.9999999999998
 30
0.0
 40
5.0
  0
LINE
  5
11E
  8
SIZE
  6
CONTINUOUS
 62
    30
 10
311.9559411353149
 20
154.9999999999998
 30
0.0
 11
311.9559411353149
 21
149.9999999999998
 31
0.0
  0
CIRCLE
  5
11F
  8
SIZE
  6
CONTINUOUS
 62
    30
 10
311.9559411353149
 20
-160.0
 30
0.0
 40
5.0
  0
LINE
  5
120
  8
SIZE
  6
CONTINUOUS
 62
    30
 10
311.9559411353149
 20
-155.0
 30
0.0
 11
311.9559411353149
 21
-150.0
 31
0.0
  0
TEXT
  5
121
  8
SIZE
  6
CONTINUOUS
 62
    30
 10
303.95594113531479
 20
-25.457142857142841
 30
0.0
 40
22.0
  1
320
 50
90.0
 41
0.9
 72
     1
 11
303.95594113531479
 21
0.0000000000000109
 31
0.0
  0
POINT
  5
122
  8
DEFPOINTS
  6
CONTINUOUS
 62
     7
 10
129.67687466273381
 20
160.0
 30
0.0
  0
POINT
  5
123
  8
DEFPOINTS
  6
CONTINUOUS
 62
     7
 10
129.67687466273301
 20
-160.0
 30
0.0
  0
POINT
  5
124
  8
DEFPOINTS
  6
CONTINUOUS
 62
     7
 10
311.9559411353149
 20
-160.0
 30
0.0
  0
LINE
  5
125
  8
SIZE
  6
CONTINUOUS
 62
    30
 10
54.676874662734001
 20
120.0000000005829
 30
0.0
 11
254.8388507035306
 21
120.0000000005829
 31
0.0
  0
LINE
  5
126
  8
SIZE
  6
CONTINUOUS
 62
    30
 10
54.676874662734001
 20
-120.0000000000009
 30
0.0
 11
254.8388507035304
 21
-120.0000000000009
 31
0.0
  0
LINE
  5
127
  8
SIZE
  6
CONTINUOUS
 62
    30
 10
234.8388507035306
 20
110.0000000005828
 30
0.0
 11
234.83885070353051
 21
-110.0000000000009
 31
0.0
  0
CIRCLE
  5
128
  8
SIZE
  6
CONTINUOUS
 62
    30
 10
234.8388507035306
 20
120.0000000005829
 30
0.0
 40
5.0
  0
LINE
  5
129
  8
SIZE
  6
CONTINUOUS
 62
    30
 10
234.8388507035306
 20
115.0000000005829
 30
0.0
 11
234.8388507035306
 21
110.0000000005829
 31
0.0
  0
CIRCLE
  5
12A
  8
SIZE
  6
CONTINUOUS
 62
    30
 10
234.83885070353051
 20
-120.0000000000009
 30
0.0
 40
5.0
  0
LINE
  5
12B
  8
SIZE
  6
CONTINUOUS
 62
    30
 10
234.83885070353051
 20
-115.0000000000009
 30
0.0
 11
234.83885070353051
 21
-110.0000000000009
 31
0.0
  0
TEXT
  5
12C
  8
SIZE
  6
CONTINUOUS
 62
    30
 10
226.83885070353071
 20
-25.457142856851839
 30
0.0
 40
22.0
  1
240
 50
90.0
 41
0.9
 72
     1
 11
226.83885070353071
 21
0.0000000002910256
 31
0.0
  0
POINT
  5
12D
  8
DEFPOINTS
  6
CONTINUOUS
 62
     7
 10
39.676874662734001
 20
120.0000000005829
 30
0.0
  0
POINT
  5
12E
  8
DEFPOINTS
  6
CONTINUOUS
 62
     7
 10
39.676874662734001
 20
-120.0000000000009
 30
0.0
  0
POINT
  5
12F
  8
DEFPOINTS
  6
CONTINUOUS
 62
     7
 10
234.83885070353051
 20
-120.0000000000009
 30
0.0
  0
LINE
  5
130
  8
SIZE
  6
CONTINUOUS
 62
    30
 10
154.99999999999901
 20
180.0
 30
0.0
 11
410.123198022
 21
179.99999999999989
 31
0.0
  0
LINE
  5
131
  8
SIZE
  6
CONTINUOUS
 62
    30
 10
154.9999999999981
 20
-180.0
 30
0.0
 11
410.12319802199971
 21
-180.0
 31
0.0
  0
LINE
  5
132
  8
SIZE
  6
CONTINUOUS
 62
    30
 10
390.12319802200011
 20
169.9999999999998
 30
0.0
 11
390.123198022
 21
-170.0
 31
0.0
  0
CIRCLE
  5
133
  8
SIZE
  6
CONTINUOUS
 62
    30
 10
390.12319802200011
 20
179.99999999999989
 30
0.0
 40
5.0
  0
LINE
  5
134
  8
SIZE
  6
CONTINUOUS
 62
    30
 10
390.12319802200011
 20
174.99999999999989
 30
0.0
 11
390.12319802200011
 21
169.9999999999998
 31
0.0
  0
CIRCLE
  5
135
  8
SIZE
  6
CONTINUOUS
 62
    30
 10
390.123198022
 20
-180.0
 30
0.0
 40
5.0
  0
LINE
  5
136
  8
SIZE
  6
CONTINUOUS
 62
    30
 10
390.123198022
 20
-175.0
 30
0.0
 11
390.123198022
 21
-170.0
 31
0.0
  0
TEXT
  5
137
  8
SIZE
  6
CONTINUOUS
 62
    30
 10
382.123198022
 20
-25.45714285714288
 30
0.0
 40
22.0
  1
360
 50
90.0
 41
0.9
 72
     1
 11
382.123198022
 21
-0.0000000000000223
 31
0.0
  0
POINT
  5
138
  8
DEFPOINTS
  6
CONTINUOUS
 62
     7
 10
139.99999999999909
 20
180.0
 30
0.0
  0
POINT
  5
139
  8
DEFPOINTS
  6
CONTINUOUS
 62
     7
 10
139.99999999999821
 20
-180.0
 30
0.0
  0
POINT
  5
13A
  8
DEFPOINTS
  6
CONTINUOUS
 62
     7
 10
390.123198022
 20
-180.0
 30
0.0
  0
LINE
  5
13B
  8
SIZE
  6
CONTINUOUS
 62
    30
 10
-52.059796969784671
 20
-28.51910880878404
 30
0.0
 11
-301.82596150133372
 21
-28.519108808783962
 31
0.0
  0
LINE
  5
13C
  8
SIZE
  6
CONTINUOUS
 62
    30
 10
-77.500000000000014
 20
-428.51910880878398
 30
0.0
 11
-301.82596150133372
 21
-428.51910880878398
 31
0.0
  0
LINE
  5
13D
  8
SIZE
  6
CONTINUOUS
 62
    30
 10
-281.82596150133372
 20
-38.519108808783969
 30
0.0
 11
-281.82596150133401
 21
-418.51910880878381
 31
0.0
  0
CIRCLE
  5
13E
  8
SIZE
  6
CONTINUOUS
 62
    30
 10
-281.82596150133372
 20
-28.519108808783969
 30
0.0
 40
5.0
  0
LINE
  5
13F
  8
SIZE
  6
CONTINUOUS
 62
    30
 10
-281.82596150133372
 20
-33.519108808783969
 30
0.0
 11
-281.82596150133372
 21
-38.519108808783969
 31
0.0
  0
CIRCLE
  5
140
  8
SIZE
  6
CONTINUOUS
 62
    30
 10
-281.82596150133401
 20
-428.51910880878398
 30
0.0
 40
5.0
  0
LINE
  5
141
  8
SIZE
  6
CONTINUOUS
 62
    30
 10
-281.82596150133401
 20
-423.51910880878398
 30
0.0
 11
-281.82596150133401
 21
-418.51910880878398
 31
0.0
  0
TEXT
  5
142
  8
SIZE
  6
CONTINUOUS
 62
    30
 10
-295.5878662632386
 20
-266.70482309449829
 30
0.0
 40
22.0
  1
(400)
 50
90.0
 41
0.9
 72
     1
 11
-295.5878662632386
 21
-228.5191088087839
 31
0.0
  0
POINT
  5
143
  8
DEFPOINTS
  6
CONTINUOUS
 62
     7
 10
-37.059796969784649
 20
-28.51910880878404
 30
0.0
  0
POINT
  5
144
  8
DEFPOINTS
  6
CONTINUOUS
 62
     7
 10
-62.5
 20
-428.51910880878398
 30
0.0
  0
POINT
  5
145
  8
DEFPOINTS
  6
CONTINUOUS
 62
     7
 10
-281.82596150133401
 20
-428.51910880878398
 30
0.0
  0
TEXT
  5
146
  8
ETC
  6
CONTINUOUS
 62
    61
 10
227.90118668086859
 20
405.16249815882679
 30
0.0
 40
30.0
  1
PAC-CW01_02FD_6
 41
0.8
  0
LINE
  5
147
  8
OUTLINE
  6
CONTINUOUS
 62
     3
 10
-110.0172388945789
 20
90.860708828799716
 30
0.0
 11
-140.00000000000091
 21
90.860708828799915
 31
0.0
  0
LINE
  5
148
  8
OUTLINE
  6
CONTINUOUS
 62
     3
 10
-110.0172388933573
 20
-90.860708828799716
 30
0.0
 11
-140.00000000000091
 21
-90.860708828799034
 31
0.0
  0
ARC
  5
149
  8
DETAIL
  6
CONTINUOUS
 62
     5
 10
30.0
 20
120.0000000005833
 30
0.0
 40
3.0
 50
0.0000000161802196
 51
179.99999998535699
  0
ARC
  5
14A
  8
DETAIL
  6
CONTINUOUS
 62
     5
 10
-30.0
 20
120.0000000005833
 30
0.0
 40
3.0
 50
0.0000000007686256
 51
180.00000000076849
  0
LINE
  5
14B
  8
NOTE
  6
CONTINUOUS
 62
     4
 10
30.0
 20
-129.67687466331779
 30
0.0
 11
30.0
 21
-110.323125337848
 31
0.0
  0
LINE
  5
14C
  8
NOTE
  6
CONTINUOUS
 62
     4
 10
39.676874662734917
 20
-120.0000000005829
 30
0.0
 11
20.323125337265068
 21
-120.0000000005829
 31
0.0
  0
LINE
  5
14D
  8
NOTE
  6
CONTINUOUS
 62
     4
 10
-30.0
 20
-129.67687466331779
 30
0.0
 11
-30.0
 21
-110.323125337848
 31
0.0
  0
LINE
  5
14E
  8
NOTE
  6
CONTINUOUS
 62
     4
 10
-20.323125337265068
 20
-120.0000000005829
 30
0.0
 11
-39.676874662734917
 21
-120.0000000005829
 31
0.0
  0
LINE
  5
14F
  8
NOTE
  6
CONTINUOUS
 62
     4
 10
120.0
 20
160.0
 30
0.0
 11
189.03676547567031
 21
277.06839065783288
 31
0.0
  0
LINE
  5
150
  8
NOTE
  6
CONTINUOUS
 62
     4
 10
137.85886193395169
 20
176.53624715460811
 30
0.0
 11
120.0
 21
160.0
 31
0.0
  0
LINE
  5
151
  8
NOTE
  6
CONTINUOUS
 62
     4
 10
125.8282174404756
 20
183.63087601001641
 30
0.0
 11
120.0
 21
160.0
 31
0.0
  0
TEXT
  5
152
  8
NOTE
  6
CONTINUOUS
 62
     4
 10
196.6870270993785
 20
283.68789608871009
 30
0.0
 40
30.0
  1
AH 4-%%C12
 41
0.8
  0
LINE
  5
153
  8
NOTE
  6
CONTINUOUS
 62
     4
 10
412.28556951655679
 20
277.06839065783288
 30
0.0
 11
189.03676547567031
 21
277.06839065783288
 31
0.0
  0
LINE
  5
154
  8
NOTE
  6
CONTINUOUS
 62
     4
 10
-30.0
 20
120.0000000005833
 30
0.0
 11
-162.89910962494559
 21
257.4161883800486
 31
0.0
  0
LINE
  5
155
  8
NOTE
  6
CONTINUOUS
 62
     4
 10
-41.189075179926469
 20
141.61460192040121
 30
0.0
 11
-30.0
 21
120.0000000005833
 31
0.0
  0
LINE
  5
156
  8
NOTE
  6
CONTINUOUS
 62
     4
 10
-51.228690447501783
 20
131.9050040500737
 30
0.0
 11
-30.0
 21
120.0000000005833
 31
0.0
  0
LINE
  5
157
  8
NOTE
  6
CONTINUOUS
 62
     4
 10
-60.851421188149267
 20
51.0
 30
0.0
 11
-56.620905545586531
 21
51.0
 31
0.0
  0
LINE
  5
158
  8
NOTE
  6
CONTINUOUS
 62
     4
 10
-61.961998438695851
 20
52.0
 30
0.0
 11
-55.510328295039933
 21
52.0
 31
0.0
  0
LINE
  5
159
  8
NOTE
  6
CONTINUOUS
 62
     4
 10
-62.522679994426632
 20
53.0
 30
0.0
 11
-54.949646739309159
 21
53.0
 31
0.0
  0
LINE
  5
15A
  8
NOTE
  6
CONTINUOUS
 62
     4
 10
-62.769698346376821
 20
54.0
 30
0.0
 11
-54.702628387358978
 21
54.0
 31
0.0
  0
LINE
  5
15B
  8
NOTE
  6
CONTINUOUS
 62
     4
 10
-62.761222458491943
 20
55.0
 30
0.0
 11
-54.711104275243862
 21
55.0
 31
0.0
  0
LINE
  5
15C
  8
NOTE
  6
CONTINUOUS
 62
     4
 10
-62.495524609314359
 20
56.000000000000007
 30
0.0
 11
-54.976802124421432
 21
56.000000000000007
 31
0.0
  0
LINE
  5
15D
  8
NOTE
  6
CONTINUOUS
 62
     4
 10
-61.908621910545349
 20
56.999999999999993
 30
0.0
 11
-55.563704823190442
 21
56.999999999999993
 31
0.0
  0
LINE
  5
15E
  8
NOTE
  6
CONTINUOUS
 62
     4
 10
-60.735210507756641
 20
57.999999999999993
 30
0.0
 11
-56.737116225979157
 21
57.999999999999993
 31
0.0
  0
CIRCLE
  5
15F
  8
NOTE
  6
CONTINUOUS
 62
     4
 10
-58.736163366867892
 20
54.46584813007167
 30
0.0
 40
4.060347141712553
  0
TEXT
  5
160
  8
NOTE
  6
CONTINUOUS
 62
     4
 10
-248.21779519395011
 20
28.513682755579111
 30
0.0
 40
30.0
  1
駆動部
 50
0.0000000000000799
 41
0.8
  0
LINE
  5
161
  8
NOTE
  6
CONTINUOUS
 62
     4
 10
-58.736163366867892
 20
54.46584813007167
 30
0.0
 11
-167.35631518853731
 21
26.388067534309361
 31
0.0
  0
LINE
  5
162
  8
NOTE
  6
CONTINUOUS
 62
     4
 10
-256.20395508023103
 20
26.388067534309361
 30
0.0
 11
-167.35631518853731
 21
26.388067534309361
 31
0.0
  0
LINE
  5
163
  8
SIZE
  6
CONTINUOUS
 62
    30
 10
-62.5
 20
-443.51910880878398
 30
0.0
 11
-62.5
 21
-539.77328085315855
 31
0.0
  0
LINE
  5
164
  8
SIZE
  6
CONTINUOUS
 62
    30
 10
62.5
 20
-443.51910880878398
 30
0.0
 11
62.5
 21
-539.77328085315855
 31
0.0
  0
LINE
  5
165
  8
SIZE
  6
CONTINUOUS
 62
    30
 10
-52.5
 20
-519.77328085315855
 30
0.0
 11
52.5
 21
-519.77328085315855
 31
0.0
  0
CIRCLE
  5
166
  8
SIZE
  6
CONTINUOUS
 62
    30
 10
-62.5
 20
-519.77328085315855
 30
0.0
 40
5.0
  0
LINE
  5
167
  8
SIZE
  6
CONTINUOUS
 62
    30
 10
-57.5
 20
-519.77328085315855
 30
0.0
 11
-52.5
 21
-519.77328085315855
 31
0.0
  0
CIRCLE
  5
168
  8
SIZE
  6
CONTINUOUS
 62
    30
 10
62.5
 20
-519.77328085315855
 30
0.0
 40
5.0
  0
LINE
  5
169
  8
SIZE
  6
CONTINUOUS
 62
    30
 10
57.5
 20
-519.77328085315855
 30
0.0
 11
52.5
 21
-519.77328085315855
 31
0.0
  0
TEXT
  5
16A
  8
SIZE
  6
CONTINUOUS
 62
    30
 10
-32.528571428571439
 20
-511.7732808531585
 30
0.0
 40
22.0
  1
%%C125
 41
0.9
 72
     1
 11
-0.0000000000000071
 21
-511.7732808531585
 31
0.0
  0
POINT
  5
16B
  8
DEFPOINTS
  6
CONTINUOUS
 62
     7
 10
-62.5
 20
-428.51910880878398
 30
0.0
  0
POINT
  5
16C
  8
DEFPOINTS
  6
CONTINUOUS
 62
     7
 10
62.5
 20
-428.51910880878398
 30
0.0
  0
POINT
  5
16D
  8
DEFPOINTS
  6
CONTINUOUS
 62
     7
 10
62.5
 20
-519.77328085315855
 30
0.0
  0
LINE
  5
16E
  8
OUTLINE
  6
CONTINUOUS
 62
     3
 10
-56.156696377869693
 20
-180.00000000000111
 30
0.0
 11
-140.0
 21
-180.00000000000091
 31
0.0
  0
CIRCLE
  5
16F
  8
DETAIL
  6
CONTINUOUS
 62
     5
 10
120.0
 20
160.0
 30
0.0
 40
6.0
  0
CIRCLE
  5
170
  8
DETAIL
  6
CONTINUOUS
 62
     5
 10
-120.0
 20
160.0
 30
0.0
 40
6.0
  0
CIRCLE
  5
171
  8
DETAIL
  6
CONTINUOUS
 62
     5
 10
-120.0
 20
-160.0
 30
0.0
 40
6.0
  0
CIRCLE
  5
172
  8
DETAIL
  6
CONTINUOUS
 62
     5
 10
120.0
 20
-160.0
 30
0.0
 40
6.0
  0
CIRCLE
  5
173
  8
FIX
  6
CONTINUOUS
 62
    11
 10
-29.999999999998241
 20
120.0000000005825
 30
0.0
 40
6.138988218080379
  0
CIRCLE
  5
174
  8
FIX
  6
CONTINUOUS
 62
    11
 10
30.0
 20
120.0000000005825
 30
0.0
 40
6.138988218080379
  0
CIRCLE
  5
175
  8
FIX
  6
CONTINUOUS
 62
    11
 10
30.0
 20
-120.0000000005829
 30
0.0
 40
6.138988218080379
  0
CIRCLE
  5
176
  8
FIX
  6
CONTINUOUS
 62
    11
 10
-30.0
 20
-120.0000000005829
 30
0.0
 40
6.138988218080379
  0
TEXT
  5
177
  8
NOTE
  6
CONTINUOUS
 62
     4
 10
179.40932433938491
 20
324.345113195061
 30
0.0
 40
30.0
  1
（吊ボルト固定時）
 41
0.8
  0
TEXT
  5
178
  8
NOTE
  6
CONTINUOUS
 62
     4
 10
-389.91126465609773
 20
215.8251320647345
 30
0.0
 40
30.0
  1
チャンバー取付穴
 41
0.8
  0
LINE
  5
179
  8
NOTE
  6
CONTINUOUS
 62
     4
 10
-162.89910962494559
 20
257.4161883800486
 30
0.0
 11
-396.05217336063748
 21
257.4161883800486
 31
0.0
  0
TEXT
  5
17A
  8
NOTE
  6
CONTINUOUS
 62
     4
 10
-388.40191173692932
 20
264.82228393989902
 30
0.0
 40
30.0
  1
AH　4-M10
 41
0.8
  0
TEXT
  5
17B
  8
NOTE
  6
CONTINUOUS
 62
     4
 10
-408.25250077118829
 20
301.41027550106929
 30
0.0
 40
30.0
  1
（アングル固定時）
 41
0.8
  0
ENDSEC
  0
EOF
