  0
SECTION
  2
HEADER
  9
$ACADVER
  1
AC1009
  9
$INSBASE
 10
0.0
 20
0.0
 30
0.0
  9
$EXTMIN
 10
-105.842033
 20
-190.92673
 30
0.0
  9
$EXTMAX
 10
188.8857
 20
122.087965
 30
0.0
  9
$LIMMIN
 10
-4200.0
 20
-2970.0
  9
$LIMMAX
 10
4200.0
 20
2970.0
  9
$ORTHOMODE
 70
     0
  9
$REGENMODE
 70
     1
  9
$FILLMODE
 70
     1
  9
$QTEXTMODE
 70
     0
  9
$MIRRTEXT
 70
     0
  9
$DRAGMODE
 70
     2
  9
$LTSCALE
 40
20.0
  9
$OSMODE
 70
    37
  9
$ATTMODE
 70
     1
  9
$TEXTSIZE
 40
64.0
  9
$TRACEWID
 40
0.05
  9
$TEXTSTYLE
  7
STANDARD
  9
$CLAYER
  8
SIZE
  9
$CELTYPE
  6
CONTINUOUS
  9
$CECOLOR
 62
     7
  9
$DIMSCALE
 40
1.0
  9
$DIMASZ
 40
5.0
  9
$DIMEXO
 40
5.0
  9
$DIMDLI
 40
200.0
  9
$DIMRND
 40
0.0
  9
$DIMDLE
 40
0.0
  9
$DIMEXE
 40
15.0
  9
$DIMTP
 40
0.0
  9
$DIMTM
 40
0.0
  9
$DIMTXT
 40
25.0
  9
$DIMCEN
 40
0.0
  9
$DIMTSZ
 40
0.0
  9
$DIMTOL
 70
     0
  9
$DIMLIM
 70
     0
  9
$DIMTIH
 70
     0
  9
$DIMTOH
 70
     0
  9
$DIMSE1
 70
     0
  9
$DIMSE2
 70
     0
  9
$DIMTAD
 70
     1
  9
$DIMZIN
 70
     8
  9
$DIMBLK
  1
DOTBLANK
  9
$DIMASO
 70
     1
  9
$DIMSHO
 70
     0
  9
$DIMPOST
  1

  9
$DIMAPOST
  1

  9
$DIMALT
 70
     0
  9
$DIMALTD
 70
     2
  9
$DIMALTF
 40
25.4
  9
$DIMLFAC
 40
1.0
  9
$DIMTOFL
 70
     1
  9
$DIMTVP
 40
0.0
  9
$DIMTIX
 70
     1
  9
$DIMSOXD
 70
     0
  9
$DIMSAH
 70
     0
  9
$DIMBLK1
  1

  9
$DIMBLK2
  1

  9
$DIMSTYLE
  2
STANDARD
  9
$DIMCLRD
 70
     0
  9
$DIMCLRE
 70
     0
  9
$DIMCLRT
 70
     0
  9
$DIMTFAC
 40
1.0
  9
$DIMGAP
 40
0.09
  9
$LUNITS
 70
     2
  9
$LUPREC
 70
     4
  9
$SKETCHINC
 40
0.1
  9
$FILLETRAD
 40
1.0
  9
$AUNITS
 70
     1
  9
$AUPREC
 70
     3
  9
$MENU
  1
ACAD
  9
$ELEVATION
 40
0.0
  9
$PELEVATION
 40
0.0
  9
$THICKNESS
 40
0.0
  9
$LIMCHECK
 70
     0
  9
$BLIPMODE
 70
     0
  9
$CHAMFERA
 40
0.0
  9
$CHAMFERB
 40
0.0
  9
$SKPOLY
 70
     0
  9
$TDCREATE
 40
2449761.493623
  9
$TDUPDATE
 40
2454088.509896
  9
$TDINDWG
 40
4.400173
  9
$TDUSRTIMER
 40
4.400173
  9
$USRTIMER
 70
     1
  9
$ANGBASE
 50
0.0
  9
$ANGDIR
 70
     0
  9
$PDMODE
 70
    35
  9
$PDSIZE
 40
100.0
  9
$PLINEWID
 40
0.0
  9
$COORDS
 70
     0
  9
$SPLFRAME
 70
     0
  9
$SPLINETYPE
 70
     6
  9
$SPLINESEGS
 70
     8
  9
$ATTDIA
 70
     0
  9
$ATTREQ
 70
     1
  9
$HANDLING
 70
     1
  9
$HANDSEED
  5
E3
  9
$SURFTAB1
 70
     6
  9
$SURFTAB2
 70
     6
  9
$SURFTYPE
 70
     6
  9
$SURFU
 70
     6
  9
$SURFV
 70
     6
  9
$UCSNAME
  2

  9
$UCSORG
 10
0.0
 20
0.0
 30
0.0
  9
$UCSXDIR
 10
1.0
 20
0.0
 30
0.0
  9
$UCSYDIR
 10
0.0
 20
1.0
 30
0.0
  9
$PUCSNAME
  2

  9
$PUCSORG
 10
0.0
 20
0.0
 30
0.0
  9
$PUCSXDIR
 10
1.0
 20
0.0
 30
0.0
  9
$PUCSYDIR
 10
0.0
 20
1.0
 30
0.0
  9
$USERI1
 70
     0
  9
$USERI2
 70
     0
  9
$USERI3
 70
     0
  9
$USERI4
 70
     0
  9
$USERI5
 70
     0
  9
$USERR1
 40
20.0
  9
$USERR2
 40
0.0
  9
$USERR3
 40
0.0
  9
$USERR4
 40
0.0
  9
$USERR5
 40
0.0
  9
$WORLDVIEW
 70
     1
  9
$SHADEDGE
 70
     3
  9
$SHADEDIF
 70
    70
  9
$TILEMODE
 70
     1
  9
$MAXACTVP
 70
    48
  9
$PLIMCHECK
 70
     0
  9
$PEXTMIN
 10
1.000000E+020
 20
1.000000E+020
 30
1.000000E+020
  9
$PEXTMAX
 10
-1.000000E+020
 20
-1.000000E+020
 30
-1.000000E+020
  9
$PLIMMIN
 10
0.0
 20
0.0
  9
$PLIMMAX
 10
12.0
 20
9.0
  9
$UNITMODE
 70
     0
  9
$VISRETAIN
 70
     1
  9
$PLINEGEN
 70
     0
  9
$PSLTSCALE
 70
     1
  0
ENDSEC
  0
SECTION
  2
TABLES
  0
TABLE
  2
VPORT
 70
     2
  0
VPORT
  2
*ACTIVE
 70
     0
 10
0.0
 20
0.0
 11
1.0
 21
1.0
 12
1237.471483
 22
0.0
 13
0.0
 23
0.0
 14
50.0
 24
50.0
 15
100.0
 25
100.0
 16
0.0
 26
0.0
 36
1.0
 17
0.0
 27
0.0
 37
0.0
 40
5940.0
 41
1.830798
 42
50.0
 43
0.0
 44
0.0
 50
0.0
 51
0.0
 71
     0
 72
  1000
 73
     1
 74
     0
 75
     0
 76
     0
 77
     0
 78
     0
  0
ENDTAB
  0
TABLE
  2
LTYPE
 70
     2
  0
LTYPE
  2
CONTINUOUS
 70
     0
  3
実線
 72
    65
 73
     0
 40
0.0
  0
LTYPE
  2
DASHDOT
 70
     0
  3
____ _ ____ _ ____ _ ____ _ ____ _ ____ _ ____
 72
    65
 73
     4
 40
5.5
 49
4.0
 49
-0.6
 49
0.3
 49
-0.6
  0
ENDTAB
  0
TABLE
  2
LAYER
 70
    12
  0
LAYER
  2
0
 70
     0
 62
     7
  6
CONTINUOUS
  0
LAYER
  2
SIZE
 70
     0
 62
    30
  6
CONTINUOUS
  0
LAYER
  2
OUTLINE
 70
     0
 62
     3
  6
CONTINUOUS
  0
LAYER
  2
DETAIL
 70
     0
 62
     5
  6
CONTINUOUS
  0
LAYER
  2
BASIS
 70
     0
 62
     6
  6
DASHDOT
  0
LAYER
  2
NOTE
 70
     0
 62
     4
  6
CONTINUOUS
  0
LAYER
  2
ARRANGE
 70
     0
 62
     1
  6
CONTINUOUS
  0
LAYER
  2
FIX
 70
     0
 62
    11
  6
CONTINUOUS
  0
LAYER
  2
SERVICESPACE
 70
     0
 62
     2
  6
DASHDOT
  0
LAYER
  2
ETC
 70
     0
 62
    61
  6
CONTINUOUS
  0
LAYER
  2
SYMBOLLINE
 70
     0
 62
    15
  6
CONTINUOUS
  0
LAYER
  2
DEFPOINTS
 70
     0
 62
     7
  6
CONTINUOUS
  0
ENDTAB
  0
TABLE
  2
STYLE
 70
     2
  0
STYLE
  2
STANDARD
 70
     0
 40
0.0
 41
0.9
 50
0.0
 71
     0
 42
64.0
  3
SIMPLEX
  4
BIGFONT
  0
STYLE
  2
STANDARD1
 70
     0
 40
0.0
 41
1.0
 50
0.0
 71
     0
 42
3.5
  3
MONOTXT
  4
BIGFONT
  0
ENDTAB
  0
TABLE
  2
VIEW
 70
     1
  0
VIEW
  2
ALL
 70
     0
 40
6056.230032
 10
0.0
 20
58.115016
 41
8400.0
 11
0.0
 21
0.0
 31
1.0
 12
0.0
 22
0.0
 32
0.0
 42
50.0
 43
0.0
 44
0.0
 50
0.0
 71
     0
  0
ENDTAB
  0
TABLE
  2
UCS
 70
     0
  0
ENDTAB
  0
TABLE
  2
APPID
 70
     1
  0
APPID
  2
ACAD
 70
     0
  0
ENDTAB
  0
TABLE
  2
DIMSTYLE
 70
     1
  0
DIMSTYLE
  2
STANDARD
 70
     0
  3

  4

  5

  6

  7

 40
1.0
 41
0.18
 42
0.0625
 43
0.38
 44
0.18
 45
0.0
 46
0.0
 47
0.0
 48
0.0
140
0.18
141
0.09
142
0.0
143
25.4
144
1.0
145
0.0
146
1.0
147
0.09
 71
     0
 72
     0
 73
     1
 74
     1
 75
     0
 76
     0
 77
     0
 78
     0
170
     0
171
     2
172
     0
173
     0
174
     0
175
     0
176
     0
177
     0
178
     0
  0
ENDTAB
  0
ENDSEC
  0
SECTION
  2
BLOCKS
  0
BLOCK
  8
0
  2
$MODEL_SPACE
 70
     0
 10
0.0
 20
0.0
 30
0.0
  3
$MODEL_SPACE
  1

  0
ENDBLK
  5
20
  8
0
  0
BLOCK
 67
     1
  8
0
  2
$PAPER_SPACE
 70
     0
 10
0.0
 20
0.0
 30
0.0
  3
$PAPER_SPACE
  1

  0
ENDBLK
  5
1C
 67
     1
  8
0
  0
BLOCK
  8
0
  2
_DOTBLANK
 70
     0
 10
0.0
 20
0.0
 30
0.0
  3
_DOTBLANK
  1

  0
CIRCLE
  5
36
  8
0
  6
CONTINUOUS
 62
     7
 10
0.0
 20
0.0
 30
0.0
 40
0.5
  0
LINE
  5
37
  8
0
  6
CONTINUOUS
 62
     7
 10
-0.5
 20
0.0
 30
0.0
 11
-1.0
 21
0.0
 31
0.0
  0
ENDBLK
  5
38
  8
0
  0
ENDSEC
  0
SECTION
  2
ENTITIES
  0
LINE
  5
39
  8
BASIS
  6
DASHDOT
 62
     6
 10
74.788575
 20
0.0
 30
0.0
 11
-74.788575
 21
0.0
 31
0.0
  0
LINE
  5
3A
  8
BASIS
  6
DASHDOT
 62
     6
 10
0.0
 20
66.429626
 30
0.0
 11
0.0
 21
-71.671009
 31
0.0
  0
CIRCLE
  5
3B
  8
ARRANGE
  6
CONTINUOUS
 62
     1
 10
0.0
 20
0.0
 30
0.0
 40
8.90117
  0
LINE
  5
3C
  8
ARRANGE
  6
CONTINUOUS
 62
     1
 10
11.22417
 20
11.22417
 30
0.0
 11
-11.22417
 21
-11.22417
 31
0.0
  0
LINE
  5
3D
  8
ARRANGE
  6
CONTINUOUS
 62
     1
 10
-11.22417
 20
11.22417
 30
0.0
 11
11.22417
 21
-11.22417
 31
0.0
  0
TEXT
  5
3E
  8
ETC
  6
CONTINUOUS
 62
    61
 10
-105.842033
 20
102.087965
 30
0.0
 40
20.0
  1
PAC-SC30GR_3
 50
359.999997
 41
0.603059
  7
STANDARD1
  0
LINE
  5
3F
  8
OUTLINE
  6
CONTINUOUS
 62
     3
 10
65.0
 20
57.000656
 30
0.0
 11
65.0
 21
-56.999344
 31
0.0
  0
LINE
  5
40
  8
OUTLINE
  6
CONTINUOUS
 62
     3
 10
-65.0
 20
57.000656
 30
0.0
 11
-65.0
 21
-56.999344
 31
0.0
  0
LINE
  5
41
  8
OUTLINE
  6
CONTINUOUS
 62
     3
 10
-62.0
 20
-59.999344
 30
0.0
 11
62.0
 21
-59.999344
 31
0.0
  0
LINE
  5
42
  8
OUTLINE
  6
CONTINUOUS
 62
     3
 10
-62.0
 20
-59.999344
 30
0.0
 11
62.0
 21
-59.999344
 31
0.0
  0
ARC
  5
43
  8
OUTLINE
  6
CONTINUOUS
 62
     3
 10
-62.0
 20
-56.999344
 30
0.0
 40
3.0
 50
180.000009
 51
269.999998
  0
ARC
  5
44
  8
OUTLINE
  6
CONTINUOUS
 62
     3
 10
62.0
 20
-56.999344
 30
0.0
 40
3.0
 50
269.999998
 51
0.0
  0
LINE
  5
45
  8
OUTLINE
  6
CONTINUOUS
 62
     3
 10
-62.0
 20
60.000656
 30
0.0
 11
62.0
 21
60.000656
 31
0.0
  0
ARC
  5
46
  8
OUTLINE
  6
CONTINUOUS
 62
     3
 10
-62.0
 20
57.000656
 30
0.0
 40
3.0
 50
90.000002
 51
180.000005
  0
ARC
  5
47
  8
OUTLINE
  6
CONTINUOUS
 62
     3
 10
62.0
 20
57.000656
 30
0.0
 40
3.0
 50
0.0
 51
89.999982
  0
LINE
  5
48
  8
DETAIL
  6
CONTINUOUS
 62
     5
 10
-62.0
 20
-60.0
 30
0.0
 11
62.0
 21
-60.0
 31
0.0
  0
LINE
  5
49
  8
DETAIL
  6
CONTINUOUS
 62
     5
 10
62.0
 20
60.0
 30
0.0
 11
-62.0
 21
60.0
 31
0.0
  0
LINE
  5
4A
  8
DETAIL
  6
CONTINUOUS
 62
     5
 10
-62.0
 20
57.75
 30
0.0
 11
62.0
 21
57.75
 31
0.0
  0
LINE
  5
4B
  8
DETAIL
  6
CONTINUOUS
 62
     5
 10
38.0
 20
-53.5
 30
0.0
 11
55.75
 21
-53.5
 31
0.0
  0
LINE
  5
4C
  8
DETAIL
  6
CONTINUOUS
 62
     5
 10
38.0
 20
-57.75
 30
0.0
 11
62.0
 21
-57.75
 31
0.0
  0
LINE
  5
4D
  8
DETAIL
  6
CONTINUOUS
 62
     5
 10
37.5
 20
55.5
 30
0.0
 11
46.5
 21
55.5
 31
0.0
  0
LINE
  5
4E
  8
DETAIL
  6
CONTINUOUS
 62
     5
 10
45.0
 20
-56.5
 30
0.0
 11
51.0
 21
-56.5
 31
0.0
  0
LINE
  5
4F
  8
DETAIL
  6
CONTINUOUS
 62
     5
 10
8.6
 20
53.5
 30
0.0
 11
55.75
 21
53.5
 31
0.0
  0
LINE
  5
50
  8
DETAIL
  6
CONTINUOUS
 62
     5
 10
-65.0
 20
57.0
 30
0.0
 11
-65.0
 21
-57.0
 31
0.0
  0
LINE
  5
51
  8
DETAIL
  6
CONTINUOUS
 62
     5
 10
-57.75
 20
51.5
 30
0.0
 11
-57.75
 21
-53.5
 31
0.0
  0
LINE
  5
52
  8
DETAIL
  6
CONTINUOUS
 62
     5
 10
-62.75
 20
57.0
 30
0.0
 11
-62.75
 21
-57.0
 31
0.0
  0
LINE
  5
53
  8
DETAIL
  6
CONTINUOUS
 62
     5
 10
-28.0
 20
-57.75
 30
0.0
 11
-11.540415
 21
-53.863709
 31
0.0
  0
LINE
  5
54
  8
DETAIL
  6
CONTINUOUS
 62
     5
 10
-28.0
 20
-57.75
 30
0.0
 11
28.0
 21
-57.75
 31
0.0
  0
LINE
  5
55
  8
DETAIL
  6
CONTINUOUS
 62
     5
 10
-15.0
 20
-56.5
 30
0.0
 11
-21.0
 21
-56.5
 31
0.0
  0
LINE
  5
56
  8
DETAIL
  6
CONTINUOUS
 62
     5
 10
-57.75
 20
-53.5
 30
0.0
 11
-38.0
 21
-53.5
 31
0.0
  0
LINE
  5
57
  8
DETAIL
  6
CONTINUOUS
 62
     5
 10
-62.0
 20
-57.75
 30
0.0
 11
-38.0
 21
-57.75
 31
0.0
  0
LINE
  5
58
  8
DETAIL
  6
CONTINUOUS
 62
     5
 10
-45.0
 20
-56.5
 30
0.0
 11
-51.0
 21
-56.5
 31
0.0
  0
ARC
  5
59
  8
DETAIL
  6
CONTINUOUS
 62
     5
 10
-62.0
 20
-57.0
 30
0.0
 40
0.75
 50
180.0
 51
270.0
  0
ARC
  5
5A
  8
DETAIL
  6
CONTINUOUS
 62
     5
 10
-62.0
 20
-57.0
 30
0.0
 40
3.0
 50
180.0
 51
270.0
  0
LINE
  5
5B
  8
DETAIL
  6
CONTINUOUS
 62
     5
 10
-51.0
 20
-56.5
 30
0.0
 11
-51.0
 21
-57.75
 31
0.0
  0
LINE
  5
5C
  8
NOTE
  6
CONTINUOUS
 62
     4
 10
-33.412559
 20
-46.95628
 30
0.0
 11
-18.800834
 21
-39.650417
 31
0.0
  0
LINE
  5
5D
  8
NOTE
  6
CONTINUOUS
 62
     4
 10
-21.277419
 20
-45.195161
 30
0.0
 11
-24.814431
 21
-38.121137
 31
0.0
  0
ARC
  5
5E
  8
DETAIL
  6
CONTINUOUS
 62
     5
 10
-23.0
 20
-41.75
 30
0.0
 40
2.25
 50
296.565051
 51
116.565051
  0
LINE
  5
5F
  8
DETAIL
  6
CONTINUOUS
 62
     5
 10
-24.006231
 20
-39.737539
 30
0.0
 11
-30.006231
 21
-42.737539
 31
0.0
  0
ARC
  5
60
  8
DETAIL
  6
CONTINUOUS
 62
     5
 10
-29.0
 20
-44.75
 30
0.0
 40
2.25
 50
116.565051
 51
296.565051
  0
LINE
  5
61
  8
DETAIL
  6
CONTINUOUS
 62
     5
 10
-38.0
 20
-53.5
 30
0.0
 11
-38.0
 21
-57.75
 31
0.0
  0
LINE
  5
62
  8
DETAIL
  6
CONTINUOUS
 62
     5
 10
-45.0
 20
-56.5
 30
0.0
 11
-45.0
 21
-57.75
 31
0.0
  0
LINE
  5
63
  8
DETAIL
  6
CONTINUOUS
 62
     5
 10
-38.0
 20
-57.75
 30
0.0
 11
-38.0
 21
-60.0
 31
0.0
  0
LINE
  5
64
  8
NOTE
  6
CONTINUOUS
 62
     4
 10
-27.277419
 20
-48.195161
 30
0.0
 11
-30.814431
 21
-41.121137
 31
0.0
  0
LINE
  5
65
  8
DETAIL
  6
CONTINUOUS
 62
     5
 10
-28.0
 20
-57.75
 30
0.0
 11
-28.0
 21
-60.0
 31
0.0
  0
LINE
  5
66
  8
DETAIL
  6
CONTINUOUS
 62
     5
 10
-21.993769
 20
-43.762461
 30
0.0
 11
-27.993769
 21
-46.762461
 31
0.0
  0
LINE
  5
67
  8
DETAIL
  6
CONTINUOUS
 62
     5
 10
-21.0
 20
-56.5
 30
0.0
 11
-21.0
 21
-57.75
 31
0.0
  0
LINE
  5
68
  8
DETAIL
  6
CONTINUOUS
 62
     5
 10
28.0
 20
-57.75
 30
0.0
 11
11.540415
 21
-53.863709
 31
0.0
  0
LINE
  5
69
  8
DETAIL
  6
CONTINUOUS
 62
     5
 10
2.25
 20
-39.5
 30
0.0
 11
2.25
 21
-56.25
 31
0.0
  0
LINE
  5
6A
  8
DETAIL
  6
CONTINUOUS
 62
     5
 10
-2.25
 20
-39.5
 30
0.0
 11
-2.25
 21
-56.25
 31
0.0
  0
LINE
  5
6B
  8
DETAIL
  6
CONTINUOUS
 62
     5
 10
2.75
 20
-39.5
 30
0.0
 11
2.75
 21
-56.25
 31
0.0
  0
LINE
  5
6C
  8
DETAIL
  6
CONTINUOUS
 62
     5
 10
-2.75
 20
-39.5
 30
0.0
 11
-2.75
 21
-56.25
 31
0.0
  0
LINE
  5
6D
  8
DETAIL
  6
CONTINUOUS
 62
     5
 10
-2.25
 20
-53.863709
 30
0.0
 11
2.25
 21
-53.863709
 31
0.0
  0
LINE
  5
6E
  8
DETAIL
  6
CONTINUOUS
 62
     5
 10
-15.0
 20
-56.5
 30
0.0
 11
-15.0
 21
-57.75
 31
0.0
  0
LINE
  5
6F
  8
DETAIL
  6
CONTINUOUS
 62
     5
 10
-11.540415
 20
-53.863709
 30
0.0
 11
-2.75
 21
-53.863709
 31
0.0
  0
LINE
  5
70
  8
DETAIL
  6
CONTINUOUS
 62
     5
 10
-2.75
 20
-56.25
 30
0.0
 11
-2.25
 21
-56.25
 31
0.0
  0
LINE
  5
71
  8
DETAIL
  6
CONTINUOUS
 62
     5
 10
2.25
 20
-56.25
 30
0.0
 11
2.75
 21
-56.25
 31
0.0
  0
LINE
  5
72
  8
DETAIL
  6
CONTINUOUS
 62
     5
 10
2.75
 20
-53.863709
 30
0.0
 11
11.540415
 21
-53.863709
 31
0.0
  0
LINE
  5
73
  8
DETAIL
  6
CONTINUOUS
 62
     5
 10
-0.5
 20
-36.795837
 30
0.0
 11
-0.5
 21
-37.306259
 31
0.0
  0
ARC
  5
74
  8
DETAIL
  6
CONTINUOUS
 62
     5
 10
0.0
 20
-39.5
 30
0.0
 40
2.75
 50
100.475682
 51
180.0
  0
ARC
  5
75
  8
DETAIL
  6
CONTINUOUS
 62
     5
 10
0.0
 20
-39.5
 30
0.0
 40
2.25
 50
102.839588
 51
180.0
  0
ARC
  5
76
  8
DETAIL
  6
CONTINUOUS
 62
     5
 10
0.0
 20
-39.5
 30
0.0
 40
2.75
 50
0.0
 51
79.524318
  0
ARC
  5
77
  8
DETAIL
  6
CONTINUOUS
 62
     5
 10
0.0
 20
-39.5
 30
0.0
 40
2.25
 50
0.0
 51
77.160412
  0
LINE
  5
78
  8
DETAIL
  6
CONTINUOUS
 62
     5
 10
0.5
 20
-36.795837
 30
0.0
 11
0.5
 21
-37.306259
 31
0.0
  0
LINE
  5
79
  8
NOTE
  6
CONTINUOUS
 62
     4
 10
18.582064
 20
-39.541032
 30
0.0
 11
33.19379
 21
-46.846895
 31
0.0
  0
LINE
  5
7A
  8
NOTE
  6
CONTINUOUS
 62
     4
 10
21.277419
 20
-45.195161
 30
0.0
 11
24.814431
 21
-38.121137
 31
0.0
  0
ARC
  5
7B
  8
DETAIL
  6
CONTINUOUS
 62
     5
 10
23.0
 20
-41.75
 30
0.0
 40
2.25
 50
63.434949
 51
243.434949
  0
LINE
  5
7C
  8
DETAIL
  6
CONTINUOUS
 62
     5
 10
24.006231
 20
-39.737539
 30
0.0
 11
30.006231
 21
-42.737539
 31
0.0
  0
LINE
  5
7D
  8
NOTE
  6
CONTINUOUS
 62
     4
 10
27.277419
 20
-48.195161
 30
0.0
 11
30.814431
 21
-41.121137
 31
0.0
  0
ARC
  5
7E
  8
DETAIL
  6
CONTINUOUS
 62
     5
 10
29.0
 20
-44.75
 30
0.0
 40
2.25
 50
243.434949
 51
63.434949
  0
LINE
  5
7F
  8
DETAIL
  6
CONTINUOUS
 62
     5
 10
28.0
 20
-57.75
 30
0.0
 11
28.0
 21
-60.0
 31
0.0
  0
LINE
  5
80
  8
DETAIL
  6
CONTINUOUS
 62
     5
 10
21.993769
 20
-43.762461
 30
0.0
 11
27.993769
 21
-46.762461
 31
0.0
  0
LINE
  5
81
  8
DETAIL
  6
CONTINUOUS
 62
     5
 10
21.0
 20
-56.5
 30
0.0
 11
21.0
 21
-57.75
 31
0.0
  0
LINE
  5
82
  8
DETAIL
  6
CONTINUOUS
 62
     5
 10
15.0
 20
-56.5
 30
0.0
 11
15.0
 21
-57.75
 31
0.0
  0
LINE
  5
83
  8
DETAIL
  6
CONTINUOUS
 62
     5
 10
15.0
 20
-56.5
 30
0.0
 11
21.0
 21
-56.5
 31
0.0
  0
LINE
  5
84
  8
DETAIL
  6
CONTINUOUS
 62
     5
 10
38.0
 20
-53.5
 30
0.0
 11
38.0
 21
-57.75
 31
0.0
  0
LINE
  5
85
  8
DETAIL
  6
CONTINUOUS
 62
     5
 10
45.0
 20
-56.5
 30
0.0
 11
45.0
 21
-57.75
 31
0.0
  0
LINE
  5
86
  8
DETAIL
  6
CONTINUOUS
 62
     5
 10
38.0
 20
-57.75
 30
0.0
 11
38.0
 21
-60.0
 31
0.0
  0
LINE
  5
87
  8
DETAIL
  6
CONTINUOUS
 62
     5
 10
-3.0
 20
53.5
 30
0.0
 11
-55.75
 21
53.5
 31
0.0
  0
LINE
  5
88
  8
DETAIL
  6
CONTINUOUS
 62
     5
 10
-37.5
 20
55.5
 30
0.0
 11
-46.5
 21
55.5
 31
0.0
  0
ARC
  5
89
  8
DETAIL
  6
CONTINUOUS
 62
     5
 10
-62.0
 20
57.0
 30
0.0
 40
0.75
 50
90.0
 51
180.0
  0
ARC
  5
8A
  8
DETAIL
  6
CONTINUOUS
 62
     5
 10
-62.0
 20
57.0
 30
0.0
 40
3.0
 50
90.0
 51
180.0
  0
LINE
  5
8B
  8
DETAIL
  6
CONTINUOUS
 62
     5
 10
-46.5
 20
57.75
 30
0.0
 11
-46.5
 21
55.5
 31
0.0
  0
ARC
  5
8C
  8
DETAIL
  6
CONTINUOUS
 62
     5
 10
-55.75
 20
51.5
 30
0.0
 40
2.0
 50
90.0
 51
180.0
  0
LINE
  5
8D
  8
DETAIL
  6
CONTINUOUS
 62
     5
 10
-37.5
 20
57.75
 30
0.0
 11
-37.5
 21
55.5
 31
0.0
  0
LINE
  5
8E
  8
DETAIL
  6
CONTINUOUS
 62
     5
 10
-3.0
 20
57.75
 30
0.0
 11
-3.0
 21
35.75
 31
0.0
  0
LINE
  5
8F
  8
DETAIL
  6
CONTINUOUS
 62
     5
 10
8.6
 20
57.75
 30
0.0
 11
8.6
 21
35.75
 31
0.0
  0
LINE
  5
90
  8
DETAIL
  6
CONTINUOUS
 62
     5
 10
-3.0
 20
35.75
 30
0.0
 11
8.6
 21
35.75
 31
0.0
  0
LINE
  5
91
  8
DETAIL
  6
CONTINUOUS
 62
     5
 10
-3.0
 20
39.25
 30
0.0
 11
8.6
 21
39.25
 31
0.0
  0
LINE
  5
92
  8
NOTE
  6
CONTINUOUS
 62
     4
 10
18.582064
 20
39.541032
 30
0.0
 11
33.19379
 21
46.846895
 31
0.0
  0
LINE
  5
93
  8
NOTE
  6
CONTINUOUS
 62
     4
 10
27.277419
 20
48.195161
 30
0.0
 11
30.814431
 21
41.121137
 31
0.0
  0
ARC
  5
94
  8
DETAIL
  6
CONTINUOUS
 62
     5
 10
29.0
 20
44.75
 30
0.0
 40
2.25
 50
296.565051
 51
116.565051
  0
LINE
  5
95
  8
NOTE
  6
CONTINUOUS
 62
     4
 10
21.277419
 20
45.195161
 30
0.0
 11
24.814431
 21
38.121137
 31
0.0
  0
ARC
  5
96
  8
DETAIL
  6
CONTINUOUS
 62
     5
 10
23.0
 20
41.75
 30
0.0
 40
2.25
 50
116.565051
 51
296.565051
  0
LINE
  5
97
  8
DETAIL
  6
CONTINUOUS
 62
     5
 10
21.993769
 20
43.762461
 30
0.0
 11
27.993769
 21
46.762461
 31
0.0
  0
LINE
  5
98
  8
DETAIL
  6
CONTINUOUS
 62
     5
 10
24.006231
 20
39.737539
 30
0.0
 11
30.006231
 21
42.737539
 31
0.0
  0
LINE
  5
99
  8
DETAIL
  6
CONTINUOUS
 62
     5
 10
-3.0
 20
50.55
 30
0.0
 11
8.6
 21
50.55
 31
0.0
  0
LINE
  5
9A
  8
DETAIL
  6
CONTINUOUS
 62
     5
 10
8.6
 20
55.75
 30
0.0
 11
-3.0
 21
52.55
 31
0.0
  0
LINE
  5
9B
  8
DETAIL
  6
CONTINUOUS
 62
     5
 10
37.5
 20
57.75
 30
0.0
 11
37.5
 21
55.5
 31
0.0
  0
LINE
  5
9C
  8
DETAIL
  6
CONTINUOUS
 62
     5
 10
65.0
 20
-57.0
 30
0.0
 11
65.0
 21
57.0
 31
0.0
  0
LINE
  5
9D
  8
DETAIL
  6
CONTINUOUS
 62
     5
 10
57.75
 20
51.5
 30
0.0
 11
57.75
 21
-51.5
 31
0.0
  0
LINE
  5
9E
  8
DETAIL
  6
CONTINUOUS
 62
     5
 10
62.75
 20
57.0
 30
0.0
 11
62.75
 21
-57.0
 31
0.0
  0
LINE
  5
9F
  8
DETAIL
  6
CONTINUOUS
 62
     5
 10
51.0
 20
-56.5
 30
0.0
 11
51.0
 21
-57.75
 31
0.0
  0
ARC
  5
A0
  8
DETAIL
  6
CONTINUOUS
 62
     5
 10
55.75
 20
-51.5
 30
0.0
 40
2.0
 50
270.0
 51
0.0
  0
ARC
  5
A1
  8
DETAIL
  6
CONTINUOUS
 62
     5
 10
62.0
 20
-57.0
 30
0.0
 40
0.75
 50
270.0
 51
0.0
  0
ARC
  5
A2
  8
DETAIL
  6
CONTINUOUS
 62
     5
 10
62.0
 20
-57.0
 30
0.0
 40
3.0
 50
270.0
 51
0.0
  0
LINE
  5
A3
  8
DETAIL
  6
CONTINUOUS
 62
     5
 10
46.5
 20
57.75
 30
0.0
 11
46.5
 21
55.5
 31
0.0
  0
ARC
  5
A4
  8
DETAIL
  6
CONTINUOUS
 62
     5
 10
55.75
 20
51.5
 30
0.0
 40
2.0
 50
0.0
 51
90.0
  0
ARC
  5
A5
  8
DETAIL
  6
CONTINUOUS
 62
     5
 10
62.0
 20
57.0
 30
0.0
 40
0.75
 50
0.0
 51
90.0
  0
ARC
  5
A6
  8
DETAIL
  6
CONTINUOUS
 62
     5
 10
62.0
 20
57.0
 30
0.0
 40
3.0
 50
0.0
 51
90.0
  0
LINE
  5
A7
  8
SIZE
  6
CONTINUOUS
 62
    30
 10
28.0
 20
41.75
 30
0.0
 11
134.245271
 21
41.75
 31
0.0
  0
LINE
  5
A8
  8
SIZE
  6
CONTINUOUS
 62
    30
 10
28.0
 20
-41.75
 30
0.0
 11
134.245271
 21
-41.75
 31
0.0
  0
LINE
  5
A9
  8
SIZE
  6
CONTINUOUS
 62
    30
 10
119.245271
 20
36.75
 30
0.0
 11
119.245271
 21
-36.75
 31
0.0
  0
CIRCLE
  5
AA
  8
SIZE
  6
CONTINUOUS
 62
    30
 10
119.245271
 20
41.75
 30
0.0
 40
2.5
  0
LINE
  5
AB
  8
SIZE
  6
CONTINUOUS
 62
    30
 10
119.245271
 20
39.25
 30
0.0
 11
119.245271
 21
36.75
 31
0.0
  0
CIRCLE
  5
AC
  8
SIZE
  6
CONTINUOUS
 62
    30
 10
119.245271
 20
-41.75
 30
0.0
 40
2.5
  0
LINE
  5
AD
  8
SIZE
  6
CONTINUOUS
 62
    30
 10
119.245271
 20
-39.25
 30
0.0
 11
119.245271
 21
-36.75
 31
0.0
  0
TEXT
  5
AE
  8
SIZE
  6
CONTINUOUS
 62
    30
 10
114.245271
 20
-34.285714
 30
0.0
 40
25.0
  1
83.5
 50
90.0
 41
0.9
 72
     1
 11
114.245271
 21
0.0
 31
0.0
  0
POINT
  5
AF
  8
DEFPOINTS
  6
CONTINUOUS
 62
     7
 10
23.0
 20
41.75
 30
0.0
  0
POINT
  5
B0
  8
DEFPOINTS
  6
CONTINUOUS
 62
     7
 10
23.0
 20
-41.75
 30
0.0
  0
LINE
  5
B2
  8
SIZE
  6
CONTINUOUS
 62
    30
 10
67.000001
 20
60.000656
 30
0.0
 11
188.8857
 21
60.000656
 31
0.0
  0
LINE
  5
B3
  8
SIZE
  6
CONTINUOUS
 62
    30
 10
67.0
 20
-59.999344
 30
0.0
 11
188.8857
 21
-59.999344
 31
0.0
  0
LINE
  5
B4
  8
SIZE
  6
CONTINUOUS
 62
    30
 10
173.8857
 20
55.000656
 30
0.0
 11
173.8857
 21
-54.999344
 31
0.0
  0
CIRCLE
  5
B5
  8
SIZE
  6
CONTINUOUS
 62
    30
 10
173.8857
 20
60.000656
 30
0.0
 40
2.5
  0
LINE
  5
B6
  8
SIZE
  6
CONTINUOUS
 62
    30
 10
173.8857
 20
57.500656
 30
0.0
 11
173.8857
 21
55.000656
 31
0.0
  0
CIRCLE
  5
B7
  8
SIZE
  6
CONTINUOUS
 62
    30
 10
173.8857
 20
-59.999344
 30
0.0
 40
2.5
  0
LINE
  5
B8
  8
SIZE
  6
CONTINUOUS
 62
    30
 10
173.8857
 20
-57.499344
 30
0.0
 11
173.8857
 21
-54.999344
 31
0.0
  0
TEXT
  5
B9
  8
SIZE
  6
CONTINUOUS
 62
    30
 10
168.8857
 20
-26.785058
 30
0.0
 40
25.0
  1
120
 50
90.0
 41
0.9
 72
     1
 11
168.8857
 21
0.000656
 31
0.0
  0
POINT
  5
BA
  8
DEFPOINTS
  6
CONTINUOUS
 62
     7
 10
62.000001
 20
60.000656
 30
0.0
  0
POINT
  5
BB
  8
DEFPOINTS
  6
CONTINUOUS
 62
     7
 10
62.0
 20
-59.999344
 30
0.0
  0
LINE
  5
BD
  8
SIZE
  6
CONTINUOUS
 62
    30
 10
-23.0
 20
-46.75
 30
0.0
 11
-23.0
 21
-131.106615
 31
0.0
  0
LINE
  5
BE
  8
SIZE
  6
CONTINUOUS
 62
    30
 10
23.0
 20
-46.75
 30
0.0
 11
23.0
 21
-131.106615
 31
0.0
  0
LINE
  5
BF
  8
SIZE
  6
CONTINUOUS
 62
    30
 10
-18.0
 20
-116.106615
 30
0.0
 11
18.0
 21
-116.106615
 31
0.0
  0
CIRCLE
  5
C0
  8
SIZE
  6
CONTINUOUS
 62
    30
 10
-23.0
 20
-116.106615
 30
0.0
 40
2.5
  0
LINE
  5
C1
  8
SIZE
  6
CONTINUOUS
 62
    30
 10
-20.5
 20
-116.106615
 30
0.0
 11
-18.0
 21
-116.106615
 31
0.0
  0
CIRCLE
  5
C2
  8
SIZE
  6
CONTINUOUS
 62
    30
 10
23.0
 20
-116.106615
 30
0.0
 40
2.5
  0
LINE
  5
C3
  8
SIZE
  6
CONTINUOUS
 62
    30
 10
20.5
 20
-116.106615
 30
0.0
 11
18.0
 21
-116.106615
 31
0.0
  0
TEXT
  5
C4
  8
SIZE
  6
CONTINUOUS
 62
    30
 10
-17.678571
 20
-111.106615
 30
0.0
 40
25.0
  1
46
 41
0.9
 72
     1
 11
0.0
 21
-111.106615
 31
0.0
  0
POINT
  5
C5
  8
DEFPOINTS
  6
CONTINUOUS
 62
     7
 10
-23.0
 20
-41.75
 30
0.0
  0
POINT
  5
C6
  8
DEFPOINTS
  6
CONTINUOUS
 62
     7
 10
23.0
 20
-41.75
 30
0.0
  0
LINE
  5
C8
  8
SIZE
  6
CONTINUOUS
 62
    30
 10
-65.0
 20
-62.0
 30
0.0
 11
-65.0
 21
-190.92673
 31
0.0
  0
LINE
  5
C9
  8
SIZE
  6
CONTINUOUS
 62
    30
 10
65.0
 20
-62.0
 30
0.0
 11
65.0
 21
-190.92673
 31
0.0
  0
LINE
  5
CA
  8
SIZE
  6
CONTINUOUS
 62
    30
 10
-60.0
 20
-175.92673
 30
0.0
 11
60.0
 21
-175.92673
 31
0.0
  0
CIRCLE
  5
CB
  8
SIZE
  6
CONTINUOUS
 62
    30
 10
-65.0
 20
-175.92673
 30
0.0
 40
2.5
  0
LINE
  5
CC
  8
SIZE
  6
CONTINUOUS
 62
    30
 10
-62.5
 20
-175.92673
 30
0.0
 11
-60.0
 21
-175.92673
 31
0.0
  0
CIRCLE
  5
CD
  8
SIZE
  6
CONTINUOUS
 62
    30
 10
65.0
 20
-175.92673
 30
0.0
 40
2.5
  0
LINE
  5
CE
  8
SIZE
  6
CONTINUOUS
 62
    30
 10
62.5
 20
-175.92673
 30
0.0
 11
60.0
 21
-175.92673
 31
0.0
  0
TEXT
  5
CF
  8
SIZE
  6
CONTINUOUS
 62
    30
 10
-26.785714
 20
-170.92673
 30
0.0
 40
25.0
  1
130
 41
0.9
 72
     1
 11
0.0
 21
-170.92673
 31
0.0
  0
POINT
  5
D0
  8
DEFPOINTS
  6
CONTINUOUS
 62
     7
 10
-65.0
 20
-57.0
 30
0.0
  0
POINT
  5
D1
  8
DEFPOINTS
  6
CONTINUOUS
 62
     7
 10
65.0
 20
-57.0
 30
0.0
  0
CIRCLE
  5
D3
  8
FIX
  6
CONTINUOUS
 62
    11
 10
23.0
 20
41.75
 30
0.0
 40
3.271139
  0
CIRCLE
  5
D4
  8
FIX
  6
CONTINUOUS
 62
    11
 10
23.0
 20
-41.75
 30
0.0
 40
3.271139
  0
CIRCLE
  5
D5
  8
FIX
  6
CONTINUOUS
 62
    11
 10
-23.0
 20
-41.75
 30
0.0
 40
3.271139
  0
ENDSEC
  0
EOF
